0
SECTION
2
HEADER
9
$INSUNITS
70
1
9
$ACADVER
1
AC1014
9
$HANDSEED
5
FFFF
0
ENDSEC
0
SECTION
2
TABLES
0
TABLE
2
VPORT
5
8
100
AcDbSymbolTable
0
ENDTAB
0
TABLE
2
LTYPE
5
5
100
AcDbSymbolTable
0
LTYPE
5
14
100
AcDbSymbolTableRecord
100
AcDbLinetypeTableRecord
2
BYBLOCK
70
0
0
LTYPE
5
15
100
AcDbSymbolTableRecord
100
AcDbLinetypeTableRecord
2
BYLAYER
70
0
0
ENDTAB
0
TABLE
2
LAYER
5
2
100
AcDbSymbolTable
70
2
0
LAYER
5
50
100
AcDbSymbolTableRecord
100
AcDbLayerTableRecord
2
0
70
0
6
CONTINUOUS
0
ENDTAB
0
TABLE
2
STYLE
5
3
100
AcDbSymbolTable
70
1
0
STYLE
5
11
100
AcDbSymbolTableRecord
100
AcDbTextStyleTableRecord
2
STANDARD
70
0
0
ENDTAB
0
TABLE
2
VIEW
5
6
100
AcDbSymbolTable
70
0
0
ENDTAB
0
TABLE
2
UCS
5
7
100
AcDbSymbolTable
70
0
0
ENDTAB
0
TABLE
2
APPID
5
9
100
AcDbSymbolTable
70
2
0
APPID
5
12
100
AcDbSymbolTableRecord
100
AcDbRegAppTableRecord
2
ACAD
70
0
0
ENDTAB
0
TABLE
2
DIMSTYLE
5
A
100
AcDbSymbolTable
70
1
0
ENDTAB
0
TABLE
2
BLOCK_RECORD
5
1
100
AcDbSymbolTable
70
1
0
BLOCK_RECORD
5
1F
100
AcDbSymbolTableRecord
100
AcDbBlockTableRecord
2
*MODEL_SPACE
0
BLOCK_RECORD
5
1B
100
AcDbSymbolTableRecord
100
AcDbBlockTableRecord
2
*PAPER_SPACE
0
ENDTAB
0
ENDSEC
0
SECTION
2
BLOCKS
0
BLOCK
5
20
100
AcDbEntity
100
AcDbBlockBegin
2
*MODEL_SPACE
0
ENDBLK
5
21
100
AcDbEntity
100
AcDbBlockEnd
0
BLOCK
5
1C
100
AcDbEntity
100
AcDbBlockBegin
2
*PAPER_SPACE
0
ENDBLK
5
1D
100
AcDbEntity
100
AcDbBlockEnd
0
ENDSEC
0
SECTION
2
ENTITIES
0
SPLINE
5
100
100
AcDbEntity
8
0
100
AcDbSpline
70
4
71
5
72
66
73
60
74
0
42
0.000000001
43
0.0000000001
44
0.0000000001
40
0.001914196895536763
40
0.001914196895536763
40
0.001914196895536763
40
0.001914196895536763
40
0.001914196895536763
40
0.001914196895536763
40
0.018181818181818181
40
0.036363636363636362
40
0.054545454545454543
40
0.072727272727272724
40
0.090909090909090912
40
0.1090909090909091
40
0.12727272727272729
40
0.14545454545454548
40
0.16363636363636366
40
0.18181818181818185
40
0.20000000000000004
40
0.21818181818181823
40
0.23636363636363641
40
0.25454545454545457
40
0.27272727272727276
40
0.29090909090909095
40
0.30909090909090914
40
0.32727272727272733
40
0.34545454545454551
40
0.3636363636363637
40
0.38181818181818189
40
0.40000000000000008
40
0.41818181818181827
40
0.43636363636363645
40
0.45454545454545464
40
0.47272727272727283
40
0.49090909090909102
40
0.50909090909090915
40
0.52727272727272734
40
0.54545454545454553
40
0.56363636363636371
40
0.5818181818181819
40
0.60000000000000009
40
0.61818181818181828
40
0.63636363636363646
40
0.65454545454545465
40
0.67272727272727284
40
0.69090909090909103
40
0.70909090909090922
40
0.7272727272727274
40
0.74545454545454559
40
0.76363636363636378
40
0.78181818181818197
40
0.80000000000000016
40
0.81818181818181834
40
0.83636363636363653
40
0.85454545454545472
40
0.87272727272727291
40
0.89090909090909109
40
0.90909090909090928
40
0.92727272727272747
40
0.94545454545454566
40
0.96363636363636385
40
0.98181818181818203
40
1
40
1
40
1
40
1
40
1
40
1
41
1
41
1
41
1
41
1
41
1
41
1
41
1
41
1
41
1
41
1
41
1
41
1
41
1
41
1
41
1
41
1
41
1
41
1
41
1
41
1
41
1
41
1
41
1
41
1
41
1
41
1
41
1
41
1
41
1
41
1
41
1
41
1
41
1
41
1
41
1
41
1
41
1
41
1
41
1
41
1
41
1
41
1
41
1
41
1
41
1
41
1
41
1
41
1
41
1
41
1
41
1
41
1
41
1
41
1
41
1
41
1
41
1
41
1
41
1
41
1
10
-15.899999999999995
20
-26.984367002270169
30
0
10
-15.732465085951953
20
-26.957769113607629
30
0
10
-15.399575740788828
20
-26.90120150931601
30
0
10
-14.961801888125649
20
-26.813953334538731
30
0
10
-14.517697806117718
20
-26.693851180787636
30
0
10
-14.197284691304484
20
-26.531101582292962
30
0
10
-14.10117525504635
20
-26.338260873014196
30
0
10
-14.204583026320936
20
-26.098996063630555
30
0
10
-14.457662908485522
20
-25.784442460571267
30
0
10
-14.792763971539811
20
-25.365792777837182
30
0
10
-15.134327658627782
20
-24.831838774828633
30
0
10
-15.403841719177239
20
-24.217224614639207
30
0
10
-15.532426911772996
20
-23.599255083801946
30
0
10
-15.457112518761777
20
-23.171164948130485
30
0
10
-15.157017329168601
20
-23.124971098985629
30
0
10
-14.688376099601276
20
-23.409113391183801
30
0
10
-14.136008289981037
20
-23.898758421770587
30
0
10
-13.591703907161296
20
-24.432241286797769
30
0
10
-13.123350035137154
20
-24.897909523142914
30
0
10
-12.778036032806011
20
-25.218162323258014
30
0
10
-12.580891450992164
20
-25.349219310671291
30
0
10
-12.535965543930867
20
-25.274443159710241
30
0
10
-12.625321565458666
20
-25.000543461208991
30
0
10
-12.81171148291306
20
-24.552443835386029
30
0
10
-13.048529847164254
20
-23.968258930761433
30
0
10
-13.28797644932728
20
-23.294212675897395
30
0
10
-13.490554919659488
20
-22.579507068678812
30
0
10
-13.632556360300459
20
-21.87146445069428
30
0
10
-13.718042887020045
20
-21.209957067666327
30
0
10
-13.774441233176438
20
-20.624557311665868
30
0
10
-13.833629025137139
20
-20.134261569945014
30
0
10
-13.916263292010919
20
-19.746382028856868
30
0
10
-14.016486412592352
20
-19.455961179318233
30
0
10
-14.082366340385418
20
-19.244439329538807
30
0
10
-14.009746069436188
20
-19.080025314379508
30
0
10
-13.7781448267935
20
-18.934878055692035
30
0
10
-13.577627872923788
20
-18.801369734403345
30
0
10
-13.607635428216307
20
-18.669937445152762
30
0
10
-13.808661291115444
20
-18.499813513831985
30
0
10
-13.954180587931015
20
-18.236005440827263
30
0
10
-14.019171246014261
20
-17.877857518974977
30
0
10
-14.018662126414526
20
-17.423867413033346
30
0
10
-13.95703612633643
20
-16.86414890452847
30
0
10
-13.848358963809703
20
-16.188317910062814
30
0
10
-13.705573492287654
20
-15.386391039990732
30
0
10
-13.543088671432367
20
-14.452830142306336
30
0
10
-13.37370146064857
20
-13.388955936479833
30
0
10
-13.207713892972153
20
-12.206782039333095
30
0
10
-13.052009316758392
20
-10.929647487312977
30
0
10
-12.910866825144407
20
-9.5892880689296156
30
0
10
-12.786245983744754
20
-8.2238161821840912
30
0
10
-12.678285873292113
20
-6.8753499180499293
30
0
10
-12.585707336487099
20
-5.5878037960877371
30
0
10
-12.506253015071119
20
-4.4046155303309176
30
0
10
-12.437108245259639
20
-3.3664998793110654
30
0
10
-12.375328349222274
20
-2.5091843407689471
30
0
10
-12.329675554264774
20
-1.9907489568524379
30
0
10
-12.296687913394619
20
-1.7046127706561913
30
0
10
-12.275147694930915
20
-1.5604401199714166
30
0
10
-12.264490471062697
20
-1.5
30
0
0
LINE
5
101
100
AcDbEntity
8
0
100
AcDbLine
10
-12.264490471062699
20
-1.5000000000000002
30
0
11
-12
21
0
31
0
0
LINE
5
102
100
AcDbEntity
8
0
100
AcDbLine
10
-12
20
0
30
0
11
-19.999999999999996
21
0
31
0
0
LINE
5
103
100
AcDbEntity
8
0
100
AcDbLine
10
-19.999999999999996
20
0
30
0
11
-19.735509528937303
21
-1.5000000000000007
31
0
0
SPLINE
5
104
100
AcDbEntity
8
0
100
AcDbSpline
70
4
71
5
72
66
73
60
74
0
42
0.000000001
43
0.0000000001
44
0.0000000001
40
-1
40
-1
40
-1
40
-1
40
-1
40
-1
40
-0.98181818181818203
40
-0.96363636363636385
40
-0.94545454545454566
40
-0.92727272727272747
40
-0.90909090909090928
40
-0.89090909090909109
40
-0.87272727272727291
40
-0.85454545454545472
40
-0.83636363636363653
40
-0.81818181818181834
40
-0.80000000000000016
40
-0.78181818181818197
40
-0.76363636363636378
40
-0.74545454545454559
40
-0.7272727272727274
40
-0.70909090909090922
40
-0.69090909090909103
40
-0.67272727272727284
40
-0.65454545454545465
40
-0.63636363636363646
40
-0.61818181818181828
40
-0.60000000000000009
40
-0.5818181818181819
40
-0.56363636363636371
40
-0.54545454545454553
40
-0.52727272727272734
40
-0.50909090909090915
40
-0.49090909090909102
40
-0.47272727272727283
40
-0.45454545454545464
40
-0.43636363636363645
40
-0.41818181818181827
40
-0.40000000000000008
40
-0.38181818181818189
40
-0.3636363636363637
40
-0.34545454545454551
40
-0.32727272727272733
40
-0.30909090909090914
40
-0.29090909090909095
40
-0.27272727272727276
40
-0.25454545454545457
40
-0.23636363636363641
40
-0.21818181818181823
40
-0.20000000000000004
40
-0.18181818181818185
40
-0.16363636363636366
40
-0.14545454545454548
40
-0.12727272727272729
40
-0.1090909090909091
40
-0.090909090909090912
40
-0.072727272727272724
40
-0.054545454545454543
40
-0.036363636363636362
40
-0.018181818181818181
40
-0.001914196897525986
40
-0.001914196897525986
40
-0.001914196897525986
40
-0.001914196897525986
40
-0.001914196897525986
40
-0.001914196897525986
41
1
41
1
41
1
41
1
41
1
41
1
41
1
41
1
41
1
41
1
41
1
41
1
41
1
41
1
41
1
41
1
41
1
41
1
41
1
41
1
41
1
41
1
41
1
41
1
41
1
41
1
41
1
41
1
41
1
41
1
41
1
41
1
41
1
41
1
41
1
41
1
41
1
41
1
41
1
41
1
41
1
41
1
41
1
41
1
41
1
41
1
41
1
41
1
41
1
41
1
41
1
41
1
41
1
41
1
41
1
41
1
41
1
41
1
41
1
41
1
10
-19.735509528937303
20
-1.5
30
0
10
-19.724852305069088
20
-1.5604401199714166
30
0
10
-19.70331208662612
20
-1.704612770656206
30
0
10
-19.670324445849246
20
-1.9907489568525198
30
0
10
-19.624671651132022
20
-2.5091843407691941
30
0
10
-19.562891755534928
20
-3.3664998793115823
30
0
10
-19.493746986228381
20
-4.4046155303317303
30
0
10
-19.414292665295154
20
-5.5878037960888101
30
0
10
-19.321714128862542
20
-6.8753499180511612
30
0
10
-19.213754018592173
20
-8.2238161821853275
30
0
10
-19.089133177123617
20
-9.5892880689306832
30
0
10
-18.947990685157293
20
-10.929647487313758
30
0
10
-18.792286108313913
20
-12.206782039333541
30
0
10
-18.626298539786536
20
-13.388955936479938
30
0
10
-18.456911328043663
20
-14.45283014230618
30
0
10
-18.294426506309016
20
-15.38639103999043
30
0
10
-18.151641034220177
20
-16.188317910062498
30
0
10
-18.042963871608755
20
-16.864148904528236
30
0
10
-17.98133787201013
20
-17.423867413033229
30
0
10
-17.980828753254812
20
-17.877857518974949
30
0
10
-18.045819412255931
20
-18.236005440827277
30
0
10
-18.191338708983785
20
-18.49981351383197
30
0
10
-18.39236457023549
20
-18.669937445152751
30
0
10
-18.422372127203477
20
-18.801369734403348
30
0
10
-18.221855177197856
20
-18.934878055692018
30
0
10
-17.990253932050525
20
-19.080025314379487
30
0
10
-17.91763365128504
20
-19.244439329538871
30
0
10
-17.983513579606676
20
-19.455961179318276
30
0
10
-18.083736726987201
20
-19.74638202885675
30
0
10
-18.166371038947585
20
-20.134261569944698
30
0
10
-18.225558870780848
20
-20.624557311665466
30
0
10
-18.281957223648458
20
-21.209957067665972
30
0
10
-18.367443702268712
20
-21.871464450694099
30
0
10
-18.509445034060573
20
-22.579507068678943
30
0
10
-18.712023358213326
20
-23.294212675897889
30
0
10
-18.951469827427761
20
-23.968258930762147
30
0
10
-19.188288129625349
20
-24.552443835386715
30
0
10
-19.374678106054823
20
-25.000543461209457
30
0
10
-19.464034331923845
20
-25.274443159710358
30
0
10
-19.419108759644175
20
-25.349219310671042
30
0
10
-19.221964564903892
20
-25.218162323257559
30
0
10
-18.876650884874621
20
-24.897909523142484
30
0
10
-18.408297158959595
20
-24.432241286797566
30
0
10
-17.863992681614352
20
-23.898758421770594
30
0
10
-17.311624554992903
20
-23.409113391183933
30
0
10
-16.842982942543649
20
-23.124971098985707
30
0
10
-16.542887481686662
20
-23.171164948130492
30
0
10
-16.467573060774711
20
-23.599255083801921
30
0
10
-16.596158341803054
20
-24.217224614639242
30
0
10
-16.86567246433156
20
-24.831838774828714
30
0
10
-17.207236157715261
20
-25.365792777837274
30
0
10
-17.542337173338659
20
-25.78444246057137
30
0
10
-17.795416989760902
20
-26.098996063630569
30
0
10
-17.898824713929613
20
-26.338260873014146
30
0
10
-17.802715265680732
20
-26.531101582292877
30
0
10
-17.482302165213341
20
-26.693851180783941
30
0
10
-17.038198100775503
20
-26.81395333453197
30
0
10
-16.600424256515335
20
-26.901201509306119
30
0
10
-16.267534913674673
20
-26.957769113594576
30
0
10
-16.100000000000005
20
-26.984367002253922
30
0
0
LINE
5
105
100
AcDbEntity
8
0
100
AcDbLine
10
-16.100000000000005
20
-26.984367002253922
30
0
11
-16.100000000000001
21
-13.499999999999998
31
0
0
LINE
5
106
100
AcDbEntity
8
0
100
AcDbLine
10
-16.100000000000001
20
-13.499999999999998
30
0
11
-15.9
21
-13.499999999999998
31
0
0
LINE
5
107
100
AcDbEntity
8
0
100
AcDbLine
10
-15.9
20
-13.499999999999998
30
0
11
-15.899999999999995
21
-26.984367002270169
31
0
0
LWPOLYLINE
5
108
100
AcDbEntity
8
0
100
AcDbPolyline
90
4
70
1
43
0.0
10
-4.4000001276571918
20
-26.50000084253746
10
-4.4000001276571918
20
-26.300000842537468
10
-3.6000001276571916
20
-26.300000842537468
10
-3.6000001276571916
20
-26.50000084253746
0
SPLINE
5
109
100
AcDbEntity
8
0
100
AcDbSpline
70
4
71
5
72
12
73
6
74
0
42
0.000000001
43
0.0000000001
44
0.0000000001
40
0
40
0
40
0
40
0
40
0
40
0
40
0.0019141968962825943
40
0.0019141968962825943
40
0.0019141968962825943
40
0.0019141968962825943
40
0.0019141968962825943
40
0.0019141968962825943
41
1
41
1
41
1
41
1
41
1
41
1
10
-3.9999999999999996
20
-26.999999999999996
30
0
10
-3.9797136822515453
20
-26.996876542177993
30
0
10
-3.9595705246932273
20
-26.993751515427967
30
0
10
-3.939570527582446
20
-26.990624920496401
30
0
10
-3.919713688104288
20
-26.987496752768447
30
0
10
-3.9000000000000008
20
-26.984367002264083
30
0
0
SPLINE
5
110
100
AcDbEntity
8
0
100
AcDbSpline
70
4
71
5
72
66
73
60
74
0
42
0.000000001
43
0.0000000001
44
0.0000000001
40
0.0019141968962826355
40
0.0019141968962826355
40
0.0019141968962826355
40
0.0019141968962826355
40
0.0019141968962826355
40
0.0019141968962826355
40
0.018181818181818181
40
0.036363636363636362
40
0.054545454545454543
40
0.072727272727272724
40
0.090909090909090912
40
0.1090909090909091
40
0.12727272727272729
40
0.14545454545454548
40
0.16363636363636366
40
0.18181818181818185
40
0.20000000000000004
40
0.21818181818181823
40
0.23636363636363641
40
0.25454545454545457
40
0.27272727272727276
40
0.29090909090909095
40
0.30909090909090914
40
0.32727272727272733
40
0.34545454545454551
40
0.3636363636363637
40
0.38181818181818189
40
0.40000000000000008
40
0.41818181818181827
40
0.43636363636363645
40
0.45454545454545464
40
0.47272727272727283
40
0.49090909090909102
40
0.50909090909090915
40
0.52727272727272734
40
0.54545454545454553
40
0.56363636363636371
40
0.5818181818181819
40
0.60000000000000009
40
0.61818181818181828
40
0.63636363636363646
40
0.65454545454545465
40
0.67272727272727284
40
0.69090909090909103
40
0.70909090909090922
40
0.7272727272727274
40
0.74545454545454559
40
0.76363636363636378
40
0.78181818181818197
40
0.80000000000000016
40
0.81818181818181834
40
0.83636363636363653
40
0.85454545454545472
40
0.87272727272727291
40
0.89090909090909109
40
0.90909090909090928
40
0.92727272727272747
40
0.94545454545454566
40
0.96363636363636385
40
0.98181818181818203
40
1
40
1
40
1
40
1
40
1
40
1
41
1
41
1
41
1
41
1
41
1
41
1
41
1
41
1
41
1
41
1
41
1
41
1
41
1
41
1
41
1
41
1
41
1
41
1
41
1
41
1
41
1
41
1
41
1
41
1
41
1
41
1
41
1
41
1
41
1
41
1
41
1
41
1
41
1
41
1
41
1
41
1
41
1
41
1
41
1
41
1
41
1
41
1
41
1
41
1
41
1
41
1
41
1
41
1
41
1
41
1
41
1
41
1
41
1
41
1
41
1
41
1
41
1
41
1
41
1
41
1
10
-3.8999999999999977
20
-26.984367002264076
30
0
10
-3.732465086091977
20
-26.957769113602723
30
0
10
-3.3995757417997892
20
-26.901201509312308
30
0
10
-2.9618018922877911
20
-26.813953334536226
30
0
10
-2.517697816868687
20
-26.693851180786329
30
0
10
-2.19728470743514
20
-26.531101582293051
30
0
10
-2.1011752666804062
20
-26.338260873014242
30
0
10
-2.2045830202902086
20
-26.098996063630526
30
0
10
-2.4576628778013809
20
-25.784442460571174
30
0
10
-2.7927639230690691
20
-25.365792777837047
30
0
10
-3.1343276125179811
20
-24.831838774828558
30
0
10
-3.4038416963096245
20
-24.217224614639211
30
0
10
-3.5324269220676099
20
-23.599255083801932
30
0
10
-3.4571125185936022
20
-23.171164948130468
30
0
10
-3.1570172272765302
20
-23.124971098985682
30
0
10
-2.6883758541285343
20
-23.409113391183926
30
0
10
-2.1360079256327786
20
-23.898758421770612
30
0
10
-1.5917035073658181
20
-24.432241286797542
30
0
10
-1.1233496901324449
20
-24.89790952314247
30
0
10
-0.77803580866449118
20
-25.21816232325758
30
0
10
-0.58089137200338181
20
-25.349219310671049
30
0
10
-0.53596559048542147
20
-25.274443159710341
30
0
10
-0.62532168864138138
20
-25.00054346120946
30
0
10
-0.81171162821152532
20
-24.552443835386757
30
0
10
-1.0485299691925976
20
-23.968258930762186
30
0
10
-1.2879765214997778
20
-23.294212675897857
30
0
10
-1.490554937014523
20
-22.579507068678922
30
0
10
-1.63255633683694
20
-21.871464450694116
30
0
10
-1.7180428455192036
20
-21.209957067666036
30
0
10
-1.7744411941923
20
-20.624557311665562
30
0
10
-1.8336290011052649
20
-20.134261569944783
30
0
10
-1.9162632848865926
20
-19.746382028856775
30
0
10
-2.0164864155177273
20
-19.455961179318265
30
0
10
-2.0823663435090047
20
-19.244439329538849
30
0
10
-2.0097460688786692
20
-19.080025314379487
30
0
10
-1.7781448252967309
20
-18.934878055692021
30
0
10
-1.5776278728760595
20
-18.801369734403348
30
0
10
-1.6076354287968848
20
-18.669937445152751
30
0
10
-1.8086612910782314
20
-18.499813513831967
30
0
10
-1.9541805878609
20
-18.236005440827281
30
0
10
-2.0191712462883609
20
-17.877857518974935
30
0
10
-2.0186621270052716
20
-17.423867413033154
30
0
10
-1.9570361271069725
20
-16.86414890452815
30
0
10
-1.8483589645484728
20
-16.188317910062452
30
0
10
-1.7055734928138828
20
-15.386391039990421
30
0
10
-1.543088671628849
20
-14.452830142306187
30
0
10
-1.3737014604854043
20
-13.388955936479926
30
0
10
-1.2077138924898827
20
-12.206782039333504
30
0
10
-1.0520093160400028
20
-10.929647487313702
30
0
10
-0.91086682429387
20
-9.5892880689306228
30
0
10
-0.78624598286835956
20
-8.2238161821852636
30
0
10
-0.67828587248403749
20
-6.8753499180511177
30
0
10
-0.5857073358186472
20
-5.5878037960887958
30
0
10
-0.50625301458368999
20
-4.4046155303317454
30
0
10
-0.43710824496157841
20
-3.3664998793116054
30
0
10
-0.37532834908935619
20
-2.5091843407692109
30
0
10
-0.32967555422199218
20
-1.9907489568525258
30
0
10
-0.29668791338683997
20
-1.7046127706562073
30
0
10
-0.2751476949309149
20
-1.5604401199714166
30
0
10
-0.26449047106269763
20
-1.5
30
0
0
LINE
5
111
100
AcDbEntity
8
0
100
AcDbLine
10
-0.26449047106269757
20
-1.5
30
0
11
0
21
0
31
0
0
LINE
5
112
100
AcDbEntity
8
0
100
AcDbLine
10
0
20
0
30
0
11
-3.9000000000000008
21
0
31
0
0
LINE
5
113
100
AcDbEntity
8
0
100
AcDbLine
10
-3.9000000000000008
20
0
30
0
11
-3.9000000000000008
21
-13.499999999999998
31
0
0
LINE
5
114
100
AcDbEntity
8
0
100
AcDbLine
10
-3.9000000000000008
20
-13.499999999999998
30
0
11
-4.1000000000000014
21
-13.499999999999998
31
0
0
LINE
5
115
100
AcDbEntity
8
0
100
AcDbLine
10
-4.1000000000000014
20
-13.499999999999998
30
0
11
-4.1000000000000014
21
0
31
0
0
LINE
5
116
100
AcDbEntity
8
0
100
AcDbLine
10
-4.1000000000000014
20
0
30
0
11
-7.9999999999999991
21
0
31
0
0
LINE
5
117
100
AcDbEntity
8
0
100
AcDbLine
10
-7.9999999999999991
20
0
30
0
11
-7.7355095289373024
21
-1.5000000000000007
31
0
0
SPLINE
5
118
100
AcDbEntity
8
0
100
AcDbSpline
70
4
71
5
72
66
73
60
74
0
42
0.000000001
43
0.0000000001
44
0.0000000001
40
-1
40
-1
40
-1
40
-1
40
-1
40
-1
40
-0.98181818181818203
40
-0.96363636363636385
40
-0.94545454545454566
40
-0.92727272727272747
40
-0.90909090909090928
40
-0.89090909090909109
40
-0.87272727272727291
40
-0.85454545454545472
40
-0.83636363636363653
40
-0.81818181818181834
40
-0.80000000000000016
40
-0.78181818181818197
40
-0.76363636363636378
40
-0.74545454545454559
40
-0.7272727272727274
40
-0.70909090909090922
40
-0.69090909090909103
40
-0.67272727272727284
40
-0.65454545454545465
40
-0.63636363636363646
40
-0.61818181818181828
40
-0.60000000000000009
40
-0.5818181818181819
40
-0.56363636363636371
40
-0.54545454545454553
40
-0.52727272727272734
40
-0.50909090909090915
40
-0.49090909090909102
40
-0.47272727272727283
40
-0.45454545454545464
40
-0.43636363636363645
40
-0.41818181818181827
40
-0.40000000000000008
40
-0.38181818181818189
40
-0.3636363636363637
40
-0.34545454545454551
40
-0.32727272727272733
40
-0.30909090909090914
40
-0.29090909090909095
40
-0.27272727272727276
40
-0.25454545454545457
40
-0.23636363636363641
40
-0.21818181818181823
40
-0.20000000000000004
40
-0.18181818181818185
40
-0.16363636363636366
40
-0.14545454545454548
40
-0.12727272727272729
40
-0.1090909090909091
40
-0.090909090909090912
40
-0.072727272727272724
40
-0.054545454545454543
40
-0.036363636363636362
40
-0.018181818181818181
40
-0.0019141968967799758
40
-0.0019141968967799758
40
-0.0019141968967799758
40
-0.0019141968967799758
40
-0.0019141968967799758
40
-0.0019141968967799758
41
1
41
1
41
1
41
1
41
1
41
1
41
1
41
1
41
1
41
1
41
1
41
1
41
1
41
1
41
1
41
1
41
1
41
1
41
1
41
1
41
1
41
1
41
1
41
1
41
1
41
1
41
1
41
1
41
1
41
1
41
1
41
1
41
1
41
1
41
1
41
1
41
1
41
1
41
1
41
1
41
1
41
1
41
1
41
1
41
1
41
1
41
1
41
1
41
1
41
1
41
1
41
1
41
1
41
1
41
1
41
1
41
1
41
1
41
1
41
1
10
-7.7355095289373024
20
-1.5
30
0
10
-7.7248523050690858
20
-1.5604401199714166
30
0
10
-7.7033120866183316
20
-1.7046127706562073
30
0
10
-7.6703244458064468
20
-1.9907489568525258
30
0
10
-7.6246716509990682
20
-2.5091843407692109
30
0
10
-7.5628917552368584
20
-3.3664998793116054
30
0
10
-7.4937469857409749
20
-4.4046155303317454
30
0
10
-7.414292664626748
20
-5.5878037960887958
30
0
10
-7.3217141280545226
20
-6.8753499180511177
30
0
10
-7.2137540177158259
20
-8.2238161821852636
30
0
10
-7.0891331762731298
20
-9.5892880689306228
30
0
10
-6.9479906844389294
20
-10.929647487313702
30
0
10
-6.7922861078316439
20
-12.206782039333504
30
0
10
-6.6262985396233711
20
-13.388955936479926
30
0
10
-6.4569113282401585
20
-14.452830142306187
30
0
10
-6.2944265068352792
20
-15.386391039990421
30
0
10
-6.1516410349589767
20
-16.188317910062452
30
0
10
-6.0429638723792936
20
-16.86414890452815
30
0
10
-5.9813378726008626
20
-17.423867413033154
30
0
10
-5.9808287535289013
20
-17.877857518974935
30
0
10
-6.0458194121858391
20
-18.236005440827281
30
0
10
-6.1913387089465717
20
-18.499813513831967
30
0
10
-6.3923645708160661
20
-18.669937445152751
30
0
10
-6.4223721271557572
20
-18.801369734403348
30
0
10
-6.2218551757011058
20
-18.934878055692021
30
0
10
-5.9902539314930054
20
-19.080025314379487
30
0
10
-5.9176336544086068
20
-19.244439329538849
30
0
10
-5.9835135825320398
20
-19.455961179318265
30
0
10
-6.0837367198629115
20
-19.746382028856775
30
0
10
-6.1663710149158337
20
-20.134261569944783
30
0
10
-6.2255588317968904
20
-20.624557311665562
30
0
10
-6.2819571821477895
20
-21.209957067666036
30
0
10
-6.3674436788052908
20
-21.871464450694116
30
0
10
-6.5094450514155398
20
-22.579507068678922
30
0
10
-6.7120234303855559
20
-23.294212675897857
30
0
10
-6.9514699494556798
20
-23.968258930762186
30
0
10
-7.1882882749233463
20
-24.552443835386757
30
0
10
-7.3746782292371638
20
-25.00054346120946
30
0
10
-7.4640343784782903
20
-25.274443159710341
30
0
10
-7.4191086806556159
20
-25.349219310671049
30
0
10
-7.2219643407628213
20
-25.21816232325758
30
0
10
-6.8766505398703233
20
-24.89790952314247
30
0
10
-6.4082967591643092
20
-24.432241286797542
30
0
10
-5.8639923172660797
20
-23.898758421770612
30
0
10
-5.311624309520063
20
-23.409113391183926
30
0
10
-4.8429828406515592
20
-23.124971098985682
30
0
10
-4.5428874815185001
20
-23.171164948130468
30
0
10
-4.4675730710693209
20
-23.599255083801932
30
0
10
-4.5961583189354478
20
-24.217224614639211
30
0
10
-4.8656724182218092
20
-24.831838774828558
30
0
10
-5.2072361092446151
20
-25.365792777837047
30
0
10
-5.542337142654584
20
-25.784442460571174
30
0
10
-5.7954169837302221
20
-26.098996063630526
30
0
10
-5.8988247255636326
20
-26.338260873014242
30
0
10
-5.8027152818112571
20
-26.531101582293051
30
0
10
-5.4823021759641595
20
-26.693851180785416
30
0
10
-5.0381981049375417
20
-26.813953334534535
30
0
10
-4.6004242575262646
20
-26.901201509309836
30
0
10
-4.2675349138146839
20
-26.957769113599472
30
0
10
-4.1000000000000059
20
-26.984367002260015
30
0
0
SPLINE
5
119
100
AcDbEntity
8
0
100
AcDbSpline
70
4
71
5
72
12
73
6
74
0
42
0.000000001
43
0.0000000001
44
0.0000000001
40
-0.0019141968967799081
40
-0.0019141968967799081
40
-0.0019141968967799081
40
-0.0019141968967799081
40
-0.0019141968967799081
40
-0.0019141968967799081
40
0
40
0
40
0
40
0
40
0
40
0
41
1
41
1
41
1
41
1
41
1
41
1
10
-4.1000000000000005
20
-26.984367002260015
30
0
10
-4.0802863119009727
20
-26.987496752765196
30
0
10
-4.0604294724254508
20
-26.990624920493968
30
0
10
-4.0404294753146752
20
-26.993751515426347
30
0
10
-4.0202863177537242
20
-26.99687654217718
30
0
10
-3.9999999999999996
20
-26.999999999999996
30
0
0
ENDSEC
0
SECTION
2
OBJECTS
0
DICTIONARY
5
C
100
AcDbDictionary
3
ACAD_GROUP
350
D
3
ACAD_MLINESTYLE
350
17
0
DICTIONARY
5
D
100
AcDbDictionary
0
DICTIONARY
5
1A
330
C
100
AcDbDictionary
0
DICTIONARY
5
17
100
AcDbDictionary
0
ENDSEC
0
EOF
