  0
SECTION
  2
HEADER
  9
$ACADVER
  1
AC1009
  9
$DWGCODEPAGE
  3
ansi_1252
  9
$INSBASE
 10
0.0
 20
0.0
 30
0.0
  9
$EXTMIN
 10
0.5000043056882328
 20
0.3058837846467108
 30
0.0
  9
$EXTMAX
 10
28.49991646921794
 20
14.69415357145753
 30
0.0
  9
$LIMMIN
 10
0.0
 20
0.0
  9
$LIMMAX
 10
12.0
 20
9.0
  9
$ORTHOMODE
 70
     0
  9
$REGENMODE
 70
     1
  9
$FILLMODE
 70
     1
  9
$QTEXTMODE
 70
     0
  9
$MIRRTEXT
 70
     1
  9
$DRAGMODE
 70
     2
  9
$LTSCALE
 40
1.0
  9
$OSMODE
 70
    37
  9
$ATTMODE
 70
     1
  9
$TEXTSIZE
 40
0.2
  9
$TRACEWID
 40
0.05
  9
$TEXTSTYLE
  7
STANDARD
  9
$CLAYER
  8
0
  9
$CELTYPE
  6
BYLAYER
  9
$CECOLOR
 62
   256
  9
$DIMSCALE
 40
1.0
  9
$DIMASZ
 40
0.18
  9
$DIMEXO
 40
0.0625
  9
$DIMDLI
 40
0.38
  9
$DIMRND
 40
0.0
  9
$DIMDLE
 40
0.0
  9
$DIMEXE
 40
0.18
  9
$DIMTP
 40
0.0
  9
$DIMTM
 40
0.0
  9
$DIMTXT
 40
0.18
  9
$DIMCEN
 40
0.09
  9
$DIMTSZ
 40
0.0
  9
$DIMTOL
 70
     0
  9
$DIMLIM
 70
     0
  9
$DIMTIH
 70
     1
  9
$DIMTOH
 70
     1
  9
$DIMSE1
 70
     0
  9
$DIMSE2
 70
     0
  9
$DIMTAD
 70
     0
  9
$DIMZIN
 70
     0
  9
$DIMBLK
  1

  9
$DIMASO
 70
     1
  9
$DIMSHO
 70
     1
  9
$DIMPOST
  1

  9
$DIMAPOST
  1

  9
$DIMALT
 70
     0
  9
$DIMALTD
 70
     2
  9
$DIMALTF
 40
25.4
  9
$DIMLFAC
 40
1.0
  9
$DIMTOFL
 70
     0
  9
$DIMTVP
 40
0.0
  9
$DIMTIX
 70
     0
  9
$DIMSOXD
 70
     0
  9
$DIMSAH
 70
     0
  9
$DIMBLK1
  1

  9
$DIMBLK2
  1

  9
$DIMSTYLE
  2
STANDARD
  9
$DIMCLRD
 70
     0
  9
$DIMCLRE
 70
     0
  9
$DIMCLRT
 70
     0
  9
$DIMTFAC
 40
1.0
  9
$DIMGAP
 40
0.09
  9
$LUNITS
 70
     2
  9
$LUPREC
 70
     4
  9
$SKETCHINC
 40
0.1
  9
$FILLETRAD
 40
0.5
  9
$AUNITS
 70
     0
  9
$AUPREC
 70
     0
  9
$MENU
  1
.
  9
$ELEVATION
 40
0.0
  9
$PELEVATION
 40
0.0
  9
$THICKNESS
 40
0.0
  9
$LIMCHECK
 70
     0
  9
$CHAMFERA
 40
0.0
  9
$CHAMFERB
 40
0.0
  9
$SKPOLY
 70
     0
  9
$TDCREATE
 40
2454910.5
  9
$TDUPDATE
 40
2458443.773066331
  9
$TDINDWG
 40
0.0000000116
  9
$TDUSRTIMER
 40
0.0000000116
  9
$USRTIMER
 70
     1
  9
$ANGBASE
 50
0.0
  9
$ANGDIR
 70
     0
  9
$PDMODE
 70
     0
  9
$PDSIZE
 40
0.0
  9
$PLINEWID
 40
0.0
  9
$COORDS
 70
     1
  9
$SPLFRAME
 70
     0
  9
$SPLINETYPE
 70
     6
  9
$SPLINESEGS
 70
     8
  9
$ATTDIA
 70
     0
  9
$ATTREQ
 70
     1
  9
$HANDLING
 70
     1
  9
$HANDSEED
  5
FF5
  9
$SURFTAB1
 70
     6
  9
$SURFTAB2
 70
     6
  9
$SURFTYPE
 70
     6
  9
$SURFU
 70
     6
  9
$SURFV
 70
     6
  9
$UCSNAME
  2

  9
$UCSORG
 10
0.0
 20
0.0
 30
0.0
  9
$UCSXDIR
 10
1.0
 20
0.0
 30
0.0
  9
$UCSYDIR
 10
0.0
 20
1.0
 30
0.0
  9
$PUCSNAME
  2

  9
$PUCSORG
 10
0.0
 20
0.0
 30
0.0
  9
$PUCSXDIR
 10
1.0
 20
0.0
 30
0.0
  9
$PUCSYDIR
 10
0.0
 20
1.0
 30
0.0
  9
$USERI1
 70
     0
  9
$USERI2
 70
     0
  9
$USERI3
 70
     0
  9
$USERI4
 70
     0
  9
$USERI5
 70
     0
  9
$USERR1
 40
0.0
  9
$USERR2
 40
0.0
  9
$USERR3
 40
0.0
  9
$USERR4
 40
0.0
  9
$USERR5
 40
0.0
  9
$WORLDVIEW
 70
     1
  9
$SHADEDGE
 70
     3
  9
$SHADEDIF
 70
    70
  9
$TILEMODE
 70
     1
  9
$MAXACTVP
 70
    64
  9
$PLIMCHECK
 70
     0
  9
$PEXTMIN
 10
1.000000000000000E+20
 20
1.000000000000000E+20
 30
1.000000000000000E+20
  9
$PEXTMAX
 10
-1.000000000000000E+20
 20
-1.000000000000000E+20
 30
-1.000000000000000E+20
  9
$PLIMMIN
 10
0.0
 20
0.0
  9
$PLIMMAX
 10
12.0
 20
9.0
  9
$UNITMODE
 70
     0
  9
$VISRETAIN
 70
     1
  9
$PLINEGEN
 70
     0
  9
$PSLTSCALE
 70
     1
  0
ENDSEC
  0
SECTION
  2
TABLES
  0
TABLE
  2
VPORT
 70
     1
  0
VPORT
  2
*ACTIVE
 70
     0
 10
0.0
 20
0.0
 11
1.0
 21
1.0
 12
10.42990654205607
 22
4.5
 13
0.0
 23
0.0
 14
0.5
 24
0.5
 15
0.5
 25
0.5
 16
0.0
 26
0.0
 36
1.0
 17
0.0
 27
0.0
 37
0.0
 40
9.0
 41
1.972972972850329
 42
50.0
 43
0.0
 44
0.0
 50
0.0
 51
0.0
 71
     0
 72
   100
 73
     1
 74
     3
 75
     0
 76
     0
 77
     0
 78
     0
  0
ENDTAB
  0
TABLE
  2
LTYPE
 70
     2
  0
LTYPE
  2
CONTINUOUS
 70
     0
  3
Solid line
 72
    65
 73
     0
 40
0.0
  0
LTYPE
  2
CONTINUOUS2
 70
     0
  3
Solid Line
 72
    65
 73
     0
 40
0.0
  0
ENDTAB
  0
TABLE
  2
LAYER
 70
     3
  0
LAYER
  2
0
 70
     0
 62
     7
  6
CONTINUOUS
  0
LAYER
  2
PICTURE_HOLDERS
 70
     0
 62
     1
  6
CONTINUOUS
  0
LAYER
  2
BACK_LAYER
 70
     0
 62
    18
  6
CONTINUOUS
  0
ENDTAB
  0
TABLE
  2
STYLE
 70
     1
  0
STYLE
  2
STANDARD
 70
     0
 40
0.0
 41
1.0
 50
0.0
 71
     0
 42
0.2
  3
txt
  4

  0
ENDTAB
  0
TABLE
  2
VIEW
 70
     0
  0
ENDTAB
  0
TABLE
  2
UCS
 70
     0
  0
ENDTAB
  0
TABLE
  2
APPID
 70
     1
  0
APPID
  2
ACAD
 70
     0
  0
ENDTAB
  0
TABLE
  2
DIMSTYLE
 70
     1
  0
DIMSTYLE
  2
STANDARD
 70
     0
  3

  4

  5

  6

  7

 40
1.0
 41
0.18
 42
0.0625
 43
0.38
 44
0.18
 45
0.0
 46
0.0
 47
0.0
 48
0.0
140
0.18
141
0.09
142
0.0
143
25.4
144
1.0
145
0.0
146
1.0
147
0.09
 71
     0
 72
     0
 73
     1
 74
     1
 75
     0
 76
     0
 77
     0
 78
     0
170
     0
171
     2
172
     0
173
     0
174
     0
175
     0
176
     0
177
     0
178
     0
  0
ENDTAB
  0
ENDSEC
  0
SECTION
  2
BLOCKS
  0
BLOCK
  8
0
  2
$MODEL_SPACE
 70
     0
 10
0.0
 20
0.0
 30
0.0
  3
$MODEL_SPACE
  1

  0
ENDBLK
  5
21
  8
0
  0
BLOCK
 67
     1
  8
0
  2
$PAPER_SPACE
 70
     0
 10
0.0
 20
0.0
 30
0.0
  3
$PAPER_SPACE
  1

  0
ENDBLK
  5
1D
 67
     1
  8
0
  0
ENDSEC
  0
SECTION
  2
ENTITIES
  0
POLYLINE
  5
70
  8
PICTURE_HOLDERS
 66
     1
 10
0.0
 20
0.0
 30
0.0
 70
     1
  0
VERTEX
  5
82
  8
PICTURE_HOLDERS
 10
4.055296441022875
 20
4.661288942403663
 30
0.0
  0
VERTEX
  5
83
  8
PICTURE_HOLDERS
 10
4.055296441022875
 20
10.33871105759635
 30
0.0
  0
VERTEX
  5
84
  8
PICTURE_HOLDERS
 10
4.044584950146096
 20
10.34978576913928
 30
0.0
  0
VERTEX
  5
85
  8
PICTURE_HOLDERS
 10
4.034296184772948
 20
10.3609426303027
 30
0.0
  0
VERTEX
  5
86
  8
PICTURE_HOLDERS
 10
4.02442614434662
 20
10.37217760094134
 30
0.0
  0
VERTEX
  5
87
  8
PICTURE_HOLDERS
 10
4.014970828310293
 20
10.38348664090994
 30
0.0
  0
VERTEX
  5
88
  8
PICTURE_HOLDERS
 10
4.005926236107147
 20
10.39486571006321
 30
0.0
  0
VERTEX
  5
89
  8
PICTURE_HOLDERS
 10
3.997288367180364
 20
10.40631076825591
 30
0.0
  0
VERTEX
  5
8A
  8
PICTURE_HOLDERS
 10
3.989053220973137
 20
10.41781777534274
 30
0.0
  0
VERTEX
  5
8B
  8
PICTURE_HOLDERS
 10
3.981216796928642
 20
10.42938269117844
 30
0.0
  0
VERTEX
  5
8C
  8
PICTURE_HOLDERS
 10
3.973775094490069
 20
10.44100147561774
 30
0.0
  0
VERTEX
  5
8D
  8
PICTURE_HOLDERS
 10
3.966724113100593
 20
10.45267008851538
 30
0.0
  0
VERTEX
  5
8E
  8
PICTURE_HOLDERS
 10
3.960059852203397
 20
10.46438448972607
 30
0.0
  0
VERTEX
  5
8F
  8
PICTURE_HOLDERS
 10
3.95377831124167
 20
10.47614063910456
 30
0.0
  0
VERTEX
  5
90
  8
PICTURE_HOLDERS
 10
3.947875489658596
 20
10.48793449650556
 30
0.0
  0
VERTEX
  5
91
  8
PICTURE_HOLDERS
 10
3.942347386897353
 20
10.49976202178382
 30
0.0
  0
VERTEX
  5
92
  8
PICTURE_HOLDERS
 10
3.937190002401124
 20
10.51161917479407
 30
0.0
  0
VERTEX
  5
93
  8
PICTURE_HOLDERS
 10
3.932399335613098
 20
10.52350191539101
 30
0.0
  0
VERTEX
  5
94
  8
PICTURE_HOLDERS
 10
3.927971385976452
 20
10.53540620342941
 30
0.0
  0
VERTEX
  5
95
  8
PICTURE_HOLDERS
 10
3.923902152934374
 20
10.54732799876396
 30
0.0
  0
VERTEX
  5
96
  8
PICTURE_HOLDERS
 10
3.920187635930048
 20
10.55926326124943
 30
0.0
  0
VERTEX
  5
97
  8
PICTURE_HOLDERS
 10
3.916823834406649
 20
10.57120795074052
 30
0.0
  0
VERTEX
  5
98
  8
PICTURE_HOLDERS
 10
3.913806747807371
 20
10.58315802709198
 30
0.0
  0
VERTEX
  5
99
  8
PICTURE_HOLDERS
 10
3.911132375575392
 20
10.59510945015852
 30
0.0
  0
VERTEX
  5
9A
  8
PICTURE_HOLDERS
 10
3.908796717153894
 20
10.60705817979488
 30
0.0
  0
VERTEX
  5
9B
  8
PICTURE_HOLDERS
 10
3.906795771986062
 20
10.61900017585579
 30
0.0
  0
VERTEX
  5
9C
  8
PICTURE_HOLDERS
 10
3.90512553951508
 20
10.63093139819599
 30
0.0
  0
VERTEX
  5
9D
  8
PICTURE_HOLDERS
 10
3.903782019184128
 20
10.64284780667018
 30
0.0
  0
VERTEX
  5
9E
  8
PICTURE_HOLDERS
 10
3.902761210436395
 20
10.65474536113312
 30
0.0
  0
VERTEX
  5
9F
  8
PICTURE_HOLDERS
 10
3.902059112715062
 20
10.66662002143953
 30
0.0
  0
VERTEX
  5
A0
  8
PICTURE_HOLDERS
 10
3.901595048124321
 20
10.69028449900168
 30
0.0
  0
VERTEX
  5
A1
  8
PICTURE_HOLDERS
 10
3.902357820957377
 20
10.71380891819447
 30
0.0
  0
VERTEX
  5
A2
  8
PICTURE_HOLDERS
 10
3.904315426759691
 20
10.73716095785573
 30
0.0
  0
VERTEX
  5
A3
  8
PICTURE_HOLDERS
 10
3.907435861076738
 20
10.7603082968233
 30
0.0
  0
VERTEX
  5
A4
  8
PICTURE_HOLDERS
 10
3.911687119453973
 20
10.78321861393503
 30
0.0
  0
VERTEX
  5
A5
  8
PICTURE_HOLDERS
 10
3.917037197436873
 20
10.80585958802875
 30
0.0
  0
VERTEX
  5
A6
  8
PICTURE_HOLDERS
 10
3.9234540905709
 20
10.8281988979423
 30
0.0
  0
VERTEX
  5
A7
  8
PICTURE_HOLDERS
 10
3.930905794401518
 20
10.85020422251352
 30
0.0
  0
VERTEX
  5
A8
  8
PICTURE_HOLDERS
 10
3.939360304474196
 20
10.87184324058025
 30
0.0
  0
VERTEX
  5
A9
  8
PICTURE_HOLDERS
 10
3.948785616334394
 20
10.89308363098034
 30
0.0
  0
VERTEX
  5
AA
  8
PICTURE_HOLDERS
 10
3.959149725527588
 20
10.9138930725516
 30
0.0
  0
VERTEX
  5
AB
  8
PICTURE_HOLDERS
 10
3.970420627599239
 20
10.93423924413189
 30
0.0
  0
VERTEX
  5
AC
  8
PICTURE_HOLDERS
 10
3.982566318094815
 20
10.95408982455905
 30
0.0
  0
VERTEX
  5
AD
  8
PICTURE_HOLDERS
 10
3.995554792559776
 20
10.97341249267092
 30
0.0
  0
VERTEX
  5
AE
  8
PICTURE_HOLDERS
 10
4.009354046539602
 20
10.99217492730533
 30
0.0
  0
VERTEX
  5
AF
  8
PICTURE_HOLDERS
 10
4.023932075579747
 20
11.01034480730012
 30
0.0
  0
VERTEX
  5
B0
  8
PICTURE_HOLDERS
 10
4.039256875225679
 20
11.02788981149314
 30
0.0
  0
VERTEX
  5
B1
  8
PICTURE_HOLDERS
 10
4.055296441022865
 20
11.04477761872222
 30
0.0
  0
VERTEX
  5
B2
  8
PICTURE_HOLDERS
 10
4.07201876851677
 20
11.0609759078252
 30
0.0
  0
VERTEX
  5
B3
  8
PICTURE_HOLDERS
 10
4.089391853252863
 20
11.0764523576399
 30
0.0
  0
VERTEX
  5
B4
  8
PICTURE_HOLDERS
 10
4.107383690776611
 20
11.09117464700421
 30
0.0
  0
VERTEX
  5
B5
  8
PICTURE_HOLDERS
 10
4.12596227663348
 20
11.10511045475591
 30
0.0
  0
VERTEX
  5
B6
  8
PICTURE_HOLDERS
 10
4.14509560636893
 20
11.11822745973289
 30
0.0
  0
VERTEX
  5
B7
  8
PICTURE_HOLDERS
 10
4.164751675528436
 20
11.13049334077295
 30
0.0
  0
VERTEX
  5
B8
  8
PICTURE_HOLDERS
 10
4.184898479657456
 20
11.14187577671395
 30
0.0
  0
VERTEX
  5
B9
  8
PICTURE_HOLDERS
 10
4.205504014301464
 20
11.15234244639373
 30
0.0
  0
VERTEX
  5
BA
  8
PICTURE_HOLDERS
 10
4.226536275005923
 20
11.16186102865012
 30
0.0
  0
VERTEX
  5
BB
  8
PICTURE_HOLDERS
 10
4.247963257316297
 20
11.17039920232096
 30
0.0
  0
VERTEX
  5
BC
  8
PICTURE_HOLDERS
 10
4.269752956778056
 20
11.17792464624409
 30
0.0
  0
VERTEX
  5
BD
  8
PICTURE_HOLDERS
 10
4.29187336893666
 20
11.18440503925736
 30
0.0
  0
VERTEX
  5
BE
  8
PICTURE_HOLDERS
 10
4.314292489337582
 20
11.18980806019858
 30
0.0
  0
VERTEX
  5
BF
  8
PICTURE_HOLDERS
 10
4.336978313526288
 20
11.19410138790563
 30
0.0
  0
VERTEX
  5
C0
  8
PICTURE_HOLDERS
 10
4.359898837048235
 20
11.19725270121631
 30
0.0
  0
VERTEX
  5
C1
  8
PICTURE_HOLDERS
 10
4.383022055448905
 20
11.19922967896849
 30
0.0
  0
VERTEX
  5
C2
  8
PICTURE_HOLDERS
 10
4.406315964273748
 20
11.19999999999999
 30
0.0
  0
VERTEX
  5
C3
  8
PICTURE_HOLDERS
 10
4.418016926203197
 20
11.19992256388232
 30
0.0
  0
VERTEX
  5
C4
  8
PICTURE_HOLDERS
 10
4.429748559068241
 20
11.19953134314866
 30
0.0
  0
VERTEX
  5
C5
  8
PICTURE_HOLDERS
 10
4.44150686231206
 20
11.19882229765376
 30
0.0
  0
VERTEX
  5
C6
  8
PICTURE_HOLDERS
 10
4.453287835377843
 20
11.19779138725234
 30
0.0
  0
VERTEX
  5
C7
  8
PICTURE_HOLDERS
 10
4.465087477708771
 20
11.19643457179912
 30
0.0
  0
VERTEX
  5
C8
  8
PICTURE_HOLDERS
 10
4.47690178874803
 20
11.19474781114885
 30
0.0
  0
VERTEX
  5
C9
  8
PICTURE_HOLDERS
 10
4.488726767938797
 20
11.19272706515624
 30
0.0
  0
VERTEX
  5
CA
  8
PICTURE_HOLDERS
 10
4.500558414724257
 20
11.19036829367605
 30
0.0
  0
VERTEX
  5
CB
  8
PICTURE_HOLDERS
 10
4.512392728547596
 20
11.18766745656297
 30
0.0
  0
VERTEX
  5
CC
  8
PICTURE_HOLDERS
 10
4.524225708851997
 20
11.18462051367176
 30
0.0
  0
VERTEX
  5
CD
  8
PICTURE_HOLDERS
 10
4.536053355080639
 20
11.18122342485714
 30
0.0
  0
VERTEX
  5
CE
  8
PICTURE_HOLDERS
 10
4.547871666676713
 20
11.17747214997383
 30
0.0
  0
VERTEX
  5
CF
  8
PICTURE_HOLDERS
 10
4.559676643083399
 20
11.17336264887658
 30
0.0
  0
VERTEX
  5
D0
  8
PICTURE_HOLDERS
 10
4.571464283743875
 20
11.16889088142011
 30
0.0
  0
VERTEX
  5
D1
  8
PICTURE_HOLDERS
 10
4.58323058810133
 20
11.16405280745915
 30
0.0
  0
VERTEX
  5
D2
  8
PICTURE_HOLDERS
 10
4.594971555598946
 20
11.15884438684843
 30
0.0
  0
VERTEX
  5
D3
  8
PICTURE_HOLDERS
 10
4.606683185679906
 20
11.15326157944268
 30
0.0
  0
VERTEX
  5
D4
  8
PICTURE_HOLDERS
 10
4.618361477787392
 20
11.14730034509662
 30
0.0
  0
VERTEX
  5
D5
  8
PICTURE_HOLDERS
 10
4.630002431364591
 20
11.140956643665
 30
0.0
  0
VERTEX
  5
D6
  8
PICTURE_HOLDERS
 10
4.641602045854683
 20
11.13422643500253
 30
0.0
  0
VERTEX
  5
D7
  8
PICTURE_HOLDERS
 10
4.653156320700852
 20
11.12710567896396
 30
0.0
  0
VERTEX
  5
D8
  8
PICTURE_HOLDERS
 10
4.664661255346282
 20
11.119590335404
 30
0.0
  0
VERTEX
  5
D9
  8
PICTURE_HOLDERS
 10
4.676112849234151
 20
11.1116763641774
 30
0.0
  0
VERTEX
  5
DA
  8
PICTURE_HOLDERS
 10
4.68750710180765
 20
11.10335972513887
 30
0.0
  0
VERTEX
  5
DB
  8
PICTURE_HOLDERS
 10
4.698840012509962
 20
11.09463637814314
 30
0.0
  0
VERTEX
  5
DC
  8
PICTURE_HOLDERS
 10
4.710107580784264
 20
11.08550228304496
 30
0.0
  0
VERTEX
  5
DD
  8
PICTURE_HOLDERS
 10
4.721305806073744
 20
11.07595339969904
 30
0.0
  0
VERTEX
  5
DE
  8
PICTURE_HOLDERS
 10
4.732430687821587
 20
11.06598568796013
 30
0.0
  0
VERTEX
  5
DF
  8
PICTURE_HOLDERS
 10
4.74347822547097
 20
11.05559510768294
 30
0.0
  0
VERTEX
  5
E0
  8
PICTURE_HOLDERS
 10
4.754444418465081
 20
11.0447776187222
 30
0.0
  0
VERTEX
  5
E1
  8
PICTURE_HOLDERS
 10
8.398745677783573
 20
11.04477761872223
 30
0.0
  0
VERTEX
  5
E2
  8
PICTURE_HOLDERS
 10
8.409711870777684
 20
11.05559510768296
 30
0.0
  0
VERTEX
  5
E3
  8
PICTURE_HOLDERS
 10
8.420759408427067
 20
11.06598568796014
 30
0.0
  0
VERTEX
  5
E4
  8
PICTURE_HOLDERS
 10
8.431884290174906
 20
11.07595339969905
 30
0.0
  0
VERTEX
  5
E5
  8
PICTURE_HOLDERS
 10
8.443082515464386
 20
11.08550228304497
 30
0.0
  0
VERTEX
  5
E6
  8
PICTURE_HOLDERS
 10
8.454350083738689
 20
11.09463637814316
 30
0.0
  0
VERTEX
  5
E7
  8
PICTURE_HOLDERS
 10
8.465682994441
 20
11.10335972513888
 30
0.0
  0
VERTEX
  5
E8
  8
PICTURE_HOLDERS
 10
8.477077247014499
 20
11.11167636417741
 30
0.0
  0
VERTEX
  5
E9
  8
PICTURE_HOLDERS
 10
8.488528840902369
 20
11.11959033540401
 30
0.0
  0
VERTEX
  5
EA
  8
PICTURE_HOLDERS
 10
8.500033775547799
 20
11.12710567896397
 30
0.0
  0
VERTEX
  5
EB
  8
PICTURE_HOLDERS
 10
8.511588050393968
 20
11.13422643500255
 30
0.0
  0
VERTEX
  5
EC
  8
PICTURE_HOLDERS
 10
8.523187664884059
 20
11.14095664366501
 30
0.0
  0
VERTEX
  5
ED
  8
PICTURE_HOLDERS
 10
8.534828618461258
 20
11.14730034509664
 30
0.0
  0
VERTEX
  5
EE
  8
PICTURE_HOLDERS
 10
8.546506910568745
 20
11.15326157944269
 30
0.0
  0
VERTEX
  5
EF
  8
PICTURE_HOLDERS
 10
8.558218540649705
 20
11.15884438684844
 30
0.0
  0
VERTEX
  5
F0
  8
PICTURE_HOLDERS
 10
8.56995950814732
 20
11.16405280745916
 30
0.0
  0
VERTEX
  5
F1
  8
PICTURE_HOLDERS
 10
8.581725812504775
 20
11.16889088142012
 30
0.0
  0
VERTEX
  5
F2
  8
PICTURE_HOLDERS
 10
8.59351345316525
 20
11.17336264887659
 30
0.0
  0
VERTEX
  5
F3
  8
PICTURE_HOLDERS
 10
8.605318429571938
 20
11.17747214997384
 30
0.0
  0
VERTEX
  5
F4
  8
PICTURE_HOLDERS
 10
8.617136741168007
 20
11.18122342485714
 30
0.0
  0
VERTEX
  5
F5
  8
PICTURE_HOLDERS
 10
8.628964387396653
 20
11.18462051367176
 30
0.0
  0
VERTEX
  5
F6
  8
PICTURE_HOLDERS
 10
8.640797367701055
 20
11.18766745656297
 30
0.0
  0
VERTEX
  5
F7
  8
PICTURE_HOLDERS
 10
8.652631681524394
 20
11.19036829367604
 30
0.0
  0
VERTEX
  5
F8
  8
PICTURE_HOLDERS
 10
8.664463328309857
 20
11.19272706515624
 30
0.0
  0
VERTEX
  5
F9
  8
PICTURE_HOLDERS
 10
8.676288307500624
 20
11.19474781114885
 30
0.0
  0
VERTEX
  5
FA
  8
PICTURE_HOLDERS
 10
8.688102618539876
 20
11.19643457179912
 30
0.0
  0
VERTEX
  5
FB
  8
PICTURE_HOLDERS
 10
8.699902260870807
 20
11.19779138725234
 30
0.0
  0
VERTEX
  5
FC
  8
PICTURE_HOLDERS
 10
8.711683233936586
 20
11.19882229765376
 30
0.0
  0
VERTEX
  5
FD
  8
PICTURE_HOLDERS
 10
8.723441537180406
 20
11.19953134314866
 30
0.0
  0
VERTEX
  5
FE
  8
PICTURE_HOLDERS
 10
8.746874131974899
 20
11.2
 30
0.0
  0
VERTEX
  5
FF
  8
PICTURE_HOLDERS
 10
8.770168040799746
 20
11.1992296789685
 30
0.0
  0
VERTEX
  5
100
  8
PICTURE_HOLDERS
 10
8.793291259200409
 20
11.19725270121632
 30
0.0
  0
VERTEX
  5
101
  8
PICTURE_HOLDERS
 10
8.816211782722359
 20
11.19410138790563
 30
0.0
  0
VERTEX
  5
102
  8
PICTURE_HOLDERS
 10
8.838897606911061
 20
11.18980806019859
 30
0.0
  0
VERTEX
  5
103
  8
PICTURE_HOLDERS
 10
8.861316727311987
 20
11.18440503925736
 30
0.0
  0
VERTEX
  5
104
  8
PICTURE_HOLDERS
 10
8.88343713947059
 20
11.17792464624409
 30
0.0
  0
VERTEX
  5
105
  8
PICTURE_HOLDERS
 10
8.90522683893235
 20
11.17039920232096
 30
0.0
  0
VERTEX
  5
106
  8
PICTURE_HOLDERS
 10
8.926653821242724
 20
11.16186102865012
 30
0.0
  0
VERTEX
  5
107
  8
PICTURE_HOLDERS
 10
8.947686081947182
 20
11.15234244639373
 30
0.0
  0
VERTEX
  5
108
  8
PICTURE_HOLDERS
 10
8.968291616591188
 20
11.14187577671395
 30
0.0
  0
VERTEX
  5
109
  8
PICTURE_HOLDERS
 10
8.988438420720215
 20
11.13049334077295
 30
0.0
  0
VERTEX
  5
10A
  8
PICTURE_HOLDERS
 10
9.008094489879714
 20
11.11822745973289
 30
0.0
  0
VERTEX
  5
10B
  8
PICTURE_HOLDERS
 10
9.02722781961517
 20
11.10511045475591
 30
0.0
  0
VERTEX
  5
10C
  8
PICTURE_HOLDERS
 10
9.045806405472035
 20
11.09117464700421
 30
0.0
  0
VERTEX
  5
10D
  8
PICTURE_HOLDERS
 10
9.06379824299578
 20
11.0764523576399
 30
0.0
  0
VERTEX
  5
10E
  8
PICTURE_HOLDERS
 10
9.081171327731873
 20
11.06097590782519
 30
0.0
  0
VERTEX
  5
10F
  8
PICTURE_HOLDERS
 10
9.097893655225779
 20
11.04477761872221
 30
0.0
  0
VERTEX
  5
110
  8
PICTURE_HOLDERS
 10
9.113933221022965
 20
11.02788981149314
 30
0.0
  0
VERTEX
  5
111
  8
PICTURE_HOLDERS
 10
9.1292580206689
 20
11.01034480730011
 30
0.0
  0
VERTEX
  5
112
  8
PICTURE_HOLDERS
 10
9.14383604970904
 20
10.99217492730533
 30
0.0
  0
VERTEX
  5
113
  8
PICTURE_HOLDERS
 10
9.15763530368886
 20
10.97341249267092
 30
0.0
  0
VERTEX
  5
114
  8
PICTURE_HOLDERS
 10
9.170623778153825
 20
10.95408982455905
 30
0.0
  0
VERTEX
  5
115
  8
PICTURE_HOLDERS
 10
9.182769468649397
 20
10.93423924413189
 30
0.0
  0
VERTEX
  5
116
  8
PICTURE_HOLDERS
 10
9.194040370721048
 20
10.9138930725516
 30
0.0
  0
VERTEX
  5
117
  8
PICTURE_HOLDERS
 10
9.204404479914238
 20
10.89308363098033
 30
0.0
  0
VERTEX
  5
118
  8
PICTURE_HOLDERS
 10
9.213829791774444
 20
10.87184324058025
 30
0.0
  0
VERTEX
  5
119
  8
PICTURE_HOLDERS
 10
9.222284301847122
 20
10.85020422251352
 30
0.0
  0
VERTEX
  5
11A
  8
PICTURE_HOLDERS
 10
9.229736005677736
 20
10.8281988979423
 30
0.0
  0
VERTEX
  5
11B
  8
PICTURE_HOLDERS
 10
9.23615289881176
 20
10.80585958802875
 30
0.0
  0
VERTEX
  5
11C
  8
PICTURE_HOLDERS
 10
9.24150297679466
 20
10.78321861393503
 30
0.0
  0
VERTEX
  5
11D
  8
PICTURE_HOLDERS
 10
9.245754235171898
 20
10.7603082968233
 30
0.0
  0
VERTEX
  5
11E
  8
PICTURE_HOLDERS
 10
9.248874669488945
 20
10.73716095785573
 30
0.0
  0
VERTEX
  5
11F
  8
PICTURE_HOLDERS
 10
9.250832275291263
 20
10.71380891819447
 30
0.0
  0
VERTEX
  5
120
  8
PICTURE_HOLDERS
 10
9.251595048124315
 20
10.69028449900169
 30
0.0
  0
VERTEX
  5
121
  8
PICTURE_HOLDERS
 10
9.25151837078533
 20
10.67846774744415
 30
0.0
  0
VERTEX
  5
122
  8
PICTURE_HOLDERS
 10
9.251130983533578
 20
10.66662002143954
 30
0.0
  0
VERTEX
  5
123
  8
PICTURE_HOLDERS
 10
9.25042888581224
 20
10.65474536113313
 30
0.0
  0
VERTEX
  5
124
  8
PICTURE_HOLDERS
 10
9.249408077064508
 20
10.64284780667018
 30
0.0
  0
VERTEX
  5
125
  8
PICTURE_HOLDERS
 10
9.248064556733556
 20
10.63093139819599
 30
0.0
  0
VERTEX
  5
126
  8
PICTURE_HOLDERS
 10
9.246394324262575
 20
10.6190001758558
 30
0.0
  0
VERTEX
  5
127
  8
PICTURE_HOLDERS
 10
9.244393379094745
 20
10.60705817979488
 30
0.0
  0
VERTEX
  5
128
  8
PICTURE_HOLDERS
 10
9.242057720673245
 20
10.59510945015852
 30
0.0
  0
VERTEX
  5
129
  8
PICTURE_HOLDERS
 10
9.239383348441265
 20
10.58315802709198
 30
0.0
  0
VERTEX
  5
12A
  8
PICTURE_HOLDERS
 10
9.236366261841987
 20
10.57120795074053
 30
0.0
  0
VERTEX
  5
12B
  8
PICTURE_HOLDERS
 10
9.233002460318591
 20
10.55926326124943
 30
0.0
  0
VERTEX
  5
12C
  8
PICTURE_HOLDERS
 10
9.229287943314262
 20
10.54732799876398
 30
0.0
  0
VERTEX
  5
12D
  8
PICTURE_HOLDERS
 10
9.225218710272184
 20
10.53540620342941
 30
0.0
  0
VERTEX
  5
12E
  8
PICTURE_HOLDERS
 10
9.220790760635541
 20
10.52350191539102
 30
0.0
  0
VERTEX
  5
12F
  8
PICTURE_HOLDERS
 10
9.216000093847512
 20
10.51161917479407
 30
0.0
  0
VERTEX
  5
130
  8
PICTURE_HOLDERS
 10
9.210842709351287
 20
10.49976202178383
 30
0.0
  0
VERTEX
  5
131
  8
PICTURE_HOLDERS
 10
9.205314606590044
 20
10.48793449650557
 30
0.0
  0
VERTEX
  5
132
  8
PICTURE_HOLDERS
 10
9.199411785006966
 20
10.47614063910456
 30
0.0
  0
VERTEX
  5
133
  8
PICTURE_HOLDERS
 10
9.193130244045243
 20
10.46438448972608
 30
0.0
  0
VERTEX
  5
134
  8
PICTURE_HOLDERS
 10
9.18646598314805
 20
10.45267008851538
 30
0.0
  0
VERTEX
  5
135
  8
PICTURE_HOLDERS
 10
9.17941500175857
 20
10.44100147561774
 30
0.0
  0
VERTEX
  5
136
  8
PICTURE_HOLDERS
 10
9.171973299319994
 20
10.42938269117844
 30
0.0
  0
VERTEX
  5
137
  8
PICTURE_HOLDERS
 10
9.164136875275503
 20
10.41781777534274
 30
0.0
  0
VERTEX
  5
138
  8
PICTURE_HOLDERS
 10
9.155901729068276
 20
10.4063107682559
 30
0.0
  0
VERTEX
  5
139
  8
PICTURE_HOLDERS
 10
9.1472638601415
 20
10.39486571006321
 30
0.0
  0
VERTEX
  5
13A
  8
PICTURE_HOLDERS
 10
9.138219267938357
 20
10.38348664090994
 30
0.0
  0
VERTEX
  5
13B
  8
PICTURE_HOLDERS
 10
9.12876395190203
 20
10.37217760094135
 30
0.0
  0
VERTEX
  5
13C
  8
PICTURE_HOLDERS
 10
9.118893911475702
 20
10.36094263030271
 30
0.0
  0
VERTEX
  5
13D
  8
PICTURE_HOLDERS
 10
9.108605146102558
 20
10.34978576913929
 30
0.0
  0
VERTEX
  5
13E
  8
PICTURE_HOLDERS
 10
9.097893655225779
 20
10.33871105759636
 30
0.0
  0
VERTEX
  5
13F
  8
PICTURE_HOLDERS
 10
9.097893655225782
 20
4.661288942403661
 30
0.0
  0
VERTEX
  5
140
  8
PICTURE_HOLDERS
 10
9.108605146102562
 20
4.650214230860725
 30
0.0
  0
VERTEX
  5
141
  8
PICTURE_HOLDERS
 10
9.118893911475709
 20
4.639057369697299
 30
0.0
  0
VERTEX
  5
142
  8
PICTURE_HOLDERS
 10
9.128763951902034
 20
4.627822399058656
 30
0.0
  0
VERTEX
  5
143
  8
PICTURE_HOLDERS
 10
9.13821926793836
 20
4.616513359090065
 30
0.0
  0
VERTEX
  5
144
  8
PICTURE_HOLDERS
 10
9.147263860141503
 20
4.605134289936795
 30
0.0
  0
VERTEX
  5
145
  8
PICTURE_HOLDERS
 10
9.155901729068283
 20
4.5936892317441
 30
0.0
  0
VERTEX
  5
146
  8
PICTURE_HOLDERS
 10
9.164136875275506
 20
4.582182224657273
 30
0.0
  0
VERTEX
  5
147
  8
PICTURE_HOLDERS
 10
9.171973299320001
 20
4.570617308821576
 30
0.0
  0
VERTEX
  5
148
  8
PICTURE_HOLDERS
 10
9.179415001758578
 20
4.558998524382269
 30
0.0
  0
VERTEX
  5
149
  8
PICTURE_HOLDERS
 10
9.186465983148054
 20
4.547329911484643
 30
0.0
  0
VERTEX
  5
14A
  8
PICTURE_HOLDERS
 10
9.19313024404525
 20
4.535615510273938
 30
0.0
  0
VERTEX
  5
14B
  8
PICTURE_HOLDERS
 10
9.199411785006976
 20
4.523859360895451
 30
0.0
  0
VERTEX
  5
14C
  8
PICTURE_HOLDERS
 10
9.20531460659005
 20
4.512065503494445
 30
0.0
  0
VERTEX
  5
14D
  8
PICTURE_HOLDERS
 10
9.21084270935129
 20
4.500237978216187
 30
0.0
  0
VERTEX
  5
14E
  8
PICTURE_HOLDERS
 10
9.21600009384752
 20
4.488380825205941
 30
0.0
  0
VERTEX
  5
14F
  8
PICTURE_HOLDERS
 10
9.220790760635545
 20
4.476498084608999
 30
0.0
  0
VERTEX
  5
150
  8
PICTURE_HOLDERS
 10
9.225218710272195
 20
4.464593796570603
 30
0.0
  0
VERTEX
  5
151
  8
PICTURE_HOLDERS
 10
9.229287943314269
 20
4.452672001236043
 30
0.0
  0
VERTEX
  5
152
  8
PICTURE_HOLDERS
 10
9.233002460318602
 20
4.440736738750579
 30
0.0
  0
VERTEX
  5
153
  8
PICTURE_HOLDERS
 10
9.236366261841994
 20
4.428792049259489
 30
0.0
  0
VERTEX
  5
154
  8
PICTURE_HOLDERS
 10
9.239383348441276
 20
4.41684197290803
 30
0.0
  0
VERTEX
  5
155
  8
PICTURE_HOLDERS
 10
9.242057720673252
 20
4.404890549841491
 30
0.0
  0
VERTEX
  5
156
  8
PICTURE_HOLDERS
 10
9.244393379094753
 20
4.392941820205134
 30
0.0
  0
VERTEX
  5
157
  8
PICTURE_HOLDERS
 10
9.246394324262585
 20
4.380999824144223
 30
0.0
  0
VERTEX
  5
158
  8
PICTURE_HOLDERS
 10
9.248064556733567
 20
4.369068601804034
 30
0.0
  0
VERTEX
  5
159
  8
PICTURE_HOLDERS
 10
9.249408077064516
 20
4.35715219332982
 30
0.0
  0
VERTEX
  5
15A
  8
PICTURE_HOLDERS
 10
9.250428885812248
 20
4.34525463886689
 30
0.0
  0
VERTEX
  5
15B
  8
PICTURE_HOLDERS
 10
9.251130983533585
 20
4.333379978560479
 30
0.0
  0
VERTEX
  5
15C
  8
PICTURE_HOLDERS
 10
9.251595048124322
 20
4.309715500998332
 30
0.0
  0
VERTEX
  5
15D
  8
PICTURE_HOLDERS
 10
9.250832275291273
 20
4.286191081805543
 30
0.0
  0
VERTEX
  5
15E
  8
PICTURE_HOLDERS
 10
9.248874669488956
 20
4.262839042144285
 30
0.0
  0
VERTEX
  5
15F
  8
PICTURE_HOLDERS
 10
9.245754235171908
 20
4.239691703176709
 30
0.0
  0
VERTEX
  5
160
  8
PICTURE_HOLDERS
 10
9.24150297679467
 20
4.216781386064979
 30
0.0
  0
VERTEX
  5
161
  8
PICTURE_HOLDERS
 10
9.23615289881177
 20
4.194140411971261
 30
0.0
  0
VERTEX
  5
162
  8
PICTURE_HOLDERS
 10
9.229736005677747
 20
4.171801102057711
 30
0.0
  0
VERTEX
  5
163
  8
PICTURE_HOLDERS
 10
9.222284301847132
 20
4.14979577748649
 30
0.0
  0
VERTEX
  5
164
  8
PICTURE_HOLDERS
 10
9.213829791774451
 20
4.128156759419757
 30
0.0
  0
VERTEX
  5
165
  8
PICTURE_HOLDERS
 10
9.204404479914249
 20
4.106916369019676
 30
0.0
  0
VERTEX
  5
166
  8
PICTURE_HOLDERS
 10
9.194040370721062
 20
4.086106927448406
 30
0.0
  0
VERTEX
  5
167
  8
PICTURE_HOLDERS
 10
9.182769468649404
 20
4.065760755868115
 30
0.0
  0
VERTEX
  5
168
  8
PICTURE_HOLDERS
 10
9.170623778153832
 20
4.045910175440956
 30
0.0
  0
VERTEX
  5
169
  8
PICTURE_HOLDERS
 10
9.15763530368887
 20
4.026587507329086
 30
0.0
  0
VERTEX
  5
16A
  8
PICTURE_HOLDERS
 10
9.143836049709051
 20
4.007825072694676
 30
0.0
  0
VERTEX
  5
16B
  8
PICTURE_HOLDERS
 10
9.129258020668907
 20
3.989655192699892
 30
0.0
  0
VERTEX
  5
16C
  8
PICTURE_HOLDERS
 10
9.113933221022975
 20
3.972110188506874
 30
0.0
  0
VERTEX
  5
16D
  8
PICTURE_HOLDERS
 10
9.09789365522579
 20
3.955222381277793
 30
0.0
  0
VERTEX
  5
16E
  8
PICTURE_HOLDERS
 10
9.081171327731884
 20
3.93902409217482
 30
0.0
  0
VERTEX
  5
16F
  8
PICTURE_HOLDERS
 10
9.06379824299579
 20
3.923547642360099
 30
0.0
  0
VERTEX
  5
170
  8
PICTURE_HOLDERS
 10
9.045806405472042
 20
3.908825352995804
 30
0.0
  0
VERTEX
  5
171
  8
PICTURE_HOLDERS
 10
9.027227819615177
 20
3.894889545244088
 30
0.0
  0
VERTEX
  5
172
  8
PICTURE_HOLDERS
 10
9.008094489879724
 20
3.881772540267117
 30
0.0
  0
VERTEX
  5
173
  8
PICTURE_HOLDERS
 10
8.988438420720222
 20
3.869506659227048
 30
0.0
  0
VERTEX
  5
174
  8
PICTURE_HOLDERS
 10
8.968291616591198
 20
3.858124223286048
 30
0.0
  0
VERTEX
  5
175
  8
PICTURE_HOLDERS
 10
8.947686081947193
 20
3.847657553606269
 30
0.0
  0
VERTEX
  5
176
  8
PICTURE_HOLDERS
 10
8.926653821242738
 20
3.838138971349886
 30
0.0
  0
VERTEX
  5
177
  8
PICTURE_HOLDERS
 10
8.905226838932364
 20
3.829600797679038
 30
0.0
  0
VERTEX
  5
178
  8
PICTURE_HOLDERS
 10
8.883437139470608
 20
3.822075353755907
 30
0.0
  0
VERTEX
  5
179
  8
PICTURE_HOLDERS
 10
8.861316727312001
 20
3.81559496074265
 30
0.0
  0
VERTEX
  5
17A
  8
PICTURE_HOLDERS
 10
8.838897606911075
 20
3.810191939801412
 30
0.0
  0
VERTEX
  5
17B
  8
PICTURE_HOLDERS
 10
8.81621178272237
 20
3.80589861209437
 30
0.0
  0
VERTEX
  5
17C
  8
PICTURE_HOLDERS
 10
8.793291259200423
 20
3.802747298783681
 30
0.0
  0
VERTEX
  5
17D
  8
PICTURE_HOLDERS
 10
8.77016804079976
 20
3.800770321031513
 30
0.0
  0
VERTEX
  5
17E
  8
PICTURE_HOLDERS
 10
8.74687413197491
 20
3.8
 30
0.0
  0
VERTEX
  5
17F
  8
PICTURE_HOLDERS
 10
8.735173170045464
 20
3.800077436117671
 30
0.0
  0
VERTEX
  5
180
  8
PICTURE_HOLDERS
 10
8.723441537180417
 20
3.800468656851332
 30
0.0
  0
VERTEX
  5
181
  8
PICTURE_HOLDERS
 10
8.711683233936597
 20
3.801177702346238
 30
0.0
  0
VERTEX
  5
182
  8
PICTURE_HOLDERS
 10
8.699902260870815
 20
3.802208612747664
 30
0.0
  0
VERTEX
  5
183
  8
PICTURE_HOLDERS
 10
8.688102618539887
 20
3.803565428200874
 30
0.0
  0
VERTEX
  5
184
  8
PICTURE_HOLDERS
 10
8.676288307500634
 20
3.805252188851145
 30
0.0
  0
VERTEX
  5
185
  8
PICTURE_HOLDERS
 10
8.664463328309864
 20
3.807272934843758
 30
0.0
  0
VERTEX
  5
186
  8
PICTURE_HOLDERS
 10
8.652631681524404
 20
3.809631706323951
 30
0.0
  0
VERTEX
  5
187
  8
PICTURE_HOLDERS
 10
8.640797367701065
 20
3.812332543437017
 30
0.0
  0
VERTEX
  5
188
  8
PICTURE_HOLDERS
 10
8.628964387396664
 20
3.815379486328234
 30
0.0
  0
VERTEX
  5
189
  8
PICTURE_HOLDERS
 10
8.617136741168018
 20
3.81877657514286
 30
0.0
  0
VERTEX
  5
18A
  8
PICTURE_HOLDERS
 10
8.605318429571945
 20
3.822527850026165
 30
0.0
  0
VERTEX
  5
18B
  8
PICTURE_HOLDERS
 10
8.593513453165258
 20
3.826637351123416
 30
0.0
  0
VERTEX
  5
18C
  8
PICTURE_HOLDERS
 10
8.581725812504786
 20
3.831109118579881
 30
0.0
  0
VERTEX
  5
18D
  8
PICTURE_HOLDERS
 10
8.569959508147328
 20
3.835947192540831
 30
0.0
  0
VERTEX
  5
18E
  8
PICTURE_HOLDERS
 10
8.558218540649715
 20
3.841155613151561
 30
0.0
  0
VERTEX
  5
18F
  8
PICTURE_HOLDERS
 10
8.546506910568752
 20
3.846738420557309
 30
0.0
  0
VERTEX
  5
190
  8
PICTURE_HOLDERS
 10
8.534828618461269
 20
3.852699654903366
 30
0.0
  0
VERTEX
  5
191
  8
PICTURE_HOLDERS
 10
8.52318766488407
 20
3.859043356334989
 30
0.0
  0
VERTEX
  5
192
  8
PICTURE_HOLDERS
 10
8.511588050393975
 20
3.865773564997457
 30
0.0
  0
VERTEX
  5
193
  8
PICTURE_HOLDERS
 10
8.50003377554781
 20
3.872894321036033
 30
0.0
  0
VERTEX
  5
194
  8
PICTURE_HOLDERS
 10
8.48852884090238
 20
3.880409664595986
 30
0.0
  0
VERTEX
  5
195
  8
PICTURE_HOLDERS
 10
8.477077247014506
 20
3.888323635822595
 30
0.0
  0
VERTEX
  5
196
  8
PICTURE_HOLDERS
 10
8.465682994441007
 20
3.896640274861123
 30
0.0
  0
VERTEX
  5
197
  8
PICTURE_HOLDERS
 10
8.454350083738696
 20
3.905363621856845
 30
0.0
  0
VERTEX
  5
198
  8
PICTURE_HOLDERS
 10
8.443082515464393
 20
3.914497716955039
 30
0.0
  0
VERTEX
  5
199
  8
PICTURE_HOLDERS
 10
8.431884290174914
 20
3.924046600300945
 30
0.0
  0
VERTEX
  5
19A
  8
PICTURE_HOLDERS
 10
8.420759408427074
 20
3.93401431203987
 30
0.0
  0
VERTEX
  5
19B
  8
PICTURE_HOLDERS
 10
8.409711870777691
 20
3.944404892317052
 30
0.0
  0
VERTEX
  5
19C
  8
PICTURE_HOLDERS
 10
8.39874567778358
 20
3.955222381277783
 30
0.0
  0
VERTEX
  5
19D
  8
PICTURE_HOLDERS
 10
4.754444418465077
 20
3.955222381277784
 30
0.0
  0
VERTEX
  5
19E
  8
PICTURE_HOLDERS
 10
4.74347822547097
 20
3.944404892317054
 30
0.0
  0
VERTEX
  5
19F
  8
PICTURE_HOLDERS
 10
4.732430687821584
 20
3.934014312039872
 30
0.0
  0
VERTEX
  5
1A0
  8
PICTURE_HOLDERS
 10
4.721305806073744
 20
3.924046600300946
 30
0.0
  0
VERTEX
  5
1A1
  8
PICTURE_HOLDERS
 10
4.710107580784264
 20
3.914497716955041
 30
0.0
  0
VERTEX
  5
1A2
  8
PICTURE_HOLDERS
 10
4.698840012509958
 20
3.905363621856847
 30
0.0
  0
VERTEX
  5
1A3
  8
PICTURE_HOLDERS
 10
4.68750710180765
 20
3.896640274861125
 30
0.0
  0
VERTEX
  5
1A4
  8
PICTURE_HOLDERS
 10
4.676112849234151
 20
3.888323635822597
 30
0.0
  0
VERTEX
  5
1A5
  8
PICTURE_HOLDERS
 10
4.664661255346278
 20
3.880409664595988
 30
0.0
  0
VERTEX
  5
1A6
  8
PICTURE_HOLDERS
 10
4.653156320700852
 20
3.872894321036035
 30
0.0
  0
VERTEX
  5
1A7
  8
PICTURE_HOLDERS
 10
4.641602045854683
 20
3.865773564997459
 30
0.0
  0
VERTEX
  5
1A8
  8
PICTURE_HOLDERS
 10
4.630002431364591
 20
3.859043356334991
 30
0.0
  0
VERTEX
  5
1A9
  8
PICTURE_HOLDERS
 10
4.618361477787392
 20
3.852699654903367
 30
0.0
  0
VERTEX
  5
1AA
  8
PICTURE_HOLDERS
 10
4.606683185679906
 20
3.846738420557311
 30
0.0
  0
VERTEX
  5
1AB
  8
PICTURE_HOLDERS
 10
4.594971555598946
 20
3.841155613151563
 30
0.0
  0
VERTEX
  5
1AC
  8
PICTURE_HOLDERS
 10
4.58323058810133
 20
3.835947192540833
 30
0.0
  0
VERTEX
  5
1AD
  8
PICTURE_HOLDERS
 10
4.571464283743872
 20
3.831109118579882
 30
0.0
  0
VERTEX
  5
1AE
  8
PICTURE_HOLDERS
 10
4.559676643083399
 20
3.826637351123417
 30
0.0
  0
VERTEX
  5
1AF
  8
PICTURE_HOLDERS
 10
4.547871666676713
 20
3.822527850026167
 30
0.0
  0
VERTEX
  5
1B0
  8
PICTURE_HOLDERS
 10
4.536053355080639
 20
3.818776575142862
 30
0.0
  0
VERTEX
  5
1B1
  8
PICTURE_HOLDERS
 10
4.524225708851993
 20
3.815379486328236
 30
0.0
  0
VERTEX
  5
1B2
  8
PICTURE_HOLDERS
 10
4.512392728547596
 20
3.812332543437019
 30
0.0
  0
VERTEX
  5
1B3
  8
PICTURE_HOLDERS
 10
4.500558414724257
 20
3.809631706323953
 30
0.0
  0
VERTEX
  5
1B4
  8
PICTURE_HOLDERS
 10
4.488726767938793
 20
3.80727293484376
 30
0.0
  0
VERTEX
  5
1B5
  8
PICTURE_HOLDERS
 10
4.476901788748027
 20
3.805252188851147
 30
0.0
  0
VERTEX
  5
1B6
  8
PICTURE_HOLDERS
 10
4.465087477708771
 20
3.803565428200876
 30
0.0
  0
VERTEX
  5
1B7
  8
PICTURE_HOLDERS
 10
4.453287835377843
 20
3.802208612747665
 30
0.0
  0
VERTEX
  5
1B8
  8
PICTURE_HOLDERS
 10
4.44150686231206
 20
3.80117770234624
 30
0.0
  0
VERTEX
  5
1B9
  8
PICTURE_HOLDERS
 10
4.429748559068241
 20
3.800468656851334
 30
0.0
  0
VERTEX
  5
1BA
  8
PICTURE_HOLDERS
 10
4.406315964273748
 20
3.800000000000002
 30
0.0
  0
VERTEX
  5
1BB
  8
PICTURE_HOLDERS
 10
4.383022055448901
 20
3.800770321031515
 30
0.0
  0
VERTEX
  5
1BC
  8
PICTURE_HOLDERS
 10
4.359898837048235
 20
3.802747298783683
 30
0.0
  0
VERTEX
  5
1BD
  8
PICTURE_HOLDERS
 10
4.336978313526284
 20
3.805898612094372
 30
0.0
  0
VERTEX
  5
1BE
  8
PICTURE_HOLDERS
 10
4.314292489337582
 20
3.810191939801414
 30
0.0
  0
VERTEX
  5
1BF
  8
PICTURE_HOLDERS
 10
4.29187336893666
 20
3.815594960742652
 30
0.0
  0
VERTEX
  5
1C0
  8
PICTURE_HOLDERS
 10
4.269752956778053
 20
3.822075353755909
 30
0.0
  0
VERTEX
  5
1C1
  8
PICTURE_HOLDERS
 10
4.247963257316293
 20
3.829600797679039
 30
0.0
  0
VERTEX
  5
1C2
  8
PICTURE_HOLDERS
 10
4.22653627500592
 20
3.838138971349887
 30
0.0
  0
VERTEX
  5
1C3
  8
PICTURE_HOLDERS
 10
4.205504014301464
 20
3.847657553606271
 30
0.0
  0
VERTEX
  5
1C4
  8
PICTURE_HOLDERS
 10
4.184898479657456
 20
3.85812422328605
 30
0.0
  0
VERTEX
  5
1C5
  8
PICTURE_HOLDERS
 10
4.164751675528436
 20
3.86950665922705
 30
0.0
  0
VERTEX
  5
1C6
  8
PICTURE_HOLDERS
 10
4.14509560636893
 20
3.881772540267119
 30
0.0
  0
VERTEX
  5
1C7
  8
PICTURE_HOLDERS
 10
4.12596227663348
 20
3.89488954524409
 30
0.0
  0
VERTEX
  5
1C8
  8
PICTURE_HOLDERS
 10
4.107383690776608
 20
3.908825352995806
 30
0.0
  0
VERTEX
  5
1C9
  8
PICTURE_HOLDERS
 10
4.089391853252863
 20
3.923547642360101
 30
0.0
  0
VERTEX
  5
1CA
  8
PICTURE_HOLDERS
 10
4.07201876851677
 20
3.939024092174821
 30
0.0
  0
VERTEX
  5
1CB
  8
PICTURE_HOLDERS
 10
4.055296441022861
 20
3.955222381277795
 30
0.0
  0
VERTEX
  5
1CC
  8
PICTURE_HOLDERS
 10
4.039256875225675
 20
3.972110188506876
 30
0.0
  0
VERTEX
  5
1CD
  8
PICTURE_HOLDERS
 10
4.023932075579744
 20
3.989655192699893
 30
0.0
  0
VERTEX
  5
1CE
  8
PICTURE_HOLDERS
 10
4.009354046539602
 20
4.007825072694678
 30
0.0
  0
VERTEX
  5
1CF
  8
PICTURE_HOLDERS
 10
3.995554792559776
 20
4.026587507329087
 30
0.0
  0
VERTEX
  5
1D0
  8
PICTURE_HOLDERS
 10
3.982566318094811
 20
4.045910175440958
 30
0.0
  0
VERTEX
  5
1D1
  8
PICTURE_HOLDERS
 10
3.970420627599239
 20
4.065760755868117
 30
0.0
  0
VERTEX
  5
1D2
  8
PICTURE_HOLDERS
 10
3.959149725527585
 20
4.086106927448408
 30
0.0
  0
VERTEX
  5
1D3
  8
PICTURE_HOLDERS
 10
3.948785616334394
 20
4.106916369019678
 30
0.0
  0
VERTEX
  5
1D4
  8
PICTURE_HOLDERS
 10
3.939360304474192
 20
4.128156759419759
 30
0.0
  0
VERTEX
  5
1D5
  8
PICTURE_HOLDERS
 10
3.930905794401514
 20
4.149795777486491
 30
0.0
  0
VERTEX
  5
1D6
  8
PICTURE_HOLDERS
 10
3.923454090570896
 20
4.171801102057713
 30
0.0
  0
VERTEX
  5
1D7
  8
PICTURE_HOLDERS
 10
3.917037197436873
 20
4.194140411971262
 30
0.0
  0
VERTEX
  5
1D8
  8
PICTURE_HOLDERS
 10
3.911687119453973
 20
4.216781386064981
 30
0.0
  0
VERTEX
  5
1D9
  8
PICTURE_HOLDERS
 10
3.907435861076735
 20
4.239691703176711
 30
0.0
  0
VERTEX
  5
1DA
  8
PICTURE_HOLDERS
 10
3.904315426759691
 20
4.262839042144287
 30
0.0
  0
VERTEX
  5
1DB
  8
PICTURE_HOLDERS
 10
3.902357820957373
 20
4.286191081805545
 30
0.0
  0
VERTEX
  5
1DC
  8
PICTURE_HOLDERS
 10
3.901595048124321
 20
4.309715500998334
 30
0.0
  0
VERTEX
  5
1DD
  8
PICTURE_HOLDERS
 10
3.901671725463306
 20
4.321532252555865
 30
0.0
  0
VERTEX
  5
1DE
  8
PICTURE_HOLDERS
 10
3.902059112715058
 20
4.333379978560481
 30
0.0
  0
VERTEX
  5
1DF
  8
PICTURE_HOLDERS
 10
3.902761210436392
 20
4.345254638866892
 30
0.0
  0
VERTEX
  5
1E0
  8
PICTURE_HOLDERS
 10
3.903782019184128
 20
4.357152193329822
 30
0.0
  0
VERTEX
  5
1E1
  8
PICTURE_HOLDERS
 10
3.90512553951508
 20
4.369068601804035
 30
0.0
  0
VERTEX
  5
1E2
  8
PICTURE_HOLDERS
 10
3.906795771986062
 20
4.380999824144225
 30
0.0
  0
VERTEX
  5
1E3
  8
PICTURE_HOLDERS
 10
3.908796717153894
 20
4.392941820205135
 30
0.0
  0
VERTEX
  5
1E4
  8
PICTURE_HOLDERS
 10
3.911132375575392
 20
4.404890549841492
 30
0.0
  0
VERTEX
  5
1E5
  8
PICTURE_HOLDERS
 10
3.913806747807371
 20
4.416841972908032
 30
0.0
  0
VERTEX
  5
1E6
  8
PICTURE_HOLDERS
 10
3.916823834406649
 20
4.428792049259491
 30
0.0
  0
VERTEX
  5
1E7
  8
PICTURE_HOLDERS
 10
3.920187635930045
 20
4.440736738750581
 30
0.0
  0
VERTEX
  5
1E8
  8
PICTURE_HOLDERS
 10
3.923902152934374
 20
4.452672001236045
 30
0.0
  0
VERTEX
  5
1E9
  8
PICTURE_HOLDERS
 10
3.927971385976452
 20
4.464593796570605
 30
0.0
  0
VERTEX
  5
1EA
  8
PICTURE_HOLDERS
 10
3.932399335613098
 20
4.476498084609001
 30
0.0
  0
VERTEX
  5
1EB
  8
PICTURE_HOLDERS
 10
3.937190002401124
 20
4.488380825205943
 30
0.0
  0
VERTEX
  5
1EC
  8
PICTURE_HOLDERS
 10
3.942347386897353
 20
4.500237978216188
 30
0.0
  0
VERTEX
  5
1ED
  8
PICTURE_HOLDERS
 10
3.947875489658593
 20
4.512065503494447
 30
0.0
  0
VERTEX
  5
1EE
  8
PICTURE_HOLDERS
 10
3.95377831124167
 20
4.523859360895453
 30
0.0
  0
VERTEX
  5
1EF
  8
PICTURE_HOLDERS
 10
3.960059852203397
 20
4.535615510273939
 30
0.0
  0
VERTEX
  5
1F0
  8
PICTURE_HOLDERS
 10
3.966724113100589
 20
4.547329911484645
 30
0.0
  0
VERTEX
  5
1F1
  8
PICTURE_HOLDERS
 10
3.973775094490065
 20
4.558998524382271
 30
0.0
  0
VERTEX
  5
1F2
  8
PICTURE_HOLDERS
 10
3.981216796928642
 20
4.570617308821578
 30
0.0
  0
VERTEX
  5
1F3
  8
PICTURE_HOLDERS
 10
3.989053220973133
 20
4.582182224657275
 30
0.0
  0
VERTEX
  5
1F4
  8
PICTURE_HOLDERS
 10
3.997288367180364
 20
4.593689231744102
 30
0.0
  0
VERTEX
  5
1F5
  8
PICTURE_HOLDERS
 10
4.005926236107143
 20
4.605134289936797
 30
0.0
  0
VERTEX
  5
1F6
  8
PICTURE_HOLDERS
 10
4.014970828310293
 20
4.616513359090066
 30
0.0
  0
VERTEX
  5
1F7
  8
PICTURE_HOLDERS
 10
4.02442614434662
 20
4.627822399058657
 30
0.0
  0
VERTEX
  5
1F8
  8
PICTURE_HOLDERS
 10
4.034296184772948
 20
4.639057369697301
 30
0.0
  0
VERTEX
  5
1F9
  8
PICTURE_HOLDERS
 10
4.044584950146092
 20
4.650214230860727
 30
0.0
  0
SEQEND
  5
FEB
  8
PICTURE_HOLDERS
  0
POLYLINE
  5
71
  8
PICTURE_HOLDERS
 66
     1
 10
0.0
 20
0.0
 30
0.0
 70
     1
  0
VERTEX
  5
1FA
  8
PICTURE_HOLDERS
 10
4.550595048124329
 20
10.7344
 30
0.0
 42
0.4142135623730951
  0
VERTEX
  5
1FB
  8
PICTURE_HOLDERS
 10
4.300595048124329
 20
10.4844
 30
0.0
  0
VERTEX
  5
1FC
  8
PICTURE_HOLDERS
 10
4.300595048124329
 20
4.515650000000002
 30
0.0
 42
0.4142135623730951
  0
VERTEX
  5
1FD
  8
PICTURE_HOLDERS
 10
4.550595048124329
 20
4.265650000000002
 30
0.0
  0
VERTEX
  5
1FE
  8
PICTURE_HOLDERS
 10
8.602678381457658
 20
4.26565
 30
0.0
 42
0.4142135623730951
  0
VERTEX
  5
1FF
  8
PICTURE_HOLDERS
 10
8.852678381457658
 20
4.51565
 30
0.0
  0
VERTEX
  5
200
  8
PICTURE_HOLDERS
 10
8.852678381457658
 20
10.4844
 30
0.0
 42
0.4142135623730951
  0
VERTEX
  5
201
  8
PICTURE_HOLDERS
 10
8.602678381457658
 20
10.7344
 30
0.0
  0
SEQEND
  5
FEC
  8
PICTURE_HOLDERS
  0
POLYLINE
  5
72
  8
PICTURE_HOLDERS
 66
     1
 10
0.0
 20
0.0
 30
0.0
 70
     1
  0
VERTEX
  5
202
  8
PICTURE_HOLDERS
 10
4.675595048124329
 20
10.6094
 30
0.0
 42
0.4142135623730951
  0
VERTEX
  5
203
  8
PICTURE_HOLDERS
 10
4.425595048124329
 20
10.3594
 30
0.0
  0
VERTEX
  5
204
  8
PICTURE_HOLDERS
 10
4.425595048124329
 20
4.640650000000002
 30
0.0
 42
0.4142135623730951
  0
VERTEX
  5
205
  8
PICTURE_HOLDERS
 10
4.675595048124329
 20
4.390650000000002
 30
0.0
  0
VERTEX
  5
206
  8
PICTURE_HOLDERS
 10
8.477678381457658
 20
4.39065
 30
0.0
 42
0.4142135623730951
  0
VERTEX
  5
207
  8
PICTURE_HOLDERS
 10
8.727678381457658
 20
4.64065
 30
0.0
  0
VERTEX
  5
208
  8
PICTURE_HOLDERS
 10
8.727678381457658
 20
10.3594
 30
0.0
 42
0.4142135623730951
  0
VERTEX
  5
209
  8
PICTURE_HOLDERS
 10
8.477678381457658
 20
10.6094
 30
0.0
  0
SEQEND
  5
FED
  8
PICTURE_HOLDERS
  0
POLYLINE
  5
73
  8
PICTURE_HOLDERS
 66
     1
 10
0.0
 20
0.0
 30
0.0
 70
     1
  0
VERTEX
  5
20A
  8
PICTURE_HOLDERS
 10
24.94470355897712
 20
4.661288942403663
 30
0.0
  0
VERTEX
  5
20B
  8
PICTURE_HOLDERS
 10
24.94470355897712
 20
10.33871105759635
 30
0.0
  0
VERTEX
  5
20C
  8
PICTURE_HOLDERS
 10
24.9554150498539
 20
10.34978576913928
 30
0.0
  0
VERTEX
  5
20D
  8
PICTURE_HOLDERS
 10
24.96570381522705
 20
10.3609426303027
 30
0.0
  0
VERTEX
  5
20E
  8
PICTURE_HOLDERS
 10
24.97557385565338
 20
10.37217760094134
 30
0.0
  0
VERTEX
  5
20F
  8
PICTURE_HOLDERS
 10
24.98502917168971
 20
10.38348664090994
 30
0.0
  0
VERTEX
  5
210
  8
PICTURE_HOLDERS
 10
24.99407376389285
 20
10.39486571006321
 30
0.0
  0
VERTEX
  5
211
  8
PICTURE_HOLDERS
 10
25.00271163281964
 20
10.40631076825591
 30
0.0
  0
VERTEX
  5
212
  8
PICTURE_HOLDERS
 10
25.01094677902686
 20
10.41781777534274
 30
0.0
  0
VERTEX
  5
213
  8
PICTURE_HOLDERS
 10
25.01878320307136
 20
10.42938269117844
 30
0.0
  0
VERTEX
  5
214
  8
PICTURE_HOLDERS
 10
25.02622490550993
 20
10.44100147561774
 30
0.0
  0
VERTEX
  5
215
  8
PICTURE_HOLDERS
 10
25.03327588689941
 20
10.45267008851538
 30
0.0
  0
VERTEX
  5
216
  8
PICTURE_HOLDERS
 10
25.0399401477966
 20
10.46438448972607
 30
0.0
  0
VERTEX
  5
217
  8
PICTURE_HOLDERS
 10
25.04622168875833
 20
10.47614063910456
 30
0.0
  0
VERTEX
  5
218
  8
PICTURE_HOLDERS
 10
25.0521245103414
 20
10.48793449650556
 30
0.0
  0
VERTEX
  5
219
  8
PICTURE_HOLDERS
 10
25.05765261310265
 20
10.49976202178382
 30
0.0
  0
VERTEX
  5
21A
  8
PICTURE_HOLDERS
 10
25.06280999759888
 20
10.51161917479407
 30
0.0
  0
VERTEX
  5
21B
  8
PICTURE_HOLDERS
 10
25.0676006643869
 20
10.52350191539101
 30
0.0
  0
VERTEX
  5
21C
  8
PICTURE_HOLDERS
 10
25.07202861402355
 20
10.53540620342941
 30
0.0
  0
VERTEX
  5
21D
  8
PICTURE_HOLDERS
 10
25.07609784706563
 20
10.54732799876396
 30
0.0
  0
VERTEX
  5
21E
  8
PICTURE_HOLDERS
 10
25.07981236406995
 20
10.55926326124943
 30
0.0
  0
VERTEX
  5
21F
  8
PICTURE_HOLDERS
 10
25.08317616559335
 20
10.57120795074052
 30
0.0
  0
VERTEX
  5
220
  8
PICTURE_HOLDERS
 10
25.08619325219263
 20
10.58315802709198
 30
0.0
  0
VERTEX
  5
221
  8
PICTURE_HOLDERS
 10
25.08886762442461
 20
10.59510945015852
 30
0.0
  0
VERTEX
  5
222
  8
PICTURE_HOLDERS
 10
25.09120328284611
 20
10.60705817979488
 30
0.0
  0
VERTEX
  5
223
  8
PICTURE_HOLDERS
 10
25.09320422801394
 20
10.61900017585579
 30
0.0
  0
VERTEX
  5
224
  8
PICTURE_HOLDERS
 10
25.09487446048492
 20
10.63093139819599
 30
0.0
  0
VERTEX
  5
225
  8
PICTURE_HOLDERS
 10
25.09621798081587
 20
10.64284780667018
 30
0.0
  0
VERTEX
  5
226
  8
PICTURE_HOLDERS
 10
25.0972387895636
 20
10.65474536113312
 30
0.0
  0
VERTEX
  5
227
  8
PICTURE_HOLDERS
 10
25.09794088728494
 20
10.66662002143953
 30
0.0
  0
VERTEX
  5
228
  8
PICTURE_HOLDERS
 10
25.09840495187568
 20
10.69028449900168
 30
0.0
  0
VERTEX
  5
229
  8
PICTURE_HOLDERS
 10
25.09764217904262
 20
10.71380891819447
 30
0.0
  0
VERTEX
  5
22A
  8
PICTURE_HOLDERS
 10
25.09568457324031
 20
10.73716095785573
 30
0.0
  0
VERTEX
  5
22B
  8
PICTURE_HOLDERS
 10
25.09256413892326
 20
10.7603082968233
 30
0.0
  0
VERTEX
  5
22C
  8
PICTURE_HOLDERS
 10
25.08831288054603
 20
10.78321861393503
 30
0.0
  0
VERTEX
  5
22D
  8
PICTURE_HOLDERS
 10
25.08296280256313
 20
10.80585958802875
 30
0.0
  0
VERTEX
  5
22E
  8
PICTURE_HOLDERS
 10
25.0765459094291
 20
10.8281988979423
 30
0.0
  0
VERTEX
  5
22F
  8
PICTURE_HOLDERS
 10
25.06909420559848
 20
10.85020422251352
 30
0.0
  0
VERTEX
  5
230
  8
PICTURE_HOLDERS
 10
25.0606396955258
 20
10.87184324058025
 30
0.0
  0
VERTEX
  5
231
  8
PICTURE_HOLDERS
 10
25.05121438366561
 20
10.89308363098034
 30
0.0
  0
VERTEX
  5
232
  8
PICTURE_HOLDERS
 10
25.04085027447241
 20
10.9138930725516
 30
0.0
  0
VERTEX
  5
233
  8
PICTURE_HOLDERS
 10
25.02957937240076
 20
10.93423924413189
 30
0.0
  0
VERTEX
  5
234
  8
PICTURE_HOLDERS
 10
25.01743368190519
 20
10.95408982455905
 30
0.0
  0
VERTEX
  5
235
  8
PICTURE_HOLDERS
 10
25.00444520744022
 20
10.97341249267092
 30
0.0
  0
VERTEX
  5
236
  8
PICTURE_HOLDERS
 10
24.9906459534604
 20
10.99217492730533
 30
0.0
  0
VERTEX
  5
237
  8
PICTURE_HOLDERS
 10
24.97606792442025
 20
11.01034480730012
 30
0.0
  0
VERTEX
  5
238
  8
PICTURE_HOLDERS
 10
24.96074312477432
 20
11.02788981149314
 30
0.0
  0
VERTEX
  5
239
  8
PICTURE_HOLDERS
 10
24.94470355897714
 20
11.04477761872222
 30
0.0
  0
VERTEX
  5
23A
  8
PICTURE_HOLDERS
 10
24.92798123148323
 20
11.0609759078252
 30
0.0
  0
VERTEX
  5
23B
  8
PICTURE_HOLDERS
 10
24.91060814674714
 20
11.0764523576399
 30
0.0
  0
VERTEX
  5
23C
  8
PICTURE_HOLDERS
 10
24.89261630922339
 20
11.09117464700421
 30
0.0
  0
VERTEX
  5
23D
  8
PICTURE_HOLDERS
 10
24.87403772336652
 20
11.10511045475591
 30
0.0
  0
VERTEX
  5
23E
  8
PICTURE_HOLDERS
 10
24.85490439363107
 20
11.11822745973289
 30
0.0
  0
VERTEX
  5
23F
  8
PICTURE_HOLDERS
 10
24.83524832447156
 20
11.13049334077295
 30
0.0
  0
VERTEX
  5
240
  8
PICTURE_HOLDERS
 10
24.81510152034254
 20
11.14187577671395
 30
0.0
  0
VERTEX
  5
241
  8
PICTURE_HOLDERS
 10
24.79449598569854
 20
11.15234244639373
 30
0.0
  0
VERTEX
  5
242
  8
PICTURE_HOLDERS
 10
24.77346372499408
 20
11.16186102865012
 30
0.0
  0
VERTEX
  5
243
  8
PICTURE_HOLDERS
 10
24.7520367426837
 20
11.17039920232096
 30
0.0
  0
VERTEX
  5
244
  8
PICTURE_HOLDERS
 10
24.73024704322194
 20
11.17792464624409
 30
0.0
  0
VERTEX
  5
245
  8
PICTURE_HOLDERS
 10
24.70812663106334
 20
11.18440503925736
 30
0.0
  0
VERTEX
  5
246
  8
PICTURE_HOLDERS
 10
24.68570751066242
 20
11.18980806019858
 30
0.0
  0
VERTEX
  5
247
  8
PICTURE_HOLDERS
 10
24.66302168647371
 20
11.19410138790563
 30
0.0
  0
VERTEX
  5
248
  8
PICTURE_HOLDERS
 10
24.64010116295177
 20
11.19725270121631
 30
0.0
  0
VERTEX
  5
249
  8
PICTURE_HOLDERS
 10
24.6169779445511
 20
11.19922967896849
 30
0.0
  0
VERTEX
  5
24A
  8
PICTURE_HOLDERS
 10
24.59368403572625
 20
11.19999999999999
 30
0.0
  0
VERTEX
  5
24B
  8
PICTURE_HOLDERS
 10
24.5819830737968
 20
11.19992256388232
 30
0.0
  0
VERTEX
  5
24C
  8
PICTURE_HOLDERS
 10
24.57025144093176
 20
11.19953134314866
 30
0.0
  0
VERTEX
  5
24D
  8
PICTURE_HOLDERS
 10
24.55849313768794
 20
11.19882229765376
 30
0.0
  0
VERTEX
  5
24E
  8
PICTURE_HOLDERS
 10
24.54671216462216
 20
11.19779138725234
 30
0.0
  0
VERTEX
  5
24F
  8
PICTURE_HOLDERS
 10
24.53491252229123
 20
11.19643457179912
 30
0.0
  0
VERTEX
  5
250
  8
PICTURE_HOLDERS
 10
24.52309821125197
 20
11.19474781114885
 30
0.0
  0
VERTEX
  5
251
  8
PICTURE_HOLDERS
 10
24.5112732320612
 20
11.19272706515624
 30
0.0
  0
VERTEX
  5
252
  8
PICTURE_HOLDERS
 10
24.49944158527574
 20
11.19036829367605
 30
0.0
  0
VERTEX
  5
253
  8
PICTURE_HOLDERS
 10
24.4876072714524
 20
11.18766745656297
 30
0.0
  0
VERTEX
  5
254
  8
PICTURE_HOLDERS
 10
24.475774291148
 20
11.18462051367176
 30
0.0
  0
VERTEX
  5
255
  8
PICTURE_HOLDERS
 10
24.46394664491936
 20
11.18122342485714
 30
0.0
  0
VERTEX
  5
256
  8
PICTURE_HOLDERS
 10
24.45212833332329
 20
11.17747214997383
 30
0.0
  0
VERTEX
  5
257
  8
PICTURE_HOLDERS
 10
24.4403233569166
 20
11.17336264887658
 30
0.0
  0
VERTEX
  5
258
  8
PICTURE_HOLDERS
 10
24.42853571625612
 20
11.16889088142011
 30
0.0
  0
VERTEX
  5
259
  8
PICTURE_HOLDERS
 10
24.41676941189867
 20
11.16405280745915
 30
0.0
  0
VERTEX
  5
25A
  8
PICTURE_HOLDERS
 10
24.40502844440105
 20
11.15884438684843
 30
0.0
  0
VERTEX
  5
25B
  8
PICTURE_HOLDERS
 10
24.39331681432009
 20
11.15326157944268
 30
0.0
  0
VERTEX
  5
25C
  8
PICTURE_HOLDERS
 10
24.38163852221261
 20
11.14730034509662
 30
0.0
  0
VERTEX
  5
25D
  8
PICTURE_HOLDERS
 10
24.36999756863541
 20
11.140956643665
 30
0.0
  0
VERTEX
  5
25E
  8
PICTURE_HOLDERS
 10
24.35839795414532
 20
11.13422643500253
 30
0.0
  0
VERTEX
  5
25F
  8
PICTURE_HOLDERS
 10
24.34684367929915
 20
11.12710567896396
 30
0.0
  0
VERTEX
  5
260
  8
PICTURE_HOLDERS
 10
24.33533874465372
 20
11.119590335404
 30
0.0
  0
VERTEX
  5
261
  8
PICTURE_HOLDERS
 10
24.32388715076585
 20
11.1116763641774
 30
0.0
  0
VERTEX
  5
262
  8
PICTURE_HOLDERS
 10
24.31249289819235
 20
11.10335972513887
 30
0.0
  0
VERTEX
  5
263
  8
PICTURE_HOLDERS
 10
24.30115998749004
 20
11.09463637814314
 30
0.0
  0
VERTEX
  5
264
  8
PICTURE_HOLDERS
 10
24.28989241921574
 20
11.08550228304496
 30
0.0
  0
VERTEX
  5
265
  8
PICTURE_HOLDERS
 10
24.27869419392626
 20
11.07595339969904
 30
0.0
  0
VERTEX
  5
266
  8
PICTURE_HOLDERS
 10
24.26756931217841
 20
11.06598568796013
 30
0.0
  0
VERTEX
  5
267
  8
PICTURE_HOLDERS
 10
24.25652177452903
 20
11.05559510768294
 30
0.0
  0
VERTEX
  5
268
  8
PICTURE_HOLDERS
 10
24.24555558153492
 20
11.0447776187222
 30
0.0
  0
VERTEX
  5
269
  8
PICTURE_HOLDERS
 10
20.60125432221643
 20
11.04477761872223
 30
0.0
  0
VERTEX
  5
26A
  8
PICTURE_HOLDERS
 10
20.59028812922232
 20
11.05559510768296
 30
0.0
  0
VERTEX
  5
26B
  8
PICTURE_HOLDERS
 10
20.57924059157293
 20
11.06598568796014
 30
0.0
  0
VERTEX
  5
26C
  8
PICTURE_HOLDERS
 10
20.56811570982509
 20
11.07595339969905
 30
0.0
  0
VERTEX
  5
26D
  8
PICTURE_HOLDERS
 10
20.55691748453561
 20
11.08550228304497
 30
0.0
  0
VERTEX
  5
26E
  8
PICTURE_HOLDERS
 10
20.54564991626131
 20
11.09463637814316
 30
0.0
  0
VERTEX
  5
26F
  8
PICTURE_HOLDERS
 10
20.534317005559
 20
11.10335972513888
 30
0.0
  0
VERTEX
  5
270
  8
PICTURE_HOLDERS
 10
20.5229227529855
 20
11.11167636417741
 30
0.0
  0
VERTEX
  5
271
  8
PICTURE_HOLDERS
 10
20.51147115909763
 20
11.11959033540401
 30
0.0
  0
VERTEX
  5
272
  8
PICTURE_HOLDERS
 10
20.4999662244522
 20
11.12710567896397
 30
0.0
  0
VERTEX
  5
273
  8
PICTURE_HOLDERS
 10
20.48841194960603
 20
11.13422643500255
 30
0.0
  0
VERTEX
  5
274
  8
PICTURE_HOLDERS
 10
20.47681233511594
 20
11.14095664366501
 30
0.0
  0
VERTEX
  5
275
  8
PICTURE_HOLDERS
 10
20.46517138153874
 20
11.14730034509664
 30
0.0
  0
VERTEX
  5
276
  8
PICTURE_HOLDERS
 10
20.45349308943126
 20
11.15326157944269
 30
0.0
  0
VERTEX
  5
277
  8
PICTURE_HOLDERS
 10
20.4417814593503
 20
11.15884438684844
 30
0.0
  0
VERTEX
  5
278
  8
PICTURE_HOLDERS
 10
20.43004049185268
 20
11.16405280745916
 30
0.0
  0
VERTEX
  5
279
  8
PICTURE_HOLDERS
 10
20.41827418749522
 20
11.16889088142012
 30
0.0
  0
VERTEX
  5
27A
  8
PICTURE_HOLDERS
 10
20.40648654683475
 20
11.17336264887659
 30
0.0
  0
VERTEX
  5
27B
  8
PICTURE_HOLDERS
 10
20.39468157042806
 20
11.17747214997384
 30
0.0
  0
VERTEX
  5
27C
  8
PICTURE_HOLDERS
 10
20.38286325883199
 20
11.18122342485714
 30
0.0
  0
VERTEX
  5
27D
  8
PICTURE_HOLDERS
 10
20.37103561260335
 20
11.18462051367176
 30
0.0
  0
VERTEX
  5
27E
  8
PICTURE_HOLDERS
 10
20.35920263229895
 20
11.18766745656297
 30
0.0
  0
VERTEX
  5
27F
  8
PICTURE_HOLDERS
 10
20.34736831847561
 20
11.19036829367604
 30
0.0
  0
VERTEX
  5
280
  8
PICTURE_HOLDERS
 10
20.33553667169014
 20
11.19272706515624
 30
0.0
  0
VERTEX
  5
281
  8
PICTURE_HOLDERS
 10
20.32371169249938
 20
11.19474781114885
 30
0.0
  0
VERTEX
  5
282
  8
PICTURE_HOLDERS
 10
20.31189738146012
 20
11.19643457179912
 30
0.0
  0
VERTEX
  5
283
  8
PICTURE_HOLDERS
 10
20.30009773912919
 20
11.19779138725234
 30
0.0
  0
VERTEX
  5
284
  8
PICTURE_HOLDERS
 10
20.28831676606341
 20
11.19882229765376
 30
0.0
  0
VERTEX
  5
285
  8
PICTURE_HOLDERS
 10
20.27655846281959
 20
11.19953134314866
 30
0.0
  0
VERTEX
  5
286
  8
PICTURE_HOLDERS
 10
20.2531258680251
 20
11.2
 30
0.0
  0
VERTEX
  5
287
  8
PICTURE_HOLDERS
 10
20.22983195920025
 20
11.1992296789685
 30
0.0
  0
VERTEX
  5
288
  8
PICTURE_HOLDERS
 10
20.20670874079959
 20
11.19725270121632
 30
0.0
  0
VERTEX
  5
289
  8
PICTURE_HOLDERS
 10
20.18378821727764
 20
11.19410138790563
 30
0.0
  0
VERTEX
  5
28A
  8
PICTURE_HOLDERS
 10
20.16110239308894
 20
11.18980806019859
 30
0.0
  0
VERTEX
  5
28B
  8
PICTURE_HOLDERS
 10
20.13868327268801
 20
11.18440503925736
 30
0.0
  0
VERTEX
  5
28C
  8
PICTURE_HOLDERS
 10
20.11656286052941
 20
11.17792464624409
 30
0.0
  0
VERTEX
  5
28D
  8
PICTURE_HOLDERS
 10
20.09477316106765
 20
11.17039920232096
 30
0.0
  0
VERTEX
  5
28E
  8
PICTURE_HOLDERS
 10
20.07334617875728
 20
11.16186102865012
 30
0.0
  0
VERTEX
  5
28F
  8
PICTURE_HOLDERS
 10
20.05231391805282
 20
11.15234244639373
 30
0.0
  0
VERTEX
  5
290
  8
PICTURE_HOLDERS
 10
20.03170838340881
 20
11.14187577671395
 30
0.0
  0
VERTEX
  5
291
  8
PICTURE_HOLDERS
 10
20.01156157927979
 20
11.13049334077295
 30
0.0
  0
VERTEX
  5
292
  8
PICTURE_HOLDERS
 10
19.99190551012029
 20
11.11822745973289
 30
0.0
  0
VERTEX
  5
293
  8
PICTURE_HOLDERS
 10
19.97277218038483
 20
11.10511045475591
 30
0.0
  0
VERTEX
  5
294
  8
PICTURE_HOLDERS
 10
19.95419359452796
 20
11.09117464700421
 30
0.0
  0
VERTEX
  5
295
  8
PICTURE_HOLDERS
 10
19.93620175700422
 20
11.0764523576399
 30
0.0
  0
VERTEX
  5
296
  8
PICTURE_HOLDERS
 10
19.91882867226813
 20
11.06097590782519
 30
0.0
  0
VERTEX
  5
297
  8
PICTURE_HOLDERS
 10
19.90210634477422
 20
11.04477761872221
 30
0.0
  0
VERTEX
  5
298
  8
PICTURE_HOLDERS
 10
19.88606677897704
 20
11.02788981149314
 30
0.0
  0
VERTEX
  5
299
  8
PICTURE_HOLDERS
 10
19.8707419793311
 20
11.01034480730011
 30
0.0
  0
VERTEX
  5
29A
  8
PICTURE_HOLDERS
 10
19.85616395029096
 20
10.99217492730533
 30
0.0
  0
VERTEX
  5
29B
  8
PICTURE_HOLDERS
 10
19.84236469631114
 20
10.97341249267092
 30
0.0
  0
VERTEX
  5
29C
  8
PICTURE_HOLDERS
 10
19.82937622184618
 20
10.95408982455905
 30
0.0
  0
VERTEX
  5
29D
  8
PICTURE_HOLDERS
 10
19.8172305313506
 20
10.93423924413189
 30
0.0
  0
VERTEX
  5
29E
  8
PICTURE_HOLDERS
 10
19.80595962927895
 20
10.9138930725516
 30
0.0
  0
VERTEX
  5
29F
  8
PICTURE_HOLDERS
 10
19.79559552008576
 20
10.89308363098033
 30
0.0
  0
VERTEX
  5
2A0
  8
PICTURE_HOLDERS
 10
19.78617020822556
 20
10.87184324058025
 30
0.0
  0
VERTEX
  5
2A1
  8
PICTURE_HOLDERS
 10
19.77771569815288
 20
10.85020422251352
 30
0.0
  0
VERTEX
  5
2A2
  8
PICTURE_HOLDERS
 10
19.77026399432226
 20
10.8281988979423
 30
0.0
  0
VERTEX
  5
2A3
  8
PICTURE_HOLDERS
 10
19.76384710118824
 20
10.80585958802875
 30
0.0
  0
VERTEX
  5
2A4
  8
PICTURE_HOLDERS
 10
19.75849702320534
 20
10.78321861393503
 30
0.0
  0
VERTEX
  5
2A5
  8
PICTURE_HOLDERS
 10
19.7542457648281
 20
10.7603082968233
 30
0.0
  0
VERTEX
  5
2A6
  8
PICTURE_HOLDERS
 10
19.75112533051106
 20
10.73716095785573
 30
0.0
  0
VERTEX
  5
2A7
  8
PICTURE_HOLDERS
 10
19.74916772470874
 20
10.71380891819447
 30
0.0
  0
VERTEX
  5
2A8
  8
PICTURE_HOLDERS
 10
19.74840495187568
 20
10.69028449900169
 30
0.0
  0
VERTEX
  5
2A9
  8
PICTURE_HOLDERS
 10
19.74848162921467
 20
10.67846774744415
 30
0.0
  0
VERTEX
  5
2AA
  8
PICTURE_HOLDERS
 10
19.74886901646642
 20
10.66662002143954
 30
0.0
  0
VERTEX
  5
2AB
  8
PICTURE_HOLDERS
 10
19.74957111418776
 20
10.65474536113313
 30
0.0
  0
VERTEX
  5
2AC
  8
PICTURE_HOLDERS
 10
19.75059192293549
 20
10.64284780667018
 30
0.0
  0
VERTEX
  5
2AD
  8
PICTURE_HOLDERS
 10
19.75193544326644
 20
10.63093139819599
 30
0.0
  0
VERTEX
  5
2AE
  8
PICTURE_HOLDERS
 10
19.75360567573743
 20
10.6190001758558
 30
0.0
  0
VERTEX
  5
2AF
  8
PICTURE_HOLDERS
 10
19.75560662090525
 20
10.60705817979488
 30
0.0
  0
VERTEX
  5
2B0
  8
PICTURE_HOLDERS
 10
19.75794227932676
 20
10.59510945015852
 30
0.0
  0
VERTEX
  5
2B1
  8
PICTURE_HOLDERS
 10
19.76061665155873
 20
10.58315802709198
 30
0.0
  0
VERTEX
  5
2B2
  8
PICTURE_HOLDERS
 10
19.76363373815801
 20
10.57120795074053
 30
0.0
  0
VERTEX
  5
2B3
  8
PICTURE_HOLDERS
 10
19.76699753968141
 20
10.55926326124943
 30
0.0
  0
VERTEX
  5
2B4
  8
PICTURE_HOLDERS
 10
19.77071205668574
 20
10.54732799876398
 30
0.0
  0
VERTEX
  5
2B5
  8
PICTURE_HOLDERS
 10
19.77478128972782
 20
10.53540620342941
 30
0.0
  0
VERTEX
  5
2B6
  8
PICTURE_HOLDERS
 10
19.77920923936446
 20
10.52350191539102
 30
0.0
  0
VERTEX
  5
2B7
  8
PICTURE_HOLDERS
 10
19.78399990615249
 20
10.51161917479407
 30
0.0
  0
VERTEX
  5
2B8
  8
PICTURE_HOLDERS
 10
19.78915729064871
 20
10.49976202178383
 30
0.0
  0
VERTEX
  5
2B9
  8
PICTURE_HOLDERS
 10
19.79468539340996
 20
10.48793449650557
 30
0.0
  0
VERTEX
  5
2BA
  8
PICTURE_HOLDERS
 10
19.80058821499303
 20
10.47614063910456
 30
0.0
  0
VERTEX
  5
2BB
  8
PICTURE_HOLDERS
 10
19.80686975595476
 20
10.46438448972608
 30
0.0
  0
VERTEX
  5
2BC
  8
PICTURE_HOLDERS
 10
19.81353401685195
 20
10.45267008851538
 30
0.0
  0
VERTEX
  5
2BD
  8
PICTURE_HOLDERS
 10
19.82058499824143
 20
10.44100147561774
 30
0.0
  0
VERTEX
  5
2BE
  8
PICTURE_HOLDERS
 10
19.82802670068001
 20
10.42938269117844
 30
0.0
  0
VERTEX
  5
2BF
  8
PICTURE_HOLDERS
 10
19.8358631247245
 20
10.41781777534274
 30
0.0
  0
VERTEX
  5
2C0
  8
PICTURE_HOLDERS
 10
19.84409827093172
 20
10.4063107682559
 30
0.0
  0
VERTEX
  5
2C1
  8
PICTURE_HOLDERS
 10
19.8527361398585
 20
10.39486571006321
 30
0.0
  0
VERTEX
  5
2C2
  8
PICTURE_HOLDERS
 10
19.86178073206164
 20
10.38348664090994
 30
0.0
  0
VERTEX
  5
2C3
  8
PICTURE_HOLDERS
 10
19.87123604809797
 20
10.37217760094135
 30
0.0
  0
VERTEX
  5
2C4
  8
PICTURE_HOLDERS
 10
19.8811060885243
 20
10.36094263030271
 30
0.0
  0
VERTEX
  5
2C5
  8
PICTURE_HOLDERS
 10
19.89139485389744
 20
10.34978576913929
 30
0.0
  0
VERTEX
  5
2C6
  8
PICTURE_HOLDERS
 10
19.90210634477422
 20
10.33871105759636
 30
0.0
  0
VERTEX
  5
2C7
  8
PICTURE_HOLDERS
 10
19.90210634477422
 20
4.661288942403661
 30
0.0
  0
VERTEX
  5
2C8
  8
PICTURE_HOLDERS
 10
19.89139485389744
 20
4.650214230860725
 30
0.0
  0
VERTEX
  5
2C9
  8
PICTURE_HOLDERS
 10
19.88110608852429
 20
4.639057369697299
 30
0.0
  0
VERTEX
  5
2CA
  8
PICTURE_HOLDERS
 10
19.87123604809797
 20
4.627822399058656
 30
0.0
  0
VERTEX
  5
2CB
  8
PICTURE_HOLDERS
 10
19.86178073206164
 20
4.616513359090065
 30
0.0
  0
VERTEX
  5
2CC
  8
PICTURE_HOLDERS
 10
19.8527361398585
 20
4.605134289936795
 30
0.0
  0
VERTEX
  5
2CD
  8
PICTURE_HOLDERS
 10
19.84409827093172
 20
4.5936892317441
 30
0.0
  0
VERTEX
  5
2CE
  8
PICTURE_HOLDERS
 10
19.83586312472449
 20
4.582182224657273
 30
0.0
  0
VERTEX
  5
2CF
  8
PICTURE_HOLDERS
 10
19.82802670068
 20
4.570617308821576
 30
0.0
  0
VERTEX
  5
2D0
  8
PICTURE_HOLDERS
 10
19.82058499824142
 20
4.558998524382269
 30
0.0
  0
VERTEX
  5
2D1
  8
PICTURE_HOLDERS
 10
19.81353401685195
 20
4.547329911484643
 30
0.0
  0
VERTEX
  5
2D2
  8
PICTURE_HOLDERS
 10
19.80686975595475
 20
4.535615510273938
 30
0.0
  0
VERTEX
  5
2D3
  8
PICTURE_HOLDERS
 10
19.80058821499302
 20
4.523859360895451
 30
0.0
  0
VERTEX
  5
2D4
  8
PICTURE_HOLDERS
 10
19.79468539340995
 20
4.512065503494445
 30
0.0
  0
VERTEX
  5
2D5
  8
PICTURE_HOLDERS
 10
19.78915729064871
 20
4.500237978216187
 30
0.0
  0
VERTEX
  5
2D6
  8
PICTURE_HOLDERS
 10
19.78399990615248
 20
4.488380825205941
 30
0.0
  0
VERTEX
  5
2D7
  8
PICTURE_HOLDERS
 10
19.77920923936446
 20
4.476498084608999
 30
0.0
  0
VERTEX
  5
2D8
  8
PICTURE_HOLDERS
 10
19.77478128972781
 20
4.464593796570603
 30
0.0
  0
VERTEX
  5
2D9
  8
PICTURE_HOLDERS
 10
19.77071205668573
 20
4.452672001236043
 30
0.0
  0
VERTEX
  5
2DA
  8
PICTURE_HOLDERS
 10
19.7669975396814
 20
4.440736738750579
 30
0.0
  0
VERTEX
  5
2DB
  8
PICTURE_HOLDERS
 10
19.76363373815801
 20
4.428792049259489
 30
0.0
  0
VERTEX
  5
2DC
  8
PICTURE_HOLDERS
 10
19.76061665155872
 20
4.41684197290803
 30
0.0
  0
VERTEX
  5
2DD
  8
PICTURE_HOLDERS
 10
19.75794227932675
 20
4.404890549841491
 30
0.0
  0
VERTEX
  5
2DE
  8
PICTURE_HOLDERS
 10
19.75560662090525
 20
4.392941820205134
 30
0.0
  0
VERTEX
  5
2DF
  8
PICTURE_HOLDERS
 10
19.75360567573741
 20
4.380999824144223
 30
0.0
  0
VERTEX
  5
2E0
  8
PICTURE_HOLDERS
 10
19.75193544326643
 20
4.369068601804034
 30
0.0
  0
VERTEX
  5
2E1
  8
PICTURE_HOLDERS
 10
19.75059192293548
 20
4.35715219332982
 30
0.0
  0
VERTEX
  5
2E2
  8
PICTURE_HOLDERS
 10
19.74957111418775
 20
4.34525463886689
 30
0.0
  0
VERTEX
  5
2E3
  8
PICTURE_HOLDERS
 10
19.74886901646641
 20
4.333379978560479
 30
0.0
  0
VERTEX
  5
2E4
  8
PICTURE_HOLDERS
 10
19.74840495187568
 20
4.309715500998332
 30
0.0
  0
VERTEX
  5
2E5
  8
PICTURE_HOLDERS
 10
19.74916772470873
 20
4.286191081805543
 30
0.0
  0
VERTEX
  5
2E6
  8
PICTURE_HOLDERS
 10
19.75112533051104
 20
4.262839042144285
 30
0.0
  0
VERTEX
  5
2E7
  8
PICTURE_HOLDERS
 10
19.75424576482809
 20
4.239691703176709
 30
0.0
  0
VERTEX
  5
2E8
  8
PICTURE_HOLDERS
 10
19.75849702320533
 20
4.216781386064979
 30
0.0
  0
VERTEX
  5
2E9
  8
PICTURE_HOLDERS
 10
19.76384710118823
 20
4.194140411971261
 30
0.0
  0
VERTEX
  5
2EA
  8
PICTURE_HOLDERS
 10
19.77026399432225
 20
4.171801102057711
 30
0.0
  0
VERTEX
  5
2EB
  8
PICTURE_HOLDERS
 10
19.77771569815287
 20
4.14979577748649
 30
0.0
  0
VERTEX
  5
2EC
  8
PICTURE_HOLDERS
 10
19.78617020822555
 20
4.128156759419757
 30
0.0
  0
VERTEX
  5
2ED
  8
PICTURE_HOLDERS
 10
19.79559552008575
 20
4.106916369019676
 30
0.0
  0
VERTEX
  5
2EE
  8
PICTURE_HOLDERS
 10
19.80595962927894
 20
4.086106927448406
 30
0.0
  0
VERTEX
  5
2EF
  8
PICTURE_HOLDERS
 10
19.8172305313506
 20
4.065760755868115
 30
0.0
  0
VERTEX
  5
2F0
  8
PICTURE_HOLDERS
 10
19.82937622184617
 20
4.045910175440956
 30
0.0
  0
VERTEX
  5
2F1
  8
PICTURE_HOLDERS
 10
19.84236469631113
 20
4.026587507329086
 30
0.0
  0
VERTEX
  5
2F2
  8
PICTURE_HOLDERS
 10
19.85616395029095
 20
4.007825072694676
 30
0.0
  0
VERTEX
  5
2F3
  8
PICTURE_HOLDERS
 10
19.87074197933109
 20
3.989655192699892
 30
0.0
  0
VERTEX
  5
2F4
  8
PICTURE_HOLDERS
 10
19.88606677897702
 20
3.972110188506874
 30
0.0
  0
VERTEX
  5
2F5
  8
PICTURE_HOLDERS
 10
19.90210634477421
 20
3.955222381277793
 30
0.0
  0
VERTEX
  5
2F6
  8
PICTURE_HOLDERS
 10
19.91882867226812
 20
3.93902409217482
 30
0.0
  0
VERTEX
  5
2F7
  8
PICTURE_HOLDERS
 10
19.93620175700421
 20
3.923547642360099
 30
0.0
  0
VERTEX
  5
2F8
  8
PICTURE_HOLDERS
 10
19.95419359452796
 20
3.908825352995804
 30
0.0
  0
VERTEX
  5
2F9
  8
PICTURE_HOLDERS
 10
19.97277218038482
 20
3.894889545244088
 30
0.0
  0
VERTEX
  5
2FA
  8
PICTURE_HOLDERS
 10
19.99190551012028
 20
3.881772540267117
 30
0.0
  0
VERTEX
  5
2FB
  8
PICTURE_HOLDERS
 10
20.01156157927978
 20
3.869506659227048
 30
0.0
  0
VERTEX
  5
2FC
  8
PICTURE_HOLDERS
 10
20.0317083834088
 20
3.858124223286048
 30
0.0
  0
VERTEX
  5
2FD
  8
PICTURE_HOLDERS
 10
20.05231391805281
 20
3.847657553606269
 30
0.0
  0
VERTEX
  5
2FE
  8
PICTURE_HOLDERS
 10
20.07334617875726
 20
3.838138971349886
 30
0.0
  0
VERTEX
  5
2FF
  8
PICTURE_HOLDERS
 10
20.09477316106764
 20
3.829600797679038
 30
0.0
  0
VERTEX
  5
300
  8
PICTURE_HOLDERS
 10
20.11656286052939
 20
3.822075353755907
 30
0.0
  0
VERTEX
  5
301
  8
PICTURE_HOLDERS
 10
20.138683272688
 20
3.81559496074265
 30
0.0
  0
VERTEX
  5
302
  8
PICTURE_HOLDERS
 10
20.16110239308892
 20
3.810191939801412
 30
0.0
  0
VERTEX
  5
303
  8
PICTURE_HOLDERS
 10
20.18378821727763
 20
3.80589861209437
 30
0.0
  0
VERTEX
  5
304
  8
PICTURE_HOLDERS
 10
20.20670874079958
 20
3.802747298783681
 30
0.0
  0
VERTEX
  5
305
  8
PICTURE_HOLDERS
 10
20.22983195920024
 20
3.800770321031513
 30
0.0
  0
VERTEX
  5
306
  8
PICTURE_HOLDERS
 10
20.25312586802509
 20
3.8
 30
0.0
  0
VERTEX
  5
307
  8
PICTURE_HOLDERS
 10
20.26482682995454
 20
3.800077436117671
 30
0.0
  0
VERTEX
  5
308
  8
PICTURE_HOLDERS
 10
20.27655846281958
 20
3.800468656851332
 30
0.0
  0
VERTEX
  5
309
  8
PICTURE_HOLDERS
 10
20.2883167660634
 20
3.801177702346238
 30
0.0
  0
VERTEX
  5
30A
  8
PICTURE_HOLDERS
 10
20.30009773912919
 20
3.802208612747664
 30
0.0
  0
VERTEX
  5
30B
  8
PICTURE_HOLDERS
 10
20.31189738146011
 20
3.803565428200874
 30
0.0
  0
VERTEX
  5
30C
  8
PICTURE_HOLDERS
 10
20.32371169249937
 20
3.805252188851145
 30
0.0
  0
VERTEX
  5
30D
  8
PICTURE_HOLDERS
 10
20.33553667169014
 20
3.807272934843758
 30
0.0
  0
VERTEX
  5
30E
  8
PICTURE_HOLDERS
 10
20.3473683184756
 20
3.809631706323951
 30
0.0
  0
VERTEX
  5
30F
  8
PICTURE_HOLDERS
 10
20.35920263229893
 20
3.812332543437017
 30
0.0
  0
VERTEX
  5
310
  8
PICTURE_HOLDERS
 10
20.37103561260334
 20
3.815379486328234
 30
0.0
  0
VERTEX
  5
311
  8
PICTURE_HOLDERS
 10
20.38286325883198
 20
3.81877657514286
 30
0.0
  0
VERTEX
  5
312
  8
PICTURE_HOLDERS
 10
20.39468157042806
 20
3.822527850026165
 30
0.0
  0
VERTEX
  5
313
  8
PICTURE_HOLDERS
 10
20.40648654683474
 20
3.826637351123416
 30
0.0
  0
VERTEX
  5
314
  8
PICTURE_HOLDERS
 10
20.41827418749521
 20
3.831109118579881
 30
0.0
  0
VERTEX
  5
315
  8
PICTURE_HOLDERS
 10
20.43004049185267
 20
3.835947192540831
 30
0.0
  0
VERTEX
  5
316
  8
PICTURE_HOLDERS
 10
20.44178145935028
 20
3.841155613151561
 30
0.0
  0
VERTEX
  5
317
  8
PICTURE_HOLDERS
 10
20.45349308943125
 20
3.846738420557309
 30
0.0
  0
VERTEX
  5
318
  8
PICTURE_HOLDERS
 10
20.46517138153873
 20
3.852699654903366
 30
0.0
  0
VERTEX
  5
319
  8
PICTURE_HOLDERS
 10
20.47681233511593
 20
3.859043356334989
 30
0.0
  0
VERTEX
  5
31A
  8
PICTURE_HOLDERS
 10
20.48841194960603
 20
3.865773564997457
 30
0.0
  0
VERTEX
  5
31B
  8
PICTURE_HOLDERS
 10
20.49996622445219
 20
3.872894321036033
 30
0.0
  0
VERTEX
  5
31C
  8
PICTURE_HOLDERS
 10
20.51147115909762
 20
3.880409664595986
 30
0.0
  0
VERTEX
  5
31D
  8
PICTURE_HOLDERS
 10
20.52292275298549
 20
3.888323635822595
 30
0.0
  0
VERTEX
  5
31E
  8
PICTURE_HOLDERS
 10
20.53431700555899
 20
3.896640274861123
 30
0.0
  0
VERTEX
  5
31F
  8
PICTURE_HOLDERS
 10
20.5456499162613
 20
3.905363621856845
 30
0.0
  0
VERTEX
  5
320
  8
PICTURE_HOLDERS
 10
20.55691748453561
 20
3.914497716955039
 30
0.0
  0
VERTEX
  5
321
  8
PICTURE_HOLDERS
 10
20.56811570982509
 20
3.924046600300945
 30
0.0
  0
VERTEX
  5
322
  8
PICTURE_HOLDERS
 10
20.57924059157293
 20
3.93401431203987
 30
0.0
  0
VERTEX
  5
323
  8
PICTURE_HOLDERS
 10
20.59028812922231
 20
3.944404892317052
 30
0.0
  0
VERTEX
  5
324
  8
PICTURE_HOLDERS
 10
20.60125432221642
 20
3.955222381277783
 30
0.0
  0
VERTEX
  5
325
  8
PICTURE_HOLDERS
 10
24.24555558153492
 20
3.955222381277784
 30
0.0
  0
VERTEX
  5
326
  8
PICTURE_HOLDERS
 10
24.25652177452903
 20
3.944404892317054
 30
0.0
  0
VERTEX
  5
327
  8
PICTURE_HOLDERS
 10
24.26756931217842
 20
3.934014312039872
 30
0.0
  0
VERTEX
  5
328
  8
PICTURE_HOLDERS
 10
24.27869419392626
 20
3.924046600300946
 30
0.0
  0
VERTEX
  5
329
  8
PICTURE_HOLDERS
 10
24.28989241921574
 20
3.914497716955041
 30
0.0
  0
VERTEX
  5
32A
  8
PICTURE_HOLDERS
 10
24.30115998749004
 20
3.905363621856847
 30
0.0
  0
VERTEX
  5
32B
  8
PICTURE_HOLDERS
 10
24.31249289819235
 20
3.896640274861125
 30
0.0
  0
VERTEX
  5
32C
  8
PICTURE_HOLDERS
 10
24.32388715076585
 20
3.888323635822597
 30
0.0
  0
VERTEX
  5
32D
  8
PICTURE_HOLDERS
 10
24.33533874465372
 20
3.880409664595988
 30
0.0
  0
VERTEX
  5
32E
  8
PICTURE_HOLDERS
 10
24.34684367929915
 20
3.872894321036035
 30
0.0
  0
VERTEX
  5
32F
  8
PICTURE_HOLDERS
 10
24.35839795414532
 20
3.865773564997459
 30
0.0
  0
VERTEX
  5
330
  8
PICTURE_HOLDERS
 10
24.36999756863541
 20
3.859043356334991
 30
0.0
  0
VERTEX
  5
331
  8
PICTURE_HOLDERS
 10
24.38163852221261
 20
3.852699654903367
 30
0.0
  0
VERTEX
  5
332
  8
PICTURE_HOLDERS
 10
24.39331681432009
 20
3.846738420557311
 30
0.0
  0
VERTEX
  5
333
  8
PICTURE_HOLDERS
 10
24.40502844440105
 20
3.841155613151563
 30
0.0
  0
VERTEX
  5
334
  8
PICTURE_HOLDERS
 10
24.41676941189867
 20
3.835947192540833
 30
0.0
  0
VERTEX
  5
335
  8
PICTURE_HOLDERS
 10
24.42853571625613
 20
3.831109118579882
 30
0.0
  0
VERTEX
  5
336
  8
PICTURE_HOLDERS
 10
24.4403233569166
 20
3.826637351123417
 30
0.0
  0
VERTEX
  5
337
  8
PICTURE_HOLDERS
 10
24.45212833332329
 20
3.822527850026167
 30
0.0
  0
VERTEX
  5
338
  8
PICTURE_HOLDERS
 10
24.46394664491936
 20
3.818776575142862
 30
0.0
  0
VERTEX
  5
339
  8
PICTURE_HOLDERS
 10
24.47577429114801
 20
3.815379486328236
 30
0.0
  0
VERTEX
  5
33A
  8
PICTURE_HOLDERS
 10
24.4876072714524
 20
3.812332543437019
 30
0.0
  0
VERTEX
  5
33B
  8
PICTURE_HOLDERS
 10
24.49944158527574
 20
3.809631706323953
 30
0.0
  0
VERTEX
  5
33C
  8
PICTURE_HOLDERS
 10
24.51127323206121
 20
3.80727293484376
 30
0.0
  0
VERTEX
  5
33D
  8
PICTURE_HOLDERS
 10
24.52309821125197
 20
3.805252188851147
 30
0.0
  0
VERTEX
  5
33E
  8
PICTURE_HOLDERS
 10
24.53491252229123
 20
3.803565428200876
 30
0.0
  0
VERTEX
  5
33F
  8
PICTURE_HOLDERS
 10
24.54671216462216
 20
3.802208612747665
 30
0.0
  0
VERTEX
  5
340
  8
PICTURE_HOLDERS
 10
24.55849313768794
 20
3.80117770234624
 30
0.0
  0
VERTEX
  5
341
  8
PICTURE_HOLDERS
 10
24.57025144093176
 20
3.800468656851334
 30
0.0
  0
VERTEX
  5
342
  8
PICTURE_HOLDERS
 10
24.59368403572625
 20
3.800000000000002
 30
0.0
  0
VERTEX
  5
343
  8
PICTURE_HOLDERS
 10
24.6169779445511
 20
3.800770321031515
 30
0.0
  0
VERTEX
  5
344
  8
PICTURE_HOLDERS
 10
24.64010116295177
 20
3.802747298783683
 30
0.0
  0
VERTEX
  5
345
  8
PICTURE_HOLDERS
 10
24.66302168647372
 20
3.805898612094372
 30
0.0
  0
VERTEX
  5
346
  8
PICTURE_HOLDERS
 10
24.68570751066242
 20
3.810191939801414
 30
0.0
  0
VERTEX
  5
347
  8
PICTURE_HOLDERS
 10
24.70812663106334
 20
3.815594960742652
 30
0.0
  0
VERTEX
  5
348
  8
PICTURE_HOLDERS
 10
24.73024704322195
 20
3.822075353755909
 30
0.0
  0
VERTEX
  5
349
  8
PICTURE_HOLDERS
 10
24.75203674268371
 20
3.829600797679039
 30
0.0
  0
VERTEX
  5
34A
  8
PICTURE_HOLDERS
 10
24.77346372499408
 20
3.838138971349887
 30
0.0
  0
VERTEX
  5
34B
  8
PICTURE_HOLDERS
 10
24.79449598569854
 20
3.847657553606271
 30
0.0
  0
VERTEX
  5
34C
  8
PICTURE_HOLDERS
 10
24.81510152034254
 20
3.85812422328605
 30
0.0
  0
VERTEX
  5
34D
  8
PICTURE_HOLDERS
 10
24.83524832447156
 20
3.86950665922705
 30
0.0
  0
VERTEX
  5
34E
  8
PICTURE_HOLDERS
 10
24.85490439363107
 20
3.881772540267119
 30
0.0
  0
VERTEX
  5
34F
  8
PICTURE_HOLDERS
 10
24.87403772336652
 20
3.89488954524409
 30
0.0
  0
VERTEX
  5
350
  8
PICTURE_HOLDERS
 10
24.89261630922339
 20
3.908825352995806
 30
0.0
  0
VERTEX
  5
351
  8
PICTURE_HOLDERS
 10
24.91060814674714
 20
3.923547642360101
 30
0.0
  0
VERTEX
  5
352
  8
PICTURE_HOLDERS
 10
24.92798123148323
 20
3.939024092174821
 30
0.0
  0
VERTEX
  5
353
  8
PICTURE_HOLDERS
 10
24.94470355897714
 20
3.955222381277795
 30
0.0
  0
VERTEX
  5
354
  8
PICTURE_HOLDERS
 10
24.96074312477432
 20
3.972110188506876
 30
0.0
  0
VERTEX
  5
355
  8
PICTURE_HOLDERS
 10
24.97606792442026
 20
3.989655192699893
 30
0.0
  0
VERTEX
  5
356
  8
PICTURE_HOLDERS
 10
24.9906459534604
 20
4.007825072694678
 30
0.0
  0
VERTEX
  5
357
  8
PICTURE_HOLDERS
 10
25.00444520744022
 20
4.026587507329087
 30
0.0
  0
VERTEX
  5
358
  8
PICTURE_HOLDERS
 10
25.01743368190519
 20
4.045910175440958
 30
0.0
  0
VERTEX
  5
359
  8
PICTURE_HOLDERS
 10
25.02957937240076
 20
4.065760755868117
 30
0.0
  0
VERTEX
  5
35A
  8
PICTURE_HOLDERS
 10
25.04085027447242
 20
4.086106927448408
 30
0.0
  0
VERTEX
  5
35B
  8
PICTURE_HOLDERS
 10
25.05121438366561
 20
4.106916369019678
 30
0.0
  0
VERTEX
  5
35C
  8
PICTURE_HOLDERS
 10
25.06063969552581
 20
4.128156759419759
 30
0.0
  0
VERTEX
  5
35D
  8
PICTURE_HOLDERS
 10
25.06909420559849
 20
4.149795777486491
 30
0.0
  0
VERTEX
  5
35E
  8
PICTURE_HOLDERS
 10
25.0765459094291
 20
4.171801102057713
 30
0.0
  0
VERTEX
  5
35F
  8
PICTURE_HOLDERS
 10
25.08296280256313
 20
4.194140411971262
 30
0.0
  0
VERTEX
  5
360
  8
PICTURE_HOLDERS
 10
25.08831288054603
 20
4.216781386064981
 30
0.0
  0
VERTEX
  5
361
  8
PICTURE_HOLDERS
 10
25.09256413892327
 20
4.239691703176711
 30
0.0
  0
VERTEX
  5
362
  8
PICTURE_HOLDERS
 10
25.09568457324031
 20
4.262839042144287
 30
0.0
  0
VERTEX
  5
363
  8
PICTURE_HOLDERS
 10
25.09764217904263
 20
4.286191081805545
 30
0.0
  0
VERTEX
  5
364
  8
PICTURE_HOLDERS
 10
25.09840495187568
 20
4.309715500998334
 30
0.0
  0
VERTEX
  5
365
  8
PICTURE_HOLDERS
 10
25.09832827453669
 20
4.321532252555865
 30
0.0
  0
VERTEX
  5
366
  8
PICTURE_HOLDERS
 10
25.09794088728494
 20
4.333379978560481
 30
0.0
  0
VERTEX
  5
367
  8
PICTURE_HOLDERS
 10
25.09723878956361
 20
4.345254638866892
 30
0.0
  0
VERTEX
  5
368
  8
PICTURE_HOLDERS
 10
25.09621798081587
 20
4.357152193329822
 30
0.0
  0
VERTEX
  5
369
  8
PICTURE_HOLDERS
 10
25.09487446048492
 20
4.369068601804035
 30
0.0
  0
VERTEX
  5
36A
  8
PICTURE_HOLDERS
 10
25.09320422801394
 20
4.380999824144225
 30
0.0
  0
VERTEX
  5
36B
  8
PICTURE_HOLDERS
 10
25.09120328284611
 20
4.392941820205135
 30
0.0
  0
VERTEX
  5
36C
  8
PICTURE_HOLDERS
 10
25.08886762442461
 20
4.404890549841492
 30
0.0
  0
VERTEX
  5
36D
  8
PICTURE_HOLDERS
 10
25.08619325219263
 20
4.416841972908032
 30
0.0
  0
VERTEX
  5
36E
  8
PICTURE_HOLDERS
 10
25.08317616559335
 20
4.428792049259491
 30
0.0
  0
VERTEX
  5
36F
  8
PICTURE_HOLDERS
 10
25.07981236406996
 20
4.440736738750581
 30
0.0
  0
VERTEX
  5
370
  8
PICTURE_HOLDERS
 10
25.07609784706563
 20
4.452672001236045
 30
0.0
  0
VERTEX
  5
371
  8
PICTURE_HOLDERS
 10
25.07202861402355
 20
4.464593796570605
 30
0.0
  0
VERTEX
  5
372
  8
PICTURE_HOLDERS
 10
25.0676006643869
 20
4.476498084609001
 30
0.0
  0
VERTEX
  5
373
  8
PICTURE_HOLDERS
 10
25.06280999759888
 20
4.488380825205943
 30
0.0
  0
VERTEX
  5
374
  8
PICTURE_HOLDERS
 10
25.05765261310265
 20
4.500237978216188
 30
0.0
  0
VERTEX
  5
375
  8
PICTURE_HOLDERS
 10
25.05212451034141
 20
4.512065503494447
 30
0.0
  0
VERTEX
  5
376
  8
PICTURE_HOLDERS
 10
25.04622168875833
 20
4.523859360895453
 30
0.0
  0
VERTEX
  5
377
  8
PICTURE_HOLDERS
 10
25.0399401477966
 20
4.535615510273939
 30
0.0
  0
VERTEX
  5
378
  8
PICTURE_HOLDERS
 10
25.03327588689941
 20
4.547329911484645
 30
0.0
  0
VERTEX
  5
379
  8
PICTURE_HOLDERS
 10
25.02622490550993
 20
4.558998524382271
 30
0.0
  0
VERTEX
  5
37A
  8
PICTURE_HOLDERS
 10
25.01878320307136
 20
4.570617308821578
 30
0.0
  0
VERTEX
  5
37B
  8
PICTURE_HOLDERS
 10
25.01094677902687
 20
4.582182224657275
 30
0.0
  0
VERTEX
  5
37C
  8
PICTURE_HOLDERS
 10
25.00271163281964
 20
4.593689231744102
 30
0.0
  0
VERTEX
  5
37D
  8
PICTURE_HOLDERS
 10
24.99407376389286
 20
4.605134289936797
 30
0.0
  0
VERTEX
  5
37E
  8
PICTURE_HOLDERS
 10
24.98502917168971
 20
4.616513359090066
 30
0.0
  0
VERTEX
  5
37F
  8
PICTURE_HOLDERS
 10
24.97557385565338
 20
4.627822399058657
 30
0.0
  0
VERTEX
  5
380
  8
PICTURE_HOLDERS
 10
24.96570381522705
 20
4.639057369697301
 30
0.0
  0
VERTEX
  5
381
  8
PICTURE_HOLDERS
 10
24.95541504985391
 20
4.650214230860727
 30
0.0
  0
SEQEND
  5
FEE
  8
PICTURE_HOLDERS
  0
POLYLINE
  5
74
  8
PICTURE_HOLDERS
 66
     1
 10
0.0
 20
0.0
 30
0.0
 70
     1
  0
VERTEX
  5
382
  8
PICTURE_HOLDERS
 10
24.44940495187567
 20
10.7344
 30
0.0
 42
-0.4142135623730951
  0
VERTEX
  5
383
  8
PICTURE_HOLDERS
 10
24.69940495187567
 20
10.4844
 30
0.0
  0
VERTEX
  5
384
  8
PICTURE_HOLDERS
 10
24.69940495187567
 20
4.515650000000002
 30
0.0
 42
-0.4142135623730951
  0
VERTEX
  5
385
  8
PICTURE_HOLDERS
 10
24.44940495187567
 20
4.265650000000002
 30
0.0
  0
VERTEX
  5
386
  8
PICTURE_HOLDERS
 10
20.39732161854234
 20
4.26565
 30
0.0
 42
-0.4142135623730951
  0
VERTEX
  5
387
  8
PICTURE_HOLDERS
 10
20.14732161854234
 20
4.51565
 30
0.0
  0
VERTEX
  5
388
  8
PICTURE_HOLDERS
 10
20.14732161854234
 20
10.4844
 30
0.0
 42
-0.4142135623730951
  0
VERTEX
  5
389
  8
PICTURE_HOLDERS
 10
20.39732161854234
 20
10.7344
 30
0.0
  0
SEQEND
  5
FEF
  8
PICTURE_HOLDERS
  0
POLYLINE
  5
75
  8
PICTURE_HOLDERS
 66
     1
 10
0.0
 20
0.0
 30
0.0
 70
     1
  0
VERTEX
  5
38A
  8
PICTURE_HOLDERS
 10
24.32440495187567
 20
10.6094
 30
0.0
 42
-0.4142135623730951
  0
VERTEX
  5
38B
  8
PICTURE_HOLDERS
 10
24.57440495187567
 20
10.3594
 30
0.0
  0
VERTEX
  5
38C
  8
PICTURE_HOLDERS
 10
24.57440495187567
 20
4.640650000000002
 30
0.0
 42
-0.4142135623730951
  0
VERTEX
  5
38D
  8
PICTURE_HOLDERS
 10
24.32440495187567
 20
4.390650000000002
 30
0.0
  0
VERTEX
  5
38E
  8
PICTURE_HOLDERS
 10
20.52232161854234
 20
4.39065
 30
0.0
 42
-0.4142135623730951
  0
VERTEX
  5
38F
  8
PICTURE_HOLDERS
 10
20.27232161854234
 20
4.64065
 30
0.0
  0
VERTEX
  5
390
  8
PICTURE_HOLDERS
 10
20.27232161854234
 20
10.3594
 30
0.0
 42
-0.4142135623730951
  0
VERTEX
  5
391
  8
PICTURE_HOLDERS
 10
20.52232161854234
 20
10.6094
 30
0.0
  0
SEQEND
  5
FF0
  8
PICTURE_HOLDERS
  0
POLYLINE
  5
76
  8
PICTURE_HOLDERS
 66
     1
 10
0.0
 20
0.0
 30
0.0
 70
     1
  0
VERTEX
  5
392
  8
PICTURE_HOLDERS
 10
11.25
 20
5.5
 30
0.0
 42
0.4142135623730951
  0
VERTEX
  5
393
  8
PICTURE_HOLDERS
 10
11.5
 20
5.25
 30
0.0
  0
VERTEX
  5
394
  8
PICTURE_HOLDERS
 10
17.5
 20
5.25
 30
0.0
 42
0.4142135623730951
  0
VERTEX
  5
395
  8
PICTURE_HOLDERS
 10
17.75
 20
5.5
 30
0.0
  0
VERTEX
  5
396
  8
PICTURE_HOLDERS
 10
17.75
 20
9.5
 30
0.0
 42
0.4142135623730951
  0
VERTEX
  5
397
  8
PICTURE_HOLDERS
 10
17.5
 20
9.75
 30
0.0
  0
VERTEX
  5
398
  8
PICTURE_HOLDERS
 10
11.5
 20
9.75
 30
0.0
 42
0.4142135623730951
  0
VERTEX
  5
399
  8
PICTURE_HOLDERS
 10
11.25
 20
9.5
 30
0.0
  0
SEQEND
  5
FF1
  8
PICTURE_HOLDERS
  0
POLYLINE
  5
77
  8
PICTURE_HOLDERS
 66
     1
 10
0.0
 20
0.0
 30
0.0
 70
     1
  0
VERTEX
  5
39A
  8
PICTURE_HOLDERS
 10
11.4
 20
5.65
 30
0.0
 42
0.4142135623730951
  0
VERTEX
  5
39B
  8
PICTURE_HOLDERS
 10
11.65
 20
5.4
 30
0.0
  0
VERTEX
  5
39C
  8
PICTURE_HOLDERS
 10
17.35
 20
5.4
 30
0.0
 42
0.4142135623730951
  0
VERTEX
  5
39D
  8
PICTURE_HOLDERS
 10
17.6
 20
5.65
 30
0.0
  0
VERTEX
  5
39E
  8
PICTURE_HOLDERS
 10
17.6
 20
9.35
 30
0.0
 42
0.4142135623730951
  0
VERTEX
  5
39F
  8
PICTURE_HOLDERS
 10
17.35
 20
9.6
 30
0.0
  0
VERTEX
  5
3A0
  8
PICTURE_HOLDERS
 10
11.65
 20
9.6
 30
0.0
 42
0.4142135623730951
  0
VERTEX
  5
3A1
  8
PICTURE_HOLDERS
 10
11.4
 20
9.35
 30
0.0
  0
SEQEND
  5
FF2
  8
PICTURE_HOLDERS
  0
POLYLINE
  5
78
  8
PICTURE_HOLDERS
 66
     1
 10
0.0
 20
0.0
 30
0.0
 70
     1
  0
VERTEX
  5
3A2
  8
PICTURE_HOLDERS
 10
10.95
 20
9.342336441820398
 30
0.0
  0
VERTEX
  5
3A3
  8
PICTURE_HOLDERS
 10
10.95
 20
5.657663558179608
 30
0.0
 42
1.0
  0
VERTEX
  5
3A4
  8
PICTURE_HOLDERS
 10
11.6576635581796
 20
4.950000000000002
 30
0.0
  0
VERTEX
  5
3A5
  8
PICTURE_HOLDERS
 10
17.3423364418204
 20
4.950000000000001
 30
0.0
 42
1.0
  0
VERTEX
  5
3A6
  8
PICTURE_HOLDERS
 10
18.05
 20
5.657663558179607
 30
0.0
  0
VERTEX
  5
3A7
  8
PICTURE_HOLDERS
 10
18.05
 20
9.342336441820395
 30
0.0
 42
1.0
  0
VERTEX
  5
3A8
  8
PICTURE_HOLDERS
 10
17.3423364418204
 20
10.05
 30
0.0
  0
VERTEX
  5
3A9
  8
PICTURE_HOLDERS
 10
11.65766355817961
 20
10.05
 30
0.0
 42
1.0
  0
SEQEND
  5
FF3
  8
PICTURE_HOLDERS
  0
POLYLINE
  5
7A
  8
BACK_LAYER
 66
     1
 10
0.0
 20
0.0
 30
0.0
 70
     1
  0
VERTEX
  5
3AA
  8
BACK_LAYER
 10
2.332889027659246
 20
2.021399993334202
 30
0.0
  0
VERTEX
  5
3AB
  8
BACK_LAYER
 10
2.334852017208499
 20
2.01702546960905
 30
0.0
  0
VERTEX
  5
3AC
  8
BACK_LAYER
 10
2.337179743642652
 20
2.012823548989661
 30
0.0
  0
VERTEX
  5
3AD
  8
BACK_LAYER
 10
2.339854974936977
 20
2.008809357668194
 30
0.0
  0
VERTEX
  5
3AE
  8
BACK_LAYER
 10
2.342860479066744
 20
2.004998021836806
 30
0.0
  0
VERTEX
  5
3AF
  8
BACK_LAYER
 10
2.346179024007225
 20
2.001404667687657
 30
0.0
  0
VERTEX
  5
3B0
  8
BACK_LAYER
 10
2.349793377733691
 20
1.998044421412906
 30
0.0
  0
VERTEX
  5
3B1
  8
BACK_LAYER
 10
2.353686308221412
 20
1.994932409204712
 30
0.0
  0
VERTEX
  5
3B2
  8
BACK_LAYER
 10
2.35784058344566
 20
1.992083757255232
 30
0.0
  0
VERTEX
  5
3B3
  8
BACK_LAYER
 10
2.362238971381706
 20
1.989513591756627
 30
0.0
  0
VERTEX
  5
3B4
  8
BACK_LAYER
 10
2.36686424000482
 20
1.987237038901053
 30
0.0
  0
VERTEX
  5
3B5
  8
BACK_LAYER
 10
2.371699157290274
 20
1.985269224880671
 30
0.0
  0
VERTEX
  5
3B6
  8
BACK_LAYER
 10
2.376726491213339
 20
1.983625275887639
 30
0.0
  0
VERTEX
  5
3B7
  8
BACK_LAYER
 10
2.381929009749286
 20
1.982320318114116
 30
0.0
  0
VERTEX
  5
3B8
  8
BACK_LAYER
 10
2.387289480873386
 20
1.98136947775226
 30
0.0
  0
VERTEX
  5
3B9
  8
BACK_LAYER
 10
2.39279067256091
 20
1.98078788099423
 30
0.0
  0
VERTEX
  5
3BA
  8
BACK_LAYER
 10
2.398415352787129
 20
1.980590654032184
 30
0.0
  0
VERTEX
  5
3BB
  8
BACK_LAYER
 10
2.403358116416495
 20
1.980744666581754
 30
0.0
  0
VERTEX
  5
3BC
  8
BACK_LAYER
 10
2.40822908004811
 20
1.981200944351074
 30
0.0
  0
VERTEX
  5
3BD
  8
BACK_LAYER
 10
2.417693480646546
 20
1.982985736272691
 30
0.0
  0
VERTEX
  5
3BE
  8
BACK_LAYER
 10
2.488692660668101
 20
2.003496436114131
 30
0.0
  0
VERTEX
  5
3BF
  8
BACK_LAYER
 10
2.581907658460652
 20
2.031020655186146
 30
0.0
  0
VERTEX
  5
3C0
  8
BACK_LAYER
 10
2.824881064270876
 20
2.103285732852367
 30
0.0
  0
VERTEX
  5
3C1
  8
BACK_LAYER
 10
2.969587450744616
 20
2.146114632361806
 30
0.0
  0
VERTEX
  5
3C2
  8
BACK_LAYER
 10
3.126405611901486
 20
2.192133132932288
 30
0.0
  0
VERTEX
  5
3C3
  8
BACK_LAYER
 10
3.292809536969519
 20
2.240385255021428
 30
0.0
  0
VERTEX
  5
3C4
  8
BACK_LAYER
 10
3.466273215176749
 20
2.289915019086843
 30
0.0
  0
VERTEX
  5
3C5
  8
BACK_LAYER
 10
3.644270635751208
 20
2.33976644558615
 30
0.0
  0
VERTEX
  5
3C6
  8
BACK_LAYER
 10
3.734180121059909
 20
2.364514038641519
 30
0.0
  0
VERTEX
  5
3C7
  8
BACK_LAYER
 10
3.824275787920931
 20
2.388983554976966
 30
0.0
  0
VERTEX
  5
3C8
  8
BACK_LAYER
 10
3.914241884987776
 20
2.413055497149696
 30
0.0
  0
VERTEX
  5
3C9
  8
BACK_LAYER
 10
4.00376266091395
 20
2.436610367716909
 30
0.0
  0
VERTEX
  5
3CA
  8
BACK_LAYER
 10
4.092522364352956
 20
2.459528669235807
 30
0.0
  0
VERTEX
  5
3CB
  8
BACK_LAYER
 10
4.180205243958301
 20
2.481690904263593
 30
0.0
  0
VERTEX
  5
3CC
  8
BACK_LAYER
 10
4.266495548383485
 20
2.502977575357469
 30
0.0
  0
VERTEX
  5
3CD
  8
BACK_LAYER
 10
4.351077526282014
 20
2.523269185074637
 30
0.0
  0
VERTEX
  5
3CE
  8
BACK_LAYER
 10
4.433635426307394
 20
2.542446235972299
 30
0.0
  0
VERTEX
  5
3CF
  8
BACK_LAYER
 10
4.513853497113125
 20
2.560389230607657
 30
0.0
  0
VERTEX
  5
3D0
  8
BACK_LAYER
 10
4.591415987352714
 20
2.576978671537913
 30
0.0
  0
VERTEX
  5
3D1
  8
BACK_LAYER
 10
4.666007145679665
 20
2.59209506132027
 30
0.0
  0
VERTEX
  5
3D2
  8
BACK_LAYER
 10
4.737311220747483
 20
2.60561890251193
 30
0.0
  0
VERTEX
  5
3D3
  8
BACK_LAYER
 10
4.805012461209669
 20
2.617430697670093
 30
0.0
  0
VERTEX
  5
3D4
  8
BACK_LAYER
 10
4.832601280771551
 20
2.62179222619389
 30
0.0
  0
VERTEX
  5
3D5
  8
BACK_LAYER
 10
4.86024037351415
 20
2.625731651290391
 30
0.0
  0
VERTEX
  5
3D6
  8
BACK_LAYER
 10
4.887923628986501
 20
2.629249442760925
 30
0.0
  0
VERTEX
  5
3D7
  8
BACK_LAYER
 10
4.915644936737637
 20
2.63234607040682
 30
0.0
  0
VERTEX
  5
3D8
  8
BACK_LAYER
 10
4.943398186316591
 20
2.635022004029406
 30
0.0
  0
VERTEX
  5
3D9
  8
BACK_LAYER
 10
4.971177267272395
 20
2.637277713430011
 30
0.0
  0
VERTEX
  5
3DA
  8
BACK_LAYER
 10
4.998976069154086
 20
2.639113668409964
 30
0.0
  0
VERTEX
  5
3DB
  8
BACK_LAYER
 10
5.026788481510694
 20
2.640530338770593
 30
0.0
  0
VERTEX
  5
3DC
  8
BACK_LAYER
 10
5.054608393891255
 20
2.641528194313226
 30
0.0
  0
VERTEX
  5
3DD
  8
BACK_LAYER
 10
5.0824296958448
 20
2.642107704839193
 30
0.0
  0
VERTEX
  5
3DE
  8
BACK_LAYER
 10
5.110246276920363
 20
2.642269340149821
 30
0.0
  0
VERTEX
  5
3DF
  8
BACK_LAYER
 10
5.138052026666978
 20
2.64201357004644
 30
0.0
  0
VERTEX
  5
3E0
  8
BACK_LAYER
 10
5.165840834633678
 20
2.641340864330378
 30
0.0
  0
VERTEX
  5
3E1
  8
BACK_LAYER
 10
5.193606590369496
 20
2.640251692802963
 30
0.0
  0
VERTEX
  5
3E2
  8
BACK_LAYER
 10
5.221343183423467
 20
2.638746525265524
 30
0.0
  0
VERTEX
  5
3E3
  8
BACK_LAYER
 10
5.249044503344622
 20
2.63682583151939
 30
0.0
  0
VERTEX
  5
3E4
  8
BACK_LAYER
 10
5.276704439681996
 20
2.634490081365889
 30
0.0
  0
VERTEX
  5
3E5
  8
BACK_LAYER
 10
5.304316881984622
 20
2.63173974460635
 30
0.0
  0
VERTEX
  5
3E6
  8
BACK_LAYER
 10
5.331875719801532
 20
2.628575291042101
 30
0.0
  0
VERTEX
  5
3E7
  8
BACK_LAYER
 10
5.359374842681762
 20
2.62499719047447
 30
0.0
  0
VERTEX
  5
3E8
  8
BACK_LAYER
 10
5.386808140174344
 20
2.621005912704787
 30
0.0
  0
VERTEX
  5
3E9
  8
BACK_LAYER
 10
5.414169501828311
 20
2.61660192753438
 30
0.0
  0
VERTEX
  5
3EA
  8
BACK_LAYER
 10
5.441452817192697
 20
2.611785704764578
 30
0.0
  0
VERTEX
  5
3EB
  8
BACK_LAYER
 10
5.468651975816534
 20
2.606557714196708
 30
0.0
  0
VERTEX
  5
3EC
  8
BACK_LAYER
 10
5.495760867248856
 20
2.600918425632099
 30
0.0
  0
VERTEX
  5
3ED
  8
BACK_LAYER
 10
5.522773381038698
 20
2.594868308872082
 30
0.0
  0
VERTEX
  5
3EE
  8
BACK_LAYER
 10
5.549683406735093
 20
2.588407833717982
 30
0.0
  0
VERTEX
  5
3EF
  8
BACK_LAYER
 10
5.576484833887072
 20
2.58153746997113
 30
0.0
  0
VERTEX
  5
3F0
  8
BACK_LAYER
 10
5.603171552043671
 20
2.574257687432854
 30
0.0
  0
VERTEX
  5
3F1
  8
BACK_LAYER
 10
5.629737450753921
 20
2.566568955904483
 30
0.0
  0
VERTEX
  5
3F2
  8
BACK_LAYER
 10
5.656176419566857
 20
2.558471745187345
 30
0.0
  0
VERTEX
  5
3F3
  8
BACK_LAYER
 10
5.682482348031513
 20
2.549966525082768
 30
0.0
  0
VERTEX
  5
3F4
  8
BACK_LAYER
 10
5.711101375953686
 20
2.539907078582028
 30
0.0
  0
VERTEX
  5
3F5
  8
BACK_LAYER
 10
5.739182101717526
 20
2.52891309953079
 30
0.0
  0
VERTEX
  5
3F6
  8
BACK_LAYER
 10
5.766697874187973
 20
2.517003093246999
 30
0.0
  0
VERTEX
  5
3F7
  8
BACK_LAYER
 10
5.793622042229962
 20
2.504195565048599
 30
0.0
  0
VERTEX
  5
3F8
  8
BACK_LAYER
 10
5.81992795470843
 20
2.490509020253534
 30
0.0
  0
VERTEX
  5
3F9
  8
BACK_LAYER
 10
5.845588960488317
 20
2.475961964179747
 30
0.0
  0
VERTEX
  5
3FA
  8
BACK_LAYER
 10
5.870578408434557
 20
2.460572902145183
 30
0.0
  0
VERTEX
  5
3FB
  8
BACK_LAYER
 10
5.894869647412091
 20
2.444360339467787
 30
0.0
  0
VERTEX
  5
3FC
  8
BACK_LAYER
 10
5.918436026285852
 20
2.427342781465502
 30
0.0
  0
VERTEX
  5
3FD
  8
BACK_LAYER
 10
5.941250893920779
 20
2.409538733456271
 30
0.0
  0
VERTEX
  5
3FE
  8
BACK_LAYER
 10
5.963287599181809
 20
2.390966700758041
 30
0.0
  0
VERTEX
  5
3FF
  8
BACK_LAYER
 10
5.984519490933881
 20
2.371645188688754
 30
0.0
  0
VERTEX
  5
400
  8
BACK_LAYER
 10
6.00491991804193
 20
2.351592702566355
 30
0.0
  0
VERTEX
  5
401
  8
BACK_LAYER
 10
6.024462229370893
 20
2.330827747708788
 30
0.0
  0
VERTEX
  5
402
  8
BACK_LAYER
 10
6.043119773785708
 20
2.309368829433996
 30
0.0
  0
VERTEX
  5
403
  8
BACK_LAYER
 10
6.060865900151312
 20
2.287234453059925
 30
0.0
  0
VERTEX
  5
404
  8
BACK_LAYER
 10
6.065904043698172
 20
2.280424883515583
 30
0.0
  0
VERTEX
  5
405
  8
BACK_LAYER
 10
6.070637164332313
 20
2.273496515452797
 30
0.0
  0
VERTEX
  5
406
  8
BACK_LAYER
 10
6.07506499842043
 20
2.26645669905815
 30
0.0
  0
VERTEX
  5
407
  8
BACK_LAYER
 10
6.079187282329221
 20
2.259312784518225
 30
0.0
  0
VERTEX
  5
408
  8
BACK_LAYER
 10
6.083003752425379
 20
2.252072122019606
 30
0.0
  0
VERTEX
  5
409
  8
BACK_LAYER
 10
6.086514145075601
 20
2.244742061748878
 30
0.0
  0
VERTEX
  5
40A
  8
BACK_LAYER
 10
6.089718196646582
 20
2.237329953892625
 30
0.0
  0
VERTEX
  5
40B
  8
BACK_LAYER
 10
6.092615643505018
 20
2.22984314863743
 30
0.0
  0
VERTEX
  5
40C
  8
BACK_LAYER
 10
6.095206222017604
 20
2.222288996169877
 30
0.0
  0
VERTEX
  5
40D
  8
BACK_LAYER
 10
6.097489668551037
 20
2.214674846676549
 30
0.0
  0
VERTEX
  5
40E
  8
BACK_LAYER
 10
6.099465719472012
 20
2.207008050344031
 30
0.0
  0
VERTEX
  5
40F
  8
BACK_LAYER
 10
6.101134111147225
 20
2.199295957358907
 30
0.0
  0
VERTEX
  5
410
  8
BACK_LAYER
 10
6.102494579943371
 20
2.19154591790776
 30
0.0
  0
VERTEX
  5
411
  8
BACK_LAYER
 10
6.103546862227145
 20
2.183765282177175
 30
0.0
  0
VERTEX
  5
412
  8
BACK_LAYER
 10
6.104290694365245
 20
2.175961400353734
 30
0.0
  0
VERTEX
  5
413
  8
BACK_LAYER
 10
6.104725812724364
 20
2.168141622624022
 30
0.0
  0
VERTEX
  5
414
  8
BACK_LAYER
 10
6.104851953671198
 20
2.160313299174622
 30
0.0
  0
VERTEX
  5
415
  8
BACK_LAYER
 10
6.104668853572445
 20
2.152483780192119
 30
0.0
  0
VERTEX
  5
416
  8
BACK_LAYER
 10
6.104176248794799
 20
2.144660415863096
 30
0.0
  0
VERTEX
  5
417
  8
BACK_LAYER
 10
6.103373875704955
 20
2.136850556374138
 30
0.0
  0
VERTEX
  5
418
  8
BACK_LAYER
 10
6.10226147066961
 20
2.129061551911827
 30
0.0
  0
VERTEX
  5
419
  8
BACK_LAYER
 10
6.100838770055459
 20
2.121300752662748
 30
0.0
  0
VERTEX
  5
41A
  8
BACK_LAYER
 10
6.099105510229197
 20
2.113575508813486
 30
0.0
  0
VERTEX
  5
41B
  8
BACK_LAYER
 10
6.097061427557522
 20
2.105893170550622
 30
0.0
  0
VERTEX
  5
41C
  8
BACK_LAYER
 10
6.094706258407127
 20
2.098261088060742
 30
0.0
  0
VERTEX
  5
41D
  8
BACK_LAYER
 10
6.092039739144709
 20
2.090686611530429
 30
0.0
  0
VERTEX
  5
41E
  8
BACK_LAYER
 10
6.089061606136962
 20
2.083177091146267
 30
0.0
  0
VERTEX
  5
41F
  8
BACK_LAYER
 10
6.085771595750584
 20
2.075739877094839
 30
0.0
  0
VERTEX
  5
420
  8
BACK_LAYER
 10
6.08216944435227
 20
2.068382319562731
 30
0.0
  0
VERTEX
  5
421
  8
BACK_LAYER
 10
6.078254888308714
 20
2.061111768736525
 30
0.0
  0
VERTEX
  5
422
  8
BACK_LAYER
 10
6.074027663986613
 20
2.053935574802805
 30
0.0
  0
VERTEX
  5
423
  8
BACK_LAYER
 10
6.069487507752664
 20
2.046861087948155
 30
0.0
  0
VERTEX
  5
424
  8
BACK_LAYER
 10
6.055100525096336
 20
2.026075676177407
 30
0.0
  0
VERTEX
  5
425
  8
BACK_LAYER
 10
6.040032950687658
 20
2.005711559177838
 30
0.0
  0
VERTEX
  5
426
  8
BACK_LAYER
 10
6.024297718242714
 20
1.985780432649555
 30
0.0
  0
VERTEX
  5
427
  8
BACK_LAYER
 10
6.007907761477582
 20
1.966293992292662
 30
0.0
  0
VERTEX
  5
428
  8
BACK_LAYER
 10
5.990876014108345
 20
1.947263933807266
 30
0.0
  0
VERTEX
  5
429
  8
BACK_LAYER
 10
5.973215409851084
 20
1.928701952893473
 30
0.0
  0
VERTEX
  5
42A
  8
BACK_LAYER
 10
5.954938882421882
 20
1.910619745251387
 30
0.0
  0
VERTEX
  5
42B
  8
BACK_LAYER
 10
5.936059365536818
 20
1.893029006581116
 30
0.0
  0
VERTEX
  5
42C
  8
BACK_LAYER
 10
5.916589792911974
 20
1.875941432582764
 30
0.0
  0
VERTEX
  5
42D
  8
BACK_LAYER
 10
5.896543098263432
 20
1.859368718956438
 30
0.0
  0
VERTEX
  5
42E
  8
BACK_LAYER
 10
5.875932215307273
 20
1.843322561402242
 30
0.0
  0
VERTEX
  5
42F
  8
BACK_LAYER
 10
5.854770077759579
 20
1.827814655620284
 30
0.0
  0
VERTEX
  5
430
  8
BACK_LAYER
 10
5.833069619336429
 20
1.812856697310668
 30
0.0
  0
VERTEX
  5
431
  8
BACK_LAYER
 10
5.810843773753906
 20
1.7984603821735
 30
0.0
  0
VERTEX
  5
432
  8
BACK_LAYER
 10
5.788105474728092
 20
1.784637405908887
 30
0.0
  0
VERTEX
  5
433
  8
BACK_LAYER
 10
5.764867655975069
 20
1.771399464216933
 30
0.0
  0
VERTEX
  5
434
  8
BACK_LAYER
 10
5.741836684572755
 20
1.758162196844903
 30
0.0
  0
VERTEX
  5
435
  8
BACK_LAYER
 10
5.719527727367517
 20
1.744243774988355
 30
0.0
  0
VERTEX
  5
436
  8
BACK_LAYER
 10
5.69795204087327
 20
1.72966682163683
 30
0.0
  0
VERTEX
  5
437
  8
BACK_LAYER
 10
5.677120881603932
 20
1.71445395977987
 30
0.0
  0
VERTEX
  5
438
  8
BACK_LAYER
 10
5.657045506073421
 20
1.698627812407015
 30
0.0
  0
VERTEX
  5
439
  8
BACK_LAYER
 10
5.637737170795658
 20
1.682211002507807
 30
0.0
  0
VERTEX
  5
43A
  8
BACK_LAYER
 10
5.619207132284558
 20
1.665226153071786
 30
0.0
  0
VERTEX
  5
43B
  8
BACK_LAYER
 10
5.601466647054041
 20
1.647695887088495
 30
0.0
  0
VERTEX
  5
43C
  8
BACK_LAYER
 10
5.584526971618024
 20
1.629642827547475
 30
0.0
  0
VERTEX
  5
43D
  8
BACK_LAYER
 10
5.568399362490425
 20
1.611089597438266
 30
0.0
  0
VERTEX
  5
43E
  8
BACK_LAYER
 10
5.553095076185164
 20
1.59205881975041
 30
0.0
  0
VERTEX
  5
43F
  8
BACK_LAYER
 10
5.538625369216156
 20
1.572573117473449
 30
0.0
  0
VERTEX
  5
440
  8
BACK_LAYER
 10
5.525001498097321
 20
1.552655113596923
 30
0.0
  0
VERTEX
  5
441
  8
BACK_LAYER
 10
5.512234719342578
 20
1.532327431110374
 30
0.0
  0
VERTEX
  5
442
  8
BACK_LAYER
 10
5.500336289465842
 20
1.511612693003342
 30
0.0
  0
VERTEX
  5
443
  8
BACK_LAYER
 10
5.489317464981035
 20
1.490533522265371
 30
0.0
  0
VERTEX
  5
444
  8
BACK_LAYER
 10
5.479189502402072
 20
1.469112541885999
 30
0.0
  0
VERTEX
  5
445
  8
BACK_LAYER
 10
5.469963658242873
 20
1.447372374854769
 30
0.0
  0
VERTEX
  5
446
  8
BACK_LAYER
 10
5.461651189017357
 20
1.425335644161223
 30
0.0
  0
VERTEX
  5
447
  8
BACK_LAYER
 10
5.454263351239439
 20
1.4030249727949
 30
0.0
  0
VERTEX
  5
448
  8
BACK_LAYER
 10
5.447811401423039
 20
1.380462983745343
 30
0.0
  0
VERTEX
  5
449
  8
BACK_LAYER
 10
5.442306596082076
 20
1.357672300002092
 30
0.0
  0
VERTEX
  5
44A
  8
BACK_LAYER
 10
5.437760191730465
 20
1.33467554455469
 30
0.0
  0
VERTEX
  5
44B
  8
BACK_LAYER
 10
5.434183444882128
 20
1.311495340392677
 30
0.0
  0
VERTEX
  5
44C
  8
BACK_LAYER
 10
5.431587612050981
 20
1.288154310505594
 30
0.0
  0
VERTEX
  5
44D
  8
BACK_LAYER
 10
5.429983949750941
 20
1.264675077882983
 30
0.0
  0
VERTEX
  5
44E
  8
BACK_LAYER
 10
5.429383714495929
 20
1.241080265514385
 30
0.0
  0
VERTEX
  5
44F
  8
BACK_LAYER
 10
5.429798162799861
 20
1.217392496389341
 30
0.0
  0
VERTEX
  5
450
  8
BACK_LAYER
 10
5.431238551176655
 20
1.193634393497392
 30
0.0
  0
VERTEX
  5
451
  8
BACK_LAYER
 10
5.43371613614023
 20
1.169828579828081
 30
0.0
  0
VERTEX
  5
452
  8
BACK_LAYER
 10
5.437242174204506
 20
1.145997678370946
 30
0.0
  0
VERTEX
  5
453
  8
BACK_LAYER
 10
5.441827921883397
 20
1.122164312115532
 30
0.0
  0
VERTEX
  5
454
  8
BACK_LAYER
 10
5.445874571266788
 20
1.104562742491177
 30
0.0
  0
VERTEX
  5
455
  8
BACK_LAYER
 10
5.450418389087107
 20
1.087100880022546
 30
0.0
  0
VERTEX
  5
456
  8
BACK_LAYER
 10
5.455454036895696
 20
1.069785736243328
 30
0.0
  0
VERTEX
  5
457
  8
BACK_LAYER
 10
5.460976176243904
 20
1.052624322687209
 30
0.0
  0
VERTEX
  5
458
  8
BACK_LAYER
 10
5.466979468683077
 20
1.035623650887878
 30
0.0
  0
VERTEX
  5
459
  8
BACK_LAYER
 10
5.47345857576456
 20
1.018790732379023
 30
0.0
  0
VERTEX
  5
45A
  8
BACK_LAYER
 10
5.480408159039705
 20
1.002132578694332
 30
0.0
  0
VERTEX
  5
45B
  8
BACK_LAYER
 10
5.487822880059853
 20
0.985656201367491
 30
0.0
  0
VERTEX
  5
45C
  8
BACK_LAYER
 10
5.495697400376354
 20
0.9693686119321894
 30
0.0
  0
VERTEX
  5
45D
  8
BACK_LAYER
 10
5.504026381540555
 20
0.9532768219221148
 30
0.0
  0
VERTEX
  5
45E
  8
BACK_LAYER
 10
5.512804485103803
 20
0.9373878428709547
 30
0.0
  0
VERTEX
  5
45F
  8
BACK_LAYER
 10
5.522026372617443
 20
0.9217086863123969
 30
0.0
  0
VERTEX
  5
460
  8
BACK_LAYER
 10
5.531686705632824
 20
0.9062463637801293
 30
0.0
  0
VERTEX
  5
461
  8
BACK_LAYER
 10
5.541780145701291
 20
0.8910078868078397
 30
0.0
  0
VERTEX
  5
462
  8
BACK_LAYER
 10
5.552301354374191
 20
0.8760002669292157
 30
0.0
  0
VERTEX
  5
463
  8
BACK_LAYER
 10
5.563244993202872
 20
0.8612305156779455
 30
0.0
  0
VERTEX
  5
464
  8
BACK_LAYER
 10
5.57460572373868
 20
0.8467056445877166
 30
0.0
  0
VERTEX
  5
465
  8
BACK_LAYER
 10
5.586378207532961
 20
0.8324326651922167
 30
0.0
  0
VERTEX
  5
466
  8
BACK_LAYER
 10
5.598557106137065
 20
0.8184185890251339
 30
0.0
  0
VERTEX
  5
467
  8
BACK_LAYER
 10
5.611137081102335
 20
0.8046704276201557
 30
0.0
  0
VERTEX
  5
468
  8
BACK_LAYER
 10
5.624112793980119
 20
0.7911951925109701
 30
0.0
  0
VERTEX
  5
469
  8
BACK_LAYER
 10
5.637478906321766
 20
0.7779998952312648
 30
0.0
  0
VERTEX
  5
46A
  8
BACK_LAYER
 10
5.651230079678619
 20
0.7650915473147275
 30
0.0
  0
VERTEX
  5
46B
  8
BACK_LAYER
 10
5.665360975602029
 20
0.7524771602950462
 30
0.0
  0
VERTEX
  5
46C
  8
BACK_LAYER
 10
5.67986625564334
 20
0.7401637457059085
 30
0.0
  0
VERTEX
  5
46D
  8
BACK_LAYER
 10
5.6947405813539
 20
0.7281583150810025
 30
0.0
  0
VERTEX
  5
46E
  8
BACK_LAYER
 10
5.709978614285055
 20
0.7164678799540156
 30
0.0
  0
VERTEX
  5
46F
  8
BACK_LAYER
 10
5.725575015988154
 20
0.7050994518586358
 30
0.0
  0
VERTEX
  5
470
  8
BACK_LAYER
 10
5.741524448014541
 20
0.6940600423285509
 30
0.0
  0
VERTEX
  5
471
  8
BACK_LAYER
 10
5.757821571915564
 20
0.6833566628974486
 30
0.0
  0
VERTEX
  5
472
  8
BACK_LAYER
 10
5.774461049242569
 20
0.6729963250990167
 30
0.0
  0
VERTEX
  5
473
  8
BACK_LAYER
 10
5.791437541546903
 20
0.6629860404669432
 30
0.0
  0
VERTEX
  5
474
  8
BACK_LAYER
 10
5.819937377740024
 20
0.6468985153408231
 30
0.0
  0
VERTEX
  5
475
  8
BACK_LAYER
 10
5.848678248150563
 20
0.6311904086480025
 30
0.0
  0
VERTEX
  5
476
  8
BACK_LAYER
 10
5.877655123599085
 20
0.6158633127302915
 30
0.0
  0
VERTEX
  5
477
  8
BACK_LAYER
 10
5.906862974906153
 20
0.6009188199295008
 30
0.0
  0
VERTEX
  5
478
  8
BACK_LAYER
 10
5.936296772892327
 20
0.586358522587441
 30
0.0
  0
VERTEX
  5
479
  8
BACK_LAYER
 10
5.965951488378174
 20
0.5721840130459224
 30
0.0
  0
VERTEX
  5
47A
  8
BACK_LAYER
 10
5.995822092184253
 20
0.5583968836467557
 30
0.0
  0
VERTEX
  5
47B
  8
BACK_LAYER
 10
6.025903555131127
 20
0.5449987267317512
 30
0.0
  0
VERTEX
  5
47C
  8
BACK_LAYER
 10
6.05619084803936
 20
0.5319911346427195
 30
0.0
  0
VERTEX
  5
47D
  8
BACK_LAYER
 10
6.086678941729517
 20
0.5193756997214714
 30
0.0
  0
VERTEX
  5
47E
  8
BACK_LAYER
 10
6.117362807022157
 20
0.5071540143098169
 30
0.0
  0
VERTEX
  5
47F
  8
BACK_LAYER
 10
6.148237414737843
 20
0.4953276707495669
 30
0.0
  0
VERTEX
  5
480
  8
BACK_LAYER
 10
6.17929773569714
 20
0.4838982613825316
 30
0.0
  0
VERTEX
  5
481
  8
BACK_LAYER
 10
6.210538740720609
 20
0.4728673785505217
 30
0.0
  0
VERTEX
  5
482
  8
BACK_LAYER
 10
6.241955400628813
 20
0.4622366145953476
 30
0.0
  0
VERTEX
  5
483
  8
BACK_LAYER
 10
6.273542686242315
 20
0.4520075618588199
 30
0.0
  0
VERTEX
  5
484
  8
BACK_LAYER
 10
6.305295568381679
 20
0.4421818126827489
 30
0.0
  0
VERTEX
  5
485
  8
BACK_LAYER
 10
6.337209017867465
 20
0.4327609594089453
 30
0.0
  0
VERTEX
  5
486
  8
BACK_LAYER
 10
6.369278005520238
 20
0.4237465943792196
 30
0.0
  0
VERTEX
  5
487
  8
BACK_LAYER
 10
6.401497502160559
 20
0.4151403099353821
 30
0.0
  0
VERTEX
  5
488
  8
BACK_LAYER
 10
6.433862478608994
 20
0.4069436984192435
 30
0.0
  0
VERTEX
  5
489
  8
BACK_LAYER
 10
6.466367905686102
 20
0.3991583521726143
 30
0.0
  0
VERTEX
  5
48A
  8
BACK_LAYER
 10
6.499008754212447
 20
0.3917858635373049
 30
0.0
  0
VERTEX
  5
48B
  8
BACK_LAYER
 10
6.531779995008592
 20
0.3848278248551259
 30
0.0
  0
VERTEX
  5
48C
  8
BACK_LAYER
 10
6.5646765988951
 20
0.3782858284678877
 30
0.0
  0
VERTEX
  5
48D
  8
BACK_LAYER
 10
6.597693536692534
 20
0.3721614667174009
 30
0.0
  0
VERTEX
  5
48E
  8
BACK_LAYER
 10
6.630825779221455
 20
0.3664563319454759
 30
0.0
  0
VERTEX
  5
48F
  8
BACK_LAYER
 10
6.664068297302427
 20
0.3611720164939232
 30
0.0
  0
VERTEX
  5
490
  8
BACK_LAYER
 10
6.697416061756014
 20
0.3563101127045534
 30
0.0
  0
VERTEX
  5
491
  8
BACK_LAYER
 10
6.730864043402776
 20
0.351872212919177
 30
0.0
  0
VERTEX
  5
492
  8
BACK_LAYER
 10
6.764407213063278
 20
0.3478599094796044
 30
0.0
  0
VERTEX
  5
493
  8
BACK_LAYER
 10
6.798040541558081
 20
0.3442747947276462
 30
0.0
  0
VERTEX
  5
494
  8
BACK_LAYER
 10
6.889041372593071
 20
0.3357089618656232
 30
0.0
  0
VERTEX
  5
495
  8
BACK_LAYER
 10
6.980152673448445
 20
0.3282181035585195
 30
0.0
  0
VERTEX
  5
496
  8
BACK_LAYER
 10
7.071362089349693
 20
0.3218028691862907
 30
0.0
  0
VERTEX
  5
497
  8
BACK_LAYER
 10
7.162657265522299
 20
0.3164639081288922
 30
0.0
  0
VERTEX
  5
498
  8
BACK_LAYER
 10
7.254025847191752
 20
0.3122018697662796
 30
0.0
  0
VERTEX
  5
499
  8
BACK_LAYER
 10
7.34545547958354
 20
0.3090174034784082
 30
0.0
  0
VERTEX
  5
49A
  8
BACK_LAYER
 10
7.436933807923151
 20
0.3069111586452334
 30
0.0
  0
VERTEX
  5
49B
  8
BACK_LAYER
 10
7.52844847743607
 20
0.3058837846467108
 30
0.0
  0
VERTEX
  5
49C
  8
BACK_LAYER
 10
7.581873556555969
 20
0.3061401568969311
 30
0.0
  0
VERTEX
  5
49D
  8
BACK_LAYER
 10
7.635256403250171
 20
0.3074777152979498
 30
0.0
  0
VERTEX
  5
49E
  8
BACK_LAYER
 10
7.688575808192905
 20
0.3098948513440731
 30
0.0
  0
VERTEX
  5
49F
  8
BACK_LAYER
 10
7.741810562058393
 20
0.3133899565296074
 30
0.0
  0
VERTEX
  5
4A0
  8
BACK_LAYER
 10
7.79493945552086
 20
0.3179614223488592
 30
0.0
  0
VERTEX
  5
4A1
  8
BACK_LAYER
 10
7.847941279254534
 20
0.3236076402961345
 30
0.0
  0
VERTEX
  5
4A2
  8
BACK_LAYER
 10
7.900794823933638
 20
0.3303270018657398
 30
0.0
  0
VERTEX
  5
4A3
  8
BACK_LAYER
 10
7.953478880232398
 20
0.3381178985519815
 30
0.0
  0
VERTEX
  5
4A4
  8
BACK_LAYER
 10
7.969093051186995
 20
0.3407586866949699
 30
0.0
  0
VERTEX
  5
4A5
  8
BACK_LAYER
 10
7.984597553042843
 20
0.3437183460488613
 30
0.0
  0
VERTEX
  5
4A6
  8
BACK_LAYER
 10
7.999986817428399
 20
0.3469938418517864
 30
0.0
  0
VERTEX
  5
4A7
  8
BACK_LAYER
 10
8.01525527597213
 20
0.3505821393418763
 30
0.0
  0
VERTEX
  5
4A8
  8
BACK_LAYER
 10
8.030397360302496
 20
0.3544802037572617
 30
0.0
  0
VERTEX
  5
4A9
  8
BACK_LAYER
 10
8.045407502047958
 20
0.3586850003360736
 30
0.0
  0
VERTEX
  5
4AA
  8
BACK_LAYER
 10
8.060280132836981
 20
0.363193494316443
 30
0.0
  0
VERTEX
  5
4AB
  8
BACK_LAYER
 10
8.075009684298028
 20
0.3680026509365007
 30
0.0
  0
VERTEX
  5
4AC
  8
BACK_LAYER
 10
8.08959058805956
 20
0.3731094354343776
 30
0.0
  0
VERTEX
  5
4AD
  8
BACK_LAYER
 10
8.104017275750037
 20
0.3785108130482047
 30
0.0
  0
VERTEX
  5
4AE
  8
BACK_LAYER
 10
8.118284178997925
 20
0.3842037490161128
 30
0.0
  0
VERTEX
  5
4AF
  8
BACK_LAYER
 10
8.132385729431684
 20
0.3901852085762328
 30
0.0
  0
VERTEX
  5
4B0
  8
BACK_LAYER
 10
8.14631635867978
 20
0.3964521569666957
 30
0.0
  0
VERTEX
  5
4B1
  8
BACK_LAYER
 10
8.160070498370668
 20
0.4030015594256323
 30
0.0
  0
VERTEX
  5
4B2
  8
BACK_LAYER
 10
8.173642580132817
 20
0.4098303811911735
 30
0.0
  0
VERTEX
  5
4B3
  8
BACK_LAYER
 10
8.187027035594689
 20
0.4169355875014504
 30
0.0
  0
VERTEX
  5
4B4
  8
BACK_LAYER
 10
8.200218296384742
 20
0.4243141435945937
 30
0.0
  0
VERTEX
  5
4B5
  8
BACK_LAYER
 10
8.213210794131443
 20
0.4319630147087343
 30
0.0
  0
VERTEX
  5
4B6
  8
BACK_LAYER
 10
8.225998960463253
 20
0.4398791660820033
 30
0.0
  0
VERTEX
  5
4B7
  8
BACK_LAYER
 10
8.238577227008632
 20
0.4480595629525314
 30
0.0
  0
VERTEX
  5
4B8
  8
BACK_LAYER
 10
8.250940025396044
 20
0.4565011705584496
 30
0.0
  0
VERTEX
  5
4B9
  8
BACK_LAYER
 10
8.263081787253952
 20
0.4652009541378888
 30
0.0
  0
VERTEX
  5
4BA
  8
BACK_LAYER
 10
8.274996944210816
 20
0.4741558789289798
 30
0.0
  0
VERTEX
  5
4BB
  8
BACK_LAYER
 10
8.2866799278951
 20
0.4833629101698537
 30
0.0
  0
VERTEX
  5
4BC
  8
BACK_LAYER
 10
8.298125169935268
 20
0.4928190130986413
 30
0.0
  0
VERTEX
  5
4BD
  8
BACK_LAYER
 10
8.30932710195978
 20
0.5025211529534734
 30
0.0
  0
VERTEX
  5
4BE
  8
BACK_LAYER
 10
8.320280155597104
 20
0.512466294972481
 30
0.0
  0
VERTEX
  5
4BF
  8
BACK_LAYER
 10
8.330978762475691
 20
0.5226514043937951
 30
0.0
  0
VERTEX
  5
4C0
  8
BACK_LAYER
 10
8.341417354224014
 20
0.5330734464555467
 30
0.0
  0
VERTEX
  5
4C1
  8
BACK_LAYER
 10
8.35159036247053
 20
0.5437293863958662
 30
0.0
  0
VERTEX
  5
4C2
  8
BACK_LAYER
 10
8.361492218843702
 20
0.5546161894528849
 30
0.0
  0
VERTEX
  5
4C3
  8
BACK_LAYER
 10
8.371117354971993
 20
0.5657308208647336
 30
0.0
  0
VERTEX
  5
4C4
  8
BACK_LAYER
 10
8.378830388026746
 20
0.5751501885203835
 30
0.0
  0
VERTEX
  5
4C5
  8
BACK_LAYER
 10
8.386196324386486
 20
0.5847334985392325
 30
0.0
  0
VERTEX
  5
4C6
  8
BACK_LAYER
 10
8.393213752468455
 20
0.5944735143369558
 30
0.0
  0
VERTEX
  5
4C7
  8
BACK_LAYER
 10
8.399881260689888
 20
0.6043629993292291
 30
0.0
  0
VERTEX
  5
4C8
  8
BACK_LAYER
 10
8.406197437468027
 20
0.6143947169317275
 30
0.0
  0
VERTEX
  5
4C9
  8
BACK_LAYER
 10
8.412160871220113
 20
0.6245614305601264
 30
0.0
  0
VERTEX
  5
4CA
  8
BACK_LAYER
 10
8.417770150363381
 20
0.6348559036301011
 30
0.0
  0
VERTEX
  5
4CB
  8
BACK_LAYER
 10
8.423023863315073
 20
0.6452708995573271
 30
0.0
  0
VERTEX
  5
4CC
  8
BACK_LAYER
 10
8.427920598492427
 20
0.6557991817574795
 30
0.0
  0
VERTEX
  5
4CD
  8
BACK_LAYER
 10
8.432458944312682
 20
0.6664335136462338
 30
0.0
  0
VERTEX
  5
4CE
  8
BACK_LAYER
 10
8.436637489193075
 20
0.6771666586392653
 30
0.0
  0
VERTEX
  5
4CF
  8
BACK_LAYER
 10
8.440454821550848
 20
0.6879913801522495
 30
0.0
  0
VERTEX
  5
4D0
  8
BACK_LAYER
 10
8.443909529803237
 20
0.6989004416008615
 30
0.0
  0
VERTEX
  5
4D1
  8
BACK_LAYER
 10
8.447000202367484
 20
0.7098866064007767
 30
0.0
  0
VERTEX
  5
4D2
  8
BACK_LAYER
 10
8.449725427660825
 20
0.7209426379676707
 30
0.0
  0
VERTEX
  5
4D3
  8
BACK_LAYER
 10
8.452083794100501
 20
0.7320612997172186
 30
0.0
  0
VERTEX
  5
4D4
  8
BACK_LAYER
 10
8.454073890103752
 20
0.7432353550650959
 30
0.0
  0
VERTEX
  5
4D5
  8
BACK_LAYER
 10
8.455694304087814
 20
0.7544575674269776
 30
0.0
  0
VERTEX
  5
4D6
  8
BACK_LAYER
 10
8.456943624469929
 20
0.7657207002185392
 30
0.0
  0
VERTEX
  5
4D7
  8
BACK_LAYER
 10
8.457820439667334
 20
0.7770175168554563
 30
0.0
  0
VERTEX
  5
4D8
  8
BACK_LAYER
 10
8.458323338097266
 20
0.788340780753404
 30
0.0
  0
VERTEX
  5
4D9
  8
BACK_LAYER
 10
8.45845090817697
 20
0.7996832553280577
 30
0.0
  0
VERTEX
  5
4DA
  8
BACK_LAYER
 10
8.45820173832368
 20
0.8110377039950927
 30
0.0
  0
VERTEX
  5
4DB
  8
BACK_LAYER
 10
8.457574416954637
 20
0.8223968901701846
 30
0.0
  0
VERTEX
  5
4DC
  8
BACK_LAYER
 10
8.45656753248708
 20
0.8337535772690083
 30
0.0
  0
VERTEX
  5
4DD
  8
BACK_LAYER
 10
8.455179673338247
 20
0.8451005287072395
 30
0.0
  0
VERTEX
  5
4DE
  8
BACK_LAYER
 10
8.453409427925378
 20
0.8564305079005534
 30
0.0
  0
VERTEX
  5
4DF
  8
BACK_LAYER
 10
8.451255384665709
 20
0.8677362782646255
 30
0.0
  0
VERTEX
  5
4E0
  8
BACK_LAYER
 10
8.448716131976482
 20
0.879010603215131
 30
0.0
  0
VERTEX
  5
4E1
  8
BACK_LAYER
 10
8.445790258274936
 20
0.8902462461677452
 30
0.0
  0
VERTEX
  5
4E2
  8
BACK_LAYER
 10
8.442476351978309
 20
0.9014359705381436
 30
0.0
  0
VERTEX
  5
4E3
  8
BACK_LAYER
 10
8.438773001503842
 20
0.9125725397420013
 30
0.0
  0
VERTEX
  5
4E4
  8
BACK_LAYER
 10
8.431275711940016
 20
0.9333535438392936
 30
0.0
  0
VERTEX
  5
4E5
  8
BACK_LAYER
 10
8.423415917081362
 20
0.9540096277498088
 30
0.0
  0
VERTEX
  5
4E6
  8
BACK_LAYER
 10
8.41519596940617
 20
0.9745374115228467
 30
0.0
  0
VERTEX
  5
4E7
  8
BACK_LAYER
 10
8.406618221392726
 20
0.9949335152077076
 30
0.0
  0
VERTEX
  5
4E8
  8
BACK_LAYER
 10
8.397685025519316
 20
1.015194558853691
 30
0.0
  0
VERTEX
  5
4E9
  8
BACK_LAYER
 10
8.388398734264229
 20
1.035317162510097
 30
0.0
  0
VERTEX
  5
4EA
  8
BACK_LAYER
 10
8.37876170010575
 20
1.055297946226226
 30
0.0
  0
VERTEX
  5
4EB
  8
BACK_LAYER
 10
8.368776275522164
 20
1.075133530051378
 30
0.0
  0
VERTEX
  5
4EC
  8
BACK_LAYER
 10
8.358444812991758
 20
1.094820534034852
 30
0.0
  0
VERTEX
  5
4ED
  8
BACK_LAYER
 10
8.347769664992821
 20
1.114355578225949
 30
0.0
  0
VERTEX
  5
4EE
  8
BACK_LAYER
 10
8.33675318400364
 20
1.133735282673969
 30
0.0
  0
VERTEX
  5
4EF
  8
BACK_LAYER
 10
8.325397722502501
 20
1.152956267428211
 30
0.0
  0
VERTEX
  5
4F0
  8
BACK_LAYER
 10
8.31370563296769
 20
1.172015152537975
 30
0.0
  0
VERTEX
  5
4F1
  8
BACK_LAYER
 10
8.301679267877493
 20
1.190908558052562
 30
0.0
  0
VERTEX
  5
4F2
  8
BACK_LAYER
 10
8.289320979710197
 20
1.209633104021272
 30
0.0
  0
VERTEX
  5
4F3
  8
BACK_LAYER
 10
8.27663312094409
 20
1.228185410493404
 30
0.0
  0
VERTEX
  5
4F4
  8
BACK_LAYER
 10
8.26361804405746
 20
1.246562097518258
 30
0.0
  0
VERTEX
  5
4F5
  8
BACK_LAYER
 10
8.25027810152859
 20
1.264759785145134
 30
0.0
  0
VERTEX
  5
4F6
  8
BACK_LAYER
 10
8.236615645835768
 20
1.282775093423334
 30
0.0
  0
VERTEX
  5
4F7
  8
BACK_LAYER
 10
8.222633029457281
 20
1.300604642402154
 30
0.0
  0
VERTEX
  5
4F8
  8
BACK_LAYER
 10
8.208332604871417
 20
1.318245052130898
 30
0.0
  0
VERTEX
  5
4F9
  8
BACK_LAYER
 10
8.193716724556463
 20
1.335692942658864
 30
0.0
  0
VERTEX
  5
4FA
  8
BACK_LAYER
 10
8.178787740990703
 20
1.352944934035352
 30
0.0
  0
VERTEX
  5
4FB
  8
BACK_LAYER
 10
8.163548006652427
 20
1.369997646309662
 30
0.0
  0
VERTEX
  5
4FC
  8
BACK_LAYER
 10
8.14799987401992
 20
1.386847699531094
 30
0.0
  0
VERTEX
  5
4FD
  8
BACK_LAYER
 10
8.132145695571467
 20
1.403491713748949
 30
0.0
  0
VERTEX
  5
4FE
  8
BACK_LAYER
 10
8.115987823785357
 20
1.419926309012525
 30
0.0
  0
VERTEX
  5
4FF
  8
BACK_LAYER
 10
8.099528611139878
 20
1.436148105371124
 30
0.0
  0
VERTEX
  5
500
  8
BACK_LAYER
 10
8.082770410113314
 20
1.452153722874044
 30
0.0
  0
VERTEX
  5
501
  8
BACK_LAYER
 10
8.065715573183953
 20
1.467939781570587
 30
0.0
  0
VERTEX
  5
502
  8
BACK_LAYER
 10
8.048366452830079
 20
1.483502901510052
 30
0.0
  0
VERTEX
  5
503
  8
BACK_LAYER
 10
8.030725401529983
 20
1.498839702741738
 30
0.0
  0
VERTEX
  5
504
  8
BACK_LAYER
 10
7.995835136496067
 20
1.529065670961256
 30
0.0
  0
VERTEX
  5
505
  8
BACK_LAYER
 10
7.961374152653789
 20
1.559653416939227
 30
0.0
  0
VERTEX
  5
506
  8
BACK_LAYER
 10
7.927345938387894
 20
1.590599312555152
 30
0.0
  0
VERTEX
  5
507
  8
BACK_LAYER
 10
7.89375398208313
 20
1.621899729688533
 30
0.0
  0
VERTEX
  5
508
  8
BACK_LAYER
 10
7.860601772124243
 20
1.653551040218869
 30
0.0
  0
VERTEX
  5
509
  8
BACK_LAYER
 10
7.827892796895979
 20
1.685549616025663
 30
0.0
  0
VERTEX
  5
50A
  8
BACK_LAYER
 10
7.795630544783086
 20
1.717891828988416
 30
0.0
  0
VERTEX
  5
50B
  8
BACK_LAYER
 10
7.763818504170311
 20
1.750574050986627
 30
0.0
  0
VERTEX
  5
50C
  8
BACK_LAYER
 10
7.7324601634424
 20
1.783592653899799
 30
0.0
  0
VERTEX
  5
50D
  8
BACK_LAYER
 10
7.701559010984099
 20
1.816944009607432
 30
0.0
  0
VERTEX
  5
50E
  8
BACK_LAYER
 10
7.671118535180158
 20
1.850624489989027
 30
0.0
  0
VERTEX
  5
50F
  8
BACK_LAYER
 10
7.64114222441532
 20
1.884630466924085
 30
0.0
  0
VERTEX
  5
510
  8
BACK_LAYER
 10
7.611633567074333
 20
1.918958312292109
 30
0.0
  0
VERTEX
  5
511
  8
BACK_LAYER
 10
7.582596051541945
 20
1.953604397972597
 30
0.0
  0
VERTEX
  5
512
  8
BACK_LAYER
 10
7.554033166202901
 20
1.988565095845051
 30
0.0
  0
VERTEX
  5
513
  8
BACK_LAYER
 10
7.525948399441949
 20
2.023836777788973
 30
0.0
  0
VERTEX
  5
514
  8
BACK_LAYER
 10
7.51470981809997
 20
2.0390925166164
 30
0.0
  0
VERTEX
  5
515
  8
BACK_LAYER
 10
7.504692734470983
 20
2.054668219747018
 30
0.0
  0
VERTEX
  5
516
  8
BACK_LAYER
 10
7.495881661552492
 20
2.070523200039517
 30
0.0
  0
VERTEX
  5
517
  8
BACK_LAYER
 10
7.488261112342002
 20
2.08661677035259
 30
0.0
  0
VERTEX
  5
518
  8
BACK_LAYER
 10
7.481815599837017
 20
2.102908243544928
 30
0.0
  0
VERTEX
  5
519
  8
BACK_LAYER
 10
7.47652963703504
 20
2.119356932475222
 30
0.0
  0
VERTEX
  5
51A
  8
BACK_LAYER
 10
7.472387736933576
 20
2.135922150002165
 30
0.0
  0
VERTEX
  5
51B
  8
BACK_LAYER
 10
7.469374412530129
 20
2.152563208984448
 30
0.0
  0
VERTEX
  5
51C
  8
BACK_LAYER
 10
7.467474176822204
 20
2.169239422280762
 30
0.0
  0
VERTEX
  5
51D
  8
BACK_LAYER
 10
7.466671542807305
 20
2.185910102749799
 30
0.0
  0
VERTEX
  5
51E
  8
BACK_LAYER
 10
7.466951023482935
 20
2.202534563250251
 30
0.0
  0
VERTEX
  5
51F
  8
BACK_LAYER
 10
7.468297131846601
 20
2.219072116640809
 30
0.0
  0
VERTEX
  5
520
  8
BACK_LAYER
 10
7.470694380895805
 20
2.235482075780165
 30
0.0
  0
VERTEX
  5
521
  8
BACK_LAYER
 10
7.474127283628052
 20
2.25172375352701
 30
0.0
  0
VERTEX
  5
522
  8
BACK_LAYER
 10
7.478580353040845
 20
2.267756462740037
 30
0.0
  0
VERTEX
  5
523
  8
BACK_LAYER
 10
7.484038102131691
 20
2.283539516277937
 30
0.0
  0
VERTEX
  5
524
  8
BACK_LAYER
 10
7.490485043898092
 20
2.299032226999401
 30
0.0
  0
VERTEX
  5
525
  8
BACK_LAYER
 10
7.497905691337552
 20
2.314193907763122
 30
0.0
  0
VERTEX
  5
526
  8
BACK_LAYER
 10
7.506284557447577
 20
2.32898387142779
 30
0.0
  0
VERTEX
  5
527
  8
BACK_LAYER
 10
7.51560615522567
 20
2.343361430852096
 30
0.0
  0
VERTEX
  5
528
  8
BACK_LAYER
 10
7.525854997669335
 20
2.357285898894734
 30
0.0
  0
VERTEX
  5
529
  8
BACK_LAYER
 10
7.537015597776077
 20
2.370716588414394
 30
0.0
  0
VERTEX
  5
52A
  8
BACK_LAYER
 10
7.549072468543399
 20
2.383612812269769
 30
0.0
  0
VERTEX
  5
52B
  8
BACK_LAYER
 10
7.562010122968808
 20
2.395933883319549
 30
0.0
  0
VERTEX
  5
52C
  8
BACK_LAYER
 10
7.575813074049806
 20
2.407639114422428
 30
0.0
  0
VERTEX
  5
52D
  8
BACK_LAYER
 10
7.590465834783899
 20
2.418687818437094
 30
0.0
  0
VERTEX
  5
52E
  8
BACK_LAYER
 10
7.605952918168589
 20
2.429039308222241
 30
0.0
  0
VERTEX
  5
52F
  8
BACK_LAYER
 10
7.622258837201381
 20
2.438652896636561
 30
0.0
  0
VERTEX
  5
530
  8
BACK_LAYER
 10
7.639368104879779
 20
2.447487896538744
 30
0.0
  0
VERTEX
  5
531
  8
BACK_LAYER
 10
7.657265234201288
 20
2.455503620787483
 30
0.0
  0
VERTEX
  5
532
  8
BACK_LAYER
 10
7.675934738163413
 20
2.462659382241469
 30
0.0
  0
VERTEX
  5
533
  8
BACK_LAYER
 10
7.695361129763656
 20
2.468914493759394
 30
0.0
  0
VERTEX
  5
534
  8
BACK_LAYER
 10
7.741264466596382
 20
2.481938999949883
 30
0.0
  0
VERTEX
  5
535
  8
BACK_LAYER
 10
7.787370392386784
 20
2.494221163439156
 30
0.0
  0
VERTEX
  5
536
  8
BACK_LAYER
 10
7.833667402234171
 20
2.50576062808038
 30
0.0
  0
VERTEX
  5
537
  8
BACK_LAYER
 10
7.880143991237857
 20
2.516557037726724
 30
0.0
  0
VERTEX
  5
538
  8
BACK_LAYER
 10
7.926788654497149
 20
2.526610036231356
 30
0.0
  0
VERTEX
  5
539
  8
BACK_LAYER
 10
7.97358988711136
 20
2.535919267447445
 30
0.0
  0
VERTEX
  5
53A
  8
BACK_LAYER
 10
8.0205361841798
 20
2.544484375228161
 30
0.0
  0
VERTEX
  5
53B
  8
BACK_LAYER
 10
8.06761604080178
 20
2.552305003426672
 30
0.0
  0
VERTEX
  5
53C
  8
BACK_LAYER
 10
8.114817952076613
 20
2.559380795896146
 30
0.0
  0
VERTEX
  5
53D
  8
BACK_LAYER
 10
8.162130413103608
 20
2.565711396489752
 30
0.0
  0
VERTEX
  5
53E
  8
BACK_LAYER
 10
8.209541918982072
 20
2.571296449060659
 30
0.0
  0
VERTEX
  5
53F
  8
BACK_LAYER
 10
8.257040964811322
 20
2.576135597462035
 30
0.0
  0
VERTEX
  5
540
  8
BACK_LAYER
 10
8.304616045690665
 20
2.580228485547049
 30
0.0
  0
VERTEX
  5
541
  8
BACK_LAYER
 10
8.352255656719414
 20
2.58357475716887
 30
0.0
  0
VERTEX
  5
542
  8
BACK_LAYER
 10
8.399948292996882
 20
2.586174056180667
 30
0.0
  0
VERTEX
  5
543
  8
BACK_LAYER
 10
8.447682449622373
 20
2.588026026435609
 30
0.0
  0
VERTEX
  5
544
  8
BACK_LAYER
 10
8.495446621695205
 20
2.589130311786863
 30
0.0
  0
VERTEX
  5
545
  8
BACK_LAYER
 10
8.543229304314682
 20
2.589486556087598
 30
0.0
  0
VERTEX
  5
546
  8
BACK_LAYER
 10
8.59101899258012
 20
2.589094403190984
 30
0.0
  0
VERTEX
  5
547
  8
BACK_LAYER
 10
8.638804181590826
 20
2.587953496950189
 30
0.0
  0
VERTEX
  5
548
  8
BACK_LAYER
 10
8.686573366446114
 20
2.586063481218382
 30
0.0
  0
VERTEX
  5
549
  8
BACK_LAYER
 10
8.734315042245294
 20
2.583423999848731
 30
0.0
  0
VERTEX
  5
54A
  8
BACK_LAYER
 10
8.782017704087675
 20
2.580034696694405
 30
0.0
  0
VERTEX
  5
54B
  8
BACK_LAYER
 10
8.82966984707257
 20
2.575895215608573
 30
0.0
  0
VERTEX
  5
54C
  8
BACK_LAYER
 10
8.877259966299288
 20
2.571005200444404
 30
0.0
  0
VERTEX
  5
54D
  8
BACK_LAYER
 10
8.924776556867142
 20
2.565364295055065
 30
0.0
  0
VERTEX
  5
54E
  8
BACK_LAYER
 10
8.972208113875443
 20
2.558972143293727
 30
0.0
  0
VERTEX
  5
54F
  8
BACK_LAYER
 10
9.019543132423497
 20
2.551828389013557
 30
0.0
  0
VERTEX
  5
550
  8
BACK_LAYER
 10
9.066770107610619
 20
2.543932676067724
 30
0.0
  0
VERTEX
  5
551
  8
BACK_LAYER
 10
9.113877534536119
 20
2.535284648309398
 30
0.0
  0
VERTEX
  5
552
  8
BACK_LAYER
 10
9.160853908299309
 20
2.525883949591746
 30
0.0
  0
VERTEX
  5
553
  8
BACK_LAYER
 10
9.2076877239995
 20
2.515730223767937
 30
0.0
  0
VERTEX
  5
554
  8
BACK_LAYER
 10
9.309327065851782
 20
2.49260933314531
 30
0.0
  0
VERTEX
  5
555
  8
BACK_LAYER
 10
9.410833191267793
 20
2.469056363148633
 30
0.0
  0
VERTEX
  5
556
  8
BACK_LAYER
 10
9.5122043220248
 20
2.445071779561807
 30
0.0
  0
VERTEX
  5
557
  8
BACK_LAYER
 10
9.613438679900067
 20
2.420656048168731
 30
0.0
  0
VERTEX
  5
558
  8
BACK_LAYER
 10
9.714534486670855
 20
2.395809634753309
 30
0.0
  0
VERTEX
  5
559
  8
BACK_LAYER
 10
9.815489964114432
 20
2.370533005099441
 30
0.0
  0
VERTEX
  5
55A
  8
BACK_LAYER
 10
9.91630333400806
 20
2.344826624991029
 30
0.0
  0
VERTEX
  5
55B
  8
BACK_LAYER
 10
10.016972818129
 20
2.318690960211973
 30
0.0
  0
VERTEX
  5
55C
  8
BACK_LAYER
 10
10.11749663825452
 20
2.292126476546176
 30
0.0
  0
VERTEX
  5
55D
  8
BACK_LAYER
 10
10.21787301616189
 20
2.265133639777537
 30
0.0
  0
VERTEX
  5
55E
  8
BACK_LAYER
 10
10.31810017362836
 20
2.237712915689959
 30
0.0
  0
VERTEX
  5
55F
  8
BACK_LAYER
 10
10.4181763324312
 20
2.209864770067343
 30
0.0
  0
VERTEX
  5
560
  8
BACK_LAYER
 10
10.51809971434768
 20
2.181589668693589
 30
0.0
  0
VERTEX
  5
561
  8
BACK_LAYER
 10
10.61786854115505
 20
2.1528880773526
 30
0.0
  0
VERTEX
  5
562
  8
BACK_LAYER
 10
10.71748103463059
 20
2.123760461828276
 30
0.0
  0
VERTEX
  5
563
  8
BACK_LAYER
 10
10.81693541655156
 20
2.094207287904519
 30
0.0
  0
VERTEX
  5
564
  8
BACK_LAYER
 10
10.86681777390842
 20
2.079438650665218
 30
0.0
  0
VERTEX
  5
565
  8
BACK_LAYER
 10
10.91680839535536
 20
2.064982782513721
 30
0.0
  0
VERTEX
  5
566
  8
BACK_LAYER
 10
10.96690535840621
 20
2.050840053354473
 30
0.0
  0
VERTEX
  5
567
  8
BACK_LAYER
 10
11.01710674057481
 20
2.037010833091923
 30
0.0
  0
VERTEX
  5
568
  8
BACK_LAYER
 10
11.06741061937497
 20
2.023495491630516
 30
0.0
  0
VERTEX
  5
569
  8
BACK_LAYER
 10
11.11781507232053
 20
2.010294398874701
 30
0.0
  0
VERTEX
  5
56A
  8
BACK_LAYER
 10
11.16831817692532
 20
1.997407924728925
 30
0.0
  0
VERTEX
  5
56B
  8
BACK_LAYER
 10
11.21891801070317
 20
1.984836439097634
 30
0.0
  0
VERTEX
  5
56C
  8
BACK_LAYER
 10
11.26961265116792
 20
1.972580311885276
 30
0.0
  0
VERTEX
  5
56D
  8
BACK_LAYER
 10
11.32040017583338
 20
1.960639912996299
 30
0.0
  0
VERTEX
  5
56E
  8
BACK_LAYER
 10
11.3712786622134
 20
1.949015612335148
 30
0.0
  0
VERTEX
  5
56F
  8
BACK_LAYER
 10
11.4222461878218
 20
1.937707779806272
 30
0.0
  0
VERTEX
  5
570
  8
BACK_LAYER
 10
11.47330083017241
 20
1.926716785314117
 30
0.0
  0
VERTEX
  5
571
  8
BACK_LAYER
 10
11.52444066677907
 20
1.916042998763131
 30
0.0
  0
VERTEX
  5
572
  8
BACK_LAYER
 10
11.5756637751556
 20
1.905686790057761
 30
0.0
  0
VERTEX
  5
573
  8
BACK_LAYER
 10
11.62696823281583
 20
1.895648529102453
 30
0.0
  0
VERTEX
  5
574
  8
BACK_LAYER
 10
11.67835211727359
 20
1.885928585801656
 30
0.0
  0
VERTEX
  5
575
  8
BACK_LAYER
 10
11.72981350604272
 20
1.876527330059816
 30
0.0
  0
VERTEX
  5
576
  8
BACK_LAYER
 10
11.78135047663705
 20
1.86744513178138
 30
0.0
  0
VERTEX
  5
577
  8
BACK_LAYER
 10
11.8329611065704
 20
1.858682360870795
 30
0.0
  0
VERTEX
  5
578
  8
BACK_LAYER
 10
11.8846434733566
 20
1.85023938723251
 30
0.0
  0
VERTEX
  5
579
  8
BACK_LAYER
 10
11.93639565450949
 20
1.84211658077097
 30
0.0
  0
VERTEX
  5
57A
  8
BACK_LAYER
 10
11.9882157275429
 20
1.834314311390624
 30
0.0
  0
VERTEX
  5
57B
  8
BACK_LAYER
 10
12.04010176997065
 20
1.826832948995917
 30
0.0
  0
VERTEX
  5
57C
  8
BACK_LAYER
 10
12.09205185930658
 20
1.819672863491297
 30
0.0
  0
VERTEX
  5
57D
  8
BACK_LAYER
 10
12.14406407306452
 20
1.812834424781212
 30
0.0
  0
VERTEX
  5
57E
  8
BACK_LAYER
 10
12.19613648875829
 20
1.806318002770109
 30
0.0
  0
VERTEX
  5
57F
  8
BACK_LAYER
 10
12.24826718390173
 20
1.800123967362435
 30
0.0
  0
VERTEX
  5
580
  8
BACK_LAYER
 10
12.30045423600867
 20
1.794252688462636
 30
0.0
  0
VERTEX
  5
581
  8
BACK_LAYER
 10
12.35269572259293
 20
1.788704535975161
 30
0.0
  0
VERTEX
  5
582
  8
BACK_LAYER
 10
12.40498972116836
 20
1.783479879804455
 30
0.0
  0
VERTEX
  5
583
  8
BACK_LAYER
 10
12.45733430924877
 20
1.778579089854967
 30
0.0
  0
VERTEX
  5
584
  8
BACK_LAYER
 10
12.53560636102216
 20
1.771879252402615
 30
0.0
  0
VERTEX
  5
585
  8
BACK_LAYER
 10
12.61394109458426
 20
1.765938897235233
 30
0.0
  0
VERTEX
  5
586
  8
BACK_LAYER
 10
12.69233135041722
 20
1.760758115614643
 30
0.0
  0
VERTEX
  5
587
  8
BACK_LAYER
 10
12.77076996900324
 20
1.756336998802667
 30
0.0
  0
VERTEX
  5
588
  8
BACK_LAYER
 10
12.84924979082446
 20
1.752675638061129
 30
0.0
  0
VERTEX
  5
589
  8
BACK_LAYER
 10
12.92776365636308
 20
1.74977412465185
 30
0.0
  0
VERTEX
  5
58A
  8
BACK_LAYER
 10
13.00630440610125
 20
1.747632549836652
 30
0.0
  0
VERTEX
  5
58B
  8
BACK_LAYER
 10
13.08486488052114
 20
1.746251004877359
 30
0.0
  0
VERTEX
  5
58C
  8
BACK_LAYER
 10
13.16343792010494
 20
1.745629581035792
 30
0.0
  0
VERTEX
  5
58D
  8
BACK_LAYER
 10
13.2420163653348
 20
1.745768369573774
 30
0.0
  0
VERTEX
  5
58E
  8
BACK_LAYER
 10
13.32059305669289
 20
1.746667461753127
 30
0.0
  0
VERTEX
  5
58F
  8
BACK_LAYER
 10
13.3991608346614
 20
1.748326948835674
 30
0.0
  0
VERTEX
  5
590
  8
BACK_LAYER
 10
13.47771253972248
 20
1.750746922083236
 30
0.0
  0
VERTEX
  5
591
  8
BACK_LAYER
 10
13.55624101235831
 20
1.753927472757637
 30
0.0
  0
VERTEX
  5
592
  8
BACK_LAYER
 10
13.63473909305106
 20
1.757868692120698
 30
0.0
  0
VERTEX
  5
593
  8
BACK_LAYER
 10
13.71319962228291
 20
1.762570671434242
 30
0.0
  0
VERTEX
  5
594
  8
BACK_LAYER
 10
13.80338886234973
 20
1.768795821374243
 30
0.0
  0
VERTEX
  5
595
  8
BACK_LAYER
 10
13.89349161165497
 20
1.775777969178053
 30
0.0
  0
VERTEX
  5
596
  8
BACK_LAYER
 10
13.98350172453489
 20
1.783516297902087
 30
0.0
  0
VERTEX
  5
597
  8
BACK_LAYER
 10
14.0734130553258
 20
1.792009990602763
 30
0.0
  0
VERTEX
  5
598
  8
BACK_LAYER
 10
14.16321945836397
 20
1.801258230336497
 30
0.0
  0
VERTEX
  5
599
  8
BACK_LAYER
 10
14.25291478798569
 20
1.811260200159708
 30
0.0
  0
VERTEX
  5
59A
  8
BACK_LAYER
 10
14.34249289852725
 20
1.822015083128811
 30
0.0
  0
VERTEX
  5
59B
  8
BACK_LAYER
 10
14.43194764432492
 20
1.833522062300225
 30
0.0
  0
VERTEX
  5
59C
  8
BACK_LAYER
 10
14.521272879715
 20
1.845780320730365
 30
0.0
  0
VERTEX
  5
59D
  8
BACK_LAYER
 10
14.61046245903377
 20
1.85878904147565
 30
0.0
  0
VERTEX
  5
59E
  8
BACK_LAYER
 10
14.69951023661752
 20
1.872547407592496
 30
0.0
  0
VERTEX
  5
59F
  8
BACK_LAYER
 10
14.78841006680253
 20
1.887054602137319
 30
0.0
  0
VERTEX
  5
5A0
  8
BACK_LAYER
 10
14.87715580392509
 20
1.902309808166538
 30
0.0
  0
VERTEX
  5
5A1
  8
BACK_LAYER
 10
14.96574130232148
 20
1.918312208736569
 30
0.0
  0
VERTEX
  5
5A2
  8
BACK_LAYER
 10
15.054160416328
 20
1.935060986903829
 30
0.0
  0
VERTEX
  5
5A3
  8
BACK_LAYER
 10
15.14240700028092
 20
1.952555325724736
 30
0.0
  0
VERTEX
  5
5A4
  8
BACK_LAYER
 10
15.20422021499916
 20
1.964877344547074
 30
0.0
  0
VERTEX
  5
5A5
  8
BACK_LAYER
 10
15.26612074684785
 20
1.976806164365024
 30
0.0
  0
VERTEX
  5
5A6
  8
BACK_LAYER
 10
15.32810615679911
 20
1.988341544721155
 30
0.0
  0
VERTEX
  5
5A7
  8
BACK_LAYER
 10
15.3901740058251
 20
1.999483245158037
 30
0.0
  0
VERTEX
  5
5A8
  8
BACK_LAYER
 10
15.45232185489796
 20
2.010231025218238
 30
0.0
  0
VERTEX
  5
5A9
  8
BACK_LAYER
 10
15.51454726498983
 20
2.020584644444327
 30
0.0
  0
VERTEX
  5
5AA
  8
BACK_LAYER
 10
15.57684779707285
 20
2.030543862378874
 30
0.0
  0
VERTEX
  5
5AB
  8
BACK_LAYER
 10
15.63922101211917
 20
2.040108438564449
 30
0.0
  0
VERTEX
  5
5AC
  8
BACK_LAYER
 10
15.70166447110093
 20
2.049278132543619
 30
0.0
  0
VERTEX
  5
5AD
  8
BACK_LAYER
 10
15.76417573499027
 20
2.058052703858954
 30
0.0
  0
VERTEX
  5
5AE
  8
BACK_LAYER
 10
15.82675236475935
 20
2.066431912053024
 30
0.0
  0
VERTEX
  5
5AF
  8
BACK_LAYER
 10
15.88939192138029
 20
2.074415516668398
 30
0.0
  0
VERTEX
  5
5B0
  8
BACK_LAYER
 10
15.95209196582524
 20
2.082003277247644
 30
0.0
  0
VERTEX
  5
5B1
  8
BACK_LAYER
 10
16.01485005906636
 20
2.089194953333332
 30
0.0
  0
VERTEX
  5
5B2
  8
BACK_LAYER
 10
16.07766376207577
 20
2.095990304468032
 30
0.0
  0
VERTEX
  5
5B3
  8
BACK_LAYER
 10
16.14053063582563
 20
2.102389090194311
 30
0.0
  0
VERTEX
  5
5B4
  8
BACK_LAYER
 10
16.20344824128807
 20
2.10839107005474
 30
0.0
  0
VERTEX
  5
5B5
  8
BACK_LAYER
 10
16.26641413943525
 20
2.113996003591887
 30
0.0
  0
VERTEX
  5
5B6
  8
BACK_LAYER
 10
16.32942589123929
 20
2.119203650348322
 30
0.0
  0
VERTEX
  5
5B7
  8
BACK_LAYER
 10
16.39248105767236
 20
2.124013769866615
 30
0.0
  0
VERTEX
  5
5B8
  8
BACK_LAYER
 10
16.45557719970658
 20
2.128426121689333
 30
0.0
  0
VERTEX
  5
5B9
  8
BACK_LAYER
 10
16.51871187831411
 20
2.132440465359046
 30
0.0
  0
VERTEX
  5
5BA
  8
BACK_LAYER
 10
16.58188265446709
 20
2.136056560418324
 30
0.0
  0
VERTEX
  5
5BB
  8
BACK_LAYER
 10
16.64508708913765
 20
2.139274166409735
 30
0.0
  0
VERTEX
  5
5BC
  8
BACK_LAYER
 10
16.70832274329795
 20
2.142093042875849
 30
0.0
  0
VERTEX
  5
5BD
  8
BACK_LAYER
 10
16.77158717792012
 20
2.144512949359235
 30
0.0
  0
VERTEX
  5
5BE
  8
BACK_LAYER
 10
16.83487795397632
 20
2.146533645402461
 30
0.0
  0
VERTEX
  5
5BF
  8
BACK_LAYER
 10
16.89819263243867
 20
2.148154890548098
 30
0.0
  0
VERTEX
  5
5C0
  8
BACK_LAYER
 10
16.96152877427934
 20
2.149376444338714
 30
0.0
  0
VERTEX
  5
5C1
  8
BACK_LAYER
 10
17.02488394047045
 20
2.150198066316879
 30
0.0
  0
VERTEX
  5
5C2
  8
BACK_LAYER
 10
17.08825569198416
 20
2.150619516025162
 30
0.0
  0
VERTEX
  5
5C3
  8
BACK_LAYER
 10
17.1516415897926
 20
2.150640553006131
 30
0.0
  0
VERTEX
  5
5C4
  8
BACK_LAYER
 10
17.20203629973061
 20
2.150297027239976
 30
0.0
  0
VERTEX
  5
5C5
  8
BACK_LAYER
 10
17.25240973007279
 20
2.149551768135814
 30
0.0
  0
VERTEX
  5
5C6
  8
BACK_LAYER
 10
17.30275880993886
 20
2.148405178708501
 30
0.0
  0
VERTEX
  5
5C7
  8
BACK_LAYER
 10
17.3530804684485
 20
2.146857661972894
 30
0.0
  0
VERTEX
  5
5C8
  8
BACK_LAYER
 10
17.40337163472144
 20
2.144909620943849
 30
0.0
  0
VERTEX
  5
5C9
  8
BACK_LAYER
 10
17.45362923787735
 20
2.142561458636224
 30
0.0
  0
VERTEX
  5
5CA
  8
BACK_LAYER
 10
17.50385020703596
 20
2.139813578064873
 30
0.0
  0
VERTEX
  5
5CB
  8
BACK_LAYER
 10
17.55403147131696
 20
2.136666382244655
 30
0.0
  0
VERTEX
  5
5CC
  8
BACK_LAYER
 10
17.60416995984004
 20
2.133120274190426
 30
0.0
  0
VERTEX
  5
5CD
  8
BACK_LAYER
 10
17.65426260172492
 20
2.129175656917042
 30
0.0
  0
VERTEX
  5
5CE
  8
BACK_LAYER
 10
17.70430632609129
 20
2.124832933439358
 30
0.0
  0
VERTEX
  5
5CF
  8
BACK_LAYER
 10
17.75429806205886
 20
2.120092506772234
 30
0.0
  0
VERTEX
  5
5D0
  8
BACK_LAYER
 10
17.80423473874731
 20
2.114954779930524
 30
0.0
  0
VERTEX
  5
5D1
  8
BACK_LAYER
 10
17.85411328527637
 20
2.109420155929084
 30
0.0
  0
VERTEX
  5
5D2
  8
BACK_LAYER
 10
17.90393063076572
 20
2.103489037782773
 30
0.0
  0
VERTEX
  5
5D3
  8
BACK_LAYER
 10
17.95368370433507
 20
2.097161828506446
 30
0.0
  0
VERTEX
  5
5D4
  8
BACK_LAYER
 10
18.00336943510412
 20
2.09043893111496
 30
0.0
  0
VERTEX
  5
5D5
  8
BACK_LAYER
 10
18.05298475219257
 20
2.08332074862317
 30
0.0
  0
VERTEX
  5
5D6
  8
BACK_LAYER
 10
18.10252658472012
 20
2.075807684045935
 30
0.0
  0
VERTEX
  5
5D7
  8
BACK_LAYER
 10
18.15199186180648
 20
2.06790014039811
 30
0.0
  0
VERTEX
  5
5D8
  8
BACK_LAYER
 10
18.20137751257134
 20
2.059598520694552
 30
0.0
  0
VERTEX
  5
5D9
  8
BACK_LAYER
 10
18.25068046613441
 20
2.050903227950116
 30
0.0
  0
VERTEX
  5
5DA
  8
BACK_LAYER
 10
18.29989765161539
 20
2.04181466517966
 30
0.0
  0
VERTEX
  5
5DB
  8
BACK_LAYER
 10
18.34902599813397
 20
2.032333235398042
 30
0.0
  0
VERTEX
  5
5DC
  8
BACK_LAYER
 10
18.39806243480986
 20
2.022459341620116
 30
0.0
  0
VERTEX
  5
5DD
  8
BACK_LAYER
 10
18.44700389076276
 20
2.012193386860739
 30
0.0
  0
VERTEX
  5
5DE
  8
BACK_LAYER
 10
18.49584729511238
 20
2.001535774134768
 30
0.0
  0
VERTEX
  5
5DF
  8
BACK_LAYER
 10
18.5445895769784
 20
1.99048690645706
 30
0.0
  0
VERTEX
  5
5E0
  8
BACK_LAYER
 10
18.59322766548055
 20
1.97904718684247
 30
0.0
  0
VERTEX
  5
5E1
  8
BACK_LAYER
 10
18.64175848973851
 20
1.967217018305857
 30
0.0
  0
VERTEX
  5
5E2
  8
BACK_LAYER
 10
18.69017897887198
 20
1.954996803862075
 30
0.0
  0
VERTEX
  5
5E3
  8
BACK_LAYER
 10
18.73848606200067
 20
1.942386946525981
 30
0.0
  0
VERTEX
  5
5E4
  8
BACK_LAYER
 10
18.97236741289108
 20
1.880053336783833
 30
0.0
  0
VERTEX
  5
5E5
  8
BACK_LAYER
 10
19.20607898784706
 20
1.817233697316114
 30
0.0
  0
VERTEX
  5
5E6
  8
BACK_LAYER
 10
19.43961980524919
 20
1.753928297566397
 30
0.0
  0
VERTEX
  5
5E7
  8
BACK_LAYER
 10
19.67298888347804
 20
1.690137406978256
 30
0.0
  0
VERTEX
  5
5E8
  8
BACK_LAYER
 10
19.90618524091418
 20
1.625861294995265
 30
0.0
  0
VERTEX
  5
5E9
  8
BACK_LAYER
 10
20.13920789593816
 20
1.561100231060998
 30
0.0
  0
VERTEX
  5
5EA
  8
BACK_LAYER
 10
20.37205586693056
 20
1.495854484619028
 30
0.0
  0
VERTEX
  5
5EB
  8
BACK_LAYER
 10
20.60472817227195
 20
1.430124325112929
 30
0.0
  0
VERTEX
  5
5EC
  8
BACK_LAYER
 10
20.65024407398751
 20
1.417500503010603
 30
0.0
  0
VERTEX
  5
5ED
  8
BACK_LAYER
 10
20.69591397809997
 20
1.405405678163955
 30
0.0
  0
VERTEX
  5
5EE
  8
BACK_LAYER
 10
20.74173190796821
 20
1.393840402581697
 30
0.0
  0
VERTEX
  5
5EF
  8
BACK_LAYER
 10
20.78769188695111
 20
1.382805228272543
 30
0.0
  0
VERTEX
  5
5F0
  8
BACK_LAYER
 10
20.83378793840756
 20
1.372300707245205
 30
0.0
  0
VERTEX
  5
5F1
  8
BACK_LAYER
 10
20.88001408569644
 20
1.362327391508395
 30
0.0
  0
VERTEX
  5
5F2
  8
BACK_LAYER
 10
20.92636435217663
 20
1.352885833070827
 30
0.0
  0
VERTEX
  5
5F3
  8
BACK_LAYER
 10
20.97283276120701
 20
1.343976583941214
 30
0.0
  0
VERTEX
  5
5F4
  8
BACK_LAYER
 10
21.01941333614647
 20
1.335600196128267
 30
0.0
  0
VERTEX
  5
5F5
  8
BACK_LAYER
 10
21.06610010035388
 20
1.327757221640701
 30
0.0
  0
VERTEX
  5
5F6
  8
BACK_LAYER
 10
21.11288707718813
 20
1.320448212487227
 30
0.0
  0
VERTEX
  5
5F7
  8
BACK_LAYER
 10
21.15976829000811
 20
1.313673720676559
 30
0.0
  0
VERTEX
  5
5F8
  8
BACK_LAYER
 10
21.20673776217269
 20
1.307434298217408
 30
0.0
  0
VERTEX
  5
5F9
  8
BACK_LAYER
 10
21.25378951704076
 20
1.30173049711849
 30
0.0
  0
VERTEX
  5
5FA
  8
BACK_LAYER
 10
21.3009175779712
 20
1.296562869388515
 30
0.0
  0
VERTEX
  5
5FB
  8
BACK_LAYER
 10
21.34811596832289
 20
1.291931967036196
 30
0.0
  0
VERTEX
  5
5FC
  8
BACK_LAYER
 10
21.39537871145472
 20
1.287838342070247
 30
0.0
  0
VERTEX
  5
5FD
  8
BACK_LAYER
 10
21.44269983072557
 20
1.28428254649938
 30
0.0
  0
VERTEX
  5
5FE
  8
BACK_LAYER
 10
21.49007334949431
 20
1.281265132332308
 30
0.0
  0
VERTEX
  5
5FF
  8
BACK_LAYER
 10
21.53749329111983
 20
1.278786651577744
 30
0.0
  0
VERTEX
  5
600
  8
BACK_LAYER
 10
21.58495367896102
 20
1.2768476562444
 30
0.0
  0
VERTEX
  5
601
  8
BACK_LAYER
 10
21.63244853637676
 20
1.27544869834099
 30
0.0
  0
VERTEX
  5
602
  8
BACK_LAYER
 10
21.67997188672592
 20
1.274590329876225
 30
0.0
  0
VERTEX
  5
603
  8
BACK_LAYER
 10
21.7275177533674
 20
1.27427310285882
 30
0.0
  0
VERTEX
  5
604
  8
BACK_LAYER
 10
21.77508015966007
 20
1.274497569297486
 30
0.0
  0
VERTEX
  5
605
  8
BACK_LAYER
 10
21.82265312896282
 20
1.275264281200936
 30
0.0
  0
VERTEX
  5
606
  8
BACK_LAYER
 10
21.87023068463452
 20
1.276573790577884
 30
0.0
  0
VERTEX
  5
607
  8
BACK_LAYER
 10
21.91780685003407
 20
1.278426649437042
 30
0.0
  0
VERTEX
  5
608
  8
BACK_LAYER
 10
21.96537564852034
 20
1.280823409787122
 30
0.0
  0
VERTEX
  5
609
  8
BACK_LAYER
 10
22.01293110345221
 20
1.283764623636838
 30
0.0
  0
VERTEX
  5
60A
  8
BACK_LAYER
 10
22.06046723818858
 20
1.287250842994902
 30
0.0
  0
VERTEX
  5
60B
  8
BACK_LAYER
 10
22.10797807608832
 20
1.291282619870028
 30
0.0
  0
VERTEX
  5
60C
  8
BACK_LAYER
 10
22.13070329658467
 20
1.293647893919709
 30
0.0
  0
VERTEX
  5
60D
  8
BACK_LAYER
 10
22.15330029677004
 20
1.296610586431372
 30
0.0
  0
VERTEX
  5
60E
  8
BACK_LAYER
 10
22.17575445535028
 20
1.300166098154568
 30
0.0
  0
VERTEX
  5
60F
  8
BACK_LAYER
 10
22.19805115103122
 20
1.304309829838846
 30
0.0
  0
VERTEX
  5
610
  8
BACK_LAYER
 10
22.22017576251871
 20
1.309037182233758
 30
0.0
  0
VERTEX
  5
611
  8
BACK_LAYER
 10
22.24211366851858
 20
1.314343556088854
 30
0.0
  0
VERTEX
  5
612
  8
BACK_LAYER
 10
22.26385024773669
 20
1.320224352153685
 30
0.0
  0
VERTEX
  5
613
  8
BACK_LAYER
 10
22.28537087887887
 20
1.326674971177801
 30
0.0
  0
VERTEX
  5
614
  8
BACK_LAYER
 10
22.30666094065095
 20
1.333690813910753
 30
0.0
  0
VERTEX
  5
615
  8
BACK_LAYER
 10
22.32770581175879
 20
1.341267281102091
 30
0.0
  0
VERTEX
  5
616
  8
BACK_LAYER
 10
22.34849087090822
 20
1.349399773501367
 30
0.0
  0
VERTEX
  5
617
  8
BACK_LAYER
 10
22.36900149680509
 20
1.358083691858129
 30
0.0
  0
VERTEX
  5
618
  8
BACK_LAYER
 10
22.38922306815524
 20
1.36731443692193
 30
0.0
  0
VERTEX
  5
619
  8
BACK_LAYER
 10
22.4091409636645
 20
1.37708740944232
 30
0.0
  0
VERTEX
  5
61A
  8
BACK_LAYER
 10
22.42874056203872
 20
1.387398010168849
 30
0.0
  0
VERTEX
  5
61B
  8
BACK_LAYER
 10
22.44800724198375
 20
1.398241639851068
 30
0.0
  0
VERTEX
  5
61C
  8
BACK_LAYER
 10
22.4629729852402
 20
1.407417684771023
 30
0.0
  0
VERTEX
  5
61D
  8
BACK_LAYER
 10
22.47726798071967
 20
1.417128829858934
 30
0.0
  0
VERTEX
  5
61E
  8
BACK_LAYER
 10
22.49088560634306
 20
1.427349755679348
 30
0.0
  0
VERTEX
  5
61F
  8
BACK_LAYER
 10
22.50381924003132
 20
1.438055142796814
 30
0.0
  0
VERTEX
  5
620
  8
BACK_LAYER
 10
22.51606225970537
 20
1.449219671775879
 30
0.0
  0
VERTEX
  5
621
  8
BACK_LAYER
 10
22.52760804328614
 20
1.460818023181092
 30
0.0
  0
VERTEX
  5
622
  8
BACK_LAYER
 10
22.53844996869455
 20
1.472824877577002
 30
0.0
  0
VERTEX
  5
623
  8
BACK_LAYER
 10
22.54858141385155
 20
1.485214915528156
 30
0.0
  0
VERTEX
  5
624
  8
BACK_LAYER
 10
22.55799575667805
 20
1.497962817599102
 30
0.0
  0
VERTEX
  5
625
  8
BACK_LAYER
 10
22.56668637509497
 20
1.511043264354389
 30
0.0
  0
VERTEX
  5
626
  8
BACK_LAYER
 10
22.57464664702326
 20
1.524430936358564
 30
0.0
  0
VERTEX
  5
627
  8
BACK_LAYER
 10
22.58186995038384
 20
1.538100514176177
 30
0.0
  0
VERTEX
  5
628
  8
BACK_LAYER
 10
22.58834966309763
 20
1.552026678371775
 30
0.0
  0
VERTEX
  5
629
  8
BACK_LAYER
 10
22.59407916308557
 20
1.566184109509907
 30
0.0
  0
VERTEX
  5
62A
  8
BACK_LAYER
 10
22.59905182826859
 20
1.58054748815512
 30
0.0
  0
VERTEX
  5
62B
  8
BACK_LAYER
 10
22.60326103656761
 20
1.595091494871964
 30
0.0
  0
VERTEX
  5
62C
  8
BACK_LAYER
 10
22.60670016590355
 20
1.609790810224985
 30
0.0
  0
VERTEX
  5
62D
  8
BACK_LAYER
 10
22.60936259419736
 20
1.624620114778733
 30
0.0
  0
VERTEX
  5
62E
  8
BACK_LAYER
 10
22.61124169936996
 20
1.639554089097755
 30
0.0
  0
VERTEX
  5
62F
  8
BACK_LAYER
 10
22.61233085934228
 20
1.654567413746599
 30
0.0
  0
VERTEX
  5
630
  8
BACK_LAYER
 10
22.61262345203524
 20
1.669634769289815
 30
0.0
  0
VERTEX
  5
631
  8
BACK_LAYER
 10
22.61211285536977
 20
1.68473083629195
 30
0.0
  0
VERTEX
  5
632
  8
BACK_LAYER
 10
22.61079244726681
 20
1.699830295317551
 30
0.0
  0
VERTEX
  5
633
  8
BACK_LAYER
 10
22.60865560564728
 20
1.714907826931169
 30
0.0
  0
VERTEX
  5
634
  8
BACK_LAYER
 10
22.6056957084321
 20
1.729938111697349
 30
0.0
  0
VERTEX
  5
635
  8
BACK_LAYER
 10
22.60190613354221
 20
1.744895830180642
 30
0.0
  0
VERTEX
  5
636
  8
BACK_LAYER
 10
22.59728025889854
 20
1.759755662945595
 30
0.0
  0
VERTEX
  5
637
  8
BACK_LAYER
 10
22.59181146242201
 20
1.774492290556756
 30
0.0
  0
VERTEX
  5
638
  8
BACK_LAYER
 10
22.58549312203355
 20
1.789080393578674
 30
0.0
  0
VERTEX
  5
639
  8
BACK_LAYER
 10
22.5783186156541
 20
1.803494652575896
 30
0.0
  0
VERTEX
  5
63A
  8
BACK_LAYER
 10
22.57028132120458
 20
1.817709748112971
 30
0.0
  0
VERTEX
  5
63B
  8
BACK_LAYER
 10
22.56137461660591
 20
1.831700360754447
 30
0.0
  0
VERTEX
  5
63C
  8
BACK_LAYER
 10
22.54264799077258
 20
1.859143835587532
 30
0.0
  0
VERTEX
  5
63D
  8
BACK_LAYER
 10
22.52357883210476
 20
1.886386765010522
 30
0.0
  0
VERTEX
  5
63E
  8
BACK_LAYER
 10
22.50416940808311
 20
1.913426853323033
 30
0.0
  0
VERTEX
  5
63F
  8
BACK_LAYER
 10
22.48442198618833
 20
1.940261804824683
 30
0.0
  0
VERTEX
  5
640
  8
BACK_LAYER
 10
22.46433883390107
 20
1.966889323815088
 30
0.0
  0
VERTEX
  5
641
  8
BACK_LAYER
 10
22.44392221870204
 20
1.993307114593866
 30
0.0
  0
VERTEX
  5
642
  8
BACK_LAYER
 10
22.42317440807189
 20
2.019512881460634
 30
0.0
  0
VERTEX
  5
643
  8
BACK_LAYER
 10
22.40209766949132
 20
2.045504328715008
 30
0.0
  0
VERTEX
  5
644
  8
BACK_LAYER
 10
22.38069427044099
 20
2.071279160656607
 30
0.0
  0
VERTEX
  5
645
  8
BACK_LAYER
 10
22.35896647840159
 20
2.096835081585046
 30
0.0
  0
VERTEX
  5
646
  8
BACK_LAYER
 10
22.33691656085379
 20
2.122169795799944
 30
0.0
  0
VERTEX
  5
647
  8
BACK_LAYER
 10
22.31454678527828
 20
2.147281007600917
 30
0.0
  0
VERTEX
  5
648
  8
BACK_LAYER
 10
22.29185941915573
 20
2.172166421287582
 30
0.0
  0
VERTEX
  5
649
  8
BACK_LAYER
 10
22.26885672996681
 20
2.196823741159557
 30
0.0
  0
VERTEX
  5
64A
  8
BACK_LAYER
 10
22.24554098519221
 20
2.221250671516458
 30
0.0
  0
VERTEX
  5
64B
  8
BACK_LAYER
 10
22.22191445231261
 20
2.245444916657903
 30
0.0
  0
VERTEX
  5
64C
  8
BACK_LAYER
 10
22.19797939880868
 20
2.269404180883509
 30
0.0
  0
VERTEX
  5
64D
  8
BACK_LAYER
 10
22.17373809216111
 20
2.293126168492892
 30
0.0
  0
VERTEX
  5
64E
  8
BACK_LAYER
 10
22.14919279985056
 20
2.316608583785669
 30
0.0
  0
VERTEX
  5
64F
  8
BACK_LAYER
 10
22.12434578935772
 20
2.339849131061459
 30
0.0
  0
VERTEX
  5
650
  8
BACK_LAYER
 10
22.09919932816326
 20
2.362845514619878
 30
0.0
  0
VERTEX
  5
651
  8
BACK_LAYER
 10
22.07375568374787
 20
2.385595438760543
 30
0.0
  0
VERTEX
  5
652
  8
BACK_LAYER
 10
22.04801712359222
 20
2.408096607783071
 30
0.0
  0
VERTEX
  5
653
  8
BACK_LAYER
 10
22.02198591517698
 20
2.43034672598708
 30
0.0
  0
VERTEX
  5
654
  8
BACK_LAYER
 10
21.99566432598285
 20
2.452343497672186
 30
0.0
  0
VERTEX
  5
655
  8
BACK_LAYER
 10
21.9690546234905
 20
2.474084627138006
 30
0.0
  0
VERTEX
  5
656
  8
BACK_LAYER
 10
21.94215907518059
 20
2.495567818684158
 30
0.0
  0
VERTEX
  5
657
  8
BACK_LAYER
 10
21.91497994853382
 20
2.516790776610259
 30
0.0
  0
VERTEX
  5
658
  8
BACK_LAYER
 10
21.88751951103086
 20
2.537751205215925
 30
0.0
  0
VERTEX
  5
659
  8
BACK_LAYER
 10
21.85978003015239
 20
2.558446808800774
 30
0.0
  0
VERTEX
  5
65A
  8
BACK_LAYER
 10
21.83176377337908
 20
2.578875291664422
 30
0.0
  0
VERTEX
  5
65B
  8
BACK_LAYER
 10
21.80347300819162
 20
2.599034358106489
 30
0.0
  0
VERTEX
  5
65C
  8
BACK_LAYER
 10
21.78733020224945
 20
2.610803926250719
 30
0.0
  0
VERTEX
  5
65D
  8
BACK_LAYER
 10
21.77171899817844
 20
2.622990394443367
 30
0.0
  0
VERTEX
  5
65E
  8
BACK_LAYER
 10
21.75664543381883
 20
2.635579833882783
 30
0.0
  0
VERTEX
  5
65F
  8
BACK_LAYER
 10
21.74211554701083
 20
2.648558315767312
 30
0.0
  0
VERTEX
  5
660
  8
BACK_LAYER
 10
21.72813537559469
 20
2.661911911295305
 30
0.0
  0
VERTEX
  5
661
  8
BACK_LAYER
 10
21.71471095741062
 20
2.675626691665109
 30
0.0
  0
VERTEX
  5
662
  8
BACK_LAYER
 10
21.70184833029887
 20
2.689688728075072
 30
0.0
  0
VERTEX
  5
663
  8
BACK_LAYER
 10
21.68955353209966
 20
2.704084091723542
 30
0.0
  0
VERTEX
  5
664
  8
BACK_LAYER
 10
21.67783260065322
 20
2.718798853808867
 30
0.0
  0
VERTEX
  5
665
  8
BACK_LAYER
 10
21.66669157379978
 20
2.733819085529396
 30
0.0
  0
VERTEX
  5
666
  8
BACK_LAYER
 10
21.65613648937958
 20
2.749130858083476
 30
0.0
  0
VERTEX
  5
667
  8
BACK_LAYER
 10
21.64617338523285
 20
2.764720242669457
 30
0.0
  0
VERTEX
  5
668
  8
BACK_LAYER
 10
21.63680829919981
 20
2.780573310485685
 30
0.0
  0
VERTEX
  5
669
  8
BACK_LAYER
 10
21.62804726912069
 20
2.796676132730509
 30
0.0
  0
VERTEX
  5
66A
  8
BACK_LAYER
 10
21.61989633283573
 20
2.813014780602277
 30
0.0
  0
VERTEX
  5
66B
  8
BACK_LAYER
 10
21.61236152818515
 20
2.829575325299338
 30
0.0
  0
VERTEX
  5
66C
  8
BACK_LAYER
 10
21.60544889300919
 20
2.846343838020039
 30
0.0
  0
VERTEX
  5
66D
  8
BACK_LAYER
 10
21.59916446514808
 20
2.863306389962728
 30
0.0
  0
VERTEX
  5
66E
  8
BACK_LAYER
 10
21.59351428244204
 20
2.880449052325755
 30
0.0
  0
VERTEX
  5
66F
  8
BACK_LAYER
 10
21.58850438273132
 20
2.897757896307466
 30
0.0
  0
VERTEX
  5
670
  8
BACK_LAYER
 10
21.58414080385612
 20
2.915218993106211
 30
0.0
  0
VERTEX
  5
671
  8
BACK_LAYER
 10
21.58042958365671
 20
2.932818413920336
 30
0.0
  0
VERTEX
  5
672
  8
BACK_LAYER
 10
21.57737675997329
 20
2.950542229948191
 30
0.0
  0
VERTEX
  5
673
  8
BACK_LAYER
 10
21.5749883706461
 20
2.968376512388123
 30
0.0
  0
VERTEX
  5
674
  8
BACK_LAYER
 10
21.57327045351537
 20
2.98630733243848
 30
0.0
  0
VERTEX
  5
675
  8
BACK_LAYER
 10
21.57222904642133
 20
3.004320761297611
 30
0.0
  0
VERTEX
  5
676
  8
BACK_LAYER
 10
21.57187018720421
 20
3.022402870163865
 30
0.0
  0
VERTEX
  5
677
  8
BACK_LAYER
 10
21.57219991370424
 20
3.040539730235588
 30
0.0
  0
VERTEX
  5
678
  8
BACK_LAYER
 10
21.57322426376165
 20
3.05871741271113
 30
0.0
  0
VERTEX
  5
679
  8
BACK_LAYER
 10
21.57494927521668
 20
3.076921988788837
 30
0.0
  0
VERTEX
  5
67A
  8
BACK_LAYER
 10
21.57738098590955
 20
3.095139529667059
 30
0.0
  0
VERTEX
  5
67B
  8
BACK_LAYER
 10
21.5805254336805
 20
3.113356106544143
 30
0.0
  0
VERTEX
  5
67C
  8
BACK_LAYER
 10
21.58453360925353
 20
3.132014355141491
 30
0.0
  0
VERTEX
  5
67D
  8
BACK_LAYER
 10
21.58932298156809
 20
3.150416936369898
 30
0.0
  0
VERTEX
  5
67E
  8
BACK_LAYER
 10
21.59487818838345
 20
3.168549842771976
 30
0.0
  0
VERTEX
  5
67F
  8
BACK_LAYER
 10
21.60118386745889
 20
3.186399066890339
 30
0.0
  0
VERTEX
  5
680
  8
BACK_LAYER
 10
21.60822465655368
 20
3.2039506012676
 30
0.0
  0
VERTEX
  5
681
  8
BACK_LAYER
 10
21.61598519342711
 20
3.22119043844637
 30
0.0
  0
VERTEX
  5
682
  8
BACK_LAYER
 10
21.62445011583844
 20
3.238104570969264
 30
0.0
  0
VERTEX
  5
683
  8
BACK_LAYER
 10
21.63360406154696
 20
3.254678991378894
 30
0.0
  0
VERTEX
  5
684
  8
BACK_LAYER
 10
21.64343166831195
 20
3.270899692217872
 30
0.0
  0
VERTEX
  5
685
  8
BACK_LAYER
 10
21.65391757389267
 20
3.286752666028812
 30
0.0
  0
VERTEX
  5
686
  8
BACK_LAYER
 10
21.6650464160484
 20
3.302223905354328
 30
0.0
  0
VERTEX
  5
687
  8
BACK_LAYER
 10
21.67680283253843
 20
3.31729940273703
 30
0.0
  0
VERTEX
  5
688
  8
BACK_LAYER
 10
21.68917146112204
 20
3.331965150719532
 30
0.0
  0
VERTEX
  5
689
  8
BACK_LAYER
 10
21.70213693955849
 20
3.346207141844447
 30
0.0
  0
VERTEX
  5
68A
  8
BACK_LAYER
 10
21.71568390560705
 20
3.360011368654388
 30
0.0
  0
VERTEX
  5
68B
  8
BACK_LAYER
 10
21.72979699702702
 20
3.373363823691968
 30
0.0
  0
VERTEX
  5
68C
  8
BACK_LAYER
 10
21.74446085157767
 20
3.3862504994998
 30
0.0
  0
VERTEX
  5
68D
  8
BACK_LAYER
 10
21.75966010701827
 20
3.398657388620495
 30
0.0
  0
VERTEX
  5
68E
  8
BACK_LAYER
 10
21.7753794011081
 20
3.410570483596668
 30
0.0
  0
VERTEX
  5
68F
  8
BACK_LAYER
 10
21.79160337160643
 20
3.421975776970931
 30
0.0
  0
VERTEX
  5
690
  8
BACK_LAYER
 10
21.80831665627255
 20
3.432859261285897
 30
0.0
  0
VERTEX
  5
691
  8
BACK_LAYER
 10
21.82550389286573
 20
3.443206929084178
 30
0.0
  0
VERTEX
  5
692
  8
BACK_LAYER
 10
21.84314971914525
 20
3.453004772908388
 30
0.0
  0
VERTEX
  5
693
  8
BACK_LAYER
 10
21.86123877287038
 20
3.462238785301139
 30
0.0
  0
VERTEX
  5
694
  8
BACK_LAYER
 10
21.87975569180039
 20
3.470894958805045
 30
0.0
  0
VERTEX
  5
695
  8
BACK_LAYER
 10
21.89868511369458
 20
3.478959285962717
 30
0.0
  0
VERTEX
  5
696
  8
BACK_LAYER
 10
21.91801167631222
 20
3.48641775931677
 30
0.0
  0
VERTEX
  5
697
  8
BACK_LAYER
 10
21.93772001741257
 20
3.493256371409815
 30
0.0
  0
VERTEX
  5
698
  8
BACK_LAYER
 10
21.95779477475492
 20
3.499461114784467
 30
0.0
  0
VERTEX
  5
699
  8
BACK_LAYER
 10
21.97822058609854
 20
3.505017981983336
 30
0.0
  0
VERTEX
  5
69A
  8
BACK_LAYER
 10
21.99898208920272
 20
3.509912965549036
 30
0.0
  0
VERTEX
  5
69B
  8
BACK_LAYER
 10
22.02006392182672
 20
3.514132058024181
 30
0.0
  0
VERTEX
  5
69C
  8
BACK_LAYER
 10
22.0563304722949
 20
3.520565141430587
 30
0.0
  0
VERTEX
  5
69D
  8
BACK_LAYER
 10
22.09264055557053
 20
3.526633207468717
 30
0.0
  0
VERTEX
  5
69E
  8
BACK_LAYER
 10
22.12899079187608
 20
3.532336710958861
 30
0.0
  0
VERTEX
  5
69F
  8
BACK_LAYER
 10
22.16537780143402
 20
3.53767610672131
 30
0.0
  0
VERTEX
  5
6A0
  8
BACK_LAYER
 10
22.20179820446679
 20
3.542651849576354
 30
0.0
  0
VERTEX
  5
6A1
  8
BACK_LAYER
 10
22.23824862119685
 20
3.547264394344283
 30
0.0
  0
VERTEX
  5
6A2
  8
BACK_LAYER
 10
22.27472567184667
 20
3.551514195845387
 30
0.0
  0
VERTEX
  5
6A3
  8
BACK_LAYER
 10
22.31122597663871
 20
3.555401708899956
 30
0.0
  0
VERTEX
  5
6A4
  8
BACK_LAYER
 10
22.34774615579542
 20
3.558927388328281
 30
0.0
  0
VERTEX
  5
6A5
  8
BACK_LAYER
 10
22.38428282953925
 20
3.562091688950653
 30
0.0
  0
VERTEX
  5
6A6
  8
BACK_LAYER
 10
22.42083261809268
 20
3.56489506558736
 30
0.0
  0
VERTEX
  5
6A7
  8
BACK_LAYER
 10
22.45739214167816
 20
3.567337973058694
 30
0.0
  0
VERTEX
  5
6A8
  8
BACK_LAYER
 10
22.49395802051814
 20
3.569420866184946
 30
0.0
  0
VERTEX
  5
6A9
  8
BACK_LAYER
 10
22.53052687483509
 20
3.571144199786404
 30
0.0
  0
VERTEX
  5
6AA
  8
BACK_LAYER
 10
22.56709532485146
 20
3.572508428683359
 30
0.0
  0
VERTEX
  5
6AB
  8
BACK_LAYER
 10
22.60365999078972
 20
3.573514007696102
 30
0.0
  0
VERTEX
  5
6AC
  8
BACK_LAYER
 10
22.64021749287232
 20
3.574161391644923
 30
0.0
  0
VERTEX
  5
6AD
  8
BACK_LAYER
 10
22.67676445132173
 20
3.574451035350112
 30
0.0
  0
VERTEX
  5
6AE
  8
BACK_LAYER
 10
22.7132974863604
 20
3.57438339363196
 30
0.0
  0
VERTEX
  5
6AF
  8
BACK_LAYER
 10
22.74981321821078
 20
3.573958921310756
 30
0.0
  0
VERTEX
  5
6B0
  8
BACK_LAYER
 10
22.78630826709534
 20
3.573178073206791
 30
0.0
  0
VERTEX
  5
6B1
  8
BACK_LAYER
 10
22.82277925323654
 20
3.572041304140356
 30
0.0
  0
VERTEX
  5
6B2
  8
BACK_LAYER
 10
22.85922279685684
 20
3.570549068931739
 30
0.0
  0
VERTEX
  5
6B3
  8
BACK_LAYER
 10
22.89563551817869
 20
3.568701822401232
 30
0.0
  0
VERTEX
  5
6B4
  8
BACK_LAYER
 10
22.93201403742456
 20
3.566500019369125
 30
0.0
  0
VERTEX
  5
6B5
  8
BACK_LAYER
 10
22.9683549748169
 20
3.563944114655709
 30
0.0
  0
VERTEX
  5
6B6
  8
BACK_LAYER
 10
23.00465495057817
 20
3.561034563081273
 30
0.0
  0
VERTEX
  5
6B7
  8
BACK_LAYER
 10
23.04091058493083
 20
3.557771819466108
 30
0.0
  0
VERTEX
  5
6B8
  8
BACK_LAYER
 10
23.07711849809734
 20
3.554156338630504
 30
0.0
  0
VERTEX
  5
6B9
  8
BACK_LAYER
 10
23.11327531030016
 20
3.550188575394751
 30
0.0
  0
VERTEX
  5
6BA
  8
BACK_LAYER
 10
23.14937764176175
 20
3.54586898457914
 30
0.0
  0
VERTEX
  5
6BB
  8
BACK_LAYER
 10
23.18542211270455
 20
3.54119802100396
 30
0.0
  0
VERTEX
  5
6BC
  8
BACK_LAYER
 10
23.22140534335105
 20
3.536176139489502
 30
0.0
  0
VERTEX
  5
6BD
  8
BACK_LAYER
 10
23.25732395392369
 20
3.530803794856057
 30
0.0
  0
VERTEX
  5
6BE
  8
BACK_LAYER
 10
23.29317456464494
 20
3.525081441923914
 30
0.0
  0
VERTEX
  5
6BF
  8
BACK_LAYER
 10
23.32895379573724
 20
3.519009535513365
 30
0.0
  0
VERTEX
  5
6C0
  8
BACK_LAYER
 10
23.36465826742306
 20
3.512588530444698
 30
0.0
  0
VERTEX
  5
6C1
  8
BACK_LAYER
 10
23.40028459992486
 20
3.505818881538205
 30
0.0
  0
VERTEX
  5
6C2
  8
BACK_LAYER
 10
23.4358294134651
 20
3.498701043614175
 30
0.0
  0
VERTEX
  5
6C3
  8
BACK_LAYER
 10
23.47128932826624
 20
3.491235471492899
 30
0.0
  0
VERTEX
  5
6C4
  8
BACK_LAYER
 10
23.50666096455074
 20
3.483422619994667
 30
0.0
  0
VERTEX
  5
6C5
  8
BACK_LAYER
 10
23.54194094254105
 20
3.47526294393977
 30
0.0
  0
VERTEX
  5
6C6
  8
BACK_LAYER
 10
23.57712588245963
 20
3.466756898148497
 30
0.0
  0
VERTEX
  5
6C7
  8
BACK_LAYER
 10
23.61221240452895
 20
3.45790493744114
 30
0.0
  0
VERTEX
  5
6C8
  8
BACK_LAYER
 10
23.64719712897145
 20
3.448707516637987
 30
0.0
  0
VERTEX
  5
6C9
  8
BACK_LAYER
 10
23.68207667600961
 20
3.43916509055933
 30
0.0
  0
VERTEX
  5
6CA
  8
BACK_LAYER
 10
23.71684766586587
 20
3.429278114025458
 30
0.0
  0
VERTEX
  5
6CB
  8
BACK_LAYER
 10
23.75150671876271
 20
3.419047041856663
 30
0.0
  0
VERTEX
  5
6CC
  8
BACK_LAYER
 10
23.78605045492257
 20
3.408472328873234
 30
0.0
  0
VERTEX
  5
6CD
  8
BACK_LAYER
 10
23.82047549456791
 20
3.397554429895462
 30
0.0
  0
VERTEX
  5
6CE
  8
BACK_LAYER
 10
23.8547784579212
 20
3.386293799743636
 30
0.0
  0
VERTEX
  5
6CF
  8
BACK_LAYER
 10
23.88895596520489
 20
3.374690893238047
 30
0.0
  0
VERTEX
  5
6D0
  8
BACK_LAYER
 10
23.92300463664144
 20
3.362746165198986
 30
0.0
  0
VERTEX
  5
6D1
  8
BACK_LAYER
 10
23.95692109245332
 20
3.350460070446741
 30
0.0
  0
VERTEX
  5
6D2
  8
BACK_LAYER
 10
23.99070195286297
 20
3.337833063801605
 30
0.0
  0
VERTEX
  5
6D3
  8
BACK_LAYER
 10
24.02434383809287
 20
3.324865600083867
 30
0.0
  0
VERTEX
  5
6D4
  8
BACK_LAYER
 10
24.05784336836546
 20
3.311558134113818
 30
0.0
  0
VERTEX
  5
6D5
  8
BACK_LAYER
 10
24.0911971639032
 20
3.297911120711746
 30
0.0
  0
VERTEX
  5
6D6
  8
BACK_LAYER
 10
24.12440184492857
 20
3.283925014697944
 30
0.0
  0
VERTEX
  5
6D7
  8
BACK_LAYER
 10
24.157454031664
 20
3.269600270892701
 30
0.0
  0
VERTEX
  5
6D8
  8
BACK_LAYER
 10
24.19035034433197
 20
3.254937344116307
 30
0.0
  0
VERTEX
  5
6D9
  8
BACK_LAYER
 10
24.22308740315493
 20
3.239936689189052
 30
0.0
  0
VERTEX
  5
6DA
  8
BACK_LAYER
 10
24.25566182835534
 20
3.224598760931228
 30
0.0
  0
VERTEX
  5
6DB
  8
BACK_LAYER
 10
24.28807024015566
 20
3.208924014163124
 30
0.0
  0
VERTEX
  5
6DC
  8
BACK_LAYER
 10
24.30612998075184
 20
3.199841777391145
 30
0.0
  0
VERTEX
  5
6DD
  8
BACK_LAYER
 10
24.32392441797963
 20
3.190429932424776
 30
0.0
  0
VERTEX
  5
6DE
  8
BACK_LAYER
 10
24.3414487249673
 20
3.180693390447998
 30
0.0
  0
VERTEX
  5
6DF
  8
BACK_LAYER
 10
24.35869807484314
 20
3.170637062644795
 30
0.0
  0
VERTEX
  5
6E0
  8
BACK_LAYER
 10
24.37566764073544
 20
3.160265860199148
 30
0.0
  0
VERTEX
  5
6E1
  8
BACK_LAYER
 10
24.39235259577247
 20
3.149584694295041
 30
0.0
  0
VERTEX
  5
6E2
  8
BACK_LAYER
 10
24.40874811308253
 20
3.138598476116454
 30
0.0
  0
VERTEX
  5
6E3
  8
BACK_LAYER
 10
24.42484936579388
 20
3.12731211684737
 30
0.0
  0
VERTEX
  5
6E4
  8
BACK_LAYER
 10
24.44065152703482
 20
3.115730527671772
 30
0.0
  0
VERTEX
  5
6E5
  8
BACK_LAYER
 10
24.45614976993363
 20
3.103858619773641
 30
0.0
  0
VERTEX
  5
6E6
  8
BACK_LAYER
 10
24.47133926761858
 20
3.091701304336959
 30
0.0
  0
VERTEX
  5
6E7
  8
BACK_LAYER
 10
24.48621519321797
 20
3.07926349254571
 30
0.0
  0
VERTEX
  5
6E8
  8
BACK_LAYER
 10
24.50077271986007
 20
3.066550095583874
 30
0.0
  0
VERTEX
  5
6E9
  8
BACK_LAYER
 10
24.51500702067316
 20
3.053566024635435
 30
0.0
  0
VERTEX
  5
6EA
  8
BACK_LAYER
 10
24.52891326878554
 20
3.040316190884374
 30
0.0
  0
VERTEX
  5
6EB
  8
BACK_LAYER
 10
24.54248663732547
 20
3.026805505514674
 30
0.0
  0
VERTEX
  5
6EC
  8
BACK_LAYER
 10
24.55572229942124
 20
3.013038879710317
 30
0.0
  0
VERTEX
  5
6ED
  8
BACK_LAYER
 10
24.56861542820115
 20
2.999021224655285
 30
0.0
  0
VERTEX
  5
6EE
  8
BACK_LAYER
 10
24.58116119679346
 20
2.98475745153356
 30
0.0
  0
VERTEX
  5
6EF
  8
BACK_LAYER
 10
24.59335477832646
 20
2.970252471529125
 30
0.0
  0
VERTEX
  5
6F0
  8
BACK_LAYER
 10
24.60519134592844
 20
2.955511195825961
 30
0.0
  0
VERTEX
  5
6F1
  8
BACK_LAYER
 10
24.61666607272767
 20
2.940538535608052
 30
0.0
  0
VERTEX
  5
6F2
  8
BACK_LAYER
 10
24.62777413185244
 20
2.925339402059378
 30
0.0
  0
VERTEX
  5
6F3
  8
BACK_LAYER
 10
24.63851069643103
 20
2.909918706363923
 30
0.0
  0
VERTEX
  5
6F4
  8
BACK_LAYER
 10
24.64887093959172
 20
2.894281359705669
 30
0.0
  0
VERTEX
  5
6F5
  8
BACK_LAYER
 10
24.6588500344628
 20
2.878432273268597
 30
0.0
  0
VERTEX
  5
6F6
  8
BACK_LAYER
 10
24.66844315417255
 20
2.86237635823669
 30
0.0
  0
VERTEX
  5
6F7
  8
BACK_LAYER
 10
24.67764547184925
 20
2.846118525793931
 30
0.0
  0
VERTEX
  5
6F8
  8
BACK_LAYER
 10
24.68645216062118
 20
2.829663687124301
 30
0.0
  0
VERTEX
  5
6F9
  8
BACK_LAYER
 10
24.69485839361663
 20
2.813016753411782
 30
0.0
  0
VERTEX
  5
6FA
  8
BACK_LAYER
 10
24.70285934396387
 20
2.796182635840356
 30
0.0
  0
VERTEX
  5
6FB
  8
BACK_LAYER
 10
24.71045018479119
 20
2.779166245594007
 30
0.0
  0
VERTEX
  5
6FC
  8
BACK_LAYER
 10
24.71640427684333
 20
2.764788247156218
 30
0.0
  0
VERTEX
  5
6FD
  8
BACK_LAYER
 10
24.72189714142636
 20
2.750315076436424
 30
0.0
  0
VERTEX
  5
6FE
  8
BACK_LAYER
 10
24.72692938881768
 20
2.735754829976058
 30
0.0
  0
VERTEX
  5
6FF
  8
BACK_LAYER
 10
24.73150162929465
 20
2.721115604316553
 30
0.0
  0
VERTEX
  5
700
  8
BACK_LAYER
 10
24.73561447313467
 20
2.706405495999342
 30
0.0
  0
VERTEX
  5
701
  8
BACK_LAYER
 10
24.73926853061512
 20
2.69163260156586
 30
0.0
  0
VERTEX
  5
702
  8
BACK_LAYER
 10
24.74246441201339
 20
2.67680501755754
 30
0.0
  0
VERTEX
  5
703
  8
BACK_LAYER
 10
24.74520272760684
 20
2.661930840515815
 30
0.0
  0
VERTEX
  5
704
  8
BACK_LAYER
 10
24.74748408767288
 20
2.647018166982118
 30
0.0
  0
VERTEX
  5
705
  8
BACK_LAYER
 10
24.74930910248887
 20
2.632075093497883
 30
0.0
  0
VERTEX
  5
706
  8
BACK_LAYER
 10
24.7506783823322
 20
2.617109716604542
 30
0.0
  0
VERTEX
  5
707
  8
BACK_LAYER
 10
24.75159253748025
 20
2.60213013284353
 30
0.0
  0
VERTEX
  5
708
  8
BACK_LAYER
 10
24.75205217821041
 20
2.587144438756279
 30
0.0
  0
VERTEX
  5
709
  8
BACK_LAYER
 10
24.75205791480006
 20
2.572160730884224
 30
0.0
  0
VERTEX
  5
70A
  8
BACK_LAYER
 10
24.75161035752658
 20
2.557187105768798
 30
0.0
  0
VERTEX
  5
70B
  8
BACK_LAYER
 10
24.75071011666735
 20
2.542231659951433
 30
0.0
  0
VERTEX
  5
70C
  8
BACK_LAYER
 10
24.74935780249976
 20
2.527302489973563
 30
0.0
  0
VERTEX
  5
70D
  8
BACK_LAYER
 10
24.74755402530118
 20
2.512407692376621
 30
0.0
  0
VERTEX
  5
70E
  8
BACK_LAYER
 10
24.74529939534902
 20
2.497555363702042
 30
0.0
  0
VERTEX
  5
70F
  8
BACK_LAYER
 10
24.74259452292063
 20
2.482753600491258
 30
0.0
  0
VERTEX
  5
710
  8
BACK_LAYER
 10
24.7394400182934
 20
2.468010499285702
 30
0.0
  0
VERTEX
  5
711
  8
BACK_LAYER
 10
24.73583649174473
 20
2.453334156626808
 30
0.0
  0
VERTEX
  5
712
  8
BACK_LAYER
 10
24.73178455355199
 20
2.43873266905601
 30
0.0
  0
VERTEX
  5
713
  8
BACK_LAYER
 10
24.72728481399255
 20
2.42421413311474
 30
0.0
  0
VERTEX
  5
714
  8
BACK_LAYER
 10
24.72233788334382
 20
2.409786645344432
 30
0.0
  0
VERTEX
  5
715
  8
BACK_LAYER
 10
24.71694437188317
 20
2.395458302286519
 30
0.0
  0
VERTEX
  5
716
  8
BACK_LAYER
 10
24.71110488988797
 20
2.381237200482436
 30
0.0
  0
VERTEX
  5
717
  8
BACK_LAYER
 10
24.70482004763563
 20
2.367131436473614
 30
0.0
  0
VERTEX
  5
718
  8
BACK_LAYER
 10
24.6980904554035
 20
2.353149106801487
 30
0.0
  0
VERTEX
  5
719
  8
BACK_LAYER
 10
24.69091672346899
 20
2.33929830800749
 30
0.0
  0
VERTEX
  5
71A
  8
BACK_LAYER
 10
24.68329946210947
 20
2.325587136633054
 30
0.0
  0
VERTEX
  5
71B
  8
BACK_LAYER
 10
24.67523928160232
 20
2.312023689219614
 30
0.0
  0
VERTEX
  5
71C
  8
BACK_LAYER
 10
24.65644772527542
 20
2.282461455154413
 30
0.0
  0
VERTEX
  5
71D
  8
BACK_LAYER
 10
24.63671184887249
 20
2.253436602495609
 30
0.0
  0
VERTEX
  5
71E
  8
BACK_LAYER
 10
24.61604785553057
 20
2.224965120156211
 30
0.0
  0
VERTEX
  5
71F
  8
BACK_LAYER
 10
24.59447194838674
 20
2.197062997049229
 30
0.0
  0
VERTEX
  5
720
  8
BACK_LAYER
 10
24.57200033057805
 20
2.16974622208767
 30
0.0
  0
VERTEX
  5
721
  8
BACK_LAYER
 10
24.54864920524157
 20
2.143030784184544
 30
0.0
  0
VERTEX
  5
722
  8
BACK_LAYER
 10
24.52443477551435
 20
2.116932672252861
 30
0.0
  0
VERTEX
  5
723
  8
BACK_LAYER
 10
24.49937324453347
 20
2.091467875205628
 30
0.0
  0
VERTEX
  5
724
  8
BACK_LAYER
 10
24.47348081543596
 20
2.066652381955855
 30
0.0
  0
VERTEX
  5
725
  8
BACK_LAYER
 10
24.44677369135891
 20
2.04250218141655
 30
0.0
  0
VERTEX
  5
726
  8
BACK_LAYER
 10
24.41926807543938
 20
2.019033262500725
 30
0.0
  0
VERTEX
  5
727
  8
BACK_LAYER
 10
24.39098017081442
 20
1.996261614121385
 30
0.0
  0
VERTEX
  5
728
  8
BACK_LAYER
 10
24.36192618062108
 20
1.974203225191542
 30
0.0
  0
VERTEX
  5
729
  8
BACK_LAYER
 10
24.33212230799644
 20
1.952874084624203
 30
0.0
  0
VERTEX
  5
72A
  8
BACK_LAYER
 10
24.30158475607756
 20
1.932290181332378
 30
0.0
  0
VERTEX
  5
72B
  8
BACK_LAYER
 10
24.2703297280015
 20
1.912467504229076
 30
0.0
  0
VERTEX
  5
72C
  8
BACK_LAYER
 10
24.25338426636038
 20
1.901605582607759
 30
0.0
  0
VERTEX
  5
72D
  8
BACK_LAYER
 10
24.23698187232816
 20
1.890199328422444
 30
0.0
  0
VERTEX
  5
72E
  8
BACK_LAYER
 10
24.22113691830212
 20
1.878265427463779
 30
0.0
  0
VERTEX
  5
72F
  8
BACK_LAYER
 10
24.20586377667959
 20
1.865820565522411
 30
0.0
  0
VERTEX
  5
730
  8
BACK_LAYER
 10
24.19117681985785
 20
1.852881428388989
 30
0.0
  0
VERTEX
  5
731
  8
BACK_LAYER
 10
24.17709042023424
 20
1.83946470185416
 30
0.0
  0
VERTEX
  5
732
  8
BACK_LAYER
 10
24.16361895020606
 20
1.825587071708574
 30
0.0
  0
VERTEX
  5
733
  8
BACK_LAYER
 10
24.15077678217061
 20
1.811265223742877
 30
0.0
  0
VERTEX
  5
734
  8
BACK_LAYER
 10
24.1385782885252
 20
1.796515843747717
 30
0.0
  0
VERTEX
  5
735
  8
BACK_LAYER
 10
24.12703784166714
 20
1.781355617513744
 30
0.0
  0
VERTEX
  5
736
  8
BACK_LAYER
 10
24.11616981399374
 20
1.765801230831605
 30
0.0
  0
VERTEX
  5
737
  8
BACK_LAYER
 10
24.1059885779023
 20
1.749869369491948
 30
0.0
  0
VERTEX
  5
738
  8
BACK_LAYER
 10
24.09650850579014
 20
1.73357671928542
 30
0.0
  0
VERTEX
  5
739
  8
BACK_LAYER
 10
24.08774397005457
 20
1.716939966002671
 30
0.0
  0
VERTEX
  5
73A
  8
BACK_LAYER
 10
24.07970934309289
 20
1.699975795434348
 30
0.0
  0
VERTEX
  5
73B
  8
BACK_LAYER
 10
24.07241899730241
 20
1.6827008933711
 30
0.0
  0
VERTEX
  5
73C
  8
BACK_LAYER
 10
24.06824905588049
 20
1.671268439830732
 30
0.0
  0
VERTEX
  5
73D
  8
BACK_LAYER
 10
24.06478039867915
 20
1.659788318231797
 30
0.0
  0
VERTEX
  5
73E
  8
BACK_LAYER
 10
24.0620027525396
 20
1.648279191030447
 30
0.0
  0
VERTEX
  5
73F
  8
BACK_LAYER
 10
24.05990584430305
 20
1.63675972068283
 30
0.0
  0
VERTEX
  5
740
  8
BACK_LAYER
 10
24.05847940081073
 20
1.625248569645097
 30
0.0
  0
VERTEX
  5
741
  8
BACK_LAYER
 10
24.05771314890383
 20
1.613764400373397
 30
0.0
  0
VERTEX
  5
742
  8
BACK_LAYER
 10
24.05759681542359
 20
1.602325875323879
 30
0.0
  0
VERTEX
  5
743
  8
BACK_LAYER
 10
24.05812012721122
 20
1.590951656952695
 30
0.0
  0
VERTEX
  5
744
  8
BACK_LAYER
 10
24.05927281110792
 20
1.579660407715992
 30
0.0
  0
VERTEX
  5
745
  8
BACK_LAYER
 10
24.06104459395494
 20
1.568470790069922
 30
0.0
  0
VERTEX
  5
746
  8
BACK_LAYER
 10
24.06342520259346
 20
1.557401466470635
 30
0.0
  0
VERTEX
  5
747
  8
BACK_LAYER
 10
24.06640436386472
 20
1.546471099374279
 30
0.0
  0
VERTEX
  5
748
  8
BACK_LAYER
 10
24.06997180460992
 20
1.535698351237004
 30
0.0
  0
VERTEX
  5
749
  8
BACK_LAYER
 10
24.07411725167029
 20
1.525101884514961
 30
0.0
  0
VERTEX
  5
74A
  8
BACK_LAYER
 10
24.07883043188703
 20
1.514700361664299
 30
0.0
  0
VERTEX
  5
74B
  8
BACK_LAYER
 10
24.08410107210138
 20
1.504512445141168
 30
0.0
  0
VERTEX
  5
74C
  8
BACK_LAYER
 10
24.08991889915453
 20
1.494556797401717
 30
0.0
  0
VERTEX
  5
74D
  8
BACK_LAYER
 10
24.09627363988771
 20
1.484852080902097
 30
0.0
  0
VERTEX
  5
74E
  8
BACK_LAYER
 10
24.10315502114213
 20
1.475416958098457
 30
0.0
  0
VERTEX
  5
74F
  8
BACK_LAYER
 10
24.110552769759
 20
1.466270091446948
 30
0.0
  0
VERTEX
  5
750
  8
BACK_LAYER
 10
24.11845661257956
 20
1.457430143403717
 30
0.0
  0
VERTEX
  5
751
  8
BACK_LAYER
 10
24.126856276445
 20
1.448915776424917
 30
0.0
  0
VERTEX
  5
752
  8
BACK_LAYER
 10
24.13574148819654
 20
1.440745652966696
 30
0.0
  0
VERTEX
  5
753
  8
BACK_LAYER
 10
24.14510197467541
 20
1.432938435485204
 30
0.0
  0
VERTEX
  5
754
  8
BACK_LAYER
 10
24.15492746272282
 20
1.425512786436591
 30
0.0
  0
VERTEX
  5
755
  8
BACK_LAYER
 10
24.16520767917998
 20
1.418487368277006
 30
0.0
  0
VERTEX
  5
756
  8
BACK_LAYER
 10
24.1759323508881
 20
1.4118808434626
 30
0.0
  0
VERTEX
  5
757
  8
BACK_LAYER
 10
24.18709120468842
 20
1.405711874449523
 30
0.0
  0
VERTEX
  5
758
  8
BACK_LAYER
 10
24.19867396742213
 20
1.399999123693922
 30
0.0
  0
VERTEX
  5
759
  8
BACK_LAYER
 10
24.21067036593047
 20
1.39476125365195
 30
0.0
  0
VERTEX
  5
75A
  8
BACK_LAYER
 10
24.22307012705464
 20
1.390016926779756
 30
0.0
  0
VERTEX
  5
75B
  8
BACK_LAYER
 10
24.23586297763585
 20
1.385784805533489
 30
0.0
  0
VERTEX
  5
75C
  8
BACK_LAYER
 10
24.26894200175958
 20
1.375920736623296
 30
0.0
  0
VERTEX
  5
75D
  8
BACK_LAYER
 10
24.30215935581982
 20
1.366509786164833
 30
0.0
  0
VERTEX
  5
75E
  8
BACK_LAYER
 10
24.33550902791824
 20
1.357552439015451
 30
0.0
  0
VERTEX
  5
75F
  8
BACK_LAYER
 10
24.36898500615651
 20
1.349049180032502
 30
0.0
  0
VERTEX
  5
760
  8
BACK_LAYER
 10
24.4025812786363
 20
1.341000494073334
 30
0.0
  0
VERTEX
  5
761
  8
BACK_LAYER
 10
24.43629183345927
 20
1.3334068659953
 30
0.0
  0
VERTEX
  5
762
  8
BACK_LAYER
 10
24.47011065872709
 20
1.326268780655749
 30
0.0
  0
VERTEX
  5
763
  8
BACK_LAYER
 10
24.50403174254142
 20
1.319586722912032
 30
0.0
  0
VERTEX
  5
764
  8
BACK_LAYER
 10
24.53804907300394
 20
1.3133611776215
 30
0.0
  0
VERTEX
  5
765
  8
BACK_LAYER
 10
24.5721566382163
 20
1.307592629641502
 30
0.0
  0
VERTEX
  5
766
  8
BACK_LAYER
 10
24.60634842628019
 20
1.302281563829391
 30
0.0
  0
VERTEX
  5
767
  8
BACK_LAYER
 10
24.64061842529725
 20
1.297428465042515
 30
0.0
  0
VERTEX
  5
768
  8
BACK_LAYER
 10
24.67496062336916
 20
1.293033818138227
 30
0.0
  0
VERTEX
  5
769
  8
BACK_LAYER
 10
24.7093690085976
 20
1.289098107973875
 30
0.0
  0
VERTEX
  5
76A
  8
BACK_LAYER
 10
24.74383756908421
 20
1.285621819406812
 30
0.0
  0
VERTEX
  5
76B
  8
BACK_LAYER
 10
24.77836029293068
 20
1.282605437294387
 30
0.0
  0
VERTEX
  5
76C
  8
BACK_LAYER
 10
24.81293116823866
 20
1.280049446493952
 30
0.0
  0
VERTEX
  5
76D
  8
BACK_LAYER
 10
24.84754418310983
 20
1.277954331862855
 30
0.0
  0
VERTEX
  5
76E
  8
BACK_LAYER
 10
24.88219332564585
 20
1.276320578258449
 30
0.0
  0
VERTEX
  5
76F
  8
BACK_LAYER
 10
24.91687258394839
 20
1.275148670538083
 30
0.0
  0
VERTEX
  5
770
  8
BACK_LAYER
 10
24.95157594611911
 20
1.274439093559109
 30
0.0
  0
VERTEX
  5
771
  8
BACK_LAYER
 10
24.98629740025969
 20
1.274192332178877
 30
0.0
  0
VERTEX
  5
772
  8
BACK_LAYER
 10
25.02103093447178
 20
1.274408871254737
 30
0.0
  0
VERTEX
  5
773
  8
BACK_LAYER
 10
25.05577053685706
 20
1.27508919564404
 30
0.0
  0
VERTEX
  5
774
  8
BACK_LAYER
 10
25.09051019551719
 20
1.276233790204136
 30
0.0
  0
VERTEX
  5
775
  8
BACK_LAYER
 10
25.12524389855384
 20
1.277843139792376
 30
0.0
  0
VERTEX
  5
776
  8
BACK_LAYER
 10
25.15996563406867
 20
1.279917729266111
 30
0.0
  0
VERTEX
  5
777
  8
BACK_LAYER
 10
25.19466939016336
 20
1.282458043482691
 30
0.0
  0
VERTEX
  5
778
  8
BACK_LAYER
 10
25.22934915493956
 20
1.285464567299467
 30
0.0
  0
VERTEX
  5
779
  8
BACK_LAYER
 10
25.26399891649896
 20
1.288937785573789
 30
0.0
  0
VERTEX
  5
77A
  8
BACK_LAYER
 10
25.2986126629432
 20
1.292878183163008
 30
0.0
  0
VERTEX
  5
77B
  8
BACK_LAYER
 10
25.33318438237397
 20
1.297286244924475
 30
0.0
  0
VERTEX
  5
77C
  8
BACK_LAYER
 10
25.42902907815962
 20
1.310514059326886
 30
0.0
  0
VERTEX
  5
77D
  8
BACK_LAYER
 10
25.52473728493057
 20
1.324423082975068
 30
0.0
  0
VERTEX
  5
77E
  8
BACK_LAYER
 10
25.62030432282462
 20
1.339012410857855
 30
0.0
  0
VERTEX
  5
77F
  8
BACK_LAYER
 10
25.71572551197957
 20
1.354281137964082
 30
0.0
  0
VERTEX
  5
780
  8
BACK_LAYER
 10
25.8109961725332
 20
1.370228359282585
 30
0.0
  0
VERTEX
  5
781
  8
BACK_LAYER
 10
25.90611162462333
 20
1.386853169802197
 30
0.0
  0
VERTEX
  5
782
  8
BACK_LAYER
 10
26.00106718838774
 20
1.404154664511755
 30
0.0
  0
VERTEX
  5
783
  8
BACK_LAYER
 10
26.09585818396424
 20
1.422131938400093
 30
0.0
  0
VERTEX
  5
784
  8
BACK_LAYER
 10
26.19047993149061
 20
1.440784086456046
 30
0.0
  0
VERTEX
  5
785
  8
BACK_LAYER
 10
26.28492775110466
 20
1.46011020366845
 30
0.0
  0
VERTEX
  5
786
  8
BACK_LAYER
 10
26.37919696294418
 20
1.480109385026138
 30
0.0
  0
VERTEX
  5
787
  8
BACK_LAYER
 10
26.47328288714696
 20
1.500780725517948
 30
0.0
  0
VERTEX
  5
788
  8
BACK_LAYER
 10
26.56718084385081
 20
1.522123320132712
 30
0.0
  0
VERTEX
  5
789
  8
BACK_LAYER
 10
26.66088615319352
 20
1.544136263859266
 30
0.0
  0
VERTEX
  5
78A
  8
BACK_LAYER
 10
26.75439413531288
 20
1.566818651686446
 30
0.0
  0
VERTEX
  5
78B
  8
BACK_LAYER
 10
26.84770011034669
 20
1.590169578603086
 30
0.0
  0
VERTEX
  5
78C
  8
BACK_LAYER
 10
26.90230009645713
 20
1.605783419502245
 30
0.0
  0
VERTEX
  5
78D
  8
BACK_LAYER
 10
26.95670821338086
 20
1.621877325767154
 30
0.0
  0
VERTEX
  5
78E
  8
BACK_LAYER
 10
27.01092041189367
 20
1.638449833859065
 30
0.0
  0
VERTEX
  5
78F
  8
BACK_LAYER
 10
27.0649326427713
 20
1.655499480239233
 30
0.0
  0
VERTEX
  5
790
  8
BACK_LAYER
 10
27.11874085678954
 20
1.67302480136891
 30
0.0
  0
VERTEX
  5
791
  8
BACK_LAYER
 10
27.17234100472412
 20
1.69102433370935
 30
0.0
  0
VERTEX
  5
792
  8
BACK_LAYER
 10
27.22572903735084
 20
1.709496613721806
 30
0.0
  0
VERTEX
  5
793
  8
BACK_LAYER
 10
27.27890090544545
 20
1.72844017786753
 30
0.0
  0
VERTEX
  5
794
  8
BACK_LAYER
 10
27.33185255978371
 20
1.747853562607778
 30
0.0
  0
VERTEX
  5
795
  8
BACK_LAYER
 10
27.38457995114139
 20
1.767735304403801
 30
0.0
  0
VERTEX
  5
796
  8
BACK_LAYER
 10
27.43707903029425
 20
1.788083939716854
 30
0.0
  0
VERTEX
  5
797
  8
BACK_LAYER
 10
27.48934574801806
 20
1.808898005008189
 30
0.0
  0
VERTEX
  5
798
  8
BACK_LAYER
 10
27.54137605508859
 20
1.830176036739059
 30
0.0
  0
VERTEX
  5
799
  8
BACK_LAYER
 10
27.59316590228159
 20
1.851916571370718
 30
0.0
  0
VERTEX
  5
79A
  8
BACK_LAYER
 10
27.64471124037284
 20
1.87411814536442
 30
0.0
  0
VERTEX
  5
79B
  8
BACK_LAYER
 10
27.69600802013809
 20
1.896779295181416
 30
0.0
  0
VERTEX
  5
79C
  8
BACK_LAYER
 10
27.70016519069305
 20
1.898340714594304
 30
0.0
  0
VERTEX
  5
79D
  8
BACK_LAYER
 10
27.70399583262773
 20
1.9001373046196
 30
0.0
  0
VERTEX
  5
79E
  8
BACK_LAYER
 10
27.7075063061484
 20
1.902162419589893
 30
0.0
  0
VERTEX
  5
79F
  8
BACK_LAYER
 10
27.71070297146134
 20
1.904409413837771
 30
0.0
  0
VERTEX
  5
7A0
  8
BACK_LAYER
 10
27.71359218877286
 20
1.906871641695822
 30
0.0
  0
VERTEX
  5
7A1
  8
BACK_LAYER
 10
27.71618031828924
 20
1.909542457496636
 30
0.0
  0
VERTEX
  5
7A2
  8
BACK_LAYER
 10
27.71847372021675
 20
1.9124152155728
 30
0.0
  0
VERTEX
  5
7A3
  8
BACK_LAYER
 10
27.72047875476168
 20
1.915483270256903
 30
0.0
  0
VERTEX
  5
7A4
  8
BACK_LAYER
 10
27.72220178213031
 20
1.918739975881533
 30
0.0
  0
VERTEX
  5
7A5
  8
BACK_LAYER
 10
27.72364916252893
 20
1.922178686779279
 30
0.0
  0
VERTEX
  5
7A6
  8
BACK_LAYER
 10
27.72574242324128
 20
1.929575541724472
 30
0.0
  0
VERTEX
  5
7A7
  8
BACK_LAYER
 10
27.726809418549
 20
1.937620669753189
 30
0.0
  0
VERTEX
  5
7A8
  8
BACK_LAYER
 10
27.72690103010236
 20
1.946260905526139
 30
0.0
  0
VERTEX
  5
7A9
  8
BACK_LAYER
 10
27.72606813955165
 20
1.955443083704028
 30
0.0
  0
VERTEX
  5
7AA
  8
BACK_LAYER
 10
27.72436162854713
 20
1.965114038947565
 30
0.0
  0
VERTEX
  5
7AB
  8
BACK_LAYER
 10
27.72183237873907
 20
1.975220605917456
 30
0.0
  0
VERTEX
  5
7AC
  8
BACK_LAYER
 10
27.71853127177776
 20
1.985709619274409
 30
0.0
  0
VERTEX
  5
7AD
  8
BACK_LAYER
 10
27.71450918931347
 20
1.996527913679133
 30
0.0
  0
VERTEX
  5
7AE
  8
BACK_LAYER
 10
27.70981701299648
 20
2.007622323792333
 30
0.0
  0
VERTEX
  5
7AF
  8
BACK_LAYER
 10
27.70450562447705
 20
2.018939684274719
 30
0.0
  0
VERTEX
  5
7B0
  8
BACK_LAYER
 10
27.69862590540547
 20
2.030426829786998
 30
0.0
  0
VERTEX
  5
7B1
  8
BACK_LAYER
 10
27.68502545636224
 20
2.06147140811537
 30
0.0
  0
VERTEX
  5
7B2
  8
BACK_LAYER
 10
27.6719371535036
 20
2.092672554584561
 30
0.0
  0
VERTEX
  5
7B3
  8
BACK_LAYER
 10
27.65936248978787
 20
2.12402534044709
 30
0.0
  0
VERTEX
  5
7B4
  8
BACK_LAYER
 10
27.64730295817339
 20
2.155524836955476
 30
0.0
  0
VERTEX
  5
7B5
  8
BACK_LAYER
 10
27.6357600516185
 20
2.18716611536224
 30
0.0
  0
VERTEX
  5
7B6
  8
BACK_LAYER
 10
27.62473526308154
 20
2.218944246919901
 30
0.0
  0
VERTEX
  5
7B7
  8
BACK_LAYER
 10
27.61423008552083
 20
2.250854302880979
 30
0.0
  0
VERTEX
  5
7B8
  8
BACK_LAYER
 10
27.60424601189472
 20
2.282891354497993
 30
0.0
  0
VERTEX
  5
7B9
  8
BACK_LAYER
 10
27.59478453516155
 20
2.315050473023463
 30
0.0
  0
VERTEX
  5
7BA
  8
BACK_LAYER
 10
27.58584714827964
 20
2.347326729709909
 30
0.0
  0
VERTEX
  5
7BB
  8
BACK_LAYER
 10
27.57743534420733
 20
2.379715195809849
 30
0.0
  0
VERTEX
  5
7BC
  8
BACK_LAYER
 10
27.56955061590297
 20
2.412210942575805
 30
0.0
  0
VERTEX
  5
7BD
  8
BACK_LAYER
 10
27.56219445632487
 20
2.444809041260295
 30
0.0
  0
VERTEX
  5
7BE
  8
BACK_LAYER
 10
27.55536835843139
 20
2.477504563115839
 30
0.0
  0
VERTEX
  5
7BF
  8
BACK_LAYER
 10
27.54907381518085
 20
2.510292579394957
 30
0.0
  0
VERTEX
  5
7C0
  8
BACK_LAYER
 10
27.5433123195316
 20
2.543168161350168
 30
0.0
  0
VERTEX
  5
7C1
  8
BACK_LAYER
 10
27.53593764232858
 20
2.58841499315251
 30
0.0
  0
VERTEX
  5
7C2
  8
BACK_LAYER
 10
27.52891243250972
 20
2.633696775314361
 30
0.0
  0
VERTEX
  5
7C3
  8
BACK_LAYER
 10
27.5222367567649
 20
2.679011948214005
 30
0.0
  0
VERTEX
  5
7C4
  8
BACK_LAYER
 10
27.51591068178402
 20
2.724358952229729
 30
0.0
  0
VERTEX
  5
7C5
  8
BACK_LAYER
 10
27.50993427425697
 20
2.769736227739819
 30
0.0
  0
VERTEX
  5
7C6
  8
BACK_LAYER
 10
27.50430760087366
 20
2.815142215122562
 30
0.0
  0
VERTEX
  5
7C7
  8
BACK_LAYER
 10
27.49903072832398
 20
2.860575354756243
 30
0.0
  0
VERTEX
  5
7C8
  8
BACK_LAYER
 10
27.49410372329781
 20
2.906034087019149
 30
0.0
  0
VERTEX
  5
7C9
  8
BACK_LAYER
 10
27.48952665248506
 20
2.951516852289566
 30
0.0
  0
VERTEX
  5
7CA
  8
BACK_LAYER
 10
27.48529958257563
 20
2.997022090945779
 30
0.0
  0
VERTEX
  5
7CB
  8
BACK_LAYER
 10
27.48142258025941
 20
3.042548243366077
 30
0.0
  0
VERTEX
  5
7CC
  8
BACK_LAYER
 10
27.47789571222628
 20
3.088093749928743
 30
0.0
  0
VERTEX
  5
7CD
  8
BACK_LAYER
 10
27.47471904516615
 20
3.133657051012065
 30
0.0
  0
VERTEX
  5
7CE
  8
BACK_LAYER
 10
27.47189264576892
 20
3.179236586994328
 30
0.0
  0
VERTEX
  5
7CF
  8
BACK_LAYER
 10
27.46941658072448
 20
3.224830798253819
 30
0.0
  0
VERTEX
  5
7D0
  8
BACK_LAYER
 10
27.46729091672272
 20
3.270438125168824
 30
0.0
  0
VERTEX
  5
7D1
  8
BACK_LAYER
 10
27.46551572045354
 20
3.316057008117629
 30
0.0
  0
VERTEX
  5
7D2
  8
BACK_LAYER
 10
27.46409105860683
 20
3.361685887478521
 30
0.0
  0
VERTEX
  5
7D3
  8
BACK_LAYER
 10
27.4630169978725
 20
3.407323203629786
 30
0.0
  0
VERTEX
  5
7D4
  8
BACK_LAYER
 10
27.46229360494043
 20
3.452967396949709
 30
0.0
  0
VERTEX
  5
7D5
  8
BACK_LAYER
 10
27.46192094650052
 20
3.498616907816577
 30
0.0
  0
VERTEX
  5
7D6
  8
BACK_LAYER
 10
27.46189908924266
 20
3.544270176608675
 30
0.0
  0
VERTEX
  5
7D7
  8
BACK_LAYER
 10
27.46222809985676
 20
3.589925643704291
 30
0.0
  0
VERTEX
  5
7D8
  8
BACK_LAYER
 10
27.4629080450327
 20
3.635581749481711
 30
0.0
  0
VERTEX
  5
7D9
  8
BACK_LAYER
 10
27.46393899146038
 20
3.68123693431922
 30
0.0
  0
VERTEX
  5
7DA
  8
BACK_LAYER
 10
27.4653210058297
 20
3.726889638595104
 30
0.0
  0
VERTEX
  5
7DB
  8
BACK_LAYER
 10
27.46705415483055
 20
3.772538302687651
 30
0.0
  0
VERTEX
  5
7DC
  8
BACK_LAYER
 10
27.46913850515283
 20
3.818181366975145
 30
0.0
  0
VERTEX
  5
7DD
  8
BACK_LAYER
 10
27.47157412348643
 20
3.863817271835874
 30
0.0
  0
VERTEX
  5
7DE
  8
BACK_LAYER
 10
27.47436107652125
 20
3.909444457648123
 30
0.0
  0
VERTEX
  5
7DF
  8
BACK_LAYER
 10
27.47749943094718
 20
3.955061364790179
 30
0.0
  0
VERTEX
  5
7E0
  8
BACK_LAYER
 10
27.48098925345412
 20
4.000666433640327
 30
0.0
  0
VERTEX
  5
7E1
  8
BACK_LAYER
 10
27.48449402665022
 20
4.042069247572252
 30
0.0
  0
VERTEX
  5
7E2
  8
BACK_LAYER
 10
27.48834899096867
 20
4.083439371053868
 30
0.0
  0
VERTEX
  5
7E3
  8
BACK_LAYER
 10
27.49255377713018
 20
4.124775113440015
 30
0.0
  0
VERTEX
  5
7E4
  8
BACK_LAYER
 10
27.49710801585551
 20
4.166074784085535
 30
0.0
  0
VERTEX
  5
7E5
  8
BACK_LAYER
 10
27.50201133786538
 20
4.207336692345269
 30
0.0
  0
VERTEX
  5
7E6
  8
BACK_LAYER
 10
27.50726337388053
 20
4.248559147574055
 30
0.0
  0
VERTEX
  5
7E7
  8
BACK_LAYER
 10
27.51286375462169
 20
4.289740459126737
 30
0.0
  0
VERTEX
  5
7E8
  8
BACK_LAYER
 10
27.51881211080961
 20
4.330878936358152
 30
0.0
  0
VERTEX
  5
7E9
  8
BACK_LAYER
 10
27.525108073165
 20
4.371972888623144
 30
0.0
  0
VERTEX
  5
7EA
  8
BACK_LAYER
 10
27.5317512724086
 20
4.413020625276554
 30
0.0
  0
VERTEX
  5
7EB
  8
BACK_LAYER
 10
27.53874133926116
 20
4.454020455673219
 30
0.0
  0
VERTEX
  5
7EC
  8
BACK_LAYER
 10
27.5460779044434
 20
4.494970689167983
 30
0.0
  0
VERTEX
  5
7ED
  8
BACK_LAYER
 10
27.55376059867606
 20
4.535869635115686
 30
0.0
  0
VERTEX
  5
7EE
  8
BACK_LAYER
 10
27.56178905267987
 20
4.57671560287117
 30
0.0
  0
VERTEX
  5
7EF
  8
BACK_LAYER
 10
27.57016289717557
 20
4.617506901789271
 30
0.0
  0
VERTEX
  5
7F0
  8
BACK_LAYER
 10
27.5788817628839
 20
4.658241841224836
 30
0.0
  0
VERTEX
  5
7F1
  8
BACK_LAYER
 10
27.58794528052557
 20
4.698918730532702
 30
0.0
  0
VERTEX
  5
7F2
  8
BACK_LAYER
 10
27.59735308082134
 20
4.739535879067709
 30
0.0
  0
VERTEX
  5
7F3
  8
BACK_LAYER
 10
27.60710479449194
 20
4.7800915961847
 30
0.0
  0
VERTEX
  5
7F4
  8
BACK_LAYER
 10
27.6172000522581
 20
4.820584191238515
 30
0.0
  0
VERTEX
  5
7F5
  8
BACK_LAYER
 10
27.62763848484055
 20
4.861011973583995
 30
0.0
  0
VERTEX
  5
7F6
  8
BACK_LAYER
 10
27.63841972296002
 20
4.901373252575979
 30
0.0
  0
VERTEX
  5
7F7
  8
BACK_LAYER
 10
27.64954339733726
 20
4.94166633756931
 30
0.0
  0
VERTEX
  5
7F8
  8
BACK_LAYER
 10
27.661009138693
 20
4.981889537918827
 30
0.0
  0
VERTEX
  5
7F9
  8
BACK_LAYER
 10
27.67281657774797
 20
5.022041162979371
 30
0.0
  0
VERTEX
  5
7FA
  8
BACK_LAYER
 10
27.6849653452229
 20
5.062119522105784
 30
0.0
  0
VERTEX
  5
7FB
  8
BACK_LAYER
 10
27.69745507183853
 20
5.102122924652906
 30
0.0
  0
VERTEX
  5
7FC
  8
BACK_LAYER
 10
27.7102853883156
 20
5.142049679975577
 30
0.0
  0
VERTEX
  5
7FD
  8
BACK_LAYER
 10
27.72345592537484
 20
5.181898097428639
 30
0.0
  0
VERTEX
  5
7FE
  8
BACK_LAYER
 10
27.73696631373698
 20
5.221666486366932
 30
0.0
  0
VERTEX
  5
7FF
  8
BACK_LAYER
 10
27.75081618412275
 20
5.261353156145296
 30
0.0
  0
VERTEX
  5
800
  8
BACK_LAYER
 10
27.76500516725291
 20
5.300956416118574
 30
0.0
  0
VERTEX
  5
801
  8
BACK_LAYER
 10
27.8362703779124
 20
5.496398401132679
 30
0.0
  0
VERTEX
  5
802
  8
BACK_LAYER
 10
27.90813518766034
 20
5.69166983356625
 30
0.0
  0
VERTEX
  5
803
  8
BACK_LAYER
 10
27.98059919629228
 20
5.886769650526555
 30
0.0
  0
VERTEX
  5
804
  8
BACK_LAYER
 10
28.05366200360376
 20
6.081696789120867
 30
0.0
  0
VERTEX
  5
805
  8
BACK_LAYER
 10
28.12732320939033
 20
6.276450186456455
 30
0.0
  0
VERTEX
  5
806
  8
BACK_LAYER
 10
28.20158241344753
 20
6.471028779640589
 30
0.0
  0
VERTEX
  5
807
  8
BACK_LAYER
 10
28.2764392155709
 20
6.665431505780538
 30
0.0
  0
VERTEX
  5
808
  8
BACK_LAYER
 10
28.35189321555598
 20
6.859657301983573
 30
0.0
  0
VERTEX
  5
809
  8
BACK_LAYER
 10
28.36663385014094
 20
6.898507881290863
 30
0.0
  0
VERTEX
  5
80A
  8
BACK_LAYER
 10
28.38060546216803
 20
6.93752994916013
 30
0.0
  0
VERTEX
  5
80B
  8
BACK_LAYER
 10
28.39380745939863
 20
6.976714790631546
 30
0.0
  0
VERTEX
  5
80C
  8
BACK_LAYER
 10
28.4062392495941
 20
7.016053690745284
 30
0.0
  0
VERTEX
  5
80D
  8
BACK_LAYER
 10
28.41790024051581
 20
7.055537934541517
 30
0.0
  0
VERTEX
  5
80E
  8
BACK_LAYER
 10
28.42878983992512
 20
7.095158807060418
 30
0.0
  0
VERTEX
  5
80F
  8
BACK_LAYER
 10
28.4389074555834
 20
7.13490759334216
 30
0.0
  0
VERTEX
  5
810
  8
BACK_LAYER
 10
28.44825249525201
 20
7.174775578426912
 30
0.0
  0
VERTEX
  5
811
  8
BACK_LAYER
 10
28.45682436669232
 20
7.21475404735485
 30
0.0
  0
VERTEX
  5
812
  8
BACK_LAYER
 10
28.46462247766568
 20
7.254834285166146
 30
0.0
  0
VERTEX
  5
813
  8
BACK_LAYER
 10
28.47164623593347
 20
7.295007576900973
 30
0.0
  0
VERTEX
  5
814
  8
BACK_LAYER
 10
28.47789504925705
 20
7.335265207599504
 30
0.0
  0
VERTEX
  5
815
  8
BACK_LAYER
 10
28.48336832539778
 20
7.375598462301909
 30
0.0
  0
VERTEX
  5
816
  8
BACK_LAYER
 10
28.48806547211704
 20
7.415998626048363
 30
0.0
  0
VERTEX
  5
817
  8
BACK_LAYER
 10
28.49198589717618
 20
7.456456983879037
 30
0.0
  0
VERTEX
  5
818
  8
BACK_LAYER
 10
28.49512900833658
 20
7.496964820834106
 30
0.0
  0
VERTEX
  5
819
  8
BACK_LAYER
 10
28.49749421335958
 20
7.537513421953741
 30
0.0
  0
VERTEX
  5
81A
  8
BACK_LAYER
 10
28.49908092000657
 20
7.578094072278114
 30
0.0
  0
VERTEX
  5
81B
  8
BACK_LAYER
 10
28.4998885360389
 20
7.6186980568474
 30
0.0
  0
VERTEX
  5
81C
  8
BACK_LAYER
 10
28.49991646921794
 20
7.659316660701769
 30
0.0
  0
VERTEX
  5
81D
  8
BACK_LAYER
 10
28.49916412730506
 20
7.699941168881395
 30
0.0
  0
VERTEX
  5
81E
  8
BACK_LAYER
 10
28.49763091806161
 20
7.74056286642645
 30
0.0
  0
VERTEX
  5
81F
  8
BACK_LAYER
 10
28.49531624924897
 20
7.781173038377108
 30
0.0
  0
VERTEX
  5
820
  8
BACK_LAYER
 10
28.4922195286285
 20
7.82176296977354
 30
0.0
  0
VERTEX
  5
821
  8
BACK_LAYER
 10
28.48834016396155
 20
7.86232394565592
 30
0.0
  0
VERTEX
  5
822
  8
BACK_LAYER
 10
28.48367756300951
 20
7.902847251064419
 30
0.0
  0
VERTEX
  5
823
  8
BACK_LAYER
 10
28.47823113353373
 20
7.94332417103921
 30
0.0
  0
VERTEX
  5
824
  8
BACK_LAYER
 10
28.47200028329559
 20
7.983745990620468
 30
0.0
  0
VERTEX
  5
825
  8
BACK_LAYER
 10
28.46498442005643
 20
8.024103994848362
 30
0.0
  0
VERTEX
  5
826
  8
BACK_LAYER
 10
28.45718295157763
 20
8.064389468763068
 30
0.0
  0
VERTEX
  5
827
  8
BACK_LAYER
 10
28.44859528562055
 20
8.104593697404757
 30
0.0
  0
VERTEX
  5
828
  8
BACK_LAYER
 10
28.43922082994656
 20
8.144707965813602
 30
0.0
  0
VERTEX
  5
829
  8
BACK_LAYER
 10
28.43600656711164
 20
8.157171203937251
 30
0.0
  0
VERTEX
  5
82A
  8
BACK_LAYER
 10
28.43246579174554
 20
8.169537847179935
 30
0.0
  0
VERTEX
  5
82B
  8
BACK_LAYER
 10
28.42860176901693
 20
8.181803568653365
 30
0.0
  0
VERTEX
  5
82C
  8
BACK_LAYER
 10
28.42441776409446
 20
8.19396404146925
 30
0.0
  0
VERTEX
  5
82D
  8
BACK_LAYER
 10
28.41991704214681
 20
8.206014938739298
 30
0.0
  0
VERTEX
  5
82E
  8
BACK_LAYER
 10
28.41510286834262
 20
8.217951933575211
 30
0.0
  0
VERTEX
  5
82F
  8
BACK_LAYER
 10
28.40997850785056
 20
8.229770699088705
 30
0.0
  0
VERTEX
  5
830
  8
BACK_LAYER
 10
28.40454722583929
 20
8.241466908391484
 30
0.0
  0
VERTEX
  5
831
  8
BACK_LAYER
 10
28.39881228747748
 20
8.253036234595259
 30
0.0
  0
VERTEX
  5
832
  8
BACK_LAYER
 10
28.39277695793378
 20
8.264474350811735
 30
0.0
  0
VERTEX
  5
833
  8
BACK_LAYER
 10
28.38644450237685
 20
8.275776930152624
 30
0.0
  0
VERTEX
  5
834
  8
BACK_LAYER
 10
28.37981818597536
 20
8.286939645729634
 30
0.0
  0
VERTEX
  5
835
  8
BACK_LAYER
 10
28.37290127389797
 20
8.297958170654471
 30
0.0
  0
VERTEX
  5
836
  8
BACK_LAYER
 10
28.36569703131333
 20
8.308828178038844
 30
0.0
  0
VERTEX
  5
837
  8
BACK_LAYER
 10
28.35820872339011
 20
8.31954534099446
 30
0.0
  0
VERTEX
  5
838
  8
BACK_LAYER
 10
28.35043961529697
 20
8.33010533263303
 30
0.0
  0
VERTEX
  5
839
  8
BACK_LAYER
 10
28.34239297220256
 20
8.34050382606626
 30
0.0
  0
VERTEX
  5
83A
  8
BACK_LAYER
 10
28.33407205927556
 20
8.350736494405862
 30
0.0
  0
VERTEX
  5
83B
  8
BACK_LAYER
 10
28.32548014168463
 20
8.360799010763543
 30
0.0
  0
VERTEX
  5
83C
  8
BACK_LAYER
 10
28.31662048459841
 20
8.37068704825101
 30
0.0
  0
VERTEX
  5
83D
  8
BACK_LAYER
 10
28.30749635318558
 20
8.380396279979973
 30
0.0
  0
VERTEX
  5
83E
  8
BACK_LAYER
 10
28.29811101261479
 20
8.389922379062135
 30
0.0
  0
VERTEX
  5
83F
  8
BACK_LAYER
 10
28.28846772805471
 20
8.399261018609211
 30
0.0
  0
VERTEX
  5
840
  8
BACK_LAYER
 10
28.27856976467399
 20
8.408407871732905
 30
0.0
  0
VERTEX
  5
841
  8
BACK_LAYER
 10
28.26842038764131
 20
8.417358611544927
 30
0.0
  0
VERTEX
  5
842
  8
BACK_LAYER
 10
28.2580228621253
 20
8.426108911156987
 30
0.0
  0
VERTEX
  5
843
  8
BACK_LAYER
 10
28.24738045329465
 20
8.434654443680792
 30
0.0
  0
VERTEX
  5
844
  8
BACK_LAYER
 10
28.23649642631801
 20
8.442990882228049
 30
0.0
  0
VERTEX
  5
845
  8
BACK_LAYER
 10
28.22537404636404
 20
8.451113899910467
 30
0.0
  0
VERTEX
  5
846
  8
BACK_LAYER
 10
28.21401657860141
 20
8.459019169839754
 30
0.0
  0
VERTEX
  5
847
  8
BACK_LAYER
 10
28.20242728819877
 20
8.46670236512762
 30
0.0
  0
VERTEX
  5
848
  8
BACK_LAYER
 10
28.19060944032478
 20
8.474159158885772
 30
0.0
  0
VERTEX
  5
849
  8
BACK_LAYER
 10
28.18101716563866
 20
8.479868888296277
 30
0.0
  0
VERTEX
  5
84A
  8
BACK_LAYER
 10
28.17126439147843
 20
8.485293703431813
 30
0.0
  0
VERTEX
  5
84B
  8
BACK_LAYER
 10
28.16135906200223
 20
8.490432753612206
 30
0.0
  0
VERTEX
  5
84C
  8
BACK_LAYER
 10
28.15130912136823
 20
8.49528518815729
 30
0.0
  0
VERTEX
  5
84D
  8
BACK_LAYER
 10
28.14112251373457
 20
8.499850156386895
 30
0.0
  0
VERTEX
  5
84E
  8
BACK_LAYER
 10
28.13080718325939
 20
8.50412680762085
 30
0.0
  0
VERTEX
  5
84F
  8
BACK_LAYER
 10
28.12037107410086
 20
8.508114291178986
 30
0.0
  0
VERTEX
  5
850
  8
BACK_LAYER
 10
28.10982213041711
 20
8.511811756381139
 30
0.0
  0
VERTEX
  5
851
  8
BACK_LAYER
 10
28.09916829636631
 20
8.515218352547134
 30
0.0
  0
VERTEX
  5
852
  8
BACK_LAYER
 10
28.08841751610659
 20
8.51833322899681
 30
0.0
  0
VERTEX
  5
853
  8
BACK_LAYER
 10
28.07757773379611
 20
8.521155535049989
 30
0.0
  0
VERTEX
  5
854
  8
BACK_LAYER
 10
28.06665689359302
 20
8.523684420026505
 30
0.0
  0
VERTEX
  5
855
  8
BACK_LAYER
 10
28.05566293965546
 20
8.525919033246193
 30
0.0
  0
VERTEX
  5
856
  8
BACK_LAYER
 10
28.0446038161416
 20
8.52785852402888
 30
0.0
  0
VERTEX
  5
857
  8
BACK_LAYER
 10
28.03348746720957
 20
8.529502041694396
 30
0.0
  0
VERTEX
  5
858
  8
BACK_LAYER
 10
28.02232183701754
 20
8.530848735562575
 30
0.0
  0
VERTEX
  5
859
  8
BACK_LAYER
 10
28.01111486972364
 20
8.531897754953246
 30
0.0
  0
VERTEX
  5
85A
  8
BACK_LAYER
 10
27.99987450948603
 20
8.532648249186241
 30
0.0
  0
VERTEX
  5
85B
  8
BACK_LAYER
 10
27.98860870046285
 20
8.533099367581391
 30
0.0
  0
VERTEX
  5
85C
  8
BACK_LAYER
 10
27.97732538681227
 20
8.533250259458526
 30
0.0
  0
VERTEX
  5
85D
  8
BACK_LAYER
 10
27.96603251269243
 20
8.533100074137481
 30
0.0
  0
VERTEX
  5
85E
  8
BACK_LAYER
 10
27.95473802226147
 20
8.53264796093808
 30
0.0
  0
VERTEX
  5
85F
  8
BACK_LAYER
 10
27.94344985967755
 20
8.531893069180159
 30
0.0
  0
VERTEX
  5
860
  8
BACK_LAYER
 10
27.93217596909881
 20
8.530834548183549
 30
0.0
  0
VERTEX
  5
861
  8
BACK_LAYER
 10
27.92092429468342
 20
8.529471547268079
 30
0.0
  0
VERTEX
  5
862
  8
BACK_LAYER
 10
27.90970278058952
 20
8.52780321575358
 30
0.0
  0
VERTEX
  5
863
  8
BACK_LAYER
 10
27.89851937097525
 20
8.525828702959885
 30
0.0
  0
VERTEX
  5
864
  8
BACK_LAYER
 10
27.88738200999877
 20
8.523547158206824
 30
0.0
  0
VERTEX
  5
865
  8
BACK_LAYER
 10
27.87629864181822
 20
8.520957730814228
 30
0.0
  0
VERTEX
  5
866
  8
BACK_LAYER
 10
27.86527721059177
 20
8.518059570101926
 30
0.0
  0
VERTEX
  5
867
  8
BACK_LAYER
 10
27.85432566047756
 20
8.514851825389751
 30
0.0
  0
VERTEX
  5
868
  8
BACK_LAYER
 10
27.84345193563373
 20
8.511333645997535
 30
0.0
  0
VERTEX
  5
869
  8
BACK_LAYER
 10
27.80955913092025
 20
8.499207417930734
 30
0.0
  0
VERTEX
  5
86A
  8
BACK_LAYER
 10
27.77627383580301
 20
8.486030507488586
 30
0.0
  0
VERTEX
  5
86B
  8
BACK_LAYER
 10
27.74362471722225
 20
8.471822464414899
 30
0.0
  0
VERTEX
  5
86C
  8
BACK_LAYER
 10
27.71164044211822
 20
8.456602838453477
 30
0.0
  0
VERTEX
  5
86D
  8
BACK_LAYER
 10
27.68034967743115
 20
8.440391179348135
 30
0.0
  0
VERTEX
  5
86E
  8
BACK_LAYER
 10
27.64978109010128
 20
8.423207036842676
 30
0.0
  0
VERTEX
  5
86F
  8
BACK_LAYER
 10
27.63477657136413
 20
8.414256393609847
 30
0.0
  0
VERTEX
  5
870
  8
BACK_LAYER
 10
27.61996334706887
 20
8.405069960680915
 30
0.0
  0
VERTEX
  5
871
  8
BACK_LAYER
 10
27.60534500058303
 20
8.39565018177386
 30
0.0
  0
VERTEX
  5
872
  8
BACK_LAYER
 10
27.59092511527414
 20
8.385999500606657
 30
0.0
  0
VERTEX
  5
873
  8
BACK_LAYER
 10
27.57670727450974
 20
8.376120360897279
 30
0.0
  0
VERTEX
  5
874
  8
BACK_LAYER
 10
27.56269506165734
 20
8.36601520636371
 30
0.0
  0
VERTEX
  5
875
  8
BACK_LAYER
 10
27.54889206008449
 20
8.355686480723918
 30
0.0
  0
VERTEX
  5
876
  8
BACK_LAYER
 10
27.53530185315872
 20
8.345136627695883
 30
0.0
  0
VERTEX
  5
877
  8
BACK_LAYER
 10
27.52192802424755
 20
8.33436809099758
 30
0.0
  0
VERTEX
  5
878
  8
BACK_LAYER
 10
27.50877415671851
 20
8.323383314346987
 30
0.0
  0
VERTEX
  5
879
  8
BACK_LAYER
 10
27.49584383393913
 20
8.312184741462078
 30
0.0
  0
VERTEX
  5
87A
  8
BACK_LAYER
 10
27.48314063927695
 20
8.300774816060828
 30
0.0
  0
VERTEX
  5
87B
  8
BACK_LAYER
 10
27.4706681560995
 20
8.289155981861217
 30
0.0
  0
VERTEX
  5
87C
  8
BACK_LAYER
 10
27.4584299677743
 20
8.277330682581216
 30
0.0
  0
VERTEX
  5
87D
  8
BACK_LAYER
 10
27.44642965766889
 20
8.265301361938807
 30
0.0
  0
VERTEX
  5
87E
  8
BACK_LAYER
 10
27.43467080915078
 20
8.253070463651962
 30
0.0
  0
VERTEX
  5
87F
  8
BACK_LAYER
 10
27.42315700558752
 20
8.24064043143866
 30
0.0
  0
VERTEX
  5
880
  8
BACK_LAYER
 10
27.41189183034664
 20
8.22801370901687
 30
0.0
  0
VERTEX
  5
881
  8
BACK_LAYER
 10
27.40087886679567
 20
8.215192740104577
 30
0.0
  0
VERTEX
  5
882
  8
BACK_LAYER
 10
27.39012169830212
 20
8.202179968419752
 30
0.0
  0
VERTEX
  5
883
  8
BACK_LAYER
 10
27.37019744618563
 20
8.178054371125283
 30
0.0
  0
VERTEX
  5
884
  8
BACK_LAYER
 10
27.34982143275934
 20
8.1542644187559
 30
0.0
  0
VERTEX
  5
885
  8
BACK_LAYER
 10
27.32899958584741
 20
8.130814277192679
 30
0.0
  0
VERTEX
  5
886
  8
BACK_LAYER
 10
27.307737833274
 20
8.107708112316686
 30
0.0
  0
VERTEX
  5
887
  8
BACK_LAYER
 10
27.28604210286328
 20
8.084950090008995
 30
0.0
  0
VERTEX
  5
888
  8
BACK_LAYER
 10
27.26391832243939
 20
8.062544376150676
 30
0.0
  0
VERTEX
  5
889
  8
BACK_LAYER
 10
27.2413724198265
 20
8.040495136622797
 30
0.0
  0
VERTEX
  5
88A
  8
BACK_LAYER
 10
27.21841032284878
 20
8.018806537306432
 30
0.0
  0
VERTEX
  5
88B
  8
BACK_LAYER
 10
27.19503795933037
 20
7.997482744082649
 30
0.0
  0
VERTEX
  5
88C
  8
BACK_LAYER
 10
27.17126125709544
 20
7.976527922832519
 30
0.0
  0
VERTEX
  5
88D
  8
BACK_LAYER
 10
27.14708614396815
 20
7.955946239437113
 30
0.0
  0
VERTEX
  5
88E
  8
BACK_LAYER
 10
27.12251854777266
 20
7.935741859777502
 30
0.0
  0
VERTEX
  5
88F
  8
BACK_LAYER
 10
27.09756439633312
 20
7.915918949734756
 30
0.0
  0
VERTEX
  5
890
  8
BACK_LAYER
 10
27.0722296174737
 20
7.896481675189946
 30
0.0
  0
VERTEX
  5
891
  8
BACK_LAYER
 10
27.04652013901855
 20
7.877434202024142
 30
0.0
  0
VERTEX
  5
892
  8
BACK_LAYER
 10
27.02044188879184
 20
7.858780696118417
 30
0.0
  0
VERTEX
  5
893
  8
BACK_LAYER
 10
26.99400079461773
 20
7.840525323353837
 30
0.0
  0
VERTEX
  5
894
  8
BACK_LAYER
 10
26.96720278432036
 20
7.822672249611478
 30
0.0
  0
VERTEX
  5
895
  8
BACK_LAYER
 10
26.94005378572391
 20
7.805225640772407
 30
0.0
  0
VERTEX
  5
896
  8
BACK_LAYER
 10
26.91255972665253
 20
7.788189662717694
 30
0.0
  0
VERTEX
  5
897
  8
BACK_LAYER
 10
26.88472653493039
 20
7.771568481328411
 30
0.0
  0
VERTEX
  5
898
  8
BACK_LAYER
 10
26.85656013838163
 20
7.755366262485629
 30
0.0
  0
VERTEX
  5
899
  8
BACK_LAYER
 10
26.82806646483043
 20
7.739587172070419
 30
0.0
  0
VERTEX
  5
89A
  8
BACK_LAYER
 10
26.79925144210094
 20
7.72423537596385
 30
0.0
  0
VERTEX
  5
89B
  8
BACK_LAYER
 10
26.77012099801731
 20
7.709315040046993
 30
0.0
  0
VERTEX
  5
89C
  8
BACK_LAYER
 10
26.74068106040372
 20
7.69483033020092
 30
0.0
  0
VERTEX
  5
89D
  8
BACK_LAYER
 10
26.71093755708431
 20
7.680785412306701
 30
0.0
  0
VERTEX
  5
89E
  8
BACK_LAYER
 10
26.68089641588325
 20
7.667184452245405
 30
0.0
  0
VERTEX
  5
89F
  8
BACK_LAYER
 10
26.6505635646247
 20
7.654031615898104
 30
0.0
  0
VERTEX
  5
8A0
  8
BACK_LAYER
 10
26.61994493113282
 20
7.641331069145869
 30
0.0
  0
VERTEX
  5
8A1
  8
BACK_LAYER
 10
26.58904644323177
 20
7.629086977869768
 30
0.0
  0
VERTEX
  5
8A2
  8
BACK_LAYER
 10
26.55787402874569
 20
7.617303507950877
 30
0.0
  0
VERTEX
  5
8A3
  8
BACK_LAYER
 10
26.53977082434513
 20
7.611095968382815
 30
0.0
  0
VERTEX
  5
8A4
  8
BACK_LAYER
 10
26.52152961650483
 20
7.605766406599887
 30
0.0
  0
VERTEX
  5
8A5
  8
BACK_LAYER
 10
26.50318189868931
 20
7.601303307740925
 30
0.0
  0
VERTEX
  5
8A6
  8
BACK_LAYER
 10
26.48475916436311
 20
7.597695156944756
 30
0.0
  0
VERTEX
  5
8A7
  8
BACK_LAYER
 10
26.46629290699074
 20
7.594930439350209
 30
0.0
  0
VERTEX
  5
8A8
  8
BACK_LAYER
 10
26.44781462003674
 20
7.592997640096113
 30
0.0
  0
VERTEX
  5
8A9
  8
BACK_LAYER
 10
26.42935579696564
 20
7.591885244321297
 30
0.0
  0
VERTEX
  5
8AA
  8
BACK_LAYER
 10
26.41094793124196
 20
7.591581737164589
 30
0.0
  0
VERTEX
  5
8AB
  8
BACK_LAYER
 10
26.39262251633021
 20
7.592075603764817
 30
0.0
  0
VERTEX
  5
8AC
  8
BACK_LAYER
 10
26.37441104569494
 20
7.593355329260811
 30
0.0
  0
VERTEX
  5
8AD
  8
BACK_LAYER
 10
26.35634501280067
 20
7.595409398791401
 30
0.0
  0
VERTEX
  5
8AE
  8
BACK_LAYER
 10
26.33845591111191
 20
7.598226297495414
 30
0.0
  0
VERTEX
  5
8AF
  8
BACK_LAYER
 10
26.32077523409321
 20
7.601794510511679
 30
0.0
  0
VERTEX
  5
8B0
  8
BACK_LAYER
 10
26.30333447520908
 20
7.606102522979025
 30
0.0
  0
VERTEX
  5
8B1
  8
BACK_LAYER
 10
26.28616512792406
 20
7.61113882003628
 30
0.0
  0
VERTEX
  5
8B2
  8
BACK_LAYER
 10
26.26929868570266
 20
7.616891886822274
 30
0.0
  0
VERTEX
  5
8B3
  8
BACK_LAYER
 10
26.25276664200942
 20
7.623350208475835
 30
0.0
  0
VERTEX
  5
8B4
  8
BACK_LAYER
 10
26.23660049030885
 20
7.630502270135792
 30
0.0
  0
VERTEX
  5
8B5
  8
BACK_LAYER
 10
26.22083172406549
 20
7.638336556940974
 30
0.0
  0
VERTEX
  5
8B6
  8
BACK_LAYER
 10
26.20549183674387
 20
7.646841554030209
 30
0.0
  0
VERTEX
  5
8B7
  8
BACK_LAYER
 10
26.1906123218085
 20
7.656005746542327
 30
0.0
  0
VERTEX
  5
8B8
  8
BACK_LAYER
 10
26.17622467272392
 20
7.665817619616156
 30
0.0
  0
VERTEX
  5
8B9
  8
BACK_LAYER
 10
26.16236038295465
 20
7.676265658390525
 30
0.0
  0
VERTEX
  5
8BA
  8
BACK_LAYER
 10
26.14905094596521
 20
7.687338348004263
 30
0.0
  0
VERTEX
  5
8BB
  8
BACK_LAYER
 10
26.13632785522014
 20
7.699024173596198
 30
0.0
  0
VERTEX
  5
8BC
  8
BACK_LAYER
 10
26.12422260418396
 20
7.711311620305159
 30
0.0
  0
VERTEX
  5
8BD
  8
BACK_LAYER
 10
26.11276668632119
 20
7.724189173269975
 30
0.0
  0
VERTEX
  5
8BE
  8
BACK_LAYER
 10
26.10199159509637
 20
7.737645317629474
 30
0.0
  0
VERTEX
  5
8BF
  8
BACK_LAYER
 10
26.09192882397401
 20
7.751668538522486
 30
0.0
  0
VERTEX
  5
8C0
  8
BACK_LAYER
 10
26.08260986641864
 20
7.766247321087839
 30
0.0
  0
VERTEX
  5
8C1
  8
BACK_LAYER
 10
26.0740662158948
 20
7.781370150464363
 30
0.0
  0
VERTEX
  5
8C2
  8
BACK_LAYER
 10
26.06632936586701
 20
7.797025511790886
 30
0.0
  0
VERTEX
  5
8C3
  8
BACK_LAYER
 10
26.04981158304082
 20
7.833829134944068
 30
0.0
  0
VERTEX
  5
8C4
  8
BACK_LAYER
 10
26.03402689175442
 20
7.870833555707844
 30
0.0
  0
VERTEX
  5
8C5
  8
BACK_LAYER
 10
26.01897637827701
 20
7.908030362704684
 30
0.0
  0
VERTEX
  5
8C6
  8
BACK_LAYER
 10
26.00466112887781
 20
7.945411144557057
 30
0.0
  0
VERTEX
  5
8C7
  8
BACK_LAYER
 10
25.99108222982603
 20
7.982967489887431
 30
0.0
  0
VERTEX
  5
8C8
  8
BACK_LAYER
 10
25.97824076739089
 20
8.020690987318277
 30
0.0
  0
VERTEX
  5
8C9
  8
BACK_LAYER
 10
25.9661378278416
 20
8.058573225472063
 30
0.0
  0
VERTEX
  5
8CA
  8
BACK_LAYER
 10
25.95477449744738
 20
8.096605792971257
 30
0.0
  0
VERTEX
  5
8CB
  8
BACK_LAYER
 10
25.94415186247744
 20
8.13478027843833
 30
0.0
  0
VERTEX
  5
8CC
  8
BACK_LAYER
 10
25.934271009201
 20
8.17308827049575
 30
0.0
  0
VERTEX
  5
8CD
  8
BACK_LAYER
 10
25.92513302388727
 20
8.211521357765985
 30
0.0
  0
VERTEX
  5
8CE
  8
BACK_LAYER
 10
25.91673899280546
 20
8.250071128871506
 30
0.0
  0
VERTEX
  5
8CF
  8
BACK_LAYER
 10
25.90909000222479
 20
8.288729172434781
 30
0.0
  0
VERTEX
  5
8D0
  8
BACK_LAYER
 10
25.90218713841447
 20
8.327487077078278
 30
0.0
  0
VERTEX
  5
8D1
  8
BACK_LAYER
 10
25.89603148764372
 20
8.366336431424468
 30
0.0
  0
VERTEX
  5
8D2
  8
BACK_LAYER
 10
25.89062413618175
 20
8.40526882409582
 30
0.0
  0
VERTEX
  5
8D3
  8
BACK_LAYER
 10
25.88596617029778
 20
8.444275843714802
 30
0.0
  0
VERTEX
  5
8D4
  8
BACK_LAYER
 10
25.88205867626102
 20
8.483349078903885
 30
0.0
  0
VERTEX
  5
8D5
  8
BACK_LAYER
 10
25.87890274034069
 20
8.522480118285534
 30
0.0
  0
VERTEX
  5
8D6
  8
BACK_LAYER
 10
25.876499448806
 20
8.561660550482221
 30
0.0
  0
VERTEX
  5
8D7
  8
BACK_LAYER
 10
25.87484988792616
 20
8.600881964116416
 30
0.0
  0
VERTEX
  5
8D8
  8
BACK_LAYER
 10
25.8739551439704
 20
8.640135947810586
 30
0.0
  0
VERTEX
  5
8D9
  8
BACK_LAYER
 10
25.87381630320791
 20
8.679414090187201
 30
0.0
  0
VERTEX
  5
8DA
  8
BACK_LAYER
 10
25.87443445190792
 20
8.718707979868729
 30
0.0
  0
VERTEX
  5
8DB
  8
BACK_LAYER
 10
25.87581067633965
 20
8.758009205477638
 30
0.0
  0
VERTEX
  5
8DC
  8
BACK_LAYER
 10
25.8779460627723
 20
8.7973093556364
 30
0.0
  0
VERTEX
  5
8DD
  8
BACK_LAYER
 10
25.8808416974751
 20
8.836600018967484
 30
0.0
  0
VERTEX
  5
8DE
  8
BACK_LAYER
 10
25.88449866671725
 20
8.875872784093358
 30
0.0
  0
VERTEX
  5
8DF
  8
BACK_LAYER
 10
25.88891805676798
 20
8.915119239636491
 30
0.0
  0
VERTEX
  5
8E0
  8
BACK_LAYER
 10
25.89410095389648
 20
8.954330974219351
 30
0.0
  0
VERTEX
  5
8E1
  8
BACK_LAYER
 10
25.90004844437199
 20
8.993499576464409
 30
0.0
  0
VERTEX
  5
8E2
  8
BACK_LAYER
 10
25.90676161446371
 20
9.032616634994131
 30
0.0
  0
VERTEX
  5
8E3
  8
BACK_LAYER
 10
25.9137461589486
 20
9.069761095523125
 30
0.0
  0
VERTEX
  5
8E4
  8
BACK_LAYER
 10
25.92119653001113
 20
9.106817921308707
 30
0.0
  0
VERTEX
  5
8E5
  8
BACK_LAYER
 10
25.92911143111829
 20
9.143783846011065
 30
0.0
  0
VERTEX
  5
8E6
  8
BACK_LAYER
 10
25.9374895657371
 20
9.180655603290385
 30
0.0
  0
VERTEX
  5
8E7
  8
BACK_LAYER
 10
25.94632963733454
 20
9.217429926806847
 30
0.0
  0
VERTEX
  5
8E8
  8
BACK_LAYER
 10
25.95563034937761
 20
9.254103550220641
 30
0.0
  0
VERTEX
  5
8E9
  8
BACK_LAYER
 10
25.96539040533333
 20
9.290673207191954
 30
0.0
  0
VERTEX
  5
8EA
  8
BACK_LAYER
 10
25.97560850866867
 20
9.327135631380967
 30
0.0
  0
VERTEX
  5
8EB
  8
BACK_LAYER
 10
25.98628336285066
 20
9.363487556447868
 30
0.0
  0
VERTEX
  5
8EC
  8
BACK_LAYER
 10
25.99741367134627
 20
9.39972571605284
 30
0.0
  0
VERTEX
  5
8ED
  8
BACK_LAYER
 10
26.00899813762253
 20
9.435846843856071
 30
0.0
  0
VERTEX
  5
8EE
  8
BACK_LAYER
 10
26.0210354651464
 20
9.471847673517745
 30
0.0
  0
VERTEX
  5
8EF
  8
BACK_LAYER
 10
26.03352435738492
 20
9.507724938698047
 30
0.0
  0
VERTEX
  5
8F0
  8
BACK_LAYER
 10
26.04646351780506
 20
9.543475373057165
 30
0.0
  0
VERTEX
  5
8F1
  8
BACK_LAYER
 10
26.05985164987383
 20
9.579095710255285
 30
0.0
  0
VERTEX
  5
8F2
  8
BACK_LAYER
 10
26.07368745705825
 20
9.614582683952587
 30
0.0
  0
VERTEX
  5
8F3
  8
BACK_LAYER
 10
26.08796964282529
 20
9.649933027809261
 30
0.0
  0
VERTEX
  5
8F4
  8
BACK_LAYER
 10
26.10269691064195
 20
9.685143475485493
 30
0.0
  0
VERTEX
  5
8F5
  8
BACK_LAYER
 10
26.11786796397524
 20
9.720210760641464
 30
0.0
  0
VERTEX
  5
8F6
  8
BACK_LAYER
 10
26.13348150629216
 20
9.755131616937366
 30
0.0
  0
VERTEX
  5
8F7
  8
BACK_LAYER
 10
26.14953624105971
 20
9.789902778033378
 30
0.0
  0
VERTEX
  5
8F8
  8
BACK_LAYER
 10
26.16603087174489
 20
9.824520977589689
 30
0.0
  0
VERTEX
  5
8F9
  8
BACK_LAYER
 10
26.18296410181469
 20
9.858982949266485
 30
0.0
  0
VERTEX
  5
8FA
  8
BACK_LAYER
 10
26.20033463473611
 20
9.89328542672395
 30
0.0
  0
VERTEX
  5
8FB
  8
BACK_LAYER
 10
26.21814117397616
 20
9.92742514362227
 30
0.0
  0
VERTEX
  5
8FC
  8
BACK_LAYER
 10
26.23638242300184
 20
9.961398833621628
 30
0.0
  0
VERTEX
  5
8FD
  8
BACK_LAYER
 10
26.25505708528014
 20
9.995203230382213
 30
0.0
  0
VERTEX
  5
8FE
  8
BACK_LAYER
 10
26.27416386427806
 20
10.02883506756421
 30
0.0
  0
VERTEX
  5
8FF
  8
BACK_LAYER
 10
26.2937014634626
 20
10.0622910788278
 30
0.0
  0
VERTEX
  5
900
  8
BACK_LAYER
 10
26.31366858630077
 20
10.09556799783317
 30
0.0
  0
VERTEX
  5
901
  8
BACK_LAYER
 10
26.33406393625956
 20
10.12866255824052
 30
0.0
  0
VERTEX
  5
902
  8
BACK_LAYER
 10
26.35488621680597
 20
10.16157149371001
 30
0.0
  0
VERTEX
  5
903
  8
BACK_LAYER
 10
26.36340402501064
 20
10.17442402072449
 30
0.0
  0
VERTEX
  5
904
  8
BACK_LAYER
 10
26.37227260223724
 20
10.18696181082555
 30
0.0
  0
VERTEX
  5
905
  8
BACK_LAYER
 10
26.38148287581923
 20
10.19918350160195
 30
0.0
  0
VERTEX
  5
906
  8
BACK_LAYER
 10
26.39102577309004
 20
10.21108773064242
 30
0.0
  0
VERTEX
  5
907
  8
BACK_LAYER
 10
26.40089222138313
 20
10.22267313553569
 30
0.0
  0
VERTEX
  5
908
  8
BACK_LAYER
 10
26.41107314803194
 20
10.2339383538705
 30
0.0
  0
VERTEX
  5
909
  8
BACK_LAYER
 10
26.42155948036991
 20
10.24488202323557
 30
0.0
  0
VERTEX
  5
90A
  8
BACK_LAYER
 10
26.43234214573051
 20
10.25550278121966
 30
0.0
  0
VERTEX
  5
90B
  8
BACK_LAYER
 10
26.44341207144716
 20
10.26579926541148
 30
0.0
  0
VERTEX
  5
90C
  8
BACK_LAYER
 10
26.45476018485331
 20
10.27577011339979
 30
0.0
  0
VERTEX
  5
90D
  8
BACK_LAYER
 10
26.46637741328241
 20
10.28541396277331
 30
0.0
  0
VERTEX
  5
90E
  8
BACK_LAYER
 10
26.47825468406791
 20
10.29472945112078
 30
0.0
  0
VERTEX
  5
90F
  8
BACK_LAYER
 10
26.49038292454325
 20
10.30371521603093
 30
0.0
  0
VERTEX
  5
910
  8
BACK_LAYER
 10
26.50275306204189
 20
10.3123698950925
 30
0.0
  0
VERTEX
  5
911
  8
BACK_LAYER
 10
26.51535602389725
 20
10.32069212589423
 30
0.0
  0
VERTEX
  5
912
  8
BACK_LAYER
 10
26.5281827374428
 20
10.32868054602485
 30
0.0
  0
VERTEX
  5
913
  8
BACK_LAYER
 10
26.54122413001197
 20
10.3363337930731
 30
0.0
  0
VERTEX
  5
914
  8
BACK_LAYER
 10
26.55447112893822
 20
10.34365050462771
 30
0.0
  0
VERTEX
  5
915
  8
BACK_LAYER
 10
26.56791466155498
 20
10.35062931827741
 30
0.0
  0
VERTEX
  5
916
  8
BACK_LAYER
 10
26.58154565519571
 20
10.35726887161094
 30
0.0
  0
VERTEX
  5
917
  8
BACK_LAYER
 10
26.59535503719385
 20
10.36356780221705
 30
0.0
  0
VERTEX
  5
918
  8
BACK_LAYER
 10
26.60933373488284
 20
10.36952474768445
 30
0.0
  0
VERTEX
  5
919
  8
BACK_LAYER
 10
26.62347267559614
 20
10.3751383456019
 30
0.0
  0
VERTEX
  5
91A
  8
BACK_LAYER
 10
26.63776278666718
 20
10.38040723355812
 30
0.0
  0
VERTEX
  5
91B
  8
BACK_LAYER
 10
26.65219499542941
 20
10.38533004914185
 30
0.0
  0
VERTEX
  5
91C
  8
BACK_LAYER
 10
26.66676022921629
 20
10.38990542994183
 30
0.0
  0
VERTEX
  5
91D
  8
BACK_LAYER
 10
26.68144941536125
 20
10.39413201354678
 30
0.0
  0
VERTEX
  5
91E
  8
BACK_LAYER
 10
26.69625348119774
 20
10.39800843754545
 30
0.0
  0
VERTEX
  5
91F
  8
BACK_LAYER
 10
26.71116335405922
 20
10.40153333952657
 30
0.0
  0
VERTEX
  5
920
  8
BACK_LAYER
 10
26.72616996127911
 20
10.40470535707887
 30
0.0
  0
VERTEX
  5
921
  8
BACK_LAYER
 10
26.74126423019088
 20
10.4075231277911
 30
0.0
  0
VERTEX
  5
922
  8
BACK_LAYER
 10
26.75643708812795
 20
10.40998528925199
 30
0.0
  0
VERTEX
  5
923
  8
BACK_LAYER
 10
26.77167946242379
 20
10.41209047905027
 30
0.0
  0
VERTEX
  5
924
  8
BACK_LAYER
 10
26.78698228041184
 20
10.41383733477467
 30
0.0
  0
VERTEX
  5
925
  8
BACK_LAYER
 10
26.80233646942554
 20
10.41522449401394
 30
0.0
  0
VERTEX
  5
926
  8
BACK_LAYER
 10
26.81773295679834
 20
10.41625059435681
 30
0.0
  0
VERTEX
  5
927
  8
BACK_LAYER
 10
26.83316266986368
 20
10.41691427339201
 30
0.0
  0
VERTEX
  5
928
  8
BACK_LAYER
 10
26.84861653595501
 20
10.41721416870828
 30
0.0
  0
VERTEX
  5
929
  8
BACK_LAYER
 10
26.86408548240579
 20
10.41714891789436
 30
0.0
  0
VERTEX
  5
92A
  8
BACK_LAYER
 10
26.87956043654944
 20
10.41671715853897
 30
0.0
  0
VERTEX
  5
92B
  8
BACK_LAYER
 10
26.89503232571942
 20
10.41591752823086
 30
0.0
  0
VERTEX
  5
92C
  8
BACK_LAYER
 10
26.91049207724918
 20
10.41474866455877
 30
0.0
  0
VERTEX
  5
92D
  8
BACK_LAYER
 10
26.92593061847215
 20
10.41320920511142
 30
0.0
  0
VERTEX
  5
92E
  8
BACK_LAYER
 10
26.9413388767218
 20
10.41129778747755
 30
0.0
  0
VERTEX
  5
92F
  8
BACK_LAYER
 10
26.95670777933155
 20
10.40901304924589
 30
0.0
  0
VERTEX
  5
930
  8
BACK_LAYER
 10
26.97202825363487
 20
10.4063536280052
 30
0.0
  0
VERTEX
  5
931
  8
BACK_LAYER
 10
26.98729122696519
 20
10.40331816134418
 30
0.0
  0
VERTEX
  5
932
  8
BACK_LAYER
 10
27.00248762665595
 20
10.3999052868516
 30
0.0
  0
VERTEX
  5
933
  8
BACK_LAYER
 10
27.01760838004061
 20
10.39611364211617
 30
0.0
  0
VERTEX
  5
934
  8
BACK_LAYER
 10
27.03264441445262
 20
10.39194186472663
 30
0.0
  0
VERTEX
  5
935
  8
BACK_LAYER
 10
27.04758665722541
 20
10.38738859227172
 30
0.0
  0
VERTEX
  5
936
  8
BACK_LAYER
 10
27.06242603569244
 20
10.38245246234019
 30
0.0
  0
VERTEX
  5
937
  8
BACK_LAYER
 10
27.07715347718715
 20
10.37713211252075
 30
0.0
  0
VERTEX
  5
938
  8
BACK_LAYER
 10
27.09175990904298
 20
10.37142618040214
 30
0.0
  0
VERTEX
  5
939
  8
BACK_LAYER
 10
27.10623625859339
 20
10.36533330357311
 30
0.0
  0
VERTEX
  5
93A
  8
BACK_LAYER
 10
27.12057345317181
 20
10.35885211962238
 30
0.0
  0
VERTEX
  5
93B
  8
BACK_LAYER
 10
27.13476242011169
 20
10.3519812661387
 30
0.0
  0
VERTEX
  5
93C
  8
BACK_LAYER
 10
27.14879408674649
 20
10.34471938071079
 30
0.0
  0
VERTEX
  5
93D
  8
BACK_LAYER
 10
27.16265938040964
 20
10.3370651009274
 30
0.0
  0
VERTEX
  5
93E
  8
BACK_LAYER
 10
27.17634922843459
 20
10.32901706437725
 30
0.0
  0
VERTEX
  5
93F
  8
BACK_LAYER
 10
27.18985455815479
 20
10.32057390864909
 30
0.0
  0
VERTEX
  5
940
  8
BACK_LAYER
 10
27.20316629690368
 20
10.31173427133164
 30
0.0
  0
VERTEX
  5
941
  8
BACK_LAYER
 10
27.21627537201471
 20
10.30249679001365
 30
0.0
  0
VERTEX
  5
942
  8
BACK_LAYER
 10
27.22917271082132
 20
10.29286010228385
 30
0.0
  0
VERTEX
  5
943
  8
BACK_LAYER
 10
27.73074064024686
 20
9.906415575735604
 30
0.0
  0
VERTEX
  5
944
  8
BACK_LAYER
 10
27.74670330021078
 20
9.894698619306387
 30
0.0
  0
VERTEX
  5
945
  8
BACK_LAYER
 10
27.76313943184308
 20
9.883802203034648
 30
0.0
  0
VERTEX
  5
946
  8
BACK_LAYER
 10
27.7800145043385
 20
9.873724842906709
 30
0.0
  0
VERTEX
  5
947
  8
BACK_LAYER
 10
27.79729398689176
 20
9.864465054908901
 30
0.0
  0
VERTEX
  5
948
  8
BACK_LAYER
 10
27.81494334869756
 20
9.85602135502755
 30
0.0
  0
VERTEX
  5
949
  8
BACK_LAYER
 10
27.83292805895063
 20
9.848392259248982
 30
0.0
  0
VERTEX
  5
94A
  8
BACK_LAYER
 10
27.85121358684567
 20
9.841576283559524
 30
0.0
  0
VERTEX
  5
94B
  8
BACK_LAYER
 10
27.86976540157742
 20
9.835571943945506
 30
0.0
  0
VERTEX
  5
94C
  8
BACK_LAYER
 10
27.88854897234058
 20
9.83037775639325
 30
0.0
  0
VERTEX
  5
94D
  8
BACK_LAYER
 10
27.90752976832987
 20
9.825992236889089
 30
0.0
  0
VERTEX
  5
94E
  8
BACK_LAYER
 10
27.92667325874
 20
9.822413901419342
 30
0.0
  0
VERTEX
  5
94F
  8
BACK_LAYER
 10
27.94594491276571
 20
9.819641265970342
 30
0.0
  0
VERTEX
  5
950
  8
BACK_LAYER
 10
27.96531019960169
 20
9.817672846528412
 30
0.0
  0
VERTEX
  5
951
  8
BACK_LAYER
 10
27.98473458844267
 20
9.816507159079883
 30
0.0
  0
VERTEX
  5
952
  8
BACK_LAYER
 10
28.00418354848336
 20
9.81614271961108
 30
0.0
  0
VERTEX
  5
953
  8
BACK_LAYER
 10
28.02362254891848
 20
9.81657804410833
 30
0.0
  0
VERTEX
  5
954
  8
BACK_LAYER
 10
28.04301705894275
 20
9.817811648557958
 30
0.0
  0
VERTEX
  5
955
  8
BACK_LAYER
 10
28.06233254775088
 20
9.819842048946294
 30
0.0
  0
VERTEX
  5
956
  8
BACK_LAYER
 10
28.0815344845376
 20
9.822667761259662
 30
0.0
  0
VERTEX
  5
957
  8
BACK_LAYER
 10
28.10058833849761
 20
9.82628730148439
 30
0.0
  0
VERTEX
  5
958
  8
BACK_LAYER
 10
28.11945957882563
 20
9.830699185606806
 30
0.0
  0
VERTEX
  5
959
  8
BACK_LAYER
 10
28.13811367471638
 20
9.835901929613236
 30
0.0
  0
VERTEX
  5
95A
  8
BACK_LAYER
 10
28.15651609536458
 20
9.841894049490007
 30
0.0
  0
VERTEX
  5
95B
  8
BACK_LAYER
 10
28.17463230996494
 20
9.848674061223445
 30
0.0
  0
VERTEX
  5
95C
  8
BACK_LAYER
 10
28.19242778771218
 20
9.856240480799878
 30
0.0
  0
VERTEX
  5
95D
  8
BACK_LAYER
 10
28.20986799780102
 20
9.864591824205633
 30
0.0
  0
VERTEX
  5
95E
  8
BACK_LAYER
 10
28.22691840942617
 20
9.873726607427038
 30
0.0
  0
VERTEX
  5
95F
  8
BACK_LAYER
 10
28.24354449178234
 20
9.883643346450416
 30
0.0
  0
VERTEX
  5
960
  8
BACK_LAYER
 10
28.25971171406427
 20
9.894340557262097
 30
0.0
  0
VERTEX
  5
961
  8
BACK_LAYER
 10
28.27538554546665
 20
9.90581675584841
 30
0.0
  0
VERTEX
  5
962
  8
BACK_LAYER
 10
28.29053145518422
 20
9.918070458195675
 30
0.0
  0
VERTEX
  5
963
  8
BACK_LAYER
 10
28.30511491241167
 20
9.931100180290226
 30
0.0
  0
VERTEX
  5
964
  8
BACK_LAYER
 10
28.31688019602543
 20
9.942436473062557
 30
0.0
  0
VERTEX
  5
965
  8
BACK_LAYER
 10
28.3282788531863
 20
9.95400593411756
 30
0.0
  0
VERTEX
  5
966
  8
BACK_LAYER
 10
28.33930804208374
 20
9.965801578548774
 30
0.0
  0
VERTEX
  5
967
  8
BACK_LAYER
 10
28.34996492090721
 20
9.977816421449738
 30
0.0
  0
VERTEX
  5
968
  8
BACK_LAYER
 10
28.36024664784617
 20
9.990043477913988
 30
0.0
  0
VERTEX
  5
969
  8
BACK_LAYER
 10
28.37015038109008
 20
10.00247576303506
 30
0.0
  0
VERTEX
  5
96A
  8
BACK_LAYER
 10
28.3796732788284
 20
10.01510629190649
 30
0.0
  0
VERTEX
  5
96B
  8
BACK_LAYER
 10
28.38881249925057
 20
10.02792807962182
 30
0.0
  0
VERTEX
  5
96C
  8
BACK_LAYER
 10
28.39756520054607
 20
10.04093414127458
 30
0.0
  0
VERTEX
  5
96D
  8
BACK_LAYER
 10
28.40592854090435
 20
10.05411749195832
 30
0.0
  0
VERTEX
  5
96E
  8
BACK_LAYER
 10
28.41389967851486
 20
10.06747114676657
 30
0.0
  0
VERTEX
  5
96F
  8
BACK_LAYER
 10
28.42147577156706
 20
10.08098812079287
 30
0.0
  0
VERTEX
  5
970
  8
BACK_LAYER
 10
28.42865397825042
 20
10.09466142913075
 30
0.0
  0
VERTEX
  5
971
  8
BACK_LAYER
 10
28.43543145675439
 20
10.10848408687376
 30
0.0
  0
VERTEX
  5
972
  8
BACK_LAYER
 10
28.44180536526843
 20
10.12244910911542
 30
0.0
  0
VERTEX
  5
973
  8
BACK_LAYER
 10
28.447772861982
 20
10.13654951094928
 30
0.0
  0
VERTEX
  5
974
  8
BACK_LAYER
 10
28.45333110508454
 20
10.15077830746888
 30
0.0
  0
VERTEX
  5
975
  8
BACK_LAYER
 10
28.45847725276554
 20
10.16512851376774
 30
0.0
  0
VERTEX
  5
976
  8
BACK_LAYER
 10
28.46320846321443
 20
10.17959314493942
 30
0.0
  0
VERTEX
  5
977
  8
BACK_LAYER
 10
28.46752189462068
 20
10.19416521607745
 30
0.0
  0
VERTEX
  5
978
  8
BACK_LAYER
 10
28.47141470517376
 20
10.20883774227535
 30
0.0
  0
VERTEX
  5
979
  8
BACK_LAYER
 10
28.47488405306309
 20
10.22360373862668
 30
0.0
  0
VERTEX
  5
97A
  8
BACK_LAYER
 10
28.47792709647817
 20
10.23845622022497
 30
0.0
  0
VERTEX
  5
97B
  8
BACK_LAYER
 10
28.48054099360843
 20
10.25338820216376
 30
0.0
  0
VERTEX
  5
97C
  8
BACK_LAYER
 10
28.48272290264335
 20
10.26839269953658
 30
0.0
  0
VERTEX
  5
97D
  8
BACK_LAYER
 10
28.48446998177236
 20
10.28346272743697
 30
0.0
  0
VERTEX
  5
97E
  8
BACK_LAYER
 10
28.48577938918495
 20
10.29859130095846
 30
0.0
  0
VERTEX
  5
97F
  8
BACK_LAYER
 10
28.48664828307055
 20
10.31377143519461
 30
0.0
  0
VERTEX
  5
980
  8
BACK_LAYER
 10
28.48707382161864
 20
10.32899614523893
 30
0.0
  0
VERTEX
  5
981
  8
BACK_LAYER
 10
28.48705316301866
 20
10.34425844618498
 30
0.0
  0
VERTEX
  5
982
  8
BACK_LAYER
 10
28.48658346546009
 20
10.35955135312629
 30
0.0
  0
VERTEX
  5
983
  8
BACK_LAYER
 10
28.48566188713236
 20
10.37486788115639
 30
0.0
  0
VERTEX
  5
984
  8
BACK_LAYER
 10
28.47923088771242
 20
10.45458967884776
 30
0.0
  0
VERTEX
  5
985
  8
BACK_LAYER
 10
28.47189343559106
 20
10.5342207829254
 30
0.0
  0
VERTEX
  5
986
  8
BACK_LAYER
 10
28.46365105608002
 20
10.61375536084751
 30
0.0
  0
VERTEX
  5
987
  8
BACK_LAYER
 10
28.45450527449099
 20
10.69318758007227
 30
0.0
  0
VERTEX
  5
988
  8
BACK_LAYER
 10
28.44445761613571
 20
10.77251160805788
 30
0.0
  0
VERTEX
  5
989
  8
BACK_LAYER
 10
28.43350960632589
 20
10.85172161226253
 30
0.0
  0
VERTEX
  5
98A
  8
BACK_LAYER
 10
28.42166277037325
 20
10.93081176014442
 30
0.0
  0
VERTEX
  5
98B
  8
BACK_LAYER
 10
28.40891863358951
 20
11.00977621916173
 30
0.0
  0
VERTEX
  5
98C
  8
BACK_LAYER
 10
28.39527872128638
 20
11.08860915677266
 30
0.0
  0
VERTEX
  5
98D
  8
BACK_LAYER
 10
28.3807445587756
 20
11.16730474043541
 30
0.0
  0
VERTEX
  5
98E
  8
BACK_LAYER
 10
28.36531767136886
 20
11.24585713760817
 30
0.0
  0
VERTEX
  5
98F
  8
BACK_LAYER
 10
28.34899958437791
 20
11.32426051574912
 30
0.0
  0
VERTEX
  5
990
  8
BACK_LAYER
 10
28.33179182311444
 20
11.40250904231646
 30
0.0
  0
VERTEX
  5
991
  8
BACK_LAYER
 10
28.3136959128902
 20
11.48059688476839
 30
0.0
  0
VERTEX
  5
992
  8
BACK_LAYER
 10
28.29471337901688
 20
11.5585182105631
 30
0.0
  0
VERTEX
  5
993
  8
BACK_LAYER
 10
28.27484574680621
 20
11.63626718715878
 30
0.0
  0
VERTEX
  5
994
  8
BACK_LAYER
 10
28.25409454156991
 20
11.71383798201362
 30
0.0
  0
VERTEX
  5
995
  8
BACK_LAYER
 10
28.23246128861969
 20
11.79122476258582
 30
0.0
  0
VERTEX
  5
996
  8
BACK_LAYER
 10
28.20994751326729
 20
11.86842169633357
 30
0.0
  0
VERTEX
  5
997
  8
BACK_LAYER
 10
28.18655474082441
 20
11.94542295071506
 30
0.0
  0
VERTEX
  5
998
  8
BACK_LAYER
 10
28.16228449660277
 20
12.02222269318848
 30
0.0
  0
VERTEX
  5
999
  8
BACK_LAYER
 10
28.1371383059141
 20
12.09881509121204
 30
0.0
  0
VERTEX
  5
99A
  8
BACK_LAYER
 10
28.11111769407011
 20
12.17519431224391
 30
0.0
  0
VERTEX
  5
99B
  8
BACK_LAYER
 10
28.08422418638251
 20
12.2513545237423
 30
0.0
  0
VERTEX
  5
99C
  8
BACK_LAYER
 10
28.05645930816305
 20
12.32728989316539
 30
0.0
  0
VERTEX
  5
99D
  8
BACK_LAYER
 10
28.02782458472341
 20
12.40299458797139
 30
0.0
  0
VERTEX
  5
99E
  8
BACK_LAYER
 10
27.99832154137534
 20
12.47846277561848
 30
0.0
  0
VERTEX
  5
99F
  8
BACK_LAYER
 10
27.96795170343054
 20
12.55368862356485
 30
0.0
  0
VERTEX
  5
9A0
  8
BACK_LAYER
 10
27.93671659620074
 20
12.6286662992687
 30
0.0
  0
VERTEX
  5
9A1
  8
BACK_LAYER
 10
27.90461774499765
 20
12.70338997018822
 30
0.0
  0
VERTEX
  5
9A2
  8
BACK_LAYER
 10
27.871656675133
 20
12.77785380378161
 30
0.0
  0
VERTEX
  5
9A3
  8
BACK_LAYER
 10
27.8378349119185
 20
12.85205196750706
 30
0.0
  0
VERTEX
  5
9A4
  8
BACK_LAYER
 10
27.83299294252271
 20
12.86179217227467
 30
0.0
  0
VERTEX
  5
9A5
  8
BACK_LAYER
 10
27.82764388927339
 20
12.87119370243446
 30
0.0
  0
VERTEX
  5
9A6
  8
BACK_LAYER
 10
27.82180793417431
 20
12.88024942257882
 30
0.0
  0
VERTEX
  5
9A7
  8
BACK_LAYER
 10
27.81550525922924
 20
12.88895219730015
 30
0.0
  0
VERTEX
  5
9A8
  8
BACK_LAYER
 10
27.80875604644195
 20
12.89729489119084
 30
0.0
  0
VERTEX
  5
9A9
  8
BACK_LAYER
 10
27.80158047781622
 20
12.90527036884328
 30
0.0
  0
VERTEX
  5
9AA
  8
BACK_LAYER
 10
27.7939987353558
 20
12.91287149484985
 30
0.0
  0
VERTEX
  5
9AB
  8
BACK_LAYER
 10
27.78603100106449
 20
12.92009113380295
 30
0.0
  0
VERTEX
  5
9AC
  8
BACK_LAYER
 10
27.77769745694604
 20
12.92692215029498
 30
0.0
  0
VERTEX
  5
9AD
  8
BACK_LAYER
 10
27.76901828500422
 20
12.93335740891832
 30
0.0
  0
VERTEX
  5
9AE
  8
BACK_LAYER
 10
27.76001366724282
 20
12.93938977426536
 30
0.0
  0
VERTEX
  5
9AF
  8
BACK_LAYER
 10
27.7507037856656
 20
12.94501211092849
 30
0.0
  0
VERTEX
  5
9B0
  8
BACK_LAYER
 10
27.74110882227632
 20
12.95021728350012
 30
0.0
  0
VERTEX
  5
9B1
  8
BACK_LAYER
 10
27.73124895907878
 20
12.95499815657261
 30
0.0
  0
VERTEX
  5
9B2
  8
BACK_LAYER
 10
27.72114437807672
 20
12.95934759473838
 30
0.0
  0
VERTEX
  5
9B3
  8
BACK_LAYER
 10
27.71081526127393
 20
12.96325846258981
 30
0.0
  0
VERTEX
  5
9B4
  8
BACK_LAYER
 10
27.70028179067417
 20
12.96672362471929
 30
0.0
  0
VERTEX
  5
9B5
  8
BACK_LAYER
 10
27.68956414828122
 20
12.96973594571921
 30
0.0
  0
VERTEX
  5
9B6
  8
BACK_LAYER
 10
27.67868251609886
 20
12.97228829018196
 30
0.0
  0
VERTEX
  5
9B7
  8
BACK_LAYER
 10
27.66765707613084
 20
12.97437352269994
 30
0.0
  0
VERTEX
  5
9B8
  8
BACK_LAYER
 10
27.65650801038094
 20
12.97598450786553
 30
0.0
  0
VERTEX
  5
9B9
  8
BACK_LAYER
 10
27.64525550085293
 20
12.97711411027113
 30
0.0
  0
VERTEX
  5
9BA
  8
BACK_LAYER
 10
27.63391972955059
 20
12.97775519450913
 30
0.0
  0
VERTEX
  5
9BB
  8
BACK_LAYER
 10
27.62252087847769
 20
12.97790062517192
 30
0.0
  0
VERTEX
  5
9BC
  8
BACK_LAYER
 10
27.61107912963799
 20
12.97754326685189
 30
0.0
  0
VERTEX
  5
9BD
  8
BACK_LAYER
 10
27.59961466503526
 20
12.97667598414143
 30
0.0
  0
VERTEX
  5
9BE
  8
BACK_LAYER
 10
27.58814766667328
 20
12.97529164163294
 30
0.0
  0
VERTEX
  5
9BF
  8
BACK_LAYER
 10
27.57669831655583
 20
12.97338310391879
 30
0.0
  0
VERTEX
  5
9C0
  8
BACK_LAYER
 10
27.56528679668666
 20
12.9709432355914
 30
0.0
  0
VERTEX
  5
9C1
  8
BACK_LAYER
 10
27.55393328906955
 20
12.96796490124314
 30
0.0
  0
VERTEX
  5
9C2
  8
BACK_LAYER
 10
27.54265797570828
 20
12.96444096546641
 30
0.0
  0
VERTEX
  5
9C3
  8
BACK_LAYER
 10
27.53148103860661
 20
12.96036429285359
 30
0.0
  0
VERTEX
  5
9C4
  8
BACK_LAYER
 10
27.45975779311173
 20
12.93263035177328
 30
0.0
  0
VERTEX
  5
9C5
  8
BACK_LAYER
 10
27.38775088126192
 20
12.90549634012718
 30
0.0
  0
VERTEX
  5
9C6
  8
BACK_LAYER
 10
27.31546522756922
 20
12.87896380723523
 30
0.0
  0
VERTEX
  5
9C7
  8
BACK_LAYER
 10
27.24290575654567
 20
12.85303430241738
 30
0.0
  0
VERTEX
  5
9C8
  8
BACK_LAYER
 10
27.1700773927033
 20
12.82770937499355
 30
0.0
  0
VERTEX
  5
9C9
  8
BACK_LAYER
 10
27.09698506055414
 20
12.80299057428369
 30
0.0
  0
VERTEX
  5
9CA
  8
BACK_LAYER
 10
27.02363368461021
 20
12.77887944960773
 30
0.0
  0
VERTEX
  5
9CB
  8
BACK_LAYER
 10
26.95002818938356
 20
12.75537755028559
 30
0.0
  0
VERTEX
  5
9CC
  8
BACK_LAYER
 10
26.8761734993862
 20
12.73248642563723
 30
0.0
  0
VERTEX
  5
9CD
  8
BACK_LAYER
 10
26.80207453913018
 20
12.71020762498258
 30
0.0
  0
VERTEX
  5
9CE
  8
BACK_LAYER
 10
26.72773623312753
 20
12.68854269764156
 30
0.0
  0
VERTEX
  5
9CF
  8
BACK_LAYER
 10
26.65316350589027
 20
12.66749319293413
 30
0.0
  0
VERTEX
  5
9D0
  8
BACK_LAYER
 10
26.57836128193044
 20
12.64706066018021
 30
0.0
  0
VERTEX
  5
9D1
  8
BACK_LAYER
 10
26.50333448576006
 20
12.62724664869973
 30
0.0
  0
VERTEX
  5
9D2
  8
BACK_LAYER
 10
26.42808804189119
 20
12.60805270781265
 30
0.0
  0
VERTEX
  5
9D3
  8
BACK_LAYER
 10
26.35262687483582
 20
12.58948038683888
 30
0.0
  0
VERTEX
  5
9D4
  8
BACK_LAYER
 10
26.29552518151901
 20
12.57598507854226
 30
0.0
  0
VERTEX
  5
9D5
  8
BACK_LAYER
 10
26.23828136049802
 20
12.56306183604174
 30
0.0
  0
VERTEX
  5
9D6
  8
BACK_LAYER
 10
26.18090098313524
 20
12.5507110941407
 30
0.0
  0
VERTEX
  5
9D7
  8
BACK_LAYER
 10
26.12338962079303
 20
12.53893328764251
 30
0.0
  0
VERTEX
  5
9D8
  8
BACK_LAYER
 10
26.06575284483381
 20
12.52772885135058
 30
0.0
  0
VERTEX
  5
9D9
  8
BACK_LAYER
 10
26.00799622661994
 20
12.51709822006826
 30
0.0
  0
VERTEX
  5
9DA
  8
BACK_LAYER
 10
25.9501253375138
 20
12.50704182859894
 30
0.0
  0
VERTEX
  5
9DB
  8
BACK_LAYER
 10
25.89214574887779
 20
12.49756011174602
 30
0.0
  0
VERTEX
  5
9DC
  8
BACK_LAYER
 10
25.83406303207428
 20
12.48865350431285
 30
0.0
  0
VERTEX
  5
9DD
  8
BACK_LAYER
 10
25.77588275846566
 20
12.48032244110283
 30
0.0
  0
VERTEX
  5
9DE
  8
BACK_LAYER
 10
25.71761049941431
 20
12.47256735691934
 30
0.0
  0
VERTEX
  5
9DF
  8
BACK_LAYER
 10
25.65925182628261
 20
12.46538868656576
 30
0.0
  0
VERTEX
  5
9E0
  8
BACK_LAYER
 10
25.60081231043294
 20
12.45878686484546
 30
0.0
  0
VERTEX
  5
9E1
  8
BACK_LAYER
 10
25.5422975232277
 20
12.45276232656184
 30
0.0
  0
VERTEX
  5
9E2
  8
BACK_LAYER
 10
25.48371303602926
 20
12.44731550651827
 30
0.0
  0
VERTEX
  5
9E3
  8
BACK_LAYER
 10
25.42506442020001
 20
12.44244683951812
 30
0.0
  0
VERTEX
  5
9E4
  8
BACK_LAYER
 10
25.36635724710232
 20
12.43815676036479
 30
0.0
  0
VERTEX
  5
9E5
  8
BACK_LAYER
 10
25.3075970880986
 20
12.43444570386166
 30
0.0
  0
VERTEX
  5
9E6
  8
BACK_LAYER
 10
25.2487895145512
 20
12.4313141048121
 30
0.0
  0
VERTEX
  5
9E7
  8
BACK_LAYER
 10
25.18994009782252
 20
12.42876239801949
 30
0.0
  0
VERTEX
  5
9E8
  8
BACK_LAYER
 10
25.13105440927495
 20
12.42679101828722
 30
0.0
  0
VERTEX
  5
9E9
  8
BACK_LAYER
 10
25.07213802027086
 20
12.42540040041867
 30
0.0
  0
VERTEX
  5
9EA
  8
BACK_LAYER
 10
25.01319650217265
 20
12.42459097921722
 30
0.0
  0
VERTEX
  5
9EB
  8
BACK_LAYER
 10
24.95423542634268
 20
12.42436318948624
 30
0.0
  0
VERTEX
  5
9EC
  8
BACK_LAYER
 10
24.89526036414335
 20
12.42471746602913
 30
0.0
  0
VERTEX
  5
9ED
  8
BACK_LAYER
 10
24.83627688693703
 20
12.42565424364926
 30
0.0
  0
VERTEX
  5
9EE
  8
BACK_LAYER
 10
24.77729056608612
 20
12.42717395715
 30
0.0
  0
VERTEX
  5
9EF
  8
BACK_LAYER
 10
24.71830697295299
 20
12.42927704133475
 30
0.0
  0
VERTEX
  5
9F0
  8
BACK_LAYER
 10
24.65933167890003
 20
12.43196393100689
 30
0.0
  0
VERTEX
  5
9F1
  8
BACK_LAYER
 10
24.60037025528962
 20
12.43523506096979
 30
0.0
  0
VERTEX
  5
9F2
  8
BACK_LAYER
 10
24.54142827348414
 20
12.43909086602683
 30
0.0
  0
VERTEX
  5
9F3
  8
BACK_LAYER
 10
24.48251130484599
 20
12.4435317809814
 30
0.0
  0
VERTEX
  5
9F4
  8
BACK_LAYER
 10
24.46222096964398
 20
12.44550446432451
 30
0.0
  0
VERTEX
  5
9F5
  8
BACK_LAYER
 10
24.4421462579442
 20
12.44813717323513
 30
0.0
  0
VERTEX
  5
9F6
  8
BACK_LAYER
 10
24.42230314239655
 20
12.45141840703158
 30
0.0
  0
VERTEX
  5
9F7
  8
BACK_LAYER
 10
24.40270759565097
 20
12.45533666503216
 30
0.0
  0
VERTEX
  5
9F8
  8
BACK_LAYER
 10
24.38337559035737
 20
12.45988044655517
 30
0.0
  0
VERTEX
  5
9F9
  8
BACK_LAYER
 10
24.36432309916567
 20
12.46503825091892
 30
0.0
  0
VERTEX
  5
9FA
  8
BACK_LAYER
 10
24.3455660947258
 20
12.47079857744171
 30
0.0
  0
VERTEX
  5
9FB
  8
BACK_LAYER
 10
24.32712054968768
 20
12.47714992544184
 30
0.0
  0
VERTEX
  5
9FC
  8
BACK_LAYER
 10
24.30900243670123
 20
12.48408079423761
 30
0.0
  0
VERTEX
  5
9FD
  8
BACK_LAYER
 10
24.29122772841637
 20
12.49157968314734
 30
0.0
  0
VERTEX
  5
9FE
  8
BACK_LAYER
 10
24.27381239748303
 20
12.49963509148933
 30
0.0
  0
VERTEX
  5
9FF
  8
BACK_LAYER
 10
24.25677241655112
 20
12.50823551858187
 30
0.0
  0
VERTEX
  5
A00
  8
BACK_LAYER
 10
24.24012375827058
 20
12.51736946374328
 30
0.0
  0
VERTEX
  5
A01
  8
BACK_LAYER
 10
24.22388239529131
 20
12.52702542629186
 30
0.0
  0
VERTEX
  5
A02
  8
BACK_LAYER
 10
24.20806430026325
 20
12.53719190554591
 30
0.0
  0
VERTEX
  5
A03
  8
BACK_LAYER
 10
24.19268544583631
 20
12.54785740082373
 30
0.0
  0
VERTEX
  5
A04
  8
BACK_LAYER
 10
24.17776180466042
 20
12.55901041144363
 30
0.0
  0
VERTEX
  5
A05
  8
BACK_LAYER
 10
24.1633093493855
 20
12.57063943672392
 30
0.0
  0
VERTEX
  5
A06
  8
BACK_LAYER
 10
24.14934405266147
 20
12.58273297598289
 30
0.0
  0
VERTEX
  5
A07
  8
BACK_LAYER
 10
24.13588188713825
 20
12.59527952853885
 30
0.0
  0
VERTEX
  5
A08
  8
BACK_LAYER
 10
24.12293882546577
 20
12.60826759371011
 30
0.0
  0
VERTEX
  5
A09
  8
BACK_LAYER
 10
24.11053084029394
 20
12.62168567081496
 30
0.0
  0
VERTEX
  5
A0A
  8
BACK_LAYER
 10
24.09867390427269
 20
12.63552225917172
 30
0.0
  0
VERTEX
  5
A0B
  8
BACK_LAYER
 10
24.08738399005195
 20
12.64976585809869
 30
0.0
  0
VERTEX
  5
A0C
  8
BACK_LAYER
 10
24.07667707028163
 20
12.66440496691416
 30
0.0
  0
VERTEX
  5
A0D
  8
BACK_LAYER
 10
24.06656911761165
 20
12.67942808493645
 30
0.0
  0
VERTEX
  5
A0E
  8
BACK_LAYER
 10
24.05707610469193
 20
12.69482371148386
 30
0.0
  0
VERTEX
  5
A0F
  8
BACK_LAYER
 10
24.04821400417241
 20
12.71058034587469
 30
0.0
  0
VERTEX
  5
A10
  8
BACK_LAYER
 10
24.039998788703
 20
12.72668648742725
 30
0.0
  0
VERTEX
  5
A11
  8
BACK_LAYER
 10
24.03244643093362
 20
12.74313063545983
 30
0.0
  0
VERTEX
  5
A12
  8
BACK_LAYER
 10
24.02557290351419
 20
12.75990128929076
 30
0.0
  0
VERTEX
  5
A13
  8
BACK_LAYER
 10
24.01939417909465
 20
12.77698694823831
 30
0.0
  0
VERTEX
  5
A14
  8
BACK_LAYER
 10
24.01526352836581
 20
12.79029495901599
 30
0.0
  0
VERTEX
  5
A15
  8
BACK_LAYER
 10
24.01184334729229
 20
12.80364262470308
 30
0.0
  0
VERTEX
  5
A16
  8
BACK_LAYER
 10
24.00912502782172
 20
12.81701252980045
 30
0.0
  0
VERTEX
  5
A17
  8
BACK_LAYER
 10
24.00709996190171
 20
12.83038725880899
 30
0.0
  0
VERTEX
  5
A18
  8
BACK_LAYER
 10
24.00575954147991
 20
12.84374939622958
 30
0.0
  0
VERTEX
  5
A19
  8
BACK_LAYER
 10
24.00509515850394
 20
12.8570815265631
 30
0.0
  0
VERTEX
  5
A1A
  8
BACK_LAYER
 10
24.00509820492144
 20
12.87036623431045
 30
0.0
  0
VERTEX
  5
A1B
  8
BACK_LAYER
 10
24.00576007268004
 20
12.8835861039725
 30
0.0
  0
VERTEX
  5
A1C
  8
BACK_LAYER
 10
24.00707215372736
 20
12.89672372005013
 30
0.0
  0
VERTEX
  5
A1D
  8
BACK_LAYER
 10
24.00902584001104
 20
12.90976166704423
 30
0.0
  0
VERTEX
  5
A1E
  8
BACK_LAYER
 10
24.01161252347871
 20
12.92268252945568
 30
0.0
  0
VERTEX
  5
A1F
  8
BACK_LAYER
 10
24.014823596078
 20
12.93546889178536
 30
0.0
  0
VERTEX
  5
A20
  8
BACK_LAYER
 10
24.01865044975653
 20
12.94810333853416
 30
0.0
  0
VERTEX
  5
A21
  8
BACK_LAYER
 10
24.02308447646195
 20
12.96056845420296
 30
0.0
  0
VERTEX
  5
A22
  8
BACK_LAYER
 10
24.02811706814187
 20
12.97284682329264
 30
0.0
  0
VERTEX
  5
A23
  8
BACK_LAYER
 10
24.03373961674394
 20
12.98492103030409
 30
0.0
  0
VERTEX
  5
A24
  8
BACK_LAYER
 10
24.03994351421577
 20
12.99677365973818
 30
0.0
  0
VERTEX
  5
A25
  8
BACK_LAYER
 10
24.04672015250502
 20
13.00838729609581
 30
0.0
  0
VERTEX
  5
A26
  8
BACK_LAYER
 10
24.05406092355929
 20
13.01974452387785
 30
0.0
  0
VERTEX
  5
A27
  8
BACK_LAYER
 10
24.06195721932622
 20
13.03082792758519
 30
0.0
  0
VERTEX
  5
A28
  8
BACK_LAYER
 10
24.07040043175346
 20
13.04162009171871
 30
0.0
  0
VERTEX
  5
A29
  8
BACK_LAYER
 10
24.07938195278861
 20
13.05210360077929
 30
0.0
  0
VERTEX
  5
A2A
  8
BACK_LAYER
 10
24.08889317437932
 20
13.06226103926782
 30
0.0
  0
VERTEX
  5
A2B
  8
BACK_LAYER
 10
24.09892548847321
 20
13.07207499168517
 30
0.0
  0
VERTEX
  5
A2C
  8
BACK_LAYER
 10
24.10947028701792
 20
13.08152804253224
 30
0.0
  0
VERTEX
  5
A2D
  8
BACK_LAYER
 10
24.12051896196108
 20
13.09060277630991
 30
0.0
  0
VERTEX
  5
A2E
  8
BACK_LAYER
 10
24.13206290525032
 20
13.09928177751905
 30
0.0
  0
VERTEX
  5
A2F
  8
BACK_LAYER
 10
24.14409350883326
 20
13.10754763066056
 30
0.0
  0
VERTEX
  5
A30
  8
BACK_LAYER
 10
24.15660216465754
 20
13.11538292023531
 30
0.0
  0
VERTEX
  5
A31
  8
BACK_LAYER
 10
24.16958026467079
 20
13.12277023074419
 30
0.0
  0
VERTEX
  5
A32
  8
BACK_LAYER
 10
24.18301920082065
 20
13.12969214668808
 30
0.0
  0
VERTEX
  5
A33
  8
BACK_LAYER
 10
24.19691036505473
 20
13.13613125256786
 30
0.0
  0
VERTEX
  5
A34
  8
BACK_LAYER
 10
24.22078309917219
 20
13.14694838650623
 30
0.0
  0
VERTEX
  5
A35
  8
BACK_LAYER
 10
24.24426445096082
 20
13.15827899489064
 30
0.0
  0
VERTEX
  5
A36
  8
BACK_LAYER
 10
24.2673459362333
 20
13.17011413150956
 30
0.0
  0
VERTEX
  5
A37
  8
BACK_LAYER
 10
24.2900190708023
 20
13.18244485015146
 30
0.0
  0
VERTEX
  5
A38
  8
BACK_LAYER
 10
24.3122753704805
 20
13.1952622046048
 30
0.0
  0
VERTEX
  5
A39
  8
BACK_LAYER
 10
24.33410635108055
 20
13.20855724865805
 30
0.0
  0
VERTEX
  5
A3A
  8
BACK_LAYER
 10
24.35550352841514
 20
13.22232103609966
 30
0.0
  0
VERTEX
  5
A3B
  8
BACK_LAYER
 10
24.37645841829693
 20
13.23654462071812
 30
0.0
  0
VERTEX
  5
A3C
  8
BACK_LAYER
 10
24.39696253653861
 20
13.25121905630187
 30
0.0
  0
VERTEX
  5
A3D
  8
BACK_LAYER
 10
24.41700739895283
 20
13.26633539663939
 30
0.0
  0
VERTEX
  5
A3E
  8
BACK_LAYER
 10
24.43658452135228
 20
13.28188469551915
 30
0.0
  0
VERTEX
  5
A3F
  8
BACK_LAYER
 10
24.45568541954962
 20
13.2978580067296
 30
0.0
  0
VERTEX
  5
A40
  8
BACK_LAYER
 10
24.47430160935752
 20
13.31424638405922
 30
0.0
  0
VERTEX
  5
A41
  8
BACK_LAYER
 10
24.49242460658867
 20
13.33104088129646
 30
0.0
  0
VERTEX
  5
A42
  8
BACK_LAYER
 10
24.51004592705572
 20
13.34823255222979
 30
0.0
  0
VERTEX
  5
A43
  8
BACK_LAYER
 10
24.52715708657136
 20
13.36581245064769
 30
0.0
  0
VERTEX
  5
A44
  8
BACK_LAYER
 10
24.54374960094825
 20
13.38377163033861
 30
0.0
  0
VERTEX
  5
A45
  8
BACK_LAYER
 10
24.55981498599906
 20
13.40210114509101
 30
0.0
  0
VERTEX
  5
A46
  8
BACK_LAYER
 10
24.57534475753648
 20
13.42079204869337
 30
0.0
  0
VERTEX
  5
A47
  8
BACK_LAYER
 10
24.59033043137316
 20
13.43983539493415
 30
0.0
  0
VERTEX
  5
A48
  8
BACK_LAYER
 10
24.60476352332179
 20
13.45922223760182
 30
0.0
  0
VERTEX
  5
A49
  8
BACK_LAYER
 10
24.61863554919503
 20
13.47894363048483
 30
0.0
  0
VERTEX
  5
A4A
  8
BACK_LAYER
 10
24.63193802480555
 20
13.49899062737165
 30
0.0
  0
VERTEX
  5
A4B
  8
BACK_LAYER
 10
24.64466246596603
 20
13.51935428205076
 30
0.0
  0
VERTEX
  5
A4C
  8
BACK_LAYER
 10
24.65680038848915
 20
13.54002564831061
 30
0.0
  0
VERTEX
  5
A4D
  8
BACK_LAYER
 10
24.66834330818756
 20
13.56099577993968
 30
0.0
  0
VERTEX
  5
A4E
  8
BACK_LAYER
 10
24.67928274087394
 20
13.58225573072642
 30
0.0
  0
VERTEX
  5
A4F
  8
BACK_LAYER
 10
24.68961020236097
 20
13.60379655445929
 30
0.0
  0
VERTEX
  5
A50
  8
BACK_LAYER
 10
24.69931720846132
 20
13.62560930492678
 30
0.0
  0
VERTEX
  5
A51
  8
BACK_LAYER
 10
24.70839527498766
 20
13.64768503591733
 30
0.0
  0
VERTEX
  5
A52
  8
BACK_LAYER
 10
24.71683591775265
 20
13.67001480121943
 30
0.0
  0
VERTEX
  5
A53
  8
BACK_LAYER
 10
24.72463065256898
 20
13.69258965462152
 30
0.0
  0
VERTEX
  5
A54
  8
BACK_LAYER
 10
24.73038656092506
 20
13.71146725715162
 30
0.0
  0
VERTEX
  5
A55
  8
BACK_LAYER
 10
24.73526023710104
 20
13.73041125829668
 30
0.0
  0
VERTEX
  5
A56
  8
BACK_LAYER
 10
24.73925964656502
 20
13.74940163368136
 30
0.0
  0
VERTEX
  5
A57
  8
BACK_LAYER
 10
24.7423927547851
 20
13.76841835893033
 30
0.0
  0
VERTEX
  5
A58
  8
BACK_LAYER
 10
24.74466752722937
 20
13.78744140966825
 30
0.0
  0
VERTEX
  5
A59
  8
BACK_LAYER
 10
24.74609192936592
 20
13.80645076151979
 30
0.0
  0
VERTEX
  5
A5A
  8
BACK_LAYER
 10
24.74667392666287
 20
13.82542639010963
 30
0.0
  0
VERTEX
  5
A5B
  8
BACK_LAYER
 10
24.74642148458828
 20
13.84434827106242
 30
0.0
  0
VERTEX
  5
A5C
  8
BACK_LAYER
 10
24.74534256861026
 20
13.86319638000283
 30
0.0
  0
VERTEX
  5
A5D
  8
BACK_LAYER
 10
24.74344514419691
 20
13.88195069255554
 30
0.0
  0
VERTEX
  5
A5E
  8
BACK_LAYER
 10
24.74073717681632
 20
13.9005911843452
 30
0.0
  0
VERTEX
  5
A5F
  8
BACK_LAYER
 10
24.73722663193659
 20
13.91909783099648
 30
0.0
  0
VERTEX
  5
A60
  8
BACK_LAYER
 10
24.73292147502582
 20
13.93745060813405
 30
0.0
  0
VERTEX
  5
A61
  8
BACK_LAYER
 10
24.72782967155209
 20
13.95562949138258
 30
0.0
  0
VERTEX
  5
A62
  8
BACK_LAYER
 10
24.7219591869835
 20
13.97361445636673
 30
0.0
  0
VERTEX
  5
A63
  8
BACK_LAYER
 10
24.71531798678814
 20
13.99138547871117
 30
0.0
  0
VERTEX
  5
A64
  8
BACK_LAYER
 10
24.70791403643413
 20
14.00892253404058
 30
0.0
  0
VERTEX
  5
A65
  8
BACK_LAYER
 10
24.69975530138953
 20
14.0262055979796
 30
0.0
  0
VERTEX
  5
A66
  8
BACK_LAYER
 10
24.69084974712246
 20
14.04321464615291
 30
0.0
  0
VERTEX
  5
A67
  8
BACK_LAYER
 10
24.68120533910101
 20
14.05992965418518
 30
0.0
  0
VERTEX
  5
A68
  8
BACK_LAYER
 10
24.67083004279328
 20
14.07633059770108
 30
0.0
  0
VERTEX
  5
A69
  8
BACK_LAYER
 10
24.65973182366735
 20
14.09239745232527
 30
0.0
  0
VERTEX
  5
A6A
  8
BACK_LAYER
 10
24.64791864719133
 20
14.10811019368241
 30
0.0
  0
VERTEX
  5
A6B
  8
BACK_LAYER
 10
24.6353984788333
 20
14.12344879739718
 30
0.0
  0
VERTEX
  5
A6C
  8
BACK_LAYER
 10
24.62217928406136
 20
14.13839323909425
 30
0.0
  0
VERTEX
  5
A6D
  8
BACK_LAYER
 10
24.60826902834362
 20
14.15292349439827
 30
0.0
  0
VERTEX
  5
A6E
  8
BACK_LAYER
 10
24.59367567714816
 20
14.16701953893391
 30
0.0
  0
VERTEX
  5
A6F
  8
BACK_LAYER
 10
24.57840719594308
 20
14.18066134832585
 30
0.0
  0
VERTEX
  5
A70
  8
BACK_LAYER
 10
24.56247155019647
 20
14.19382889819875
 30
0.0
  0
VERTEX
  5
A71
  8
BACK_LAYER
 10
24.54587670537643
 20
14.20650216417727
 30
0.0
  0
VERTEX
  5
A72
  8
BACK_LAYER
 10
24.52863062695106
 20
14.21866112188609
 30
0.0
  0
VERTEX
  5
A73
  8
BACK_LAYER
 10
24.51074128038844
 20
14.23028574694986
 30
0.0
  0
VERTEX
  5
A74
  8
BACK_LAYER
 10
24.48143779344625
 20
14.24831255310528
 30
0.0
  0
VERTEX
  5
A75
  8
BACK_LAYER
 10
24.4519172177807
 20
14.26599475129167
 30
0.0
  0
VERTEX
  5
A76
  8
BACK_LAYER
 10
24.42218349443941
 20
14.28333155948245
 30
0.0
  0
VERTEX
  5
A77
  8
BACK_LAYER
 10
24.39224056447
 20
14.30032219565102
 30
0.0
  0
VERTEX
  5
A78
  8
BACK_LAYER
 10
24.36209236892009
 20
14.3169658777708
 30
0.0
  0
VERTEX
  5
A79
  8
BACK_LAYER
 10
24.33174284883731
 20
14.33326182381517
 30
0.0
  0
VERTEX
  5
A7A
  8
BACK_LAYER
 10
24.30119594526927
 20
14.34920925175757
 30
0.0
  0
VERTEX
  5
A7B
  8
BACK_LAYER
 10
24.27045559926361
 20
14.36480737957139
 30
0.0
  0
VERTEX
  5
A7C
  8
BACK_LAYER
 10
24.23952575186794
 20
14.38005542523003
 30
0.0
  0
VERTEX
  5
A7D
  8
BACK_LAYER
 10
24.20841034412989
 20
14.39495260670692
 30
0.0
  0
VERTEX
  5
A7E
  8
BACK_LAYER
 10
24.17711331709708
 20
14.40949814197545
 30
0.0
  0
VERTEX
  5
A7F
  8
BACK_LAYER
 10
24.14563861181713
 20
14.42369124900904
 30
0.0
  0
VERTEX
  5
A80
  8
BACK_LAYER
 10
24.11399016933768
 20
14.43753114578109
 30
0.0
  0
VERTEX
  5
A81
  8
BACK_LAYER
 10
24.08217193070632
 20
14.451017050265
 30
0.0
  0
VERTEX
  5
A82
  8
BACK_LAYER
 10
24.0501878369707
 20
14.46414818043419
 30
0.0
  0
VERTEX
  5
A83
  8
BACK_LAYER
 10
24.01804182917843
 20
14.47692375426207
 30
0.0
  0
VERTEX
  5
A84
  8
BACK_LAYER
 10
23.98573784837714
 20
14.48934298972204
 30
0.0
  0
VERTEX
  5
A85
  8
BACK_LAYER
 10
23.95327983561445
 20
14.5014051047875
 30
0.0
  0
VERTEX
  5
A86
  8
BACK_LAYER
 10
23.92067173193798
 20
14.51310931743188
 30
0.0
  0
VERTEX
  5
A87
  8
BACK_LAYER
 10
23.88791747839536
 20
14.52445484562857
 30
0.0
  0
VERTEX
  5
A88
  8
BACK_LAYER
 10
23.8550210160342
 20
14.53544090735098
 30
0.0
  0
VERTEX
  5
A89
  8
BACK_LAYER
 10
23.82198628590214
 20
14.54606672057252
 30
0.0
  0
VERTEX
  5
A8A
  8
BACK_LAYER
 10
23.78881722904678
 20
14.5563315032666
 30
0.0
  0
VERTEX
  5
A8B
  8
BACK_LAYER
 10
23.75551778651577
 20
14.56623447340662
 30
0.0
  0
VERTEX
  5
A8C
  8
BACK_LAYER
 10
23.72209189935672
 20
14.575774848966
 30
0.0
  0
VERTEX
  5
A8D
  8
BACK_LAYER
 10
23.68854350861725
 20
14.58495184791814
 30
0.0
  0
VERTEX
  5
A8E
  8
BACK_LAYER
 10
23.65487655534498
 20
14.59376468823644
 30
0.0
  0
VERTEX
  5
A8F
  8
BACK_LAYER
 10
23.62109498058754
 20
14.60221258789433
 30
0.0
  0
VERTEX
  5
A90
  8
BACK_LAYER
 10
23.58720272539255
 20
14.61029476486519
 30
0.0
  0
VERTEX
  5
A91
  8
BACK_LAYER
 10
23.55320373080763
 20
14.61801043712245
 30
0.0
  0
VERTEX
  5
A92
  8
BACK_LAYER
 10
23.51910193788041
 20
14.62535882263951
 30
0.0
  0
VERTEX
  5
A93
  8
BACK_LAYER
 10
23.48490128765851
 20
14.63233913938977
 30
0.0
  0
VERTEX
  5
A94
  8
BACK_LAYER
 10
23.45060572118955
 20
14.63895060534664
 30
0.0
  0
VERTEX
  5
A95
  8
BACK_LAYER
 10
23.41621917952116
 20
14.64519243848354
 30
0.0
  0
VERTEX
  5
A96
  8
BACK_LAYER
 10
23.38174560370095
 20
14.65106385677387
 30
0.0
  0
VERTEX
  5
A97
  8
BACK_LAYER
 10
23.34718893477655
 20
14.65656407819104
 30
0.0
  0
VERTEX
  5
A98
  8
BACK_LAYER
 10
23.31255311379559
 20
14.66169232070845
 30
0.0
  0
VERTEX
  5
A99
  8
BACK_LAYER
 10
23.27784208180568
 20
14.66644780229951
 30
0.0
  0
VERTEX
  5
A9A
  8
BACK_LAYER
 10
23.24305977985445
 20
14.67082974093763
 30
0.0
  0
VERTEX
  5
A9B
  8
BACK_LAYER
 10
23.20821014898952
 20
14.67483735459622
 30
0.0
  0
VERTEX
  5
A9C
  8
BACK_LAYER
 10
23.17329713025852
 20
14.67846986124868
 30
0.0
  0
VERTEX
  5
A9D
  8
BACK_LAYER
 10
23.13832466470906
 20
14.68172647886843
 30
0.0
  0
VERTEX
  5
A9E
  8
BACK_LAYER
 10
23.10329669338877
 20
14.68460642542887
 30
0.0
  0
VERTEX
  5
A9F
  8
BACK_LAYER
 10
23.06821715734528
 20
14.68710891890341
 30
0.0
  0
VERTEX
  5
AA0
  8
BACK_LAYER
 10
23.0330899976262
 20
14.68923317726545
 30
0.0
  0
VERTEX
  5
AA1
  8
BACK_LAYER
 10
22.99791915527916
 20
14.69097841848841
 30
0.0
  0
VERTEX
  5
AA2
  8
BACK_LAYER
 10
22.96270857135178
 20
14.69234386054569
 30
0.0
  0
VERTEX
  5
AA3
  8
BACK_LAYER
 10
22.92746218689167
 20
14.69332872141069
 30
0.0
  0
VERTEX
  5
AA4
  8
BACK_LAYER
 10
22.89218394294648
 20
14.69393221905684
 30
0.0
  0
VERTEX
  5
AA5
  8
BACK_LAYER
 10
22.85687778056382
 20
14.69415357145753
 30
0.0
  0
VERTEX
  5
AA6
  8
BACK_LAYER
 10
22.82154764079132
 20
14.69399199658617
 30
0.0
  0
VERTEX
  5
AA7
  8
BACK_LAYER
 10
22.78619746467658
 20
14.69344671241616
 30
0.0
  0
VERTEX
  5
AA8
  8
BACK_LAYER
 10
22.75083119326724
 20
14.69251693692093
 30
0.0
  0
VERTEX
  5
AA9
  8
BACK_LAYER
 10
22.71545276761092
 20
14.69120188807387
 30
0.0
  0
VERTEX
  5
AAA
  8
BACK_LAYER
 10
22.68006612875525
 20
14.68950078384839
 30
0.0
  0
VERTEX
  5
AAB
  8
BACK_LAYER
 10
22.64467521774784
 20
14.68741284221791
 30
0.0
  0
VERTEX
  5
AAC
  8
BACK_LAYER
 10
22.60928397563633
 20
14.68493728115582
 30
0.0
  0
VERTEX
  5
AAD
  8
BACK_LAYER
 10
22.57389634346832
 20
14.68207331863554
 30
0.0
  0
VERTEX
  5
AAE
  8
BACK_LAYER
 10
22.53851626229145
 20
14.67882017263047
 30
0.0
  0
VERTEX
  5
AAF
  8
BACK_LAYER
 10
22.50314767315333
 20
14.67517706111402
 30
0.0
  0
VERTEX
  5
AB0
  8
BACK_LAYER
 10
22.46779451710159
 20
14.6711432020596
 30
0.0
  0
VERTEX
  5
AB1
  8
BACK_LAYER
 10
22.43246073518386
 20
14.66671781344062
 30
0.0
  0
VERTEX
  5
AB2
  8
BACK_LAYER
 10
22.39715026844775
 20
14.66190011323047
 30
0.0
  0
VERTEX
  5
AB3
  8
BACK_LAYER
 10
22.3618670579409
 20
14.65668931940258
 30
0.0
  0
VERTEX
  5
AB4
  8
BACK_LAYER
 10
22.32141289200543
 20
14.64994661795367
 30
0.0
  0
VERTEX
  5
AB5
  8
BACK_LAYER
 10
22.2812630954331
 20
14.64217431912468
 30
0.0
  0
VERTEX
  5
AB6
  8
BACK_LAYER
 10
22.24144194623139
 20
14.6333816228321
 30
0.0
  0
VERTEX
  5
AB7
  8
BACK_LAYER
 10
22.20197372240773
 20
14.62357772899241
 30
0.0
  0
VERTEX
  5
AB8
  8
BACK_LAYER
 10
22.1628827019696
 20
14.6127718375221
 30
0.0
  0
VERTEX
  5
AB9
  8
BACK_LAYER
 10
22.12419316292443
 20
14.60097314833765
 30
0.0
  0
VERTEX
  5
ABA
  8
BACK_LAYER
 10
22.08592938327969
 20
14.58819086135553
 30
0.0
  0
VERTEX
  5
ABB
  8
BACK_LAYER
 10
22.04811564104284
 20
14.57443417649224
 30
0.0
  0
VERTEX
  5
ABC
  8
BACK_LAYER
 10
22.01077621422132
 20
14.55971229366425
 30
0.0
  0
VERTEX
  5
ABD
  8
BACK_LAYER
 10
21.9739353808226
 20
14.54403441278805
 30
0.0
  0
VERTEX
  5
ABE
  8
BACK_LAYER
 10
21.93761741885411
 20
14.52740973378012
 30
0.0
  0
VERTEX
  5
ABF
  8
BACK_LAYER
 10
21.90184660632333
 20
14.50984745655694
 30
0.0
  0
VERTEX
  5
AC0
  8
BACK_LAYER
 10
21.86664722123771
 20
14.49135678103499
 30
0.0
  0
VERTEX
  5
AC1
  8
BACK_LAYER
 10
21.8320435416047
 20
14.47194690713076
 30
0.0
  0
VERTEX
  5
AC2
  8
BACK_LAYER
 10
21.79805984543177
 20
14.45162703476073
 30
0.0
  0
VERTEX
  5
AC3
  8
BACK_LAYER
 10
21.76472041072635
 20
14.43040636384138
 30
0.0
  0
VERTEX
  5
AC4
  8
BACK_LAYER
 10
21.75744765566578
 20
14.42544129057621
 30
0.0
  0
VERTEX
  5
AC5
  8
BACK_LAYER
 10
21.75043388772524
 20
14.4202678573304
 30
0.0
  0
VERTEX
  5
AC6
  8
BACK_LAYER
 10
21.74368215371871
 20
14.41489372650392
 30
0.0
  0
VERTEX
  5
AC7
  8
BACK_LAYER
 10
21.73719550046017
 20
14.40932656049677
 30
0.0
  0
VERTEX
  5
AC8
  8
BACK_LAYER
 10
21.73097697476361
 20
14.40357402170893
 30
0.0
  0
VERTEX
  5
AC9
  8
BACK_LAYER
 10
21.725029623443
 20
14.39764377254038
 30
0.0
  0
VERTEX
  5
ACA
  8
BACK_LAYER
 10
21.71935649331234
 20
14.3915434753911
 30
0.0
  0
VERTEX
  5
ACB
  8
BACK_LAYER
 10
21.71396063118561
 20
14.38528079266108
 30
0.0
  0
VERTEX
  5
ACC
  8
BACK_LAYER
 10
21.70884508387678
 20
14.3788633867503
 30
0.0
  0
VERTEX
  5
ACD
  8
BACK_LAYER
 10
21.70401289819984
 20
14.37229892005874
 30
0.0
  0
VERTEX
  5
ACE
  8
BACK_LAYER
 10
21.69946712096878
 20
14.36559505498639
 30
0.0
  0
VERTEX
  5
ACF
  8
BACK_LAYER
 10
21.69521079899757
 20
14.35875945393324
 30
0.0
  0
VERTEX
  5
AD0
  8
BACK_LAYER
 10
21.69124697910021
 20
14.35179977929926
 30
0.0
  0
VERTEX
  5
AD1
  8
BACK_LAYER
 10
21.68757870809067
 20
14.34472369348443
 30
0.0
  0
VERTEX
  5
AD2
  8
BACK_LAYER
 10
21.68420903278293
 20
14.33753885888875
 30
0.0
  0
VERTEX
  5
AD3
  8
BACK_LAYER
 10
21.68114099999099
 20
14.3302529379122
 30
0.0
  0
VERTEX
  5
AD4
  8
BACK_LAYER
 10
21.67837765652882
 20
14.32287359295476
 30
0.0
  0
VERTEX
  5
AD5
  8
BACK_LAYER
 10
21.6759220492104
 20
14.31540848641641
 30
0.0
  0
VERTEX
  5
AD6
  8
BACK_LAYER
 10
21.67377722484972
 20
14.30786528069713
 30
0.0
  0
VERTEX
  5
AD7
  8
BACK_LAYER
 10
21.67194623026077
 20
14.30025163819692
 30
0.0
  0
VERTEX
  5
AD8
  8
BACK_LAYER
 10
21.67043211225752
 20
14.29257522131575
 30
0.0
  0
VERTEX
  5
AD9
  8
BACK_LAYER
 10
21.66923791765396
 20
14.2848436924536
 30
0.0
  0
VERTEX
  5
ADA
  8
BACK_LAYER
 10
21.66836669326407
 20
14.27706471401047
 30
0.0
  0
VERTEX
  5
ADB
  8
BACK_LAYER
 10
21.66782148590184
 20
14.26924594838633
 30
0.0
  0
VERTEX
  5
ADC
  8
BACK_LAYER
 10
21.66760534238124
 20
14.26139505798117
 30
0.0
  0
VERTEX
  5
ADD
  8
BACK_LAYER
 10
21.66772130951626
 20
14.25351970519498
 30
0.0
  0
VERTEX
  5
ADE
  8
BACK_LAYER
 10
21.66817243412089
 20
14.24562755242772
 30
0.0
  0
VERTEX
  5
ADF
  8
BACK_LAYER
 10
21.6689617630091
 20
14.23772626207939
 30
0.0
  0
VERTEX
  5
AE0
  8
BACK_LAYER
 10
21.67009234299489
 20
14.22982349654998
 30
0.0
  0
VERTEX
  5
AE1
  8
BACK_LAYER
 10
21.67156722089223
 20
14.22192691823946
 30
0.0
  0
VERTEX
  5
AE2
  8
BACK_LAYER
 10
21.6733894435151
 20
14.21404418954782
 30
0.0
  0
VERTEX
  5
AE3
  8
BACK_LAYER
 10
21.6755620576775
 20
14.20618297287505
 30
0.0
  0
VERTEX
  5
AE4
  8
BACK_LAYER
 10
21.68220435908614
 20
14.18478048151968
 30
0.0
  0
VERTEX
  5
AE5
  8
BACK_LAYER
 10
21.68927820095256
 20
14.16351371682027
 30
0.0
  0
VERTEX
  5
AE6
  8
BACK_LAYER
 10
21.69678041398071
 20
14.14238726677202
 30
0.0
  0
VERTEX
  5
AE7
  8
BACK_LAYER
 10
21.70470782887452
 20
14.12140571937014
 30
0.0
  0
VERTEX
  5
AE8
  8
BACK_LAYER
 10
21.71305727633794
 20
14.10057366260985
 30
0.0
  0
VERTEX
  5
AE9
  8
BACK_LAYER
 10
21.72182558707493
 20
14.07989568448633
 30
0.0
  0
VERTEX
  5
AEA
  8
BACK_LAYER
 10
21.73100959178943
 20
14.05937637299481
 30
0.0
  0
VERTEX
  5
AEB
  8
BACK_LAYER
 10
21.74060612118539
 20
14.03902031613047
 30
0.0
  0
VERTEX
  5
AEC
  8
BACK_LAYER
 10
21.75061200596675
 20
14.01883210188854
 30
0.0
  0
VERTEX
  5
AED
  8
BACK_LAYER
 10
21.76102407683747
 20
13.99881631826421
 30
0.0
  0
VERTEX
  5
AEE
  8
BACK_LAYER
 10
21.77183916450149
 20
13.97897755325269
 30
0.0
  0
VERTEX
  5
AEF
  8
BACK_LAYER
 10
21.78305409966277
 20
13.95932039484918
 30
0.0
  0
VERTEX
  5
AF0
  8
BACK_LAYER
 10
21.79466571302524
 20
13.93984943104889
 30
0.0
  0
VERTEX
  5
AF1
  8
BACK_LAYER
 10
21.80667083529285
 20
13.92056924984704
 30
0.0
  0
VERTEX
  5
AF2
  8
BACK_LAYER
 10
21.81906629716956
 20
13.90148443923881
 30
0.0
  0
VERTEX
  5
AF3
  8
BACK_LAYER
 10
21.8318489293593
 20
13.88259958721942
 30
0.0
  0
VERTEX
  5
AF4
  8
BACK_LAYER
 10
21.84501556256604
 20
13.86391928178407
 30
0.0
  0
VERTEX
  5
AF5
  8
BACK_LAYER
 10
21.85856302749371
 20
13.84544811092797
 30
0.0
  0
VERTEX
  5
AF6
  8
BACK_LAYER
 10
21.87248815484627
 20
13.82719066264632
 30
0.0
  0
VERTEX
  5
AF7
  8
BACK_LAYER
 10
21.88678777532765
 20
13.80915152493433
 30
0.0
  0
VERTEX
  5
AF8
  8
BACK_LAYER
 10
21.90145871964182
 20
13.79133528578721
 30
0.0
  0
VERTEX
  5
AF9
  8
BACK_LAYER
 10
21.91649781849272
 20
13.77374653320015
 30
0.0
  0
VERTEX
  5
AFA
  8
BACK_LAYER
 10
21.93190190258429
 20
13.75638985516837
 30
0.0
  0
VERTEX
  5
AFB
  8
BACK_LAYER
 10
21.94766780262048
 20
13.73926983968707
 30
0.0
  0
VERTEX
  5
AFC
  8
BACK_LAYER
 10
21.96379234930524
 20
13.72239107475145
 30
0.0
  0
VERTEX
  5
AFD
  8
BACK_LAYER
 10
21.98027237334252
 20
13.70575814835673
 30
0.0
  0
VERTEX
  5
AFE
  8
BACK_LAYER
 10
21.99710470543627
 20
13.68937564849811
 30
0.0
  0
VERTEX
  5
AFF
  8
BACK_LAYER
 10
22.01428617629043
 20
13.67324816317078
 30
0.0
  0
VERTEX
  5
B00
  8
BACK_LAYER
 10
22.03181361660895
 20
13.65738028036996
 30
0.0
  0
VERTEX
  5
B01
  8
BACK_LAYER
 10
22.04968385709578
 20
13.64177658809086
 30
0.0
  0
VERTEX
  5
B02
  8
BACK_LAYER
 10
22.06789372845487
 20
13.62644167432868
 30
0.0
  0
VERTEX
  5
B03
  8
BACK_LAYER
 10
22.08644006139016
 20
13.61138012707861
 30
0.0
  0
VERTEX
  5
B04
  8
BACK_LAYER
 10
22.12298096678347
 20
13.58163353238756
 30
0.0
  0
VERTEX
  5
B05
  8
BACK_LAYER
 10
22.15879270490456
 20
13.55125731257708
 30
0.0
  0
VERTEX
  5
B06
  8
BACK_LAYER
 10
22.19386555689928
 20
13.52026224891163
 30
0.0
  0
VERTEX
  5
B07
  8
BACK_LAYER
 10
22.22818980391351
 20
13.48865912265565
 30
0.0
  0
VERTEX
  5
B08
  8
BACK_LAYER
 10
22.26175572709307
 20
13.4564587150736
 30
0.0
  0
VERTEX
  5
B09
  8
BACK_LAYER
 10
22.29455360758385
 20
13.42367180742993
 30
0.0
  0
VERTEX
  5
B0A
  8
BACK_LAYER
 10
22.32657372653168
 20
13.39030918098908
 30
0.0
  0
VERTEX
  5
B0B
  8
BACK_LAYER
 10
22.35780636508243
 20
13.35638161701551
 30
0.0
  0
VERTEX
  5
B0C
  8
BACK_LAYER
 10
22.38824180438194
 20
13.32189989677367
 30
0.0
  0
VERTEX
  5
B0D
  8
BACK_LAYER
 10
22.41787032557608
 20
13.28687480152801
 30
0.0
  0
VERTEX
  5
B0E
  8
BACK_LAYER
 10
22.4466822098107
 20
13.25131711254299
 30
0.0
  0
VERTEX
  5
B0F
  8
BACK_LAYER
 10
22.47466773823164
 20
13.21523761108304
 30
0.0
  0
VERTEX
  5
B10
  8
BACK_LAYER
 10
22.50181719198478
 20
13.17864707841262
 30
0.0
  0
VERTEX
  5
B11
  8
BACK_LAYER
 10
22.52812085221596
 20
13.14155629579619
 30
0.0
  0
VERTEX
  5
B12
  8
BACK_LAYER
 10
22.55356900007104
 20
13.10397604449819
 30
0.0
  0
VERTEX
  5
B13
  8
BACK_LAYER
 10
22.57815191669587
 20
13.06591710578307
 30
0.0
  0
VERTEX
  5
B14
  8
BACK_LAYER
 10
22.58497676862196
 20
13.05472181998114
 30
0.0
  0
VERTEX
  5
B15
  8
BACK_LAYER
 10
22.59141746801141
 20
13.04339655784169
 30
0.0
  0
VERTEX
  5
B16
  8
BACK_LAYER
 10
22.59747353123906
 20
13.03194865852671
 30
0.0
  0
VERTEX
  5
B17
  8
BACK_LAYER
 10
22.60314447467971
 20
13.02038546119818
 30
0.0
  0
VERTEX
  5
B18
  8
BACK_LAYER
 10
22.60842981470817
 20
13.0087143050181
 30
0.0
  0
VERTEX
  5
B19
  8
BACK_LAYER
 10
22.61332906769927
 20
12.99694252914844
 30
0.0
  0
VERTEX
  5
B1A
  8
BACK_LAYER
 10
22.6178417500278
 20
12.98507747275119
 30
0.0
  0
VERTEX
  5
B1B
  8
BACK_LAYER
 10
22.62196737806859
 20
12.97312647498833
 30
0.0
  0
VERTEX
  5
B1C
  8
BACK_LAYER
 10
22.62570546819644
 20
12.96109687502185
 30
0.0
  0
VERTEX
  5
B1D
  8
BACK_LAYER
 10
22.62905553678618
 20
12.94899601201373
 30
0.0
  0
VERTEX
  5
B1E
  8
BACK_LAYER
 10
22.6320171002126
 20
12.93683122512597
 30
0.0
  0
VERTEX
  5
B1F
  8
BACK_LAYER
 10
22.63458967485053
 20
12.92460985352054
 30
0.0
  0
VERTEX
  5
B20
  8
BACK_LAYER
 10
22.63677277707479
 20
12.91233923635942
 30
0.0
  0
VERTEX
  5
B21
  8
BACK_LAYER
 10
22.63856592326017
 20
12.90002671280461
 30
0.0
  0
VERTEX
  5
B22
  8
BACK_LAYER
 10
22.6399686297815
 20
12.8876796220181
 30
0.0
  0
VERTEX
  5
B23
  8
BACK_LAYER
 10
22.64098041301358
 20
12.87530530316185
 30
0.0
  0
VERTEX
  5
B24
  8
BACK_LAYER
 10
22.64160078933124
 20
12.86291109539786
 30
0.0
  0
VERTEX
  5
B25
  8
BACK_LAYER
 10
22.64182927510927
 20
12.85050433788811
 30
0.0
  0
VERTEX
  5
B26
  8
BACK_LAYER
 10
22.6416653867225
 20
12.8380923697946
 30
0.0
  0
VERTEX
  5
B27
  8
BACK_LAYER
 10
22.64110864054575
 20
12.82568253027929
 30
0.0
  0
VERTEX
  5
B28
  8
BACK_LAYER
 10
22.64015855295381
 20
12.81328215850419
 30
0.0
  0
VERTEX
  5
B29
  8
BACK_LAYER
 10
22.63881464032151
 20
12.80089859363126
 30
0.0
  0
VERTEX
  5
B2A
  8
BACK_LAYER
 10
22.63707641902365
 20
12.78853917482251
 30
0.0
  0
VERTEX
  5
B2B
  8
BACK_LAYER
 10
22.63494340543506
 20
12.77621124123991
 30
0.0
  0
VERTEX
  5
B2C
  8
BACK_LAYER
 10
22.63241511593054
 20
12.76392213204544
 30
0.0
  0
VERTEX
  5
B2D
  8
BACK_LAYER
 10
22.6294910668849
 20
12.7516791864011
 30
0.0
  0
VERTEX
  5
B2E
  8
BACK_LAYER
 10
22.62617077467297
 20
12.73948974346887
 30
0.0
  0
VERTEX
  5
B2F
  8
BACK_LAYER
 10
22.62245375566955
 20
12.72736114241072
 30
0.0
  0
VERTEX
  5
B30
  8
BACK_LAYER
 10
22.61833952624945
 20
12.71530072238866
 30
0.0
  0
VERTEX
  5
B31
  8
BACK_LAYER
 10
22.61382760278749
 20
12.70331582256466
 30
0.0
  0
VERTEX
  5
B32
  8
BACK_LAYER
 10
22.60891750165848
 20
12.6914137821007
 30
0.0
  0
VERTEX
  5
B33
  8
BACK_LAYER
 10
22.60360873923723
 20
12.67960194015878
 30
0.0
  0
VERTEX
  5
B34
  8
BACK_LAYER
 10
22.59802078835003
 20
12.66814308982523
 30
0.0
  0
VERTEX
  5
B35
  8
BACK_LAYER
 10
22.59207630547875
 20
12.65686824532183
 30
0.0
  0
VERTEX
  5
B36
  8
BACK_LAYER
 10
22.5857817313712
 20
12.64578239432085
 30
0.0
  0
VERTEX
  5
B37
  8
BACK_LAYER
 10
22.5791435067752
 20
12.63489052449458
 30
0.0
  0
VERTEX
  5
B38
  8
BACK_LAYER
 10
22.57216807243858
 20
12.62419762351528
 30
0.0
  0
VERTEX
  5
B39
  8
BACK_LAYER
 10
22.56486186910916
 20
12.61370867905524
 30
0.0
  0
VERTEX
  5
B3A
  8
BACK_LAYER
 10
22.55723133753475
 20
12.60342867878674
 30
0.0
  0
VERTEX
  5
B3B
  8
BACK_LAYER
 10
22.54928291846317
 20
12.59336261038205
 30
0.0
  0
VERTEX
  5
B3C
  8
BACK_LAYER
 10
22.54102305264224
 20
12.58351546151346
 30
0.0
  0
VERTEX
  5
B3D
  8
BACK_LAYER
 10
22.53245818081979
 20
12.57389221985324
 30
0.0
  0
VERTEX
  5
B3E
  8
BACK_LAYER
 10
22.52359474374362
 20
12.56449787307367
 30
0.0
  0
VERTEX
  5
B3F
  8
BACK_LAYER
 10
22.51443918216157
 20
12.55533740884704
 30
0.0
  0
VERTEX
  5
B40
  8
BACK_LAYER
 10
22.50499793682145
 20
12.54641581484562
 30
0.0
  0
VERTEX
  5
B41
  8
BACK_LAYER
 10
22.49527744847107
 20
12.53773807874168
 30
0.0
  0
VERTEX
  5
B42
  8
BACK_LAYER
 10
22.48528415785826
 20
12.52930918820751
 30
0.0
  0
VERTEX
  5
B43
  8
BACK_LAYER
 10
22.47502450573084
 20
12.52113413091539
 30
0.0
  0
VERTEX
  5
B44
  8
BACK_LAYER
 10
22.46450493283663
 20
12.5132178945376
 30
0.0
  0
VERTEX
  5
B45
  8
BACK_LAYER
 10
22.45373187992344
 20
12.5055654667464
 30
0.0
  0
VERTEX
  5
B46
  8
BACK_LAYER
 10
22.4427117877391
 20
12.49818183521409
 30
0.0
  0
VERTEX
  5
B47
  8
BACK_LAYER
 10
22.43145109703142
 20
12.49107198761295
 30
0.0
  0
VERTEX
  5
B48
  8
BACK_LAYER
 10
22.41995624854823
 20
12.48424091161524
 30
0.0
  0
VERTEX
  5
B49
  8
BACK_LAYER
 10
22.40823368303734
 20
12.47769359489325
 30
0.0
  0
VERTEX
  5
B4A
  8
BACK_LAYER
 10
22.39628984124658
 20
12.47143502511926
 30
0.0
  0
VERTEX
  5
B4B
  8
BACK_LAYER
 10
22.38413116392375
 20
12.46547018996555
 30
0.0
  0
VERTEX
  5
B4C
  8
BACK_LAYER
 10
22.37176409181669
 20
12.45980407710439
 30
0.0
  0
VERTEX
  5
B4D
  8
BACK_LAYER
 10
22.35919506567321
 20
12.45444167420807
 30
0.0
  0
VERTEX
  5
B4E
  8
BACK_LAYER
 10
22.34643052624113
 20
12.44938796894886
 30
0.0
  0
VERTEX
  5
B4F
  8
BACK_LAYER
 10
22.33347691426827
 20
12.44464794899904
 30
0.0
  0
VERTEX
  5
B50
  8
BACK_LAYER
 10
22.32034067050246
 20
12.44022660203089
 30
0.0
  0
VERTEX
  5
B51
  8
BACK_LAYER
 10
22.30702823569149
 20
12.43612891571669
 30
0.0
  0
VERTEX
  5
B52
  8
BACK_LAYER
 10
22.29354605058321
 20
12.43235987772873
 30
0.0
  0
VERTEX
  5
B53
  8
BACK_LAYER
 10
22.27990055592542
 20
12.42892447573926
 30
0.0
  0
VERTEX
  5
B54
  8
BACK_LAYER
 10
22.23492107837854
 20
12.41880884690183
 30
0.0
  0
VERTEX
  5
B55
  8
BACK_LAYER
 10
22.18966368784616
 20
12.40980663213271
 30
0.0
  0
VERTEX
  5
B56
  8
BACK_LAYER
 10
22.14415524995662
 20
12.40192146714103
 30
0.0
  0
VERTEX
  5
B57
  8
BACK_LAYER
 10
22.09842263033825
 20
12.39515698763592
 30
0.0
  0
VERTEX
  5
B58
  8
BACK_LAYER
 10
22.05249269461937
 20
12.38951682932651
 30
0.0
  0
VERTEX
  5
B59
  8
BACK_LAYER
 10
22.00639230842833
 20
12.38500462792192
 30
0.0
  0
VERTEX
  5
B5A
  8
BACK_LAYER
 10
21.96014833739345
 20
12.38162401913129
 30
0.0
  0
VERTEX
  5
B5B
  8
BACK_LAYER
 10
21.91378764714307
 20
12.37937863866373
 30
0.0
  0
VERTEX
  5
B5C
  8
BACK_LAYER
 10
21.85137129352755
 20
12.37751069553975
 30
0.0
  0
VERTEX
  5
B5D
  8
BACK_LAYER
 10
21.78895288949094
 20
12.37641573457599
 30
0.0
  0
VERTEX
  5
B5E
  8
BACK_LAYER
 10
21.72654169350135
 20
12.37609317304891
 30
0.0
  0
VERTEX
  5
B5F
  8
BACK_LAYER
 10
21.66414696402692
 20
12.37654242823502
 30
0.0
  0
VERTEX
  5
B60
  8
BACK_LAYER
 10
21.60177795953576
 20
12.37776291741079
 30
0.0
  0
VERTEX
  5
B61
  8
BACK_LAYER
 10
21.53944393849598
 20
12.3797540578527
 30
0.0
  0
VERTEX
  5
B62
  8
BACK_LAYER
 10
21.47715415937571
 20
12.38251526683724
 30
0.0
  0
VERTEX
  5
B63
  8
BACK_LAYER
 10
21.41491788064306
 20
12.38604596164089
 30
0.0
  0
VERTEX
  5
B64
  8
BACK_LAYER
 10
21.35274436076616
 20
12.39034555954013
 30
0.0
  0
VERTEX
  5
B65
  8
BACK_LAYER
 10
21.29064285821313
 20
12.39541347781146
 30
0.0
  0
VERTEX
  5
B66
  8
BACK_LAYER
 10
21.22862263145208
 20
12.40124913373134
 30
0.0
  0
VERTEX
  5
B67
  8
BACK_LAYER
 10
21.16669293895114
 20
12.40785194457627
 30
0.0
  0
VERTEX
  5
B68
  8
BACK_LAYER
 10
21.10486303917842
 20
12.41522132762272
 30
0.0
  0
VERTEX
  5
B69
  8
BACK_LAYER
 10
21.04314219060204
 20
12.42335670014718
 30
0.0
  0
VERTEX
  5
B6A
  8
BACK_LAYER
 10
20.98153965169013
 20
12.43225747942614
 30
0.0
  0
VERTEX
  5
B6B
  8
BACK_LAYER
 10
20.9200646809108
 20
12.44192308273608
 30
0.0
  0
VERTEX
  5
B6C
  8
BACK_LAYER
 10
20.85724065795632
 20
12.45261289953957
 30
0.0
  0
VERTEX
  5
B6D
  8
BACK_LAYER
 10
20.79462045409255
 20
12.46408932851139
 30
0.0
  0
VERTEX
  5
B6E
  8
BACK_LAYER
 10
20.73221349751013
 20
12.47634981794043
 30
0.0
  0
VERTEX
  5
B6F
  8
BACK_LAYER
 10
20.67002921639969
 20
12.48939181611557
 30
0.0
  0
VERTEX
  5
B70
  8
BACK_LAYER
 10
20.60807703895189
 20
12.5032127713257
 30
0.0
  0
VERTEX
  5
B71
  8
BACK_LAYER
 10
20.54636639335735
 20
12.5178101318597
 30
0.0
  0
VERTEX
  5
B72
  8
BACK_LAYER
 10
20.48490670780672
 20
12.53318134600647
 30
0.0
  0
VERTEX
  5
B73
  8
BACK_LAYER
 10
20.42370741049065
 20
12.54932386205488
 30
0.0
  0
VERTEX
  5
B74
  8
BACK_LAYER
 10
20.36277792959976
 20
12.56623512829381
 30
0.0
  0
VERTEX
  5
B75
  8
BACK_LAYER
 10
20.30212769332471
 20
12.58391259301216
 30
0.0
  0
VERTEX
  5
B76
  8
BACK_LAYER
 10
20.24176612985613
 20
12.60235370449881
 30
0.0
  0
VERTEX
  5
B77
  8
BACK_LAYER
 10
20.18170266738467
 20
12.62155591104264
 30
0.0
  0
VERTEX
  5
B78
  8
BACK_LAYER
 10
20.12194673410097
 20
12.64151666093255
 30
0.0
  0
VERTEX
  5
B79
  8
BACK_LAYER
 10
20.06250775819566
 20
12.6622334024574
 30
0.0
  0
VERTEX
  5
B7A
  8
BACK_LAYER
 10
20.00339516785939
 20
12.68370358390609
 30
0.0
  0
VERTEX
  5
B7B
  8
BACK_LAYER
 10
19.94461839128279
 20
12.70592465356751
 30
0.0
  0
VERTEX
  5
B7C
  8
BACK_LAYER
 10
19.88517300544671
 20
12.7285795909727
 30
0.0
  0
VERTEX
  5
B7D
  8
BACK_LAYER
 10
19.82554424314014
 20
12.75077690293768
 30
0.0
  0
VERTEX
  5
B7E
  8
BACK_LAYER
 10
19.76573553030589
 20
12.77251615664874
 30
0.0
  0
VERTEX
  5
B7F
  8
BACK_LAYER
 10
19.70575029288672
 20
12.7937969192922
 30
0.0
  0
VERTEX
  5
B80
  8
BACK_LAYER
 10
19.64559195682542
 20
12.81461875805436
 30
0.0
  0
VERTEX
  5
B81
  8
BACK_LAYER
 10
19.58526394806477
 20
12.83498124012154
 30
0.0
  0
VERTEX
  5
B82
  8
BACK_LAYER
 10
19.52476969254756
 20
12.85488393268002
 30
0.0
  0
VERTEX
  5
B83
  8
BACK_LAYER
 10
19.46411261621655
 20
12.87432640291614
 30
0.0
  0
VERTEX
  5
B84
  8
BACK_LAYER
 10
19.40329614501454
 20
12.89330821801618
 30
0.0
  0
VERTEX
  5
B85
  8
BACK_LAYER
 10
19.34232370488431
 20
12.91182894516645
 30
0.0
  0
VERTEX
  5
B86
  8
BACK_LAYER
 10
19.28119872176863
 20
12.92988815155327
 30
0.0
  0
VERTEX
  5
B87
  8
BACK_LAYER
 10
19.21992462161028
 20
12.94748540436294
 30
0.0
  0
VERTEX
  5
B88
  8
BACK_LAYER
 10
19.15850483035205
 20
12.96462027078176
 30
0.0
  0
VERTEX
  5
B89
  8
BACK_LAYER
 10
19.09694277393672
 20
12.98129231799605
 30
0.0
  0
VERTEX
  5
B8A
  8
BACK_LAYER
 10
19.03524187830707
 20
12.9975011131921
 30
0.0
  0
VERTEX
  5
B8B
  8
BACK_LAYER
 10
18.97340556940588
 20
13.01324622355623
 30
0.0
  0
VERTEX
  5
B8C
  8
BACK_LAYER
 10
18.91143727317592
 20
13.02852721627475
 30
0.0
  0
VERTEX
  5
B8D
  8
BACK_LAYER
 10
18.84934041555999
 20
13.04334365853395
 30
0.0
  0
VERTEX
  5
B8E
  8
BACK_LAYER
 10
18.78711842250086
 20
13.05769511752014
 30
0.0
  0
VERTEX
  5
B8F
  8
BACK_LAYER
 10
18.72477471994132
 20
13.07158116041964
 30
0.0
  0
VERTEX
  5
B90
  8
BACK_LAYER
 10
18.66231273382413
 20
13.08500135441874
 30
0.0
  0
VERTEX
  5
B91
  8
BACK_LAYER
 10
18.59973589009209
 20
13.09795526670376
 30
0.0
  0
VERTEX
  5
B92
  8
BACK_LAYER
 10
18.53704761468798
 20
13.110442464461
 30
0.0
  0
VERTEX
  5
B93
  8
BACK_LAYER
 10
18.47425133355457
 20
13.12246251487677
 30
0.0
  0
VERTEX
  5
B94
  8
BACK_LAYER
 10
18.41135047263465
 20
13.13401498513737
 30
0.0
  0
VERTEX
  5
B95
  8
BACK_LAYER
 10
18.348348457871
 20
13.14509944242912
 30
0.0
  0
VERTEX
  5
B96
  8
BACK_LAYER
 10
18.2852487152064
 20
13.15571545393831
 30
0.0
  0
VERTEX
  5
B97
  8
BACK_LAYER
 10
18.22205467058362
 20
13.16586258685125
 30
0.0
  0
VERTEX
  5
B98
  8
BACK_LAYER
 10
18.15876974994546
 20
13.17554040835426
 30
0.0
  0
VERTEX
  5
B99
  8
BACK_LAYER
 10
18.09539737923469
 20
13.18474848563363
 30
0.0
  0
VERTEX
  5
B9A
  8
BACK_LAYER
 10
18.03194098439409
 20
13.19348638587567
 30
0.0
  0
VERTEX
  5
B9B
  8
BACK_LAYER
 10
17.96840399136645
 20
13.2017536762667
 30
0.0
  0
VERTEX
  5
B9C
  8
BACK_LAYER
 10
17.90478982609454
 20
13.20954992399301
 30
0.0
  0
VERTEX
  5
B9D
  8
BACK_LAYER
 10
17.84110191452115
 20
13.21687469624092
 30
0.0
  0
VERTEX
  5
B9E
  8
BACK_LAYER
 10
17.77734368258905
 20
13.22372756019673
 30
0.0
  0
VERTEX
  5
B9F
  8
BACK_LAYER
 10
17.71351855624103
 20
13.23010808304674
 30
0.0
  0
VERTEX
  5
BA0
  8
BACK_LAYER
 10
17.64962996141986
 20
13.23601583197727
 30
0.0
  0
VERTEX
  5
BA1
  8
BACK_LAYER
 10
17.58568132406834
 20
13.24145037417461
 30
0.0
  0
VERTEX
  5
BA2
  8
BACK_LAYER
 10
17.52167607012924
 20
13.24641127682508
 30
0.0
  0
VERTEX
  5
BA3
  8
BACK_LAYER
 10
17.45761762554533
 20
13.25089810711499
 30
0.0
  0
VERTEX
  5
BA4
  8
BACK_LAYER
 10
17.39350941625941
 20
13.25491043223063
 30
0.0
  0
VERTEX
  5
BA5
  8
BACK_LAYER
 10
17.32935486821425
 20
13.25844781935832
 30
0.0
  0
VERTEX
  5
BA6
  8
BACK_LAYER
 10
17.26515740735263
 20
13.26150983568436
 30
0.0
  0
VERTEX
  5
BA7
  8
BACK_LAYER
 10
17.20092045961734
 20
13.26409604839506
 30
0.0
  0
VERTEX
  5
BA8
  8
BACK_LAYER
 10
17.13664745095115
 20
13.26620602467673
 30
0.0
  0
VERTEX
  5
BA9
  8
BACK_LAYER
 10
17.07234180729685
 20
13.26783933171567
 30
0.0
  0
VERTEX
  5
BAA
  8
BACK_LAYER
 10
17.00800695459721
 20
13.26899553669818
 30
0.0
  0
VERTEX
  5
BAB
  8
BACK_LAYER
 10
16.94364631879503
 20
13.26967420681059
 30
0.0
  0
VERTEX
  5
BAC
  8
BACK_LAYER
 10
16.87926332583307
 20
13.26987490923918
 30
0.0
  0
VERTEX
  5
BAD
  8
BACK_LAYER
 10
16.81486140165412
 20
13.26959721117028
 30
0.0
  0
VERTEX
  5
BAE
  8
BACK_LAYER
 10
16.75044397220096
 20
13.26884067979017
 30
0.0
  0
VERTEX
  5
BAF
  8
BACK_LAYER
 10
16.68601446341637
 20
13.26760488228518
 30
0.0
  0
VERTEX
  5
BB0
  8
BACK_LAYER
 10
16.62157630124313
 20
13.26588938584161
 30
0.0
  0
VERTEX
  5
BB1
  8
BACK_LAYER
 10
16.55713291162403
 20
13.26369375764576
 30
0.0
  0
VERTEX
  5
BB2
  8
BACK_LAYER
 10
16.49268772050184
 20
13.26101756488394
 30
0.0
  0
VERTEX
  5
BB3
  8
BACK_LAYER
 10
16.42824415381935
 20
13.25786037474247
 30
0.0
  0
VERTEX
  5
BB4
  8
BACK_LAYER
 10
16.36380563751933
 20
13.25422175440763
 30
0.0
  0
VERTEX
  5
BB5
  8
BACK_LAYER
 10
16.29937559754457
 20
13.25010127106575
 30
0.0
  0
VERTEX
  5
BB6
  8
BACK_LAYER
 10
16.23495745983784
 20
13.24549849190312
 30
0.0
  0
VERTEX
  5
BB7
  8
BACK_LAYER
 10
16.17055465034193
 20
13.24041298410606
 30
0.0
  0
VERTEX
  5
BB8
  8
BACK_LAYER
 10
16.10617059499963
 20
13.23484431486087
 30
0.0
  0
VERTEX
  5
BB9
  8
BACK_LAYER
 10
16.0418087197537
 20
13.22879205135385
 30
0.0
  0
VERTEX
  5
BBA
  8
BACK_LAYER
 10
15.97747245054693
 20
13.22225576077132
 30
0.0
  0
VERTEX
  5
BBB
  8
BACK_LAYER
 10
15.91316521332211
 20
13.21523501029958
 30
0.0
  0
VERTEX
  5
BBC
  8
BACK_LAYER
 10
15.86673422248267
 20
13.20977794347285
 30
0.0
  0
VERTEX
  5
BBD
  8
BACK_LAYER
 10
15.82037753634511
 20
13.20390608295643
 30
0.0
  0
VERTEX
  5
BBE
  8
BACK_LAYER
 10
15.77409873078741
 20
13.19762009663166
 30
0.0
  0
VERTEX
  5
BBF
  8
BACK_LAYER
 10
15.72790138168757
 20
13.19092065237989
 30
0.0
  0
VERTEX
  5
BC0
  8
BACK_LAYER
 10
15.68178906492358
 20
13.18380841808247
 30
0.0
  0
VERTEX
  5
BC1
  8
BACK_LAYER
 10
15.63576535637344
 20
13.17628406162075
 30
0.0
  0
VERTEX
  5
BC2
  8
BACK_LAYER
 10
15.58983383191513
 20
13.16834825087608
 30
0.0
  0
VERTEX
  5
BC3
  8
BACK_LAYER
 10
15.54399806742665
 20
13.1600016537298
 30
0.0
  0
VERTEX
  5
BC4
  8
BACK_LAYER
 10
15.49826163878599
 20
13.15124493806328
 30
0.0
  0
VERTEX
  5
BC5
  8
BACK_LAYER
 10
15.45262812187114
 20
13.14207877175784
 30
0.0
  0
VERTEX
  5
BC6
  8
BACK_LAYER
 10
15.4071010925601
 20
13.13250382269485
 30
0.0
  0
VERTEX
  5
BC7
  8
BACK_LAYER
 10
15.36168412673085
 20
13.12252075875566
 30
0.0
  0
VERTEX
  5
BC8
  8
BACK_LAYER
 10
15.31638080026139
 20
13.11213024782161
 30
0.0
  0
VERTEX
  5
BC9
  8
BACK_LAYER
 10
15.27119468902971
 20
13.10133295777404
 30
0.0
  0
VERTEX
  5
BCA
  8
BACK_LAYER
 10
15.2261293689138
 20
13.09012955649432
 30
0.0
  0
VERTEX
  5
BCB
  8
BACK_LAYER
 10
15.18118841579166
 20
13.07852071186379
 30
0.0
  0
VERTEX
  5
BCC
  8
BACK_LAYER
 10
15.09056652500995
 20
13.05524866527951
 30
0.0
  0
VERTEX
  5
BCD
  8
BACK_LAYER
 10
14.9996598720793
 20
13.03305756470327
 30
0.0
  0
VERTEX
  5
BCE
  8
BACK_LAYER
 10
14.90848095607523
 20
13.01194826729996
 30
0.0
  0
VERTEX
  5
BCF
  8
BACK_LAYER
 10
14.81704227607324
 20
12.99192163023446
 30
0.0
  0
VERTEX
  5
BD0
  8
BACK_LAYER
 10
14.72535633114886
 20
12.97297851067166
 30
0.0
  0
VERTEX
  5
BD1
  8
BACK_LAYER
 10
14.6334356203776
 20
12.95511976577642
 30
0.0
  0
VERTEX
  5
BD2
  8
BACK_LAYER
 10
14.54129264283497
 20
12.93834625271364
 30
0.0
  0
VERTEX
  5
BD3
  8
BACK_LAYER
 10
14.44893989759649
 20
12.9226588286482
 30
0.0
  0
VERTEX
  5
BD4
  8
BACK_LAYER
 10
14.35638988373767
 20
12.90805835074497
 30
0.0
  0
VERTEX
  5
BD5
  8
BACK_LAYER
 10
14.26365510033403
 20
12.89454567616884
 30
0.0
  0
VERTEX
  5
BD6
  8
BACK_LAYER
 10
14.17074804646109
 20
12.88212166208469
 30
0.0
  0
VERTEX
  5
BD7
  8
BACK_LAYER
 10
14.07768122119434
 20
12.8707871656574
 30
0.0
  0
VERTEX
  5
BD8
  8
BACK_LAYER
 10
13.98446712360932
 20
12.86054304405186
 30
0.0
  0
VERTEX
  5
BD9
  8
BACK_LAYER
 10
13.89111825278154
 20
12.85139015443294
 30
0.0
  0
VERTEX
  5
BDA
  8
BACK_LAYER
 10
13.79764710778651
 20
12.84332935396552
 30
0.0
  0
VERTEX
  5
BDB
  8
BACK_LAYER
 10
13.70406618769975
 20
12.83636149981449
 30
0.0
  0
VERTEX
  5
BDC
  8
BACK_LAYER
 10
13.61038799159676
 20
12.83048744914472
 30
0.0
  0
VERTEX
  5
BDD
  8
BACK_LAYER
 10
13.51662501855307
 20
12.82570805912111
 30
0.0
  0
VERTEX
  5
BDE
  8
BACK_LAYER
 10
13.42278976764419
 20
12.82202418690852
 30
0.0
  0
VERTEX
  5
BDF
  8
BACK_LAYER
 10
13.32889473794563
 20
12.81943668967185
 30
0.0
  0
VERTEX
  5
BE0
  8
BACK_LAYER
 10
13.23495242853291
 20
12.81794642457597
 30
0.0
  0
VERTEX
  5
BE1
  8
BACK_LAYER
 10
13.14097533848154
 20
12.81755424878576
 30
0.0
  0
VERTEX
  5
BE2
  8
BACK_LAYER
 10
13.04697596686704
 20
12.81826101946611
 30
0.0
  0
VERTEX
  5
BE3
  8
BACK_LAYER
 10
12.95296681276493
 20
12.8200675937819
 30
0.0
  0
VERTEX
  5
BE4
  8
BACK_LAYER
 10
12.85896037525071
 20
12.822974828898
 30
0.0
  0
VERTEX
  5
BE5
  8
BACK_LAYER
 10
12.76496915339991
 20
12.82698358197931
 30
0.0
  0
VERTEX
  5
BE6
  8
BACK_LAYER
 10
12.67100564628803
 20
12.83209471019069
 30
0.0
  0
VERTEX
  5
BE7
  8
BACK_LAYER
 10
12.57708235299059
 20
12.83830907069704
 30
0.0
  0
VERTEX
  5
BE8
  8
BACK_LAYER
 10
12.4832117725831
 20
12.84562752066323
 30
0.0
  0
VERTEX
  5
BE9
  8
BACK_LAYER
 10
12.38940640414109
 20
12.85405091725415
 30
0.0
  0
VERTEX
  5
BEA
  8
BACK_LAYER
 10
12.29567874674007
 20
12.86358011763467
 30
0.0
  0
VERTEX
  5
BEB
  8
BACK_LAYER
 10
12.20204129945554
 20
12.87421597896968
 30
0.0
  0
VERTEX
  5
BEC
  8
BACK_LAYER
 10
12.13440179417539
 20
12.88256989908162
 30
0.0
  0
VERTEX
  5
BED
  8
BACK_LAYER
 10
12.06686854680512
 20
12.89144455893792
 30
0.0
  0
VERTEX
  5
BEE
  8
BACK_LAYER
 10
11.99944537246331
 20
12.90083900896417
 30
0.0
  0
VERTEX
  5
BEF
  8
BACK_LAYER
 10
11.93213608626854
 20
12.91075229958598
 30
0.0
  0
VERTEX
  5
BF0
  8
BACK_LAYER
 10
11.8649445033394
 20
12.92118348122895
 30
0.0
  0
VERTEX
  5
BF1
  8
BACK_LAYER
 10
11.79787443879447
 20
12.93213160431868
 30
0.0
  0
VERTEX
  5
BF2
  8
BACK_LAYER
 10
11.73092970775232
 20
12.94359571928076
 30
0.0
  0
VERTEX
  5
BF3
  8
BACK_LAYER
 10
11.66411412533154
 20
12.9555748765408
 30
0.0
  0
VERTEX
  5
BF4
  8
BACK_LAYER
 10
11.5974315066507
 20
12.9680681265244
 30
0.0
  0
VERTEX
  5
BF5
  8
BACK_LAYER
 10
11.5308856668284
 20
12.98107451965715
 30
0.0
  0
VERTEX
  5
BF6
  8
BACK_LAYER
 10
11.46448042098321
 20
12.99459310636465
 30
0.0
  0
VERTEX
  5
BF7
  8
BACK_LAYER
 10
11.39821958423371
 20
13.00862293707251
 30
0.0
  0
VERTEX
  5
BF8
  8
BACK_LAYER
 10
11.33210697169848
 20
13.02316306220633
 30
0.0
  0
VERTEX
  5
BF9
  8
BACK_LAYER
 10
11.2661463984961
 20
13.0382125321917
 30
0.0
  0
VERTEX
  5
BFA
  8
BACK_LAYER
 10
11.20034167974517
 20
13.05377039745422
 30
0.0
  0
VERTEX
  5
BFB
  8
BACK_LAYER
 10
11.13469663056425
 20
13.0698357084195
 30
0.0
  0
VERTEX
  5
BFC
  8
BACK_LAYER
 10
11.06921506607192
 20
13.08640751551313
 30
0.0
  0
VERTEX
  5
BFD
  8
BACK_LAYER
 10
11.00390080138677
 20
13.10348486916071
 30
0.0
  0
VERTEX
  5
BFE
  8
BACK_LAYER
 10
10.93875765162739
 20
13.12106681978785
 30
0.0
  0
VERTEX
  5
BFF
  8
BACK_LAYER
 10
10.87378943191234
 20
13.13915241782014
 30
0.0
  0
VERTEX
  5
C00
  8
BACK_LAYER
 10
10.80899995736022
 20
13.15774071368318
 30
0.0
  0
VERTEX
  5
C01
  8
BACK_LAYER
 10
10.7443930430896
 20
13.17683075780257
 30
0.0
  0
VERTEX
  5
C02
  8
BACK_LAYER
 10
10.67997250421906
 20
13.19642160060391
 30
0.0
  0
VERTEX
  5
C03
  8
BACK_LAYER
 10
10.61574215586719
 20
13.21651229251281
 30
0.0
  0
VERTEX
  5
C04
  8
BACK_LAYER
 10
10.55170581315256
 20
13.23710188395486
 30
0.0
  0
VERTEX
  5
C05
  8
BACK_LAYER
 10
10.48786729119376
 20
13.25818942535566
 30
0.0
  0
VERTEX
  5
C06
  8
BACK_LAYER
 10
10.42423040510937
 20
13.27977396714081
 30
0.0
  0
VERTEX
  5
C07
  8
BACK_LAYER
 10
10.36079897001797
 20
13.3018545597359
 30
0.0
  0
VERTEX
  5
C08
  8
BACK_LAYER
 10
10.29757680103814
 20
13.32443025356655
 30
0.0
  0
VERTEX
  5
C09
  8
BACK_LAYER
 10
10.23456771328846
 20
13.34750009905835
 30
0.0
  0
VERTEX
  5
C0A
  8
BACK_LAYER
 10
10.17177552188751
 20
13.3710631466369
 30
0.0
  0
VERTEX
  5
C0B
  8
BACK_LAYER
 10
10.10920404195388
 20
13.3951184467278
 30
0.0
  0
VERTEX
  5
C0C
  8
BACK_LAYER
 10
10.04558713413158
 20
13.41927786092127
 30
0.0
  0
VERTEX
  5
C0D
  8
BACK_LAYER
 10
9.98156826039582
 20
13.44241281680356
 30
0.0
  0
VERTEX
  5
C0E
  8
BACK_LAYER
 10
9.917163426992893
 20
13.46452141685626
 30
0.0
  0
VERTEX
  5
C0F
  8
BACK_LAYER
 10
9.852388640169107
 20
13.48560176356098
 30
0.0
  0
VERTEX
  5
C10
  8
BACK_LAYER
 10
9.787259906170764
 20
13.50565195939933
 30
0.0
  0
VERTEX
  5
C11
  8
BACK_LAYER
 10
9.721793231244176
 20
13.52467010685292
 30
0.0
  0
VERTEX
  5
C12
  8
BACK_LAYER
 10
9.65600462163564
 20
13.54265430840336
 30
0.0
  0
VERTEX
  5
C13
  8
BACK_LAYER
 10
9.589910083591466
 20
13.55960266653225
 30
0.0
  0
VERTEX
  5
C14
  8
BACK_LAYER
 10
9.523525623357955
 20
13.57551328372119
 30
0.0
  0
VERTEX
  5
C15
  8
BACK_LAYER
 10
9.456867247181417
 20
13.5903842624518
 30
0.0
  0
VERTEX
  5
C16
  8
BACK_LAYER
 10
9.389950961308156
 20
13.60421370520568
 30
0.0
  0
VERTEX
  5
C17
  8
BACK_LAYER
 10
9.32279277198447
 20
13.61699971446444
 30
0.0
  0
VERTEX
  5
C18
  8
BACK_LAYER
 10
9.255408685456674
 20
13.62874039270969
 30
0.0
  0
VERTEX
  5
C19
  8
BACK_LAYER
 10
9.187814707971066
 20
13.63943384242303
 30
0.0
  0
VERTEX
  5
C1A
  8
BACK_LAYER
 10
9.120026845773957
 20
13.64907816608608
 30
0.0
  0
VERTEX
  5
C1B
  8
BACK_LAYER
 10
9.052061105111646
 20
13.65767146618043
 30
0.0
  0
VERTEX
  5
C1C
  8
BACK_LAYER
 10
8.983933492230442
 20
13.6652118451877
 30
0.0
  0
VERTEX
  5
C1D
  8
BACK_LAYER
 10
8.915660013376646
 20
13.67169740558948
 30
0.0
  0
VERTEX
  5
C1E
  8
BACK_LAYER
 10
8.847256674796567
 20
13.6771262498674
 30
0.0
  0
VERTEX
  5
C1F
  8
BACK_LAYER
 10
8.778739482736507
 20
13.68149648050305
 30
0.0
  0
VERTEX
  5
C20
  8
BACK_LAYER
 10
8.710124443442773
 20
13.68480619997805
 30
0.0
  0
VERTEX
  5
C21
  8
BACK_LAYER
 10
8.641427563161669
 20
13.68705351077399
 30
0.0
  0
VERTEX
  5
C22
  8
BACK_LAYER
 10
8.5726648481395
 20
13.6882365153725
 30
0.0
  0
VERTEX
  5
C23
  8
BACK_LAYER
 10
8.503852304622573
 20
13.68835331625516
 30
0.0
  0
VERTEX
  5
C24
  8
BACK_LAYER
 10
8.43500593885719
 20
13.6874020159036
 30
0.0
  0
VERTEX
  5
C25
  8
BACK_LAYER
 10
8.366141757089657
 20
13.68538071679942
 30
0.0
  0
VERTEX
  5
C26
  8
BACK_LAYER
 10
8.29727576556628
 20
13.68228752142422
 30
0.0
  0
VERTEX
  5
C27
  8
BACK_LAYER
 10
8.228423970533363
 20
13.67812053225962
 30
0.0
  0
VERTEX
  5
C28
  8
BACK_LAYER
 10
8.15960237823721
 20
13.67287785178721
 30
0.0
  0
VERTEX
  5
C29
  8
BACK_LAYER
 10
8.090826994924129
 20
13.66655758248861
 30
0.0
  0
VERTEX
  5
C2A
  8
BACK_LAYER
 10
8.022113826840425
 20
13.65915782684542
 30
0.0
  0
VERTEX
  5
C2B
  8
BACK_LAYER
 10
7.953478880232398
 20
13.65067668733926
 30
0.0
  0
VERTEX
  5
C2C
  8
BACK_LAYER
 10
7.928258672804352
 20
13.6468237157318
 30
0.0
  0
VERTEX
  5
C2D
  8
BACK_LAYER
 10
7.903370858241908
 20
13.64195247533308
 30
0.0
  0
VERTEX
  5
C2E
  8
BACK_LAYER
 10
7.878851402017769
 20
13.63608114883722
 30
0.0
  0
VERTEX
  5
C2F
  8
BACK_LAYER
 10
7.854736269604636
 20
13.62922791893831
 30
0.0
  0
VERTEX
  5
C30
  8
BACK_LAYER
 10
7.831061426475212
 20
13.62141096833044
 30
0.0
  0
VERTEX
  5
C31
  8
BACK_LAYER
 10
7.807862838102195
 20
13.61264847970771
 30
0.0
  0
VERTEX
  5
C32
  8
BACK_LAYER
 10
7.785176469958289
 20
13.60295863576422
 30
0.0
  0
VERTEX
  5
C33
  8
BACK_LAYER
 10
7.763038287516196
 20
13.59235961919407
 30
0.0
  0
VERTEX
  5
C34
  8
BACK_LAYER
 10
7.741484256248617
 20
13.58086961269136
 30
0.0
  0
VERTEX
  5
C35
  8
BACK_LAYER
 10
7.720550341628253
 20
13.56850679895017
 30
0.0
  0
VERTEX
  5
C36
  8
BACK_LAYER
 10
7.700272509127807
 20
13.55528936066462
 30
0.0
  0
VERTEX
  5
C37
  8
BACK_LAYER
 10
7.68068672421998
 20
13.5412354805288
 30
0.0
  0
VERTEX
  5
C38
  8
BACK_LAYER
 10
7.661828952377473
 20
13.5263633412368
 30
0.0
  0
VERTEX
  5
C39
  8
BACK_LAYER
 10
7.643735159072989
 20
13.51069112548273
 30
0.0
  0
VERTEX
  5
C3A
  8
BACK_LAYER
 10
7.62644130977923
 20
13.49423701596068
 30
0.0
  0
VERTEX
  5
C3B
  8
BACK_LAYER
 10
7.609983369968895
 20
13.47701919536474
 30
0.0
  0
VERTEX
  5
C3C
  8
BACK_LAYER
 10
7.597107066552815
 20
13.46200887220721
 30
0.0
  0
VERTEX
  5
C3D
  8
BACK_LAYER
 10
7.585317830752856
 20
13.44646108697423
 30
0.0
  0
VERTEX
  5
C3E
  8
BACK_LAYER
 10
7.574626810925094
 20
13.43042078265763
 30
0.0
  0
VERTEX
  5
C3F
  8
BACK_LAYER
 10
7.56504515542561
 20
13.41393290224927
 30
0.0
  0
VERTEX
  5
C40
  8
BACK_LAYER
 10
7.556584012610479
 20
13.39704238874099
 30
0.0
  0
VERTEX
  5
C41
  8
BACK_LAYER
 10
7.549254530835777
 20
13.37979418512462
 30
0.0
  0
VERTEX
  5
C42
  8
BACK_LAYER
 10
7.543067858457583
 20
13.36223323439201
 30
0.0
  0
VERTEX
  5
C43
  8
BACK_LAYER
 10
7.538035143831975
 20
13.344404479535
 30
0.0
  0
VERTEX
  5
C44
  8
BACK_LAYER
 10
7.534167535315031
 20
13.32635286354544
 30
0.0
  0
VERTEX
  5
C45
  8
BACK_LAYER
 10
7.531476181262827
 20
13.30812332941516
 30
0.0
  0
VERTEX
  5
C46
  8
BACK_LAYER
 10
7.52997223003144
 20
13.28976082013601
 30
0.0
  0
VERTEX
  5
C47
  8
BACK_LAYER
 10
7.529669014334827
 20
13.28054374450056
 30
0.0
  0
VERTEX
  5
C48
  8
BACK_LAYER
 10
7.529666829976948
 20
13.27131027869983
 30
0.0
  0
VERTEX
  5
C49
  8
BACK_LAYER
 10
7.529967070502313
 20
13.2620660406078
 30
0.0
  0
VERTEX
  5
C4A
  8
BACK_LAYER
 10
7.53057112945543
 20
13.25281664809846
 30
0.0
  0
VERTEX
  5
C4B
  8
BACK_LAYER
 10
7.53148040038081
 20
13.24356771904578
 30
0.0
  0
VERTEX
  5
C4C
  8
BACK_LAYER
 10
7.532696276822961
 20
13.23432487132374
 30
0.0
  0
VERTEX
  5
C4D
  8
BACK_LAYER
 10
7.534220152326395
 20
13.22509372280633
 30
0.0
  0
VERTEX
  5
C4E
  8
BACK_LAYER
 10
7.536053420435619
 20
13.21587989136753
 30
0.0
  0
VERTEX
  5
C4F
  8
BACK_LAYER
 10
7.538197474695145
 20
13.20668899488131
 30
0.0
  0
VERTEX
  5
C50
  8
BACK_LAYER
 10
7.540653708649483
 20
13.19752665122165
 30
0.0
  0
VERTEX
  5
C51
  8
BACK_LAYER
 10
7.546332064167376
 20
13.17852971742355
 30
0.0
  0
VERTEX
  5
C52
  8
BACK_LAYER
 10
7.552469481129898
 20
13.15968032652398
 30
0.0
  0
VERTEX
  5
C53
  8
BACK_LAYER
 10
7.559061618734146
 20
13.14098414805455
 30
0.0
  0
VERTEX
  5
C54
  8
BACK_LAYER
 10
7.566104136177214
 20
13.12244685154687
 30
0.0
  0
VERTEX
  5
C55
  8
BACK_LAYER
 10
7.573592692656197
 20
13.10407410653257
 30
0.0
  0
VERTEX
  5
C56
  8
BACK_LAYER
 10
7.581522947368192
 20
13.08587158254327
 30
0.0
  0
VERTEX
  5
C57
  8
BACK_LAYER
 10
7.589890559510295
 20
13.06784494911058
 30
0.0
  0
VERTEX
  5
C58
  8
BACK_LAYER
 10
7.598691188279597
 20
13.04999987576612
 30
0.0
  0
VERTEX
  5
C59
  8
BACK_LAYER
 10
7.607920492873196
 20
13.0323420320415
 30
0.0
  0
VERTEX
  5
C5A
  8
BACK_LAYER
 10
7.617574132488188
 20
13.01487708746835
 30
0.0
  0
VERTEX
  5
C5B
  8
BACK_LAYER
 10
7.627647766321667
 20
12.99761071157828
 30
0.0
  0
VERTEX
  5
C5C
  8
BACK_LAYER
 10
7.638137053570729
 20
12.98054857390291
 30
0.0
  0
VERTEX
  5
C5D
  8
BACK_LAYER
 10
7.649037653432468
 20
12.96369634397386
 30
0.0
  0
VERTEX
  5
C5E
  8
BACK_LAYER
 10
7.660345225103981
 20
12.94705969132275
 30
0.0
  0
VERTEX
  5
C5F
  8
BACK_LAYER
 10
7.672055427782363
 20
12.93064428548118
 30
0.0
  0
VERTEX
  5
C60
  8
BACK_LAYER
 10
7.684163920664707
 20
12.91445579598079
 30
0.0
  0
VERTEX
  5
C61
  8
BACK_LAYER
 10
7.696666362948111
 20
12.89849989235318
 30
0.0
  0
VERTEX
  5
C62
  8
BACK_LAYER
 10
7.709558413829669
 20
12.88278224412998
 30
0.0
  0
VERTEX
  5
C63
  8
BACK_LAYER
 10
7.722835732506476
 20
12.8673085208428
 30
0.0
  0
VERTEX
  5
C64
  8
BACK_LAYER
 10
7.736493978175628
 20
12.85208439202327
 30
0.0
  0
VERTEX
  5
C65
  8
BACK_LAYER
 10
7.75052881003422
 20
12.83711552720299
 30
0.0
  0
VERTEX
  5
C66
  8
BACK_LAYER
 10
7.764935887279347
 20
12.82240759591359
 30
0.0
  0
VERTEX
  5
C67
  8
BACK_LAYER
 10
7.779710869108105
 20
12.80796626768668
 30
0.0
  0
VERTEX
  5
C68
  8
BACK_LAYER
 10
7.794849414717589
 20
12.79379721205388
 30
0.0
  0
VERTEX
  5
C69
  8
BACK_LAYER
 10
7.810347183304894
 20
12.77990609854681
 30
0.0
  0
VERTEX
  5
C6A
  8
BACK_LAYER
 10
7.826199834067115
 20
12.76629859669708
 30
0.0
  0
VERTEX
  5
C6B
  8
BACK_LAYER
 10
7.842403026201348
 20
12.75298037603632
 30
0.0
  0
VERTEX
  5
C6C
  8
BACK_LAYER
 10
7.858952418904687
 20
12.73995710609615
 30
0.0
  0
VERTEX
  5
C6D
  8
BACK_LAYER
 10
7.875843671374229
 20
12.72723445640817
 30
0.0
  0
VERTEX
  5
C6E
  8
BACK_LAYER
 10
7.893072442807068
 20
12.714818096504
 30
0.0
  0
VERTEX
  5
C6F
  8
BACK_LAYER
 10
7.910634392400301
 20
12.70271369591527
 30
0.0
  0
VERTEX
  5
C70
  8
BACK_LAYER
 10
7.92852517935102
 20
12.6909269241736
 30
0.0
  0
VERTEX
  5
C71
  8
BACK_LAYER
 10
7.963525660218734
 20
12.66787331927186
 30
0.0
  0
VERTEX
  5
C72
  8
BACK_LAYER
 10
7.997923233820142
 20
12.64418112696108
 30
0.0
  0
VERTEX
  5
C73
  8
BACK_LAYER
 10
8.031707361134021
 20
12.61985997489289
 30
0.0
  0
VERTEX
  5
C74
  8
BACK_LAYER
 10
8.064867503139151
 20
12.59491949071893
 30
0.0
  0
VERTEX
  5
C75
  8
BACK_LAYER
 10
8.097393120814308
 20
12.56936930209082
 30
0.0
  0
VERTEX
  5
C76
  8
BACK_LAYER
 10
8.129273675138275
 20
12.5432190366602
 30
0.0
  0
VERTEX
  5
C77
  8
BACK_LAYER
 10
8.16049862708983
 20
12.51647832207868
 30
0.0
  0
VERTEX
  5
C78
  8
BACK_LAYER
 10
8.19105743764775
 20
12.4891567859979
 30
0.0
  0
VERTEX
  5
C79
  8
BACK_LAYER
 10
8.220939567790815
 20
12.46126405606948
 30
0.0
  0
VERTEX
  5
C7A
  8
BACK_LAYER
 10
8.2501344784978
 20
12.43280975994506
 30
0.0
  0
VERTEX
  5
C7B
  8
BACK_LAYER
 10
8.27863163074749
 20
12.40380352527627
 30
0.0
  0
VERTEX
  5
C7C
  8
BACK_LAYER
 10
8.306420485518661
 20
12.37425497971473
 30
0.0
  0
VERTEX
  5
C7D
  8
BACK_LAYER
 10
8.333490503790092
 20
12.34417375091208
 30
0.0
  0
VERTEX
  5
C7E
  8
BACK_LAYER
 10
8.359831146540559
 20
12.31356946651993
 30
0.0
  0
VERTEX
  5
C7F
  8
BACK_LAYER
 10
8.385431874748845
 20
12.28245175418992
 30
0.0
  0
VERTEX
  5
C80
  8
BACK_LAYER
 10
8.410282149393726
 20
12.25083024157368
 30
0.0
  0
VERTEX
  5
C81
  8
BACK_LAYER
 10
8.419370385058993
 20
12.23867363768944
 30
0.0
  0
VERTEX
  5
C82
  8
BACK_LAYER
 10
8.428094424816724
 20
12.22635294981407
 30
0.0
  0
VERTEX
  5
C83
  8
BACK_LAYER
 10
8.43645279592778
 20
12.2138744654511
 30
0.0
  0
VERTEX
  5
C84
  8
BACK_LAYER
 10
8.444444025653025
 20
12.20124447210407
 30
0.0
  0
VERTEX
  5
C85
  8
BACK_LAYER
 10
8.452066641253321
 20
12.1884692572765
 30
0.0
  0
VERTEX
  5
C86
  8
BACK_LAYER
 10
8.459319169989536
 20
12.17555510847194
 30
0.0
  0
VERTEX
  5
C87
  8
BACK_LAYER
 10
8.466200139122527
 20
12.16250831319392
 30
0.0
  0
VERTEX
  5
C88
  8
BACK_LAYER
 10
8.472708075913165
 20
12.14933515894596
 30
0.0
  0
VERTEX
  5
C89
  8
BACK_LAYER
 10
8.478841507622306
 20
12.13604193323161
 30
0.0
  0
VERTEX
  5
C8A
  8
BACK_LAYER
 10
8.484598961510816
 20
12.1226349235544
 30
0.0
  0
VERTEX
  5
C8B
  8
BACK_LAYER
 10
8.489978964839558
 20
12.10912041741785
 30
0.0
  0
VERTEX
  5
C8C
  8
BACK_LAYER
 10
8.494980044869397
 20
12.09550470232552
 30
0.0
  0
VERTEX
  5
C8D
  8
BACK_LAYER
 10
8.499600728861196
 20
12.08179406578091
 30
0.0
  0
VERTEX
  5
C8E
  8
BACK_LAYER
 10
8.503839544075817
 20
12.06799479528759
 30
0.0
  0
VERTEX
  5
C8F
  8
BACK_LAYER
 10
8.507695017774124
 20
12.05411317834906
 30
0.0
  0
VERTEX
  5
C90
  8
BACK_LAYER
 10
8.51116567721698
 20
12.04015550246888
 30
0.0
  0
VERTEX
  5
C91
  8
BACK_LAYER
 10
8.514250049665248
 20
12.02612805515056
 30
0.0
  0
VERTEX
  5
C92
  8
BACK_LAYER
 10
8.516946662379793
 20
12.01203712389766
 30
0.0
  0
VERTEX
  5
C93
  8
BACK_LAYER
 10
8.519254042621478
 20
11.99788899621369
 30
0.0
  0
VERTEX
  5
C94
  8
BACK_LAYER
 10
8.521170717651163
 20
11.9836899596022
 30
0.0
  0
VERTEX
  5
C95
  8
BACK_LAYER
 10
8.522695214729715
 20
11.96944630156671
 30
0.0
  0
VERTEX
  5
C96
  8
BACK_LAYER
 10
8.523826061117997
 20
11.95516430961076
 30
0.0
  0
VERTEX
  5
C97
  8
BACK_LAYER
 10
8.524561784076873
 20
11.94085027123789
 30
0.0
  0
VERTEX
  5
C98
  8
BACK_LAYER
 10
8.524900910867204
 20
11.92651047395162
 30
0.0
  0
VERTEX
  5
C99
  8
BACK_LAYER
 10
8.524841968749856
 20
11.9121512052555
 30
0.0
  0
VERTEX
  5
C9A
  8
BACK_LAYER
 10
8.52438348498569
 20
11.89777875265305
 30
0.0
  0
VERTEX
  5
C9B
  8
BACK_LAYER
 10
8.523523986835569
 20
11.88339940364781
 30
0.0
  0
VERTEX
  5
C9C
  8
BACK_LAYER
 10
8.522262001560359
 20
11.86901944574331
 30
0.0
  0
VERTEX
  5
C9D
  8
BACK_LAYER
 10
8.520596056420922
 20
11.85464516644308
 30
0.0
  0
VERTEX
  5
C9E
  8
BACK_LAYER
 10
8.518524678678121
 20
11.84028285325067
 30
0.0
  0
VERTEX
  5
C9F
  8
BACK_LAYER
 10
8.516046395592818
 20
11.8259387936696
 30
0.0
  0
VERTEX
  5
CA0
  8
BACK_LAYER
 10
8.513159734425882
 20
11.8116192752034
 30
0.0
  0
VERTEX
  5
CA1
  8
BACK_LAYER
 10
8.510193888919913
 20
11.79887724043999
 30
0.0
  0
VERTEX
  5
CA2
  8
BACK_LAYER
 10
8.506831249431587
 20
11.78625239277814
 30
0.0
  0
VERTEX
  5
CA3
  8
BACK_LAYER
 10
8.503076814878101
 20
11.77375072337966
 30
0.0
  0
VERTEX
  5
CA4
  8
BACK_LAYER
 10
8.498935584176659
 20
11.76137822340638
 30
0.0
  0
VERTEX
  5
CA5
  8
BACK_LAYER
 10
8.494412556244455
 20
11.74914088402011
 30
0.0
  0
VERTEX
  5
CA6
  8
BACK_LAYER
 10
8.489512729998694
 20
11.73704469638266
 30
0.0
  0
VERTEX
  5
CA7
  8
BACK_LAYER
 10
8.48424110435657
 20
11.72509565165585
 30
0.0
  0
VERTEX
  5
CA8
  8
BACK_LAYER
 10
8.478602678235285
 20
11.71329974100149
 30
0.0
  0
VERTEX
  5
CA9
  8
BACK_LAYER
 10
8.472602450552039
 20
11.70166295558141
 30
0.0
  0
VERTEX
  5
CAA
  8
BACK_LAYER
 10
8.46624542022403
 20
11.69019128655741
 30
0.0
  0
VERTEX
  5
CAB
  8
BACK_LAYER
 10
8.45953658616846
 20
11.67889072509132
 30
0.0
  0
VERTEX
  5
CAC
  8
BACK_LAYER
 10
8.452480947302524
 20
11.66776726234494
 30
0.0
  0
VERTEX
  5
CAD
  8
BACK_LAYER
 10
8.445083502543424
 20
11.6568268894801
 30
0.0
  0
VERTEX
  5
CAE
  8
BACK_LAYER
 10
8.43734925080836
 20
11.64607559765861
 30
0.0
  0
VERTEX
  5
CAF
  8
BACK_LAYER
 10
8.429283191014532
 20
11.63551937804228
 30
0.0
  0
VERTEX
  5
CB0
  8
BACK_LAYER
 10
8.420890322079137
 20
11.62516422179294
 30
0.0
  0
VERTEX
  5
CB1
  8
BACK_LAYER
 10
8.412175642919374
 20
11.61501612007239
 30
0.0
  0
VERTEX
  5
CB2
  8
BACK_LAYER
 10
8.403144152452446
 20
11.60508106404246
 30
0.0
  0
VERTEX
  5
CB3
  8
BACK_LAYER
 10
8.39380084959555
 20
11.59536504486496
 30
0.0
  0
VERTEX
  5
CB4
  8
BACK_LAYER
 10
8.384150733265885
 20
11.5858740537017
 30
0.0
  0
VERTEX
  5
CB5
  8
BACK_LAYER
 10
8.37419880238065
 20
11.57661408171451
 30
0.0
  0
VERTEX
  5
CB6
  8
BACK_LAYER
 10
8.36395005585705
 20
11.56759112006519
 30
0.0
  0
VERTEX
  5
CB7
  8
BACK_LAYER
 10
8.353409492612277
 20
11.55881115991556
 30
0.0
  0
VERTEX
  5
CB8
  8
BACK_LAYER
 10
8.342582111563534
 20
11.55028019242744
 30
0.0
  0
VERTEX
  5
CB9
  8
BACK_LAYER
 10
8.331472911628019
 20
11.54200420876264
 30
0.0
  0
VERTEX
  5
CBA
  8
BACK_LAYER
 10
8.320086891722934
 20
11.53398920008298
 30
0.0
  0
VERTEX
  5
CBB
  8
BACK_LAYER
 10
8.308429050765476
 20
11.52624115755028
 30
0.0
  0
VERTEX
  5
CBC
  8
BACK_LAYER
 10
8.296504387672844
 20
11.51876607232636
 30
0.0
  0
VERTEX
  5
CBD
  8
BACK_LAYER
 10
8.284317901362236
 20
11.51156993557301
 30
0.0
  0
VERTEX
  5
CBE
  8
BACK_LAYER
 10
8.271874590750858
 20
11.50465873845208
 30
0.0
  0
VERTEX
  5
CBF
  8
BACK_LAYER
 10
8.259179454755905
 20
11.49803847212536
 30
0.0
  0
VERTEX
  5
CC0
  8
BACK_LAYER
 10
8.246237492294574
 20
11.49171512775467
 30
0.0
  0
VERTEX
  5
CC1
  8
BACK_LAYER
 10
8.217896551143582
 20
11.47874001619031
 30
0.0
  0
VERTEX
  5
CC2
  8
BACK_LAYER
 10
8.18921370490379
 20
11.46643430875904
 30
0.0
  0
VERTEX
  5
CC3
  8
BACK_LAYER
 10
8.160204538746669
 20
11.45480201686944
 30
0.0
  0
VERTEX
  5
CC4
  8
BACK_LAYER
 10
8.130884637843682
 20
11.4438471519301
 30
0.0
  0
VERTEX
  5
CC5
  8
BACK_LAYER
 10
8.101269587366303
 20
11.4335737253496
 30
0.0
  0
VERTEX
  5
CC6
  8
BACK_LAYER
 10
8.071374972485994
 20
11.42398574853652
 30
0.0
  0
VERTEX
  5
CC7
  8
BACK_LAYER
 10
8.041216378374227
 20
11.41508723289943
 30
0.0
  0
VERTEX
  5
CC8
  8
BACK_LAYER
 10
8.010809390202468
 20
11.40688218984692
 30
0.0
  0
VERTEX
  5
CC9
  8
BACK_LAYER
 10
7.980169593142185
 20
11.39937463078758
 30
0.0
  0
VERTEX
  5
CCA
  8
BACK_LAYER
 10
7.949312572364846
 20
11.39256856712997
 30
0.0
  0
VERTEX
  5
CCB
  8
BACK_LAYER
 10
7.918253913041919
 20
11.38646801028269
 30
0.0
  0
VERTEX
  5
CCC
  8
BACK_LAYER
 10
7.88700920034487
 20
11.38107697165431
 30
0.0
  0
VERTEX
  5
CCD
  8
BACK_LAYER
 10
7.85559401944517
 20
11.37639946265342
 30
0.0
  0
VERTEX
  5
CCE
  8
BACK_LAYER
 10
7.824023955514285
 20
11.37243949468859
 30
0.0
  0
VERTEX
  5
CCF
  8
BACK_LAYER
 10
7.792314593723681
 20
11.3692010791684
 30
0.0
  0
VERTEX
  5
CD0
  8
BACK_LAYER
 10
7.76048151924483
 20
11.36668822750145
 30
0.0
  0
VERTEX
  5
CD1
  8
BACK_LAYER
 10
7.703766334476059
 20
11.36322956065564
 30
0.0
  0
VERTEX
  5
CD2
  8
BACK_LAYER
 10
7.647020918534851
 20
11.36049386328753
 30
0.0
  0
VERTEX
  5
CD3
  8
BACK_LAYER
 10
7.590254195141368
 20
11.35848082766854
 30
0.0
  0
VERTEX
  5
CD4
  8
BACK_LAYER
 10
7.533475088015772
 20
11.35719014607011
 30
0.0
  0
VERTEX
  5
CD5
  8
BACK_LAYER
 10
7.476692520878226
 20
11.35662151076368
 30
0.0
  0
VERTEX
  5
CD6
  8
BACK_LAYER
 10
7.419915417448893
 20
11.35677461402069
 30
0.0
  0
VERTEX
  5
CD7
  8
BACK_LAYER
 10
7.363152701447936
 20
11.35764914811257
 30
0.0
  0
VERTEX
  5
CD8
  8
BACK_LAYER
 10
7.306413296595517
 20
11.35924480531077
 30
0.0
  0
VERTEX
  5
CD9
  8
BACK_LAYER
 10
7.2497061266118
 20
11.36156127788673
 30
0.0
  0
VERTEX
  5
CDA
  8
BACK_LAYER
 10
7.193040115216947
 20
11.36459825811187
 30
0.0
  0
VERTEX
  5
CDB
  8
BACK_LAYER
 10
7.136424186131121
 20
11.36835543825764
 30
0.0
  0
VERTEX
  5
CDC
  8
BACK_LAYER
 10
7.079867263074483
 20
11.37283251059547
 30
0.0
  0
VERTEX
  5
CDD
  8
BACK_LAYER
 10
7.0233782697672
 20
11.37802916739681
 30
0.0
  0
VERTEX
  5
CDE
  8
BACK_LAYER
 10
6.96696612992943
 20
11.38394510093309
 30
0.0
  0
VERTEX
  5
CDF
  8
BACK_LAYER
 10
6.910639767281339
 20
11.39058000347575
 30
0.0
  0
VERTEX
  5
CE0
  8
BACK_LAYER
 10
6.854408105543087
 20
11.39793356729623
 30
0.0
  0
VERTEX
  5
CE1
  8
BACK_LAYER
 10
6.791680256449733
 20
11.40708000640818
 30
0.0
  0
VERTEX
  5
CE2
  8
BACK_LAYER
 10
6.729200008396767
 20
11.41726076882313
 30
0.0
  0
VERTEX
  5
CE3
  8
BACK_LAYER
 10
6.666983580434962
 20
11.42847135050233
 30
0.0
  0
VERTEX
  5
CE4
  8
BACK_LAYER
 10
6.605047191615094
 20
11.44070724740706
 30
0.0
  0
VERTEX
  5
CE5
  8
BACK_LAYER
 10
6.543407060987935
 20
11.45396395549859
 30
0.0
  0
VERTEX
  5
CE6
  8
BACK_LAYER
 10
6.482079407604258
 20
11.4682369707382
 30
0.0
  0
VERTEX
  5
CE7
  8
BACK_LAYER
 10
6.42108045051484
 20
11.48352178908715
 30
0.0
  0
VERTEX
  5
CE8
  8
BACK_LAYER
 10
6.360426408770453
 20
11.49981390650672
 30
0.0
  0
VERTEX
  5
CE9
  8
BACK_LAYER
 10
6.30013350142187
 20
11.51710881895818
 30
0.0
  0
VERTEX
  5
CEA
  8
BACK_LAYER
 10
6.240217947519866
 20
11.5354020224028
 30
0.0
  0
VERTEX
  5
CEB
  8
BACK_LAYER
 10
6.180695966115216
 20
11.55468901280185
 30
0.0
  0
VERTEX
  5
CEC
  8
BACK_LAYER
 10
6.121583776258693
 20
11.5749652861166
 30
0.0
  0
VERTEX
  5
CED
  8
BACK_LAYER
 10
6.062897597001071
 20
11.59622633830832
 30
0.0
  0
VERTEX
  5
CEE
  8
BACK_LAYER
 10
6.004653647393124
 20
11.61846766533829
 30
0.0
  0
VERTEX
  5
CEF
  8
BACK_LAYER
 10
5.946868146485627
 20
11.64168476316777
 30
0.0
  0
VERTEX
  5
CF0
  8
BACK_LAYER
 10
5.889557313329352
 20
11.66587312775804
 30
0.0
  0
VERTEX
  5
CF1
  8
BACK_LAYER
 10
5.869794168511586
 20
11.67470897817769
 30
0.0
  0
VERTEX
  5
CF2
  8
BACK_LAYER
 10
5.850433631194607
 20
11.68394875207787
 30
0.0
  0
VERTEX
  5
CF3
  8
BACK_LAYER
 10
5.831478654888505
 20
11.6935834569509
 30
0.0
  0
VERTEX
  5
CF4
  8
BACK_LAYER
 10
5.812932193103366
 20
11.70360410028911
 30
0.0
  0
VERTEX
  5
CF5
  8
BACK_LAYER
 10
5.794797199349283
 20
11.7140016895848
 30
0.0
  0
VERTEX
  5
CF6
  8
BACK_LAYER
 10
5.777076627136346
 20
11.72476723233029
 30
0.0
  0
VERTEX
  5
CF7
  8
BACK_LAYER
 10
5.759773429974642
 20
11.73589173601791
 30
0.0
  0
VERTEX
  5
CF8
  8
BACK_LAYER
 10
5.742890561374261
 20
11.74736620813995
 30
0.0
  0
VERTEX
  5
CF9
  8
BACK_LAYER
 10
5.726430974845294
 20
11.75918165618875
 30
0.0
  0
VERTEX
  5
CFA
  8
BACK_LAYER
 10
5.71039762389783
 20
11.77132908765662
 30
0.0
  0
VERTEX
  5
CFB
  8
BACK_LAYER
 10
5.694793462041959
 20
11.78379951003586
 30
0.0
  0
VERTEX
  5
CFC
  8
BACK_LAYER
 10
5.679621442787772
 20
11.79658393081881
 30
0.0
  0
VERTEX
  5
CFD
  8
BACK_LAYER
 10
5.664884519645356
 20
11.80967335749776
 30
0.0
  0
VERTEX
  5
CFE
  8
BACK_LAYER
 10
5.650585646124801
 20
11.82305879756505
 30
0.0
  0
VERTEX
  5
CFF
  8
BACK_LAYER
 10
5.636727775736198
 20
11.83673125851299
 30
0.0
  0
VERTEX
  5
D00
  8
BACK_LAYER
 10
5.623313861989637
 20
11.85068174783388
 30
0.0
  0
VERTEX
  5
D01
  8
BACK_LAYER
 10
5.610346858395205
 20
11.86490127302006
 30
0.0
  0
VERTEX
  5
D02
  8
BACK_LAYER
 10
5.597829718462993
 20
11.87938084156382
 30
0.0
  0
VERTEX
  5
D03
  8
BACK_LAYER
 10
5.585765395703092
 20
11.8941114609575
 30
0.0
  0
VERTEX
  5
D04
  8
BACK_LAYER
 10
5.574156843625589
 20
11.9090841386934
 30
0.0
  0
VERTEX
  5
D05
  8
BACK_LAYER
 10
5.563007015740576
 20
11.92428988226384
 30
0.0
  0
VERTEX
  5
D06
  8
BACK_LAYER
 10
5.552318865558141
 20
11.93971969916114
 30
0.0
  0
VERTEX
  5
D07
  8
BACK_LAYER
 10
5.542095346588375
 20
11.95536459687762
 30
0.0
  0
VERTEX
  5
D08
  8
BACK_LAYER
 10
5.532339412341367
 20
11.97121558290558
 30
0.0
  0
VERTEX
  5
D09
  8
BACK_LAYER
 10
5.523054016327206
 20
11.98726366473735
 30
0.0
  0
VERTEX
  5
D0A
  8
BACK_LAYER
 10
5.514242112055983
 20
12.00349984986524
 30
0.0
  0
VERTEX
  5
D0B
  8
BACK_LAYER
 10
5.505906653037787
 20
12.01991514578156
 30
0.0
  0
VERTEX
  5
D0C
  8
BACK_LAYER
 10
5.498050592782707
 20
12.03650055997864
 30
0.0
  0
VERTEX
  5
D0D
  8
BACK_LAYER
 10
5.490676884800832
 20
12.05324709994879
 30
0.0
  0
VERTEX
  5
D0E
  8
BACK_LAYER
 10
5.483788482602256
 20
12.07014577318432
 30
0.0
  0
VERTEX
  5
D0F
  8
BACK_LAYER
 10
5.477388339697063
 20
12.08718758717755
 30
0.0
  0
VERTEX
  5
D10
  8
BACK_LAYER
 10
5.471479409595345
 20
12.1043635494208
 30
0.0
  0
VERTEX
  5
D11
  8
BACK_LAYER
 10
5.466064645807191
 20
12.12166466740638
 30
0.0
  0
VERTEX
  5
D12
  8
BACK_LAYER
 10
5.461147001842693
 20
12.13908194862661
 30
0.0
  0
VERTEX
  5
D13
  8
BACK_LAYER
 10
5.456729431211938
 20
12.1566064005738
 30
0.0
  0
VERTEX
  5
D14
  8
BACK_LAYER
 10
5.452814887425017
 20
12.17422903074028
 30
0.0
  0
VERTEX
  5
D15
  8
BACK_LAYER
 10
5.449406323992018
 20
12.19194084661835
 30
0.0
  0
VERTEX
  5
D16
  8
BACK_LAYER
 10
5.446506694423032
 20
12.20973285570033
 30
0.0
  0
VERTEX
  5
D17
  8
BACK_LAYER
 10
5.444118952228149
 20
12.22759606547854
 30
0.0
  0
VERTEX
  5
D18
  8
BACK_LAYER
 10
5.442246050917459
 20
12.2455214834453
 30
0.0
  0
VERTEX
  5
D19
  8
BACK_LAYER
 10
5.440890944001049
 20
12.26350011709291
 30
0.0
  0
VERTEX
  5
D1A
  8
BACK_LAYER
 10
5.440056584989012
 20
12.2815229739137
 30
0.0
  0
VERTEX
  5
D1B
  8
BACK_LAYER
 10
5.439745927391434
 20
12.29958106139998
 30
0.0
  0
VERTEX
  5
D1C
  8
BACK_LAYER
 10
5.439961924718407
 20
12.31766538704407
 30
0.0
  0
VERTEX
  5
D1D
  8
BACK_LAYER
 10
5.440707530480021
 20
12.33576695833828
 30
0.0
  0
VERTEX
  5
D1E
  8
BACK_LAYER
 10
5.441985698186365
 20
12.35387678277493
 30
0.0
  0
VERTEX
  5
D1F
  8
BACK_LAYER
 10
5.443799381347527
 20
12.37198586784634
 30
0.0
  0
VERTEX
  5
D20
  8
BACK_LAYER
 10
5.446151533473598
 20
12.39008522104482
 30
0.0
  0
VERTEX
  5
D21
  8
BACK_LAYER
 10
5.449045108074669
 20
12.40816584986268
 30
0.0
  0
VERTEX
  5
D22
  8
BACK_LAYER
 10
5.452483058660827
 20
12.42621876179225
 30
0.0
  0
VERTEX
  5
D23
  8
BACK_LAYER
 10
5.456468338742165
 20
12.44423496432584
 30
0.0
  0
VERTEX
  5
D24
  8
BACK_LAYER
 10
5.46100390182877
 20
12.46220546495576
 30
0.0
  0
VERTEX
  5
D25
  8
BACK_LAYER
 10
5.466092701430731
 20
12.48012127117434
 30
0.0
  0
VERTEX
  5
D26
  8
BACK_LAYER
 10
5.47173769105814
 20
12.49797339047388
 30
0.0
  0
VERTEX
  5
D27
  8
BACK_LAYER
 10
5.477941824221084
 20
12.5157528303467
 30
0.0
  0
VERTEX
  5
D28
  8
BACK_LAYER
 10
5.484708054429655
 20
12.53345059828512
 30
0.0
  0
VERTEX
  5
D29
  8
BACK_LAYER
 10
5.492039335193942
 20
12.55105770178146
 30
0.0
  0
VERTEX
  5
D2A
  8
BACK_LAYER
 10
5.499938620024035
 20
12.56856514832802
 30
0.0
  0
VERTEX
  5
D2B
  8
BACK_LAYER
 10
5.508408862430022
 20
12.58596394541714
 30
0.0
  0
VERTEX
  5
D2C
  8
BACK_LAYER
 10
5.517453015921993
 20
12.60324510054111
 30
0.0
  0
VERTEX
  5
D2D
  8
BACK_LAYER
 10
5.527074034010039
 20
12.62039962119227
 30
0.0
  0
VERTEX
  5
D2E
  8
BACK_LAYER
 10
5.537274870204248
 20
12.63741851486292
 30
0.0
  0
VERTEX
  5
D2F
  8
BACK_LAYER
 10
5.548058478014712
 20
12.65429278904537
 30
0.0
  0
VERTEX
  5
D30
  8
BACK_LAYER
 10
5.559427810951519
 20
12.67101345123196
 30
0.0
  0
VERTEX
  5
D31
  8
BACK_LAYER
 10
5.580432849471491
 20
12.70020113982204
 30
0.0
  0
VERTEX
  5
D32
  8
BACK_LAYER
 10
5.602199167754236
 20
12.72891448274651
 30
0.0
  0
VERTEX
  5
D33
  8
BACK_LAYER
 10
5.624715622572401
 20
12.75714278916234
 30
0.0
  0
VERTEX
  5
D34
  8
BACK_LAYER
 10
5.647971070698631
 20
12.7848753682265
 30
0.0
  0
VERTEX
  5
D35
  8
BACK_LAYER
 10
5.671954368905573
 20
12.81210152909597
 30
0.0
  0
VERTEX
  5
D36
  8
BACK_LAYER
 10
5.696654373965874
 20
12.83881058092772
 30
0.0
  0
VERTEX
  5
D37
  8
BACK_LAYER
 10
5.722059942652177
 20
12.86499183287873
 30
0.0
  0
VERTEX
  5
D38
  8
BACK_LAYER
 10
5.748159931737129
 20
12.89063459410596
 30
0.0
  0
VERTEX
  5
D39
  8
BACK_LAYER
 10
5.774943197993378
 20
12.91572817376638
 30
0.0
  0
VERTEX
  5
D3A
  8
BACK_LAYER
 10
5.802398598193568
 20
12.94026188101698
 30
0.0
  0
VERTEX
  5
D3B
  8
BACK_LAYER
 10
5.830514989110346
 20
12.96422502501472
 30
0.0
  0
VERTEX
  5
D3C
  8
BACK_LAYER
 10
5.859281227516357
 20
12.98760691491658
 30
0.0
  0
VERTEX
  5
D3D
  8
BACK_LAYER
 10
5.888686170184248
 20
13.01039685987953
 30
0.0
  0
VERTEX
  5
D3E
  8
BACK_LAYER
 10
5.918718673886664
 20
13.03258416906054
 30
0.0
  0
VERTEX
  5
D3F
  8
BACK_LAYER
 10
5.949367595396253
 20
13.05415815161658
 30
0.0
  0
VERTEX
  5
D40
  8
BACK_LAYER
 10
5.980621791485659
 20
13.07510811670463
 30
0.0
  0
VERTEX
  5
D41
  8
BACK_LAYER
 10
5.990119362102439
 20
13.08161986289355
 30
0.0
  0
VERTEX
  5
D42
  8
BACK_LAYER
 10
5.999191686088803
 20
13.08844682923715
 30
0.0
  0
VERTEX
  5
D43
  8
BACK_LAYER
 10
6.007835014314839
 20
13.09557431248057
 30
0.0
  0
VERTEX
  5
D44
  8
BACK_LAYER
 10
6.016045597650634
 20
13.10298760936895
 30
0.0
  0
VERTEX
  5
D45
  8
BACK_LAYER
 10
6.023819686966277
 20
13.11067201664746
 30
0.0
  0
VERTEX
  5
D46
  8
BACK_LAYER
 10
6.031153533131855
 20
13.11861283106123
 30
0.0
  0
VERTEX
  5
D47
  8
BACK_LAYER
 10
6.038043387017456
 20
13.1267953493554
 30
0.0
  0
VERTEX
  5
D48
  8
BACK_LAYER
 10
6.044485499493169
 20
13.13520486827515
 30
0.0
  0
VERTEX
  5
D49
  8
BACK_LAYER
 10
6.050476121429081
 20
13.14382668456559
 30
0.0
  0
VERTEX
  5
D4A
  8
BACK_LAYER
 10
6.056011503695279
 20
13.15264609497189
 30
0.0
  0
VERTEX
  5
D4B
  8
BACK_LAYER
 10
6.061087897161851
 20
13.16164839623919
 30
0.0
  0
VERTEX
  5
D4C
  8
BACK_LAYER
 10
6.065701552698886
 20
13.17081888511264
 30
0.0
  0
VERTEX
  5
D4D
  8
BACK_LAYER
 10
6.069848721176472
 20
13.18014285833739
 30
0.0
  0
VERTEX
  5
D4E
  8
BACK_LAYER
 10
6.073525653464695
 20
13.18960561265858
 30
0.0
  0
VERTEX
  5
D4F
  8
BACK_LAYER
 10
6.076728600433644
 20
13.19919244482136
 30
0.0
  0
VERTEX
  5
D50
  8
BACK_LAYER
 10
6.079453812953407
 20
13.20888865157088
 30
0.0
  0
VERTEX
  5
D51
  8
BACK_LAYER
 10
6.081697541894071
 20
13.21867952965228
 30
0.0
  0
VERTEX
  5
D52
  8
BACK_LAYER
 10
6.083456038125725
 20
13.22855037581072
 30
0.0
  0
VERTEX
  5
D53
  8
BACK_LAYER
 10
6.084725552518456
 20
13.23848648679134
 30
0.0
  0
VERTEX
  5
D54
  8
BACK_LAYER
 10
6.085502335942353
 20
13.24847315933928
 30
0.0
  0
VERTEX
  5
D55
  8
BACK_LAYER
 10
6.085782639267502
 20
13.25849569019971
 30
0.0
  0
VERTEX
  5
D56
  8
BACK_LAYER
 10
6.085562713363993
 20
13.26853937611775
 30
0.0
  0
VERTEX
  5
D57
  8
BACK_LAYER
 10
6.084838809101912
 20
13.27858951383856
 30
0.0
  0
VERTEX
  5
D58
  8
BACK_LAYER
 10
6.083607177351347
 20
13.2886314001073
 30
0.0
  0
VERTEX
  5
D59
  8
BACK_LAYER
 10
6.081864068982386
 20
13.29865033166909
 30
0.0
  0
VERTEX
  5
D5A
  8
BACK_LAYER
 10
6.079605734865118
 20
13.3086316052691
 30
0.0
  0
VERTEX
  5
D5B
  8
BACK_LAYER
 10
6.07682842586963
 20
13.31856051765247
 30
0.0
  0
VERTEX
  5
D5C
  8
BACK_LAYER
 10
6.07352839286601
 20
13.32842236556435
 30
0.0
  0
VERTEX
  5
D5D
  8
BACK_LAYER
 10
6.069701886724344
 20
13.33820244574988
 30
0.0
  0
VERTEX
  5
D5E
  8
BACK_LAYER
 10
6.065345158314724
 20
13.34788605495421
 30
0.0
  0
VERTEX
  5
D5F
  8
BACK_LAYER
 10
6.060454458507235
 20
13.35745848992249
 30
0.0
  0
VERTEX
  5
D60
  8
BACK_LAYER
 10
6.055026038171965
 20
13.36690504739987
 30
0.0
  0
VERTEX
  5
D61
  8
BACK_LAYER
 10
6.044670021691882
 20
13.38325196551354
 30
0.0
  0
VERTEX
  5
D62
  8
BACK_LAYER
 10
6.033721086793639
 20
13.39919247433536
 30
0.0
  0
VERTEX
  5
D63
  8
BACK_LAYER
 10
6.022195221439608
 20
13.41471835539783
 30
0.0
  0
VERTEX
  5
D64
  8
BACK_LAYER
 10
6.010108413592159
 20
13.42982139023345
 30
0.0
  0
VERTEX
  5
D65
  8
BACK_LAYER
 10
5.997476651213665
 20
13.44449336037471
 30
0.0
  0
VERTEX
  5
D66
  8
BACK_LAYER
 10
5.984315922266498
 20
13.45872604735413
 30
0.0
  0
VERTEX
  5
D67
  8
BACK_LAYER
 10
5.970642214713031
 20
13.47251123270419
 30
0.0
  0
VERTEX
  5
D68
  8
BACK_LAYER
 10
5.956471516515635
 20
13.48584069795741
 30
0.0
  0
VERTEX
  5
D69
  8
BACK_LAYER
 10
5.941819815636681
 20
13.49870622464627
 30
0.0
  0
VERTEX
  5
D6A
  8
BACK_LAYER
 10
5.926703100038543
 20
13.51109959430329
 30
0.0
  0
VERTEX
  5
D6B
  8
BACK_LAYER
 10
5.911137357683591
 20
13.52301258846096
 30
0.0
  0
VERTEX
  5
D6C
  8
BACK_LAYER
 10
5.895138576534197
 20
13.53443698865179
 30
0.0
  0
VERTEX
  5
D6D
  8
BACK_LAYER
 10
5.878722744552734
 20
13.54536457640827
 30
0.0
  0
VERTEX
  5
D6E
  8
BACK_LAYER
 10
5.861905849701573
 20
13.5557871332629
 30
0.0
  0
VERTEX
  5
D6F
  8
BACK_LAYER
 10
5.844703879943086
 20
13.56569644074819
 30
0.0
  0
VERTEX
  5
D70
  8
BACK_LAYER
 10
5.827132823239647
 20
13.57508428039664
 30
0.0
  0
VERTEX
  5
D71
  8
BACK_LAYER
 10
5.809208667553625
 20
13.58394243374074
 30
0.0
  0
VERTEX
  5
D72
  8
BACK_LAYER
 10
5.790947400847394
 20
13.592262682313
 30
0.0
  0
VERTEX
  5
D73
  8
BACK_LAYER
 10
5.772365011083322
 20
13.60003680764592
 30
0.0
  0
VERTEX
  5
D74
  8
BACK_LAYER
 10
5.753477486223787
 20
13.60725659127201
 30
0.0
  0
VERTEX
  5
D75
  8
BACK_LAYER
 10
5.734300814231156
 20
13.61391381472374
 30
0.0
  0
VERTEX
  5
D76
  8
BACK_LAYER
 10
5.714850983067802
 20
13.62000025953365
 30
0.0
  0
VERTEX
  5
D77
  8
BACK_LAYER
 10
5.695143980696098
 20
13.62550770723421
 30
0.0
  0
VERTEX
  5
D78
  8
BACK_LAYER
 10
5.675195795078416
 20
13.63042793935793
 30
0.0
  0
VERTEX
  5
D79
  8
BACK_LAYER
 10
5.655022414177127
 20
13.63475273743732
 30
0.0
  0
VERTEX
  5
D7A
  8
BACK_LAYER
 10
5.634639825954602
 20
13.63847388300487
 30
0.0
  0
VERTEX
  5
D7B
  8
BACK_LAYER
 10
5.614064018373216
 20
13.64158315759309
 30
0.0
  0
VERTEX
  5
D7C
  8
BACK_LAYER
 10
5.593310979395338
 20
13.64407234273447
 30
0.0
  0
VERTEX
  5
D7D
  8
BACK_LAYER
 10
5.572396696983341
 20
13.64593321996151
 30
0.0
  0
VERTEX
  5
D7E
  8
BACK_LAYER
 10
5.551337159099597
 20
13.64715757080673
 30
0.0
  0
VERTEX
  5
D7F
  8
BACK_LAYER
 10
5.530148353706478
 20
13.64773717680261
 30
0.0
  0
VERTEX
  5
D80
  8
BACK_LAYER
 10
5.508846268766356
 20
13.64766381948165
 30
0.0
  0
VERTEX
  5
D81
  8
BACK_LAYER
 10
5.435273606828837
 20
13.64598972951984
 30
0.0
  0
VERTEX
  5
D82
  8
BACK_LAYER
 10
5.361742588490946
 20
13.64374275429383
 30
0.0
  0
VERTEX
  5
D83
  8
BACK_LAYER
 10
5.288257489039974
 20
13.64092351251087
 30
0.0
  0
VERTEX
  5
D84
  8
BACK_LAYER
 10
5.214822583763205
 20
13.63753262287815
 30
0.0
  0
VERTEX
  5
D85
  8
BACK_LAYER
 10
5.141442147947927
 20
13.6335707041029
 30
0.0
  0
VERTEX
  5
D86
  8
BACK_LAYER
 10
5.068120456881432
 20
13.62903837489234
 30
0.0
  0
VERTEX
  5
D87
  8
BACK_LAYER
 10
4.994861785851002
 20
13.62393625395367
 30
0.0
  0
VERTEX
  5
D88
  8
BACK_LAYER
 10
4.921670410143928
 20
13.61826495999413
 30
0.0
  0
VERTEX
  5
D89
  8
BACK_LAYER
 10
4.848550605047498
 20
13.61202511172093
 30
0.0
  0
VERTEX
  5
D8A
  8
BACK_LAYER
 10
4.775506645848997
 20
13.60521732784127
 30
0.0
  0
VERTEX
  5
D8B
  8
BACK_LAYER
 10
4.702542807835715
 20
13.59784222706239
 30
0.0
  0
VERTEX
  5
D8C
  8
BACK_LAYER
 10
4.629663366294938
 20
13.5899004280915
 30
0.0
  0
VERTEX
  5
D8D
  8
BACK_LAYER
 10
4.556872596513955
 20
13.58139254963581
 30
0.0
  0
VERTEX
  5
D8E
  8
BACK_LAYER
 10
4.484174773780054
 20
13.57231921040254
 30
0.0
  0
VERTEX
  5
D8F
  8
BACK_LAYER
 10
4.41157417338052
 20
13.56268102909891
 30
0.0
  0
VERTEX
  5
D90
  8
BACK_LAYER
 10
4.339075070602644
 20
13.55247862443214
 30
0.0
  0
VERTEX
  5
D91
  8
BACK_LAYER
 10
4.266681740733711
 20
13.54171261510944
 30
0.0
  0
VERTEX
  5
D92
  8
BACK_LAYER
 10
4.194398459061011
 20
13.53038361983802
 30
0.0
  0
VERTEX
  5
D93
  8
BACK_LAYER
 10
4.122229500871829
 20
13.51849225732512
 30
0.0
  0
VERTEX
  5
D94
  8
BACK_LAYER
 10
4.050179141453455
 20
13.50603914627794
 30
0.0
  0
VERTEX
  5
D95
  8
BACK_LAYER
 10
3.978251656093176
 20
13.49302490540369
 30
0.0
  0
VERTEX
  5
D96
  8
BACK_LAYER
 10
3.906451320078277
 20
13.47945015340961
 30
0.0
  0
VERTEX
  5
D97
  8
BACK_LAYER
 10
3.83478240869605
 20
13.46531550900291
 30
0.0
  0
VERTEX
  5
D98
  8
BACK_LAYER
 10
3.76324919723378
 20
13.45062159089079
 30
0.0
  0
VERTEX
  5
D99
  8
BACK_LAYER
 10
3.691855960978756
 20
13.43536901778048
 30
0.0
  0
VERTEX
  5
D9A
  8
BACK_LAYER
 10
3.620606975218265
 20
13.4195584083792
 30
0.0
  0
VERTEX
  5
D9B
  8
BACK_LAYER
 10
3.549506515239595
 20
13.40319038139416
 30
0.0
  0
VERTEX
  5
D9C
  8
BACK_LAYER
 10
3.478558856330032
 20
13.38626555553258
 30
0.0
  0
VERTEX
  5
D9D
  8
BACK_LAYER
 10
3.407768273776866
 20
13.36878454950168
 30
0.0
  0
VERTEX
  5
D9E
  8
BACK_LAYER
 10
3.337139042867383
 20
13.35074798200867
 30
0.0
  0
VERTEX
  5
D9F
  8
BACK_LAYER
 10
3.266675438888872
 20
13.33215647176077
 30
0.0
  0
VERTEX
  5
DA0
  8
BACK_LAYER
 10
3.19638173712862
 20
13.3130106374652
 30
0.0
  0
VERTEX
  5
DA1
  8
BACK_LAYER
 10
3.118986863903287
 20
13.2913940089071
 30
0.0
  0
VERTEX
  5
DA2
  8
BACK_LAYER
 10
3.041730154453822
 20
13.26940480757898
 30
0.0
  0
VERTEX
  5
DA3
  8
BACK_LAYER
 10
2.964613349808087
 20
13.24704355233128
 30
0.0
  0
VERTEX
  5
DA4
  8
BACK_LAYER
 10
2.887638190993941
 20
13.22431076201443
 30
0.0
  0
VERTEX
  5
DA5
  8
BACK_LAYER
 10
2.810806419039245
 20
13.20120695547886
 30
0.0
  0
VERTEX
  5
DA6
  8
BACK_LAYER
 10
2.734119774971861
 20
13.177732651575
 30
0.0
  0
VERTEX
  5
DA7
  8
BACK_LAYER
 10
2.657579999819649
 20
13.15388836915328
 30
0.0
  0
VERTEX
  5
DA8
  8
BACK_LAYER
 10
2.58118883461047
 20
13.12967462706413
 30
0.0
  0
VERTEX
  5
DA9
  8
BACK_LAYER
 10
2.572212945893288
 20
13.1265816158821
 30
0.0
  0
VERTEX
  5
DAA
  8
BACK_LAYER
 10
2.563512129660285
 20
13.12313667274458
 30
0.0
  0
VERTEX
  5
DAB
  8
BACK_LAYER
 10
2.55509338283207
 20
13.11935248992806
 30
0.0
  0
VERTEX
  5
DAC
  8
BACK_LAYER
 10
2.546963702329252
 20
13.11524175970901
 30
0.0
  0
VERTEX
  5
DAD
  8
BACK_LAYER
 10
2.539130085072443
 20
13.11081717436394
 30
0.0
  0
VERTEX
  5
DAE
  8
BACK_LAYER
 10
2.531599527982253
 20
13.10609142616932
 30
0.0
  0
VERTEX
  5
DAF
  8
BACK_LAYER
 10
2.524379027979289
 20
13.10107720740164
 30
0.0
  0
VERTEX
  5
DB0
  8
BACK_LAYER
 10
2.517475581984164
 20
13.09578721033738
 30
0.0
  0
VERTEX
  5
DB1
  8
BACK_LAYER
 10
2.510896186917487
 20
13.09023412725304
 30
0.0
  0
VERTEX
  5
DB2
  8
BACK_LAYER
 10
2.504647839699868
 20
13.08443065042509
 30
0.0
  0
VERTEX
  5
DB3
  8
BACK_LAYER
 10
2.498737537251916
 20
13.07838947213003
 30
0.0
  0
VERTEX
  5
DB4
  8
BACK_LAYER
 10
2.493172276494243
 20
13.07212328464435
 30
0.0
  0
VERTEX
  5
DB5
  8
BACK_LAYER
 10
2.487959054347457
 20
13.06564478024452
 30
0.0
  0
VERTEX
  5
DB6
  8
BACK_LAYER
 10
2.48310486773217
 20
13.05896665120704
 30
0.0
  0
VERTEX
  5
DB7
  8
BACK_LAYER
 10
2.478616713568989
 20
13.05210158980839
 30
0.0
  0
VERTEX
  5
DB8
  8
BACK_LAYER
 10
2.474501588778527
 20
13.04506228832505
 30
0.0
  0
VERTEX
  5
DB9
  8
BACK_LAYER
 10
2.470766490281392
 20
13.03786143903352
 30
0.0
  0
VERTEX
  5
DBA
  8
BACK_LAYER
 10
2.467418414998195
 20
13.03051173421027
 30
0.0
  0
VERTEX
  5
DBB
  8
BACK_LAYER
 10
2.464464359849545
 20
13.02302586613181
 30
0.0
  0
VERTEX
  5
DBC
  8
BACK_LAYER
 10
2.461911321756053
 20
13.0154165270746
 30
0.0
  0
VERTEX
  5
DBD
  8
BACK_LAYER
 10
2.459766297638328
 20
13.00769640931515
 30
0.0
  0
VERTEX
  5
DBE
  8
BACK_LAYER
 10
2.458036284416981
 20
12.99987820512993
 30
0.0
  0
VERTEX
  5
DBF
  8
BACK_LAYER
 10
2.456728279012621
 20
12.99197460679543
 30
0.0
  0
VERTEX
  5
DC0
  8
BACK_LAYER
 10
2.455849278345859
 20
12.98399830658814
 30
0.0
  0
VERTEX
  5
DC1
  8
BACK_LAYER
 10
2.455406279337304
 20
12.97596199678454
 30
0.0
  0
VERTEX
  5
DC2
  8
BACK_LAYER
 10
2.455406278907566
 20
12.96787836966112
 30
0.0
  0
VERTEX
  5
DC3
  8
BACK_LAYER
 10
2.455856273977256
 20
12.95976011749437
 30
0.0
  0
VERTEX
  5
DC4
  8
BACK_LAYER
 10
2.456763261466983
 20
12.95161993256077
 30
0.0
  0
VERTEX
  5
DC5
  8
BACK_LAYER
 10
2.458134238297357
 20
12.94347050713682
 30
0.0
  0
VERTEX
  5
DC6
  8
BACK_LAYER
 10
2.459976201388988
 20
12.93532453349899
 30
0.0
  0
VERTEX
  5
DC7
  8
BACK_LAYER
 10
2.462296147662486
 20
12.92719470392377
 30
0.0
  0
VERTEX
  5
DC8
  8
BACK_LAYER
 10
2.465101074038462
 20
12.91909371068765
 30
0.0
  0
VERTEX
  5
DC9
  8
BACK_LAYER
 10
2.505435854380752
 20
12.81148175188578
 30
0.0
  0
VERTEX
  5
DCA
  8
BACK_LAYER
 10
2.545280615404272
 20
12.70373243015021
 30
0.0
  0
VERTEX
  5
DCB
  8
BACK_LAYER
 10
2.584634920206794
 20
12.5958470402568
 30
0.0
  0
VERTEX
  5
DCC
  8
BACK_LAYER
 10
2.623498331886094
 20
12.48782687698138
 30
0.0
  0
VERTEX
  5
DCD
  8
BACK_LAYER
 10
2.661870413539944
 20
12.37967323509981
 30
0.0
  0
VERTEX
  5
DCE
  8
BACK_LAYER
 10
2.699750728266119
 20
12.27138740938795
 30
0.0
  0
VERTEX
  5
DCF
  8
BACK_LAYER
 10
2.737138839162393
 20
12.16297069462163
 30
0.0
  0
VERTEX
  5
DD0
  8
BACK_LAYER
 10
2.774034309326539
 20
12.05442438557671
 30
0.0
  0
VERTEX
  5
DD1
  8
BACK_LAYER
 10
2.810436701856331
 20
11.94574977702904
 30
0.0
  0
VERTEX
  5
DD2
  8
BACK_LAYER
 10
2.846345579849543
 20
11.83694816375447
 30
0.0
  0
VERTEX
  5
DD3
  8
BACK_LAYER
 10
2.881760506403949
 20
11.72802084052885
 30
0.0
  0
VERTEX
  5
DD4
  8
BACK_LAYER
 10
2.916681044617324
 20
11.61896910212803
 30
0.0
  0
VERTEX
  5
DD5
  8
BACK_LAYER
 10
2.951106757587439
 20
11.50979424332785
 30
0.0
  0
VERTEX
  5
DD6
  8
BACK_LAYER
 10
2.985037208412071
 20
11.40049755890417
 30
0.0
  0
VERTEX
  5
DD7
  8
BACK_LAYER
 10
3.018471960188991
 20
11.29108034363285
 30
0.0
  0
VERTEX
  5
DD8
  8
BACK_LAYER
 10
3.051410576015975
 20
11.18154389228971
 30
0.0
  0
VERTEX
  5
DD9
  8
BACK_LAYER
 10
3.059968199134434
 20
11.15193014192383
 30
0.0
  0
VERTEX
  5
DDA
  8
BACK_LAYER
 10
3.068001002708773
 20
11.1222311648187
 30
0.0
  0
VERTEX
  5
DDB
  8
BACK_LAYER
 10
3.075508914114471
 20
11.09245227314086
 30
0.0
  0
VERTEX
  5
DDC
  8
BACK_LAYER
 10
3.082491860727009
 20
11.06259877905682
 30
0.0
  0
VERTEX
  5
DDD
  8
BACK_LAYER
 10
3.088949769921865
 20
11.03267599473312
 30
0.0
  0
VERTEX
  5
DDE
  8
BACK_LAYER
 10
3.094882569074521
 20
11.00268923233628
 30
0.0
  0
VERTEX
  5
DDF
  8
BACK_LAYER
 10
3.100290185560456
 20
10.97264380403283
 30
0.0
  0
VERTEX
  5
DE0
  8
BACK_LAYER
 10
3.105172546755151
 20
10.94254502198929
 30
0.0
  0
VERTEX
  5
DE1
  8
BACK_LAYER
 10
3.109529580034084
 20
10.9123981983722
 30
0.0
  0
VERTEX
  5
DE2
  8
BACK_LAYER
 10
3.113361212772736
 20
10.88220864534807
 30
0.0
  0
VERTEX
  5
DE3
  8
BACK_LAYER
 10
3.116667372346587
 20
10.85198167508345
 30
0.0
  0
VERTEX
  5
DE4
  8
BACK_LAYER
 10
3.119447986131117
 20
10.82172259974484
 30
0.0
  0
VERTEX
  5
DE5
  8
BACK_LAYER
 10
3.121702981501806
 20
10.79143673149879
 30
0.0
  0
VERTEX
  5
DE6
  8
BACK_LAYER
 10
3.123432285834134
 20
10.76112938251181
 30
0.0
  0
VERTEX
  5
DE7
  8
BACK_LAYER
 10
3.12463582650358
 20
10.73080586495044
 30
0.0
  0
VERTEX
  5
DE8
  8
BACK_LAYER
 10
3.125313530885625
 20
10.7004714909812
 30
0.0
  0
VERTEX
  5
DE9
  8
BACK_LAYER
 10
3.125465326355749
 20
10.67013157277061
 30
0.0
  0
VERTEX
  5
DEA
  8
BACK_LAYER
 10
3.125091140289432
 20
10.63979142248521
 30
0.0
  0
VERTEX
  5
DEB
  8
BACK_LAYER
 10
3.124190900062153
 20
10.60945635229153
 30
0.0
  0
VERTEX
  5
DEC
  8
BACK_LAYER
 10
3.122764533049393
 20
10.57913167435608
 30
0.0
  0
VERTEX
  5
DED
  8
BACK_LAYER
 10
3.120811966626631
 20
10.5488227008454
 30
0.0
  0
VERTEX
  5
DEE
  8
BACK_LAYER
 10
3.118333128169348
 20
10.518534743926
 30
0.0
  0
VERTEX
  5
DEF
  8
BACK_LAYER
 10
3.115327945053023
 20
10.48827311576443
 30
0.0
  0
VERTEX
  5
DF0
  8
BACK_LAYER
 10
3.111796344653136
 20
10.45804312852721
 30
0.0
  0
VERTEX
  5
DF1
  8
BACK_LAYER
 10
3.107738254345168
 20
10.42785009438086
 30
0.0
  0
VERTEX
  5
DF2
  8
BACK_LAYER
 10
3.103153601504598
 20
10.39769932549191
 30
0.0
  0
VERTEX
  5
DF3
  8
BACK_LAYER
 10
3.098042313506906
 20
10.36759613402688
 30
0.0
  0
VERTEX
  5
DF4
  8
BACK_LAYER
 10
3.092404317727572
 20
10.33754583215231
 30
0.0
  0
VERTEX
  5
DF5
  8
BACK_LAYER
 10
3.086239541542077
 20
10.30755373203472
 30
0.0
  0
VERTEX
  5
DF6
  8
BACK_LAYER
 10
3.0795479123259
 20
10.27762514584064
 30
0.0
  0
VERTEX
  5
DF7
  8
BACK_LAYER
 10
3.07232935745452
 20
10.24776538573659
 30
0.0
  0
VERTEX
  5
DF8
  8
BACK_LAYER
 10
3.064583804303418
 20
10.2179797638891
 30
0.0
  0
VERTEX
  5
DF9
  8
BACK_LAYER
 10
3.060731504059446
 20
10.20425996647367
 30
0.0
  0
VERTEX
  5
DFA
  8
BACK_LAYER
 10
3.056586621778215
 20
10.19062649301915
 30
0.0
  0
VERTEX
  5
DFB
  8
BACK_LAYER
 10
3.052151375876372
 20
10.17708261846103
 30
0.0
  0
VERTEX
  5
DFC
  8
BACK_LAYER
 10
3.047427984770563
 20
10.16363161773483
 30
0.0
  0
VERTEX
  5
DFD
  8
BACK_LAYER
 10
3.042418666877436
 20
10.15027676577605
 30
0.0
  0
VERTEX
  5
DFE
  8
BACK_LAYER
 10
3.037125640613639
 20
10.13702133752021
 30
0.0
  0
VERTEX
  5
DFF
  8
BACK_LAYER
 10
3.025697336640621
 20
10.11082185185935
 30
0.0
  0
VERTEX
  5
E00
  8
BACK_LAYER
 10
3.013160820184687
 20
10.08505936023632
 30
0.0
  0
VERTEX
  5
E01
  8
BACK_LAYER
 10
2.999533838579014
 20
10.05976006213517
 30
0.0
  0
VERTEX
  5
E02
  8
BACK_LAYER
 10
2.984834139156781
 20
10.03495015703998
 30
0.0
  0
VERTEX
  5
E03
  8
BACK_LAYER
 10
2.969079469251166
 20
10.01065584443479
 30
0.0
  0
VERTEX
  5
E04
  8
BACK_LAYER
 10
2.952287576195345
 20
9.986903323803677
 30
0.0
  0
VERTEX
  5
E05
  8
BACK_LAYER
 10
2.934476207322498
 20
9.9637187946307
 30
0.0
  0
VERTEX
  5
E06
  8
BACK_LAYER
 10
2.915663109965801
 20
9.94112845639992
 30
0.0
  0
VERTEX
  5
E07
  8
BACK_LAYER
 10
2.895866031458433
 20
9.919158508595398
 30
0.0
  0
VERTEX
  5
E08
  8
BACK_LAYER
 10
2.875102719133571
 20
9.897835150701198
 30
0.0
  0
VERTEX
  5
E09
  8
BACK_LAYER
 10
2.853390920324394
 20
9.87718458220138
 30
0.0
  0
VERTEX
  5
E0A
  8
BACK_LAYER
 10
2.830748382364078
 20
9.857233002580008
 30
0.0
  0
VERTEX
  5
E0B
  8
BACK_LAYER
 10
2.807192852585803
 20
9.838006611321145
 30
0.0
  0
VERTEX
  5
E0C
  8
BACK_LAYER
 10
2.800067758402575
 20
9.83261339567353
 30
0.0
  0
VERTEX
  5
E0D
  8
BACK_LAYER
 10
2.792761565829064
 20
9.827480209967241
 30
0.0
  0
VERTEX
  5
E0E
  8
BACK_LAYER
 10
2.785283049360602
 20
9.822608258120283
 30
0.0
  0
VERTEX
  5
E0F
  8
BACK_LAYER
 10
2.777640983492518
 20
9.817998744050662
 30
0.0
  0
VERTEX
  5
E10
  8
BACK_LAYER
 10
2.769844142720142
 20
9.813652871676382
 30
0.0
  0
VERTEX
  5
E11
  8
BACK_LAYER
 10
2.761901301538805
 20
9.809571844915446
 30
0.0
  0
VERTEX
  5
E12
  8
BACK_LAYER
 10
2.745612715930571
 20
9.802209143905639
 30
0.0
  0
VERTEX
  5
E13
  8
BACK_LAYER
 10
2.728845422630458
 20
9.795920272365281
 30
0.0
  0
VERTEX
  5
E14
  8
BACK_LAYER
 10
2.711669617601109
 20
9.790714861638413
 30
0.0
  0
VERTEX
  5
E15
  8
BACK_LAYER
 10
2.694155496805168
 20
9.786602543069076
 30
0.0
  0
VERTEX
  5
E16
  8
BACK_LAYER
 10
2.676373256205277
 20
9.783592948001317
 30
0.0
  0
VERTEX
  5
E17
  8
BACK_LAYER
 10
2.658393091764081
 20
9.781695707779171
 30
0.0
  0
VERTEX
  5
E18
  8
BACK_LAYER
 10
2.640285199444222
 20
9.780920453746685
 30
0.0
  0
VERTEX
  5
E19
  8
BACK_LAYER
 10
2.622119775208342
 20
9.781276817247893
 30
0.0
  0
VERTEX
  5
E1A
  8
BACK_LAYER
 10
2.603967015019086
 20
9.782774429626844
 30
0.0
  0
VERTEX
  5
E1B
  8
BACK_LAYER
 10
2.585897114839097
 20
9.785422922227575
 30
0.0
  0
VERTEX
  5
E1C
  8
BACK_LAYER
 10
2.567980270631019
 20
9.78923192639413
 30
0.0
  0
VERTEX
  5
E1D
  8
BACK_LAYER
 10
2.559101180754773
 20
9.791574630109604
 30
0.0
  0
VERTEX
  5
E1E
  8
BACK_LAYER
 10
2.550286678357494
 20
9.794211073470551
 30
0.0
  0
VERTEX
  5
E1F
  8
BACK_LAYER
 10
2.541545537934515
 20
9.797142460394975
 30
0.0
  0
VERTEX
  5
E20
  8
BACK_LAYER
 10
2.532886533981165
 20
9.800369994800878
 30
0.0
  0
VERTEX
  5
E21
  8
BACK_LAYER
 10
2.515488040509173
 20
9.807595294037114
 30
0.0
  0
VERTEX
  5
E22
  8
BACK_LAYER
 10
2.498526154079415
 20
9.815458024934681
 30
0.0
  0
VERTEX
  5
E23
  8
BACK_LAYER
 10
2.482020497405546
 20
9.823941507232313
 30
0.0
  0
VERTEX
  5
E24
  8
BACK_LAYER
 10
2.465990693201224
 20
9.833029060668743
 30
0.0
  0
VERTEX
  5
E25
  8
BACK_LAYER
 10
2.450456364180104
 20
9.842704004982703
 30
0.0
  0
VERTEX
  5
E26
  8
BACK_LAYER
 10
2.435437133055842
 20
9.852949659912928
 30
0.0
  0
VERTEX
  5
E27
  8
BACK_LAYER
 10
2.420952622542096
 20
9.863749345198153
 30
0.0
  0
VERTEX
  5
E28
  8
BACK_LAYER
 10
2.407022455352521
 20
9.87508638057711
 30
0.0
  0
VERTEX
  5
E29
  8
BACK_LAYER
 10
2.393666254200774
 20
9.886944085788537
 30
0.0
  0
VERTEX
  5
E2A
  8
BACK_LAYER
 10
2.38090364180051
 20
9.899305780571162
 30
0.0
  0
VERTEX
  5
E2B
  8
BACK_LAYER
 10
2.368754240865386
 20
9.91215478466372
 30
0.0
  0
VERTEX
  5
E2C
  8
BACK_LAYER
 10
2.357237674109059
 20
9.92547441780495
 30
0.0
  0
VERTEX
  5
E2D
  8
BACK_LAYER
 10
2.346373564245186
 20
9.939247999733581
 30
0.0
  0
VERTEX
  5
E2E
  8
BACK_LAYER
 10
2.33618153398742
 20
9.953458850188348
 30
0.0
  0
VERTEX
  5
E2F
  8
BACK_LAYER
 10
2.32668120604942
 20
9.968090288907984
 30
0.0
  0
VERTEX
  5
E30
  8
BACK_LAYER
 10
2.317892203144843
 20
9.983125635631225
 30
0.0
  0
VERTEX
  5
E31
  8
BACK_LAYER
 10
2.30834546139306
 20
9.999853194035516
 30
0.0
  0
VERTEX
  5
E32
  8
BACK_LAYER
 10
2.298384230275731
 20
10.01628106023953
 30
0.0
  0
VERTEX
  5
E33
  8
BACK_LAYER
 10
2.288016730403111
 20
10.03240658391984
 30
0.0
  0
VERTEX
  5
E34
  8
BACK_LAYER
 10
2.277251182385454
 20
10.04822711475302
 30
0.0
  0
VERTEX
  5
E35
  8
BACK_LAYER
 10
2.266095806833015
 20
10.06374000241567
 30
0.0
  0
VERTEX
  5
E36
  8
BACK_LAYER
 10
2.25455882435605
 20
10.07894259658435
 30
0.0
  0
VERTEX
  5
E37
  8
BACK_LAYER
 10
2.242648455564814
 20
10.09383224693565
 30
0.0
  0
VERTEX
  5
E38
  8
BACK_LAYER
 10
2.230372921069562
 20
10.10840630314614
 30
0.0
  0
VERTEX
  5
E39
  8
BACK_LAYER
 10
2.217740441480549
 20
10.12266211489241
 30
0.0
  0
VERTEX
  5
E3A
  8
BACK_LAYER
 10
2.204759237408031
 20
10.13659703185104
 30
0.0
  0
VERTEX
  5
E3B
  8
BACK_LAYER
 10
2.191437529462262
 20
10.15020840369861
 30
0.0
  0
VERTEX
  5
E3C
  8
BACK_LAYER
 10
2.177783538253498
 20
10.16349358011169
 30
0.0
  0
VERTEX
  5
E3D
  8
BACK_LAYER
 10
2.163805484391994
 20
10.17644991076687
 30
0.0
  0
VERTEX
  5
E3E
  8
BACK_LAYER
 10
2.149511588488004
 20
10.18907474534073
 30
0.0
  0
VERTEX
  5
E3F
  8
BACK_LAYER
 10
2.134910071151785
 20
10.20136543350984
 30
0.0
  0
VERTEX
  5
E40
  8
BACK_LAYER
 10
2.120009152993592
 20
10.21331932495078
 30
0.0
  0
VERTEX
  5
E41
  8
BACK_LAYER
 10
2.104817054623678
 20
10.22493376934014
 30
0.0
  0
VERTEX
  5
E42
  8
BACK_LAYER
 10
2.0893419966523
 20
10.2362061163545
 30
0.0
  0
VERTEX
  5
E43
  8
BACK_LAYER
 10
2.073592199689714
 20
10.24713371567042
 30
0.0
  0
VERTEX
  5
E44
  8
BACK_LAYER
 10
2.057575884346173
 20
10.25771391696451
 30
0.0
  0
VERTEX
  5
E45
  8
BACK_LAYER
 10
2.041301271231934
 20
10.26794406991333
 30
0.0
  0
VERTEX
  5
E46
  8
BACK_LAYER
 10
2.02477658095725
 20
10.27782152419346
 30
0.0
  0
VERTEX
  5
E47
  8
BACK_LAYER
 10
2.008010034132378
 20
10.28734362948149
 30
0.0
  0
VERTEX
  5
E48
  8
BACK_LAYER
 10
1.991009851367573
 20
10.29650773545399
 30
0.0
  0
VERTEX
  5
E49
  8
BACK_LAYER
 10
1.973784253273089
 20
10.30531119178755
 30
0.0
  0
VERTEX
  5
E4A
  8
BACK_LAYER
 10
1.956341460459183
 20
10.31375134815874
 30
0.0
  0
VERTEX
  5
E4B
  8
BACK_LAYER
 10
1.938689693536108
 20
10.32182555424414
 30
0.0
  0
VERTEX
  5
E4C
  8
BACK_LAYER
 10
1.920837173114121
 20
10.32953115972033
 30
0.0
  0
VERTEX
  5
E4D
  8
BACK_LAYER
 10
1.902792119803476
 20
10.3368655142639
 30
0.0
  0
VERTEX
  5
E4E
  8
BACK_LAYER
 10
1.884562754214429
 20
10.34382596755142
 30
0.0
  0
VERTEX
  5
E4F
  8
BACK_LAYER
 10
1.866157296957234
 20
10.35040986925947
 30
0.0
  0
VERTEX
  5
E50
  8
BACK_LAYER
 10
1.847583968642148
 20
10.35661456906463
 30
0.0
  0
VERTEX
  5
E51
  8
BACK_LAYER
 10
1.828850989879424
 20
10.36243741664349
 30
0.0
  0
VERTEX
  5
E52
  8
BACK_LAYER
 10
1.809966581279319
 20
10.36787576167262
 30
0.0
  0
VERTEX
  5
E53
  8
BACK_LAYER
 10
1.790938963452087
 20
10.3729269538286
 30
0.0
  0
VERTEX
  5
E54
  8
BACK_LAYER
 10
1.771776357007984
 20
10.37758834278801
 30
0.0
  0
VERTEX
  5
E55
  8
BACK_LAYER
 10
1.752486982557264
 20
10.38185727822744
 30
0.0
  0
VERTEX
  5
E56
  8
BACK_LAYER
 10
1.733079060710183
 20
10.38573110982345
 30
0.0
  0
VERTEX
  5
E57
  8
BACK_LAYER
 10
1.713560812076997
 20
10.38920718725263
 30
0.0
  0
VERTEX
  5
E58
  8
BACK_LAYER
 10
1.693940457267959
 20
10.39228286019157
 30
0.0
  0
VERTEX
  5
E59
  8
BACK_LAYER
 10
1.674226216893326
 20
10.39495547831683
 30
0.0
  0
VERTEX
  5
E5A
  8
BACK_LAYER
 10
1.654426311563352
 20
10.39722239130501
 30
0.0
  0
VERTEX
  5
E5B
  8
BACK_LAYER
 10
1.634548961888293
 20
10.39908094883268
 30
0.0
  0
VERTEX
  5
E5C
  8
BACK_LAYER
 10
1.614602388478404
 20
10.40052850057641
 30
0.0
  0
VERTEX
  5
E5D
  8
BACK_LAYER
 10
1.594594811943939
 20
10.4015623962128
 30
0.0
  0
VERTEX
  5
E5E
  8
BACK_LAYER
 10
1.574534452895155
 20
10.40217998541841
 30
0.0
  0
VERTEX
  5
E5F
  8
BACK_LAYER
 10
1.554429531942307
 20
10.40237861786984
 30
0.0
  0
VERTEX
  5
E60
  8
BACK_LAYER
 10
1.534288269695649
 20
10.40215564324365
 30
0.0
  0
VERTEX
  5
E61
  8
BACK_LAYER
 10
1.514118886765436
 20
10.40150841121643
 30
0.0
  0
VERTEX
  5
E62
  8
BACK_LAYER
 10
1.493929603761924
 20
10.40043427146476
 30
0.0
  0
VERTEX
  5
E63
  8
BACK_LAYER
 10
1.473728641295368
 20
10.39893057366522
 30
0.0
  0
VERTEX
  5
E64
  8
BACK_LAYER
 10
1.453524219976023
 20
10.39699466749439
 30
0.0
  0
VERTEX
  5
E65
  8
BACK_LAYER
 10
1.433324560414145
 20
10.39462390262884
 30
0.0
  0
VERTEX
  5
E66
  8
BACK_LAYER
 10
1.413137883219988
 20
10.39181562874517
 30
0.0
  0
VERTEX
  5
E67
  8
BACK_LAYER
 10
1.392972409003807
 20
10.38856719551994
 30
0.0
  0
VERTEX
  5
E68
  8
BACK_LAYER
 10
1.372836358375858
 20
10.38487595262973
 30
0.0
  0
VERTEX
  5
E69
  8
BACK_LAYER
 10
1.352737951946396
 20
10.38073924975114
 30
0.0
  0
VERTEX
  5
E6A
  8
BACK_LAYER
 10
1.332685410325677
 20
10.37615443656073
 30
0.0
  0
VERTEX
  5
E6B
  8
BACK_LAYER
 10
1.312686954123954
 20
10.37111886273509
 30
0.0
  0
VERTEX
  5
E6C
  8
BACK_LAYER
 10
1.292750803951484
 20
10.3656298779508
 30
0.0
  0
VERTEX
  5
E6D
  8
BACK_LAYER
 10
1.272885180418521
 20
10.35968483188443
 30
0.0
  0
VERTEX
  5
E6E
  8
BACK_LAYER
 10
1.253098304135321
 20
10.35328107421257
 30
0.0
  0
VERTEX
  5
E6F
  8
BACK_LAYER
 10
1.233398395712139
 20
10.34641595461179
 30
0.0
  0
VERTEX
  5
E70
  8
BACK_LAYER
 10
1.21379367575923
 20
10.33908682275868
 30
0.0
  0
VERTEX
  5
E71
  8
BACK_LAYER
 10
1.199673878377261
 20
10.33345459140996
 30
0.0
  0
VERTEX
  5
E72
  8
BACK_LAYER
 10
1.185734418970982
 20
10.32754976158562
 30
0.0
  0
VERTEX
  5
E73
  8
BACK_LAYER
 10
1.171979580743666
 20
10.32137606161718
 30
0.0
  0
VERTEX
  5
E74
  8
BACK_LAYER
 10
1.158413646898585
 20
10.31493721983615
 30
0.0
  0
VERTEX
  5
E75
  8
BACK_LAYER
 10
1.145040900639012
 20
10.30823696457406
 30
0.0
  0
VERTEX
  5
E76
  8
BACK_LAYER
 10
1.131865625168218
 20
10.30127902416241
 30
0.0
  0
VERTEX
  5
E77
  8
BACK_LAYER
 10
1.118892103689478
 20
10.29406712693273
 30
0.0
  0
VERTEX
  5
E78
  8
BACK_LAYER
 10
1.106124619406063
 20
10.28660500121653
 30
0.0
  0
VERTEX
  5
E79
  8
BACK_LAYER
 10
1.093567455521246
 20
10.27889637534532
 30
0.0
  0
VERTEX
  5
E7A
  8
BACK_LAYER
 10
1.081224895238299
 20
10.27094497765063
 30
0.0
  0
VERTEX
  5
E7B
  8
BACK_LAYER
 10
1.069101221760494
 20
10.26275453646397
 30
0.0
  0
VERTEX
  5
E7C
  8
BACK_LAYER
 10
1.057200718291105
 20
10.25432878011685
 30
0.0
  0
VERTEX
  5
E7D
  8
BACK_LAYER
 10
1.045527668033403
 20
10.2456714369408
 30
0.0
  0
VERTEX
  5
E7E
  8
BACK_LAYER
 10
1.034086354190662
 20
10.23678623526732
 30
0.0
  0
VERTEX
  5
E7F
  8
BACK_LAYER
 10
1.022881059966153
 20
10.22767690342794
 30
0.0
  0
VERTEX
  5
E80
  8
BACK_LAYER
 10
1.011916068563149
 20
10.21834716975417
 30
0.0
  0
VERTEX
  5
E81
  8
BACK_LAYER
 10
1.001195663184923
 20
10.20880076257752
 30
0.0
  0
VERTEX
  5
E82
  8
BACK_LAYER
 10
0.9907241270347464
 20
10.19904141022952
 30
0.0
  0
VERTEX
  5
E83
  8
BACK_LAYER
 10
0.9805057433158928
 20
10.18907284104168
 30
0.0
  0
VERTEX
  5
E84
  8
BACK_LAYER
 10
0.9705447952316341
 20
10.17889878334551
 30
0.0
  0
VERTEX
  5
E85
  8
BACK_LAYER
 10
0.9608455659852428
 20
10.16852296547254
 30
0.0
  0
VERTEX
  5
E86
  8
BACK_LAYER
 10
0.9514123387799918
 20
10.15794911575428
 30
0.0
  0
VERTEX
  5
E87
  8
BACK_LAYER
 10
0.9422493968191532
 20
10.14718096252224
 30
0.0
  0
VERTEX
  5
E88
  8
BACK_LAYER
 10
0.9333610233059995
 20
10.13622223410794
 30
0.0
  0
VERTEX
  5
E89
  8
BACK_LAYER
 10
0.9247515014438032
 20
10.1250766588429
 30
0.0
  0
VERTEX
  5
E8A
  8
BACK_LAYER
 10
0.9164251144358369
 20
10.11374796505863
 30
0.0
  0
VERTEX
  5
E8B
  8
BACK_LAYER
 10
0.908386145485373
 20
10.10223988108665
 30
0.0
  0
VERTEX
  5
E8C
  8
BACK_LAYER
 10
0.900638877795684
 20
10.09055613525848
 30
0.0
  0
VERTEX
  5
E8D
  8
BACK_LAYER
 10
0.8931875945700424
 20
10.07870045590563
 30
0.0
  0
VERTEX
  5
E8E
  8
BACK_LAYER
 10
0.8860365790117206
 20
10.06667657135962
 30
0.0
  0
VERTEX
  5
E8F
  8
BACK_LAYER
 10
0.8791901143239913
 20
10.05448820995196
 30
0.0
  0
VERTEX
  5
E90
  8
BACK_LAYER
 10
0.8726524837101267
 20
10.04213910001418
 30
0.0
  0
VERTEX
  5
E91
  8
BACK_LAYER
 10
0.856877271842828
 20
10.01105537720747
 30
0.0
  0
VERTEX
  5
E92
  8
BACK_LAYER
 10
0.841416805316941
 20
9.979860634708494
 30
0.0
  0
VERTEX
  5
E93
  8
BACK_LAYER
 10
0.8262717045516201
 20
9.948556740296851
 30
0.0
  0
VERTEX
  5
E94
  8
BACK_LAYER
 10
0.8114425899660196
 20
9.91714556175214
 30
0.0
  0
VERTEX
  5
E95
  8
BACK_LAYER
 10
0.7969300819792942
 20
9.885628966853965
 30
0.0
  0
VERTEX
  5
E96
  8
BACK_LAYER
 10
0.7827348010105981
 20
9.854008823381928
 30
0.0
  0
VERTEX
  5
E97
  8
BACK_LAYER
 10
0.7688573674790857
 20
9.82228699911563
 30
0.0
  0
VERTEX
  5
E98
  8
BACK_LAYER
 10
0.7552984018039117
 20
9.79046536183467
 30
0.0
  0
VERTEX
  5
E99
  8
BACK_LAYER
 10
0.7420585244042301
 20
9.758545779318652
 30
0.0
  0
VERTEX
  5
E9A
  8
BACK_LAYER
 10
0.7291383556991956
 20
9.72653011934718
 30
0.0
  0
VERTEX
  5
E9B
  8
BACK_LAYER
 10
0.7165385161079625
 20
9.69442024969985
 30
0.0
  0
VERTEX
  5
E9C
  8
BACK_LAYER
 10
0.7042596260496853
 20
9.662218038156267
 30
0.0
  0
VERTEX
  5
E9D
  8
BACK_LAYER
 10
0.6923023059435183
 20
9.62992535249603
 30
0.0
  0
VERTEX
  5
E9E
  8
BACK_LAYER
 10
0.6806671762086159
 20
9.597544060498745
 30
0.0
  0
VERTEX
  5
E9F
  8
BACK_LAYER
 10
0.6693548572641327
 20
9.565076029944008
 30
0.0
  0
VERTEX
  5
EA0
  8
BACK_LAYER
 10
0.658365969529223
 20
9.532523128611425
 30
0.0
  0
VERTEX
  5
EA1
  8
BACK_LAYER
 10
0.6477011334230413
 20
9.499887224280595
 30
0.0
  0
VERTEX
  5
EA2
  8
BACK_LAYER
 10
0.6373609693647417
 20
9.46717018473112
 30
0.0
  0
VERTEX
  5
EA3
  8
BACK_LAYER
 10
0.627346097773479
 20
9.434373877742603
 30
0.0
  0
VERTEX
  5
EA4
  8
BACK_LAYER
 10
0.6176571390684075
 20
9.401500171094643
 30
0.0
  0
VERTEX
  5
EA5
  8
BACK_LAYER
 10
0.6082947136686816
 20
9.368550932566842
 30
0.0
  0
VERTEX
  5
EA6
  8
BACK_LAYER
 10
0.5992594419934555
 20
9.335528029938803
 30
0.0
  0
VERTEX
  5
EA7
  8
BACK_LAYER
 10
0.5905519444618839
 20
9.302433330990127
 30
0.0
  0
VERTEX
  5
EA8
  8
BACK_LAYER
 10
0.5821728414931211
 20
9.269268703500414
 30
0.0
  0
VERTEX
  5
EA9
  8
BACK_LAYER
 10
0.5741227535063216
 20
9.236036015249267
 30
0.0
  0
VERTEX
  5
EAA
  8
BACK_LAYER
 10
0.5664023009206398
 20
9.202737134016289
 30
0.0
  0
VERTEX
  5
EAB
  8
BACK_LAYER
 10
0.55901210415523
 20
9.169373927581079
 30
0.0
  0
VERTEX
  5
EAC
  8
BACK_LAYER
 10
0.5519527836292466
 20
9.13594826372324
 30
0.0
  0
VERTEX
  5
EAD
  8
BACK_LAYER
 10
0.5452249597618442
 20
9.102462010222371
 30
0.0
  0
VERTEX
  5
EAE
  8
BACK_LAYER
 10
0.538829252972177
 20
9.068917034858075
 30
0.0
  0
VERTEX
  5
EAF
  8
BACK_LAYER
 10
0.5327662836793997
 20
9.035315205409953
 30
0.0
  0
VERTEX
  5
EB0
  8
BACK_LAYER
 10
0.5270366723026665
 20
9.00165838965761
 30
0.0
  0
VERTEX
  5
EB1
  8
BACK_LAYER
 10
0.5222518233279685
 20
8.971254290838687
 30
0.0
  0
VERTEX
  5
EB2
  8
BACK_LAYER
 10
0.5179334121049719
 20
8.940817302906009
 30
0.0
  0
VERTEX
  5
EB3
  8
BACK_LAYER
 10
0.5140811167898204
 20
8.9103514952674
 30
0.0
  0
VERTEX
  5
EB4
  8
BACK_LAYER
 10
0.5106946155386571
 20
8.879860937330676
 30
0.0
  0
VERTEX
  5
EB5
  8
BACK_LAYER
 10
0.5077735865076256
 20
8.84934969850365
 30
0.0
  0
VERTEX
  5
EB6
  8
BACK_LAYER
 10
0.5053177078528692
 20
8.81882184819414
 30
0.0
  0
VERTEX
  5
EB7
  8
BACK_LAYER
 10
0.5033266577305313
 20
8.788281455809965
 30
0.0
  0
VERTEX
  5
EB8
  8
BACK_LAYER
 10
0.5018001142967554
 20
8.75773259075894
 30
0.0
  0
VERTEX
  5
EB9
  8
BACK_LAYER
 10
0.5007377557076849
 20
8.727179322448881
 30
0.0
  0
VERTEX
  5
EBA
  8
BACK_LAYER
 10
0.5001392601194629
 20
8.696625720287605
 30
0.0
  0
VERTEX
  5
EBB
  8
BACK_LAYER
 10
0.5000043056882328
 20
8.666075853682928
 30
0.0
  0
VERTEX
  5
EBC
  8
BACK_LAYER
 10
0.5003325705701385
 20
8.635533792042667
 30
0.0
  0
VERTEX
  5
EBD
  8
BACK_LAYER
 10
0.5011237329213227
 20
8.605003604774637
 30
0.0
  0
VERTEX
  5
EBE
  8
BACK_LAYER
 10
0.5023774708979294
 20
8.574489361286659
 30
0.0
  0
VERTEX
  5
EBF
  8
BACK_LAYER
 10
0.5040934626561016
 20
8.543995130986549
 30
0.0
  0
VERTEX
  5
EC0
  8
BACK_LAYER
 10
0.5062713863519828
 20
8.513524983282117
 30
0.0
  0
VERTEX
  5
EC1
  8
BACK_LAYER
 10
0.5089109201417163
 20
8.483082987581186
 30
0.0
  0
VERTEX
  5
EC2
  8
BACK_LAYER
 10
0.5120117421814456
 20
8.452673213291572
 30
0.0
  0
VERTEX
  5
EC3
  8
BACK_LAYER
 10
0.5155735306273141
 20
8.422299729821091
 30
0.0
  0
VERTEX
  5
EC4
  8
BACK_LAYER
 10
0.5195959636354652
 20
8.391966606577558
 30
0.0
  0
VERTEX
  5
EC5
  8
BACK_LAYER
 10
0.5240787193620422
 20
8.36167791296879
 30
0.0
  0
VERTEX
  5
EC6
  8
BACK_LAYER
 10
0.5290214759631885
 20
8.331437718402604
 30
0.0
  0
VERTEX
  5
EC7
  8
BACK_LAYER
 10
0.5344239115950475
 20
8.301250092286818
 30
0.0
  0
VERTEX
  5
EC8
  8
BACK_LAYER
 10
0.5402857044137628
 20
8.271119104029246
 30
0.0
  0
VERTEX
  5
EC9
  8
BACK_LAYER
 10
0.5466065325754774
 20
8.241048823037708
 30
0.0
  0
VERTEX
  5
ECA
  8
BACK_LAYER
 10
0.553386074236335
 20
8.211043318720018
 30
0.0
  0
VERTEX
  5
ECB
  8
BACK_LAYER
 10
0.5606240075524788
 20
8.181106660483993
 30
0.0
  0
VERTEX
  5
ECC
  8
BACK_LAYER
 10
0.5683200106800521
 20
8.151242917737449
 30
0.0
  0
VERTEX
  5
ECD
  8
BACK_LAYER
 10
0.5764737617751985
 20
8.121456159888204
 30
0.0
  0
VERTEX
  5
ECE
  8
BACK_LAYER
 10
0.5850849389940614
 20
8.091750456344075
 30
0.0
  0
VERTEX
  5
ECF
  8
BACK_LAYER
 10
0.5941532204927842
 20
8.062129876512877
 30
0.0
  0
VERTEX
  5
ED0
  8
BACK_LAYER
 10
0.60367828442751
 20
8.032598489802428
 30
0.0
  0
VERTEX
  5
ED1
  8
BACK_LAYER
 10
0.608039729477636
 20
8.020089848128059
 30
0.0
  0
VERTEX
  5
ED2
  8
BACK_LAYER
 10
0.6127750264081906
 20
8.007790623901617
 30
0.0
  0
VERTEX
  5
ED3
  8
BACK_LAYER
 10
0.6178766368695936
 20
7.995703578758524
 30
0.0
  0
VERTEX
  5
ED4
  8
BACK_LAYER
 10
0.6233370225122642
 20
7.983831474334203
 30
0.0
  0
VERTEX
  5
ED5
  8
BACK_LAYER
 10
0.6291486449866219
 20
7.972177072264074
 30
0.0
  0
VERTEX
  5
ED6
  8
BACK_LAYER
 10
0.6353039659430861
 20
7.960743134183561
 30
0.0
  0
VERTEX
  5
ED7
  8
BACK_LAYER
 10
0.6417954470320766
 20
7.949532421728083
 30
0.0
  0
VERTEX
  5
ED8
  8
BACK_LAYER
 10
0.6486155499040123
 20
7.938547696533064
 30
0.0
  0
VERTEX
  5
ED9
  8
BACK_LAYER
 10
0.6557567362093131
 20
7.927791720233925
 30
0.0
  0
VERTEX
  5
EDA
  8
BACK_LAYER
 10
0.663211467598398
 20
7.917267254466089
 30
0.0
  0
VERTEX
  5
EDB
  8
BACK_LAYER
 10
0.6709722057216869
 20
7.906977060864977
 30
0.0
  0
VERTEX
  5
EDC
  8
BACK_LAYER
 10
0.6790314122295991
 20
7.89692390106601
 30
0.0
  0
VERTEX
  5
EDD
  8
BACK_LAYER
 10
0.6873815487725541
 20
7.887110536704613
 30
0.0
  0
VERTEX
  5
EDE
  8
BACK_LAYER
 10
0.6960150770009712
 20
7.877539729416205
 30
0.0
  0
VERTEX
  5
EDF
  8
BACK_LAYER
 10
0.7049244585652699
 20
7.86821424083621
 30
0.0
  0
VERTEX
  5
EE0
  8
BACK_LAYER
 10
0.7141021551158697
 20
7.859136832600049
 30
0.0
  0
VERTEX
  5
EE1
  8
BACK_LAYER
 10
0.7235406283031902
 20
7.850310266343143
 30
0.0
  0
VERTEX
  5
EE2
  8
BACK_LAYER
 10
0.7332323397776506
 20
7.841737303700916
 30
0.0
  0
VERTEX
  5
EE3
  8
BACK_LAYER
 10
0.7431697511896702
 20
7.833420706308788
 30
0.0
  0
VERTEX
  5
EE4
  8
BACK_LAYER
 10
0.7533453241896688
 20
7.825363235802182
 30
0.0
  0
VERTEX
  5
EE5
  8
BACK_LAYER
 10
0.7637515204280658
 20
7.81756765381652
 30
0.0
  0
VERTEX
  5
EE6
  8
BACK_LAYER
 10
0.7743808015552807
 20
7.810036721987222
 30
0.0
  0
VERTEX
  5
EE7
  8
BACK_LAYER
 10
0.7852256292217327
 20
7.802773201949712
 30
0.0
  0
VERTEX
  5
EE8
  8
BACK_LAYER
 10
0.7962784650778414
 20
7.795779855339411
 30
0.0
  0
VERTEX
  5
EE9
  8
BACK_LAYER
 10
0.8075317707740263
 20
7.789059443791742
 30
0.0
  0
VERTEX
  5
EEA
  8
BACK_LAYER
 10
0.8189780079607067
 20
7.782614728942125
 30
0.0
  0
VERTEX
  5
EEB
  8
BACK_LAYER
 10
0.8306096382883023
 20
7.776448472425985
 30
0.0
  0
VERTEX
  5
EEC
  8
BACK_LAYER
 10
0.8424191234072324
 20
7.770563435878741
 30
0.0
  0
VERTEX
  5
EED
  8
BACK_LAYER
 10
0.8543989249679164
 20
7.764962380935818
 30
0.0
  0
VERTEX
  5
EEE
  8
BACK_LAYER
 10
0.8665415046207737
 20
7.759648069232633
 30
0.0
  0
VERTEX
  5
EEF
  8
BACK_LAYER
 10
0.878839324016224
 20
7.754623262404612
 30
0.0
  0
VERTEX
  5
EF0
  8
BACK_LAYER
 10
0.8912848448046866
 20
7.749890722087176
 30
0.0
  0
VERTEX
  5
EF1
  8
BACK_LAYER
 10
0.9038705286365809
 20
7.745453209915748
 30
0.0
  0
VERTEX
  5
EF2
  8
BACK_LAYER
 10
0.9165888371623264
 20
7.741313487525746
 30
0.0
  0
VERTEX
  5
EF3
  8
BACK_LAYER
 10
0.9294322320323426
 20
7.737474316552596
 30
0.0
  0
VERTEX
  5
EF4
  8
BACK_LAYER
 10
0.942393174897049
 20
7.733938458631718
 30
0.0
  0
VERTEX
  5
EF5
  8
BACK_LAYER
 10
0.9554641274068649
 20
7.730708675398534
 30
0.0
  0
VERTEX
  5
EF6
  8
BACK_LAYER
 10
0.9686375512122098
 20
7.727787728488467
 30
0.0
  0
VERTEX
  5
EF7
  8
BACK_LAYER
 10
0.9819059079635032
 20
7.725178379536938
 30
0.0
  0
VERTEX
  5
EF8
  8
BACK_LAYER
 10
0.9952616593111645
 20
7.722883390179369
 30
0.0
  0
VERTEX
  5
EF9
  8
BACK_LAYER
 10
1.008697266905613
 20
7.720905522051183
 30
0.0
  0
VERTEX
  5
EFA
  8
BACK_LAYER
 10
1.022205192397268
 20
7.7192475367878
 30
0.0
  0
VERTEX
  5
EFB
  8
BACK_LAYER
 10
1.03577789743655
 20
7.717912196024644
 30
0.0
  0
VERTEX
  5
EFC
  8
BACK_LAYER
 10
1.049407843673878
 20
7.716902261397135
 30
0.0
  0
VERTEX
  5
EFD
  8
BACK_LAYER
 10
1.063087492759671
 20
7.716220494540696
 30
0.0
  0
VERTEX
  5
EFE
  8
BACK_LAYER
 10
1.076809306344348
 20
7.715869657090749
 30
0.0
  0
VERTEX
  5
EFF
  8
BACK_LAYER
 10
1.090565746078329
 20
7.715852510682716
 30
0.0
  0
VERTEX
  5
F00
  8
BACK_LAYER
 10
1.104349273612034
 20
7.716171816952018
 30
0.0
  0
VERTEX
  5
F01
  8
BACK_LAYER
 10
1.118152350595882
 20
7.716830337534078
 30
0.0
  0
VERTEX
  5
F02
  8
BACK_LAYER
 10
1.131967438680293
 20
7.717830834064317
 30
0.0
  0
VERTEX
  5
F03
  8
BACK_LAYER
 10
1.145786999515685
 20
7.719176068178157
 30
0.0
  0
VERTEX
  5
F04
  8
BACK_LAYER
 10
1.159603494752479
 20
7.720868801511021
 30
0.0
  0
VERTEX
  5
F05
  8
BACK_LAYER
 10
1.173409386041093
 20
7.72291179569833
 30
0.0
  0
VERTEX
  5
F06
  8
BACK_LAYER
 10
1.187197135031948
 20
7.725307812375506
 30
0.0
  0
VERTEX
  5
F07
  8
BACK_LAYER
 10
1.200959203375462
 20
7.728059613177971
 30
0.0
  0
VERTEX
  5
F08
  8
BACK_LAYER
 10
1.214688052722055
 20
7.731169959741147
 30
0.0
  0
VERTEX
  5
F09
  8
BACK_LAYER
 10
1.228376144722148
 20
7.734641613700455
 30
0.0
  0
VERTEX
  5
F0A
  8
BACK_LAYER
 10
1.242015941026158
 20
7.738477336691319
 30
0.0
  0
VERTEX
  5
F0B
  8
BACK_LAYER
 10
1.255599903284505
 20
7.74267989034916
 30
0.0
  0
VERTEX
  5
F0C
  8
BACK_LAYER
 10
1.26912049314761
 20
7.747252036309399
 30
0.0
  0
VERTEX
  5
F0D
  8
BACK_LAYER
 10
1.282570172265891
 20
7.752196536207459
 30
0.0
  0
VERTEX
  5
F0E
  8
BACK_LAYER
 10
1.295941402289768
 20
7.757516151678761
 30
0.0
  0
VERTEX
  5
F0F
  8
BACK_LAYER
 10
1.30922664486966
 20
7.763213644358728
 30
0.0
  0
VERTEX
  5
F10
  8
BACK_LAYER
 10
1.322418361655986
 20
7.769291775882781
 30
0.0
  0
VERTEX
  5
F11
  8
BACK_LAYER
 10
1.351398455623637
 20
7.783310615449118
 30
0.0
  0
VERTEX
  5
F12
  8
BACK_LAYER
 10
1.38017387052344
 20
7.797620179365751
 30
0.0
  0
VERTEX
  5
F13
  8
BACK_LAYER
 10
1.408741970785865
 20
7.812218575780599
 30
0.0
  0
VERTEX
  5
F14
  8
BACK_LAYER
 10
1.437100120841384
 20
7.827103912841575
 30
0.0
  0
VERTEX
  5
F15
  8
BACK_LAYER
 10
1.465245685120466
 20
7.842274298696594
 30
0.0
  0
VERTEX
  5
F16
  8
BACK_LAYER
 10
1.493176028053581
 20
7.857727841493574
 30
0.0
  0
VERTEX
  5
F17
  8
BACK_LAYER
 10
1.5208885140712
 20
7.873462649380429
 30
0.0
  0
VERTEX
  5
F18
  8
BACK_LAYER
 10
1.548380507603792
 20
7.889476830505071
 30
0.0
  0
VERTEX
  5
F19
  8
BACK_LAYER
 10
1.575649373081829
 20
7.905768493015419
 30
0.0
  0
VERTEX
  5
F1A
  8
BACK_LAYER
 10
1.60269247493578
 20
7.922335745059387
 30
0.0
  0
VERTEX
  5
F1B
  8
BACK_LAYER
 10
1.629507177596115
 20
7.93917669478489
 30
0.0
  0
VERTEX
  5
F1C
  8
BACK_LAYER
 10
1.656090845493306
 20
7.956289450339844
 30
0.0
  0
VERTEX
  5
F1D
  8
BACK_LAYER
 10
1.682440843057821
 20
7.973672119872163
 30
0.0
  0
VERTEX
  5
F1E
  8
BACK_LAYER
 10
1.708554534720133
 20
7.991322811529763
 30
0.0
  0
VERTEX
  5
F1F
  8
BACK_LAYER
 10
1.734429284910709
 20
8.00923963346056
 30
0.0
  0
VERTEX
  5
F20
  8
BACK_LAYER
 10
1.760062458060021
 20
8.027420693812466
 30
0.0
  0
VERTEX
  5
F21
  8
BACK_LAYER
 10
1.78545141859854
 20
8.0458641007334
 30
0.0
  0
VERTEX
  5
F22
  8
BACK_LAYER
 10
1.810593530956734
 20
8.064567962371274
 30
0.0
  0
VERTEX
  5
F23
  8
BACK_LAYER
 10
1.835486159565075
 20
8.083530386874008
 30
0.0
  0
VERTEX
  5
F24
  8
BACK_LAYER
 10
1.860126668854033
 20
8.102749482389513
 30
0.0
  0
VERTEX
  5
F25
  8
BACK_LAYER
 10
1.884512423254078
 20
8.122223357065703
 30
0.0
  0
VERTEX
  5
F26
  8
BACK_LAYER
 10
1.90864078719568
 20
8.141950119050497
 30
0.0
  0
VERTEX
  5
F27
  8
BACK_LAYER
 10
1.932509125109309
 20
8.16192787649181
 30
0.0
  0
VERTEX
  5
F28
  8
BACK_LAYER
 10
1.956114801425437
 20
8.182154737537552
 30
0.0
  0
VERTEX
  5
F29
  8
BACK_LAYER
 10
1.979455180574532
 20
8.202628810335643
 30
0.0
  0
VERTEX
  5
F2A
  8
BACK_LAYER
 10
2.002527626987066
 20
8.223348203034
 30
0.0
  0
VERTEX
  5
F2B
  8
BACK_LAYER
 10
2.025329505093508
 20
8.244311023780533
 30
0.0
  0
VERTEX
  5
F2C
  8
BACK_LAYER
 10
2.047858179324328
 20
8.265515380723162
 30
0.0
  0
VERTEX
  5
F2D
  8
BACK_LAYER
 10
2.070111014109998
 20
8.2869593820098
 30
0.0
  0
VERTEX
  5
F2E
  8
BACK_LAYER
 10
2.092085373880987
 20
8.30864113578836
 30
0.0
  0
VERTEX
  5
F2F
  8
BACK_LAYER
 10
2.113778623067766
 20
8.33055875020676
 30
0.0
  0
VERTEX
  5
F30
  8
BACK_LAYER
 10
2.135188126100804
 20
8.352710333412915
 30
0.0
  0
VERTEX
  5
F31
  8
BACK_LAYER
 10
2.146889539874745
 20
8.364743555467097
 30
0.0
  0
VERTEX
  5
F32
  8
BACK_LAYER
 10
2.158818433160911
 20
8.376577905748839
 30
0.0
  0
VERTEX
  5
F33
  8
BACK_LAYER
 10
2.183344684000323
 20
8.39964177685006
 30
0.0
  0
VERTEX
  5
F34
  8
BACK_LAYER
 10
2.208738930079845
 20
8.421885518426713
 30
0.0
  0
VERTEX
  5
F35
  8
BACK_LAYER
 10
2.234973222860284
 20
8.443292702188923
 30
0.0
  0
VERTEX
  5
F36
  8
BACK_LAYER
 10
2.262019613802448
 20
8.463846899846825
 30
0.0
  0
VERTEX
  5
F37
  8
BACK_LAYER
 10
2.289850154367143
 20
8.483531683110545
 30
0.0
  0
VERTEX
  5
F38
  8
BACK_LAYER
 10
2.318436896015174
 20
8.502330623690217
 30
0.0
  0
VERTEX
  5
F39
  8
BACK_LAYER
 10
2.34775189020735
 20
8.520227293295967
 30
0.0
  0
VERTEX
  5
F3A
  8
BACK_LAYER
 10
2.377767188404476
 20
8.53720526363793
 30
0.0
  0
VERTEX
  5
F3B
  8
BACK_LAYER
 10
2.40845484206736
 20
8.553248106426231
 30
0.0
  0
VERTEX
  5
F3C
  8
BACK_LAYER
 10
2.439786902656808
 20
8.568339393371003
 30
0.0
  0
VERTEX
  5
F3D
  8
BACK_LAYER
 10
2.471735421633626
 20
8.582462696182377
 30
0.0
  0
VERTEX
  5
F3E
  8
BACK_LAYER
 10
2.50427245045862
 20
8.595601586570483
 30
0.0
  0
VERTEX
  5
F3F
  8
BACK_LAYER
 10
2.537370040592599
 20
8.60773963624545
 30
0.0
  0
VERTEX
  5
F40
  8
BACK_LAYER
 10
2.571000243496368
 20
8.618860416917407
 30
0.0
  0
VERTEX
  5
F41
  8
BACK_LAYER
 10
2.605135110630734
 20
8.628947500296487
 30
0.0
  0
VERTEX
  5
F42
  8
BACK_LAYER
 10
2.61880410957082
 20
8.632420514818566
 30
0.0
  0
VERTEX
  5
F43
  8
BACK_LAYER
 10
2.63250956420879
 20
8.635254165765149
 30
0.0
  0
VERTEX
  5
F44
  8
BACK_LAYER
 10
2.646229796059394
 20
8.637458256875178
 30
0.0
  0
VERTEX
  5
F45
  8
BACK_LAYER
 10
2.659943126637382
 20
8.639042591887593
 30
0.0
  0
VERTEX
  5
F46
  8
BACK_LAYER
 10
2.673627877457503
 20
8.640016974541336
 30
0.0
  0
VERTEX
  5
F47
  8
BACK_LAYER
 10
2.687262370034508
 20
8.64039120857535
 30
0.0
  0
VERTEX
  5
F48
  8
BACK_LAYER
 10
2.700824925883148
 20
8.640175097728573
 30
0.0
  0
VERTEX
  5
F49
  8
BACK_LAYER
 10
2.714293866518171
 20
8.639378445739947
 30
0.0
  0
VERTEX
  5
F4A
  8
BACK_LAYER
 10
2.727647513454327
 20
8.638011056348413
 30
0.0
  0
VERTEX
  5
F4B
  8
BACK_LAYER
 10
2.740864188206368
 20
8.636082733292913
 30
0.0
  0
VERTEX
  5
F4C
  8
BACK_LAYER
 10
2.753922212289042
 20
8.633603280312387
 30
0.0
  0
VERTEX
  5
F4D
  8
BACK_LAYER
 10
2.766799907217099
 20
8.630582501145778
 30
0.0
  0
VERTEX
  5
F4E
  8
BACK_LAYER
 10
2.779475594505289
 20
8.627030199532024
 30
0.0
  0
VERTEX
  5
F4F
  8
BACK_LAYER
 10
2.791927595668364
 20
8.62295617921007
 30
0.0
  0
VERTEX
  5
F50
  8
BACK_LAYER
 10
2.804134232221072
 20
8.618370243918855
 30
0.0
  0
VERTEX
  5
F51
  8
BACK_LAYER
 10
2.816073825678163
 20
8.61328219739732
 30
0.0
  0
VERTEX
  5
F52
  8
BACK_LAYER
 10
2.827724697554388
 20
8.607701843384406
 30
0.0
  0
VERTEX
  5
F53
  8
BACK_LAYER
 10
2.839065169364496
 20
8.601638985619056
 30
0.0
  0
VERTEX
  5
F54
  8
BACK_LAYER
 10
2.850073562623238
 20
8.59510342784021
 30
0.0
  0
VERTEX
  5
F55
  8
BACK_LAYER
 10
2.860728198845363
 20
8.588104973786805
 30
0.0
  0
VERTEX
  5
F56
  8
BACK_LAYER
 10
2.871007399545621
 20
8.58065342719779
 30
0.0
  0
VERTEX
  5
F57
  8
BACK_LAYER
 10
2.880889486238762
 20
8.572758591812098
 30
0.0
  0
VERTEX
  5
F58
  8
BACK_LAYER
 10
2.890352780439537
 20
8.564430271368677
 30
0.0
  0
VERTEX
  5
F59
  8
BACK_LAYER
 10
2.899375603662695
 20
8.555678269606464
 30
0.0
  0
VERTEX
  5
F5A
  8
BACK_LAYER
 10
2.907936277422986
 20
8.546512390264402
 30
0.0
  0
VERTEX
  5
F5B
  8
BACK_LAYER
 10
2.916013123235159
 20
8.536942437081432
 30
0.0
  0
VERTEX
  5
F5C
  8
BACK_LAYER
 10
2.923584462613966
 20
8.526978213796493
 30
0.0
  0
VERTEX
  5
F5D
  8
BACK_LAYER
 10
2.930628617074157
 20
8.51662952414853
 30
0.0
  0
VERTEX
  5
F5E
  8
BACK_LAYER
 10
2.937123908130479
 20
8.505906171876482
 30
0.0
  0
VERTEX
  5
F5F
  8
BACK_LAYER
 10
2.943048657297685
 20
8.494817960719288
 30
0.0
  0
VERTEX
  5
F60
  8
BACK_LAYER
 10
2.948381186090524
 20
8.483374694415893
 30
0.0
  0
VERTEX
  5
F61
  8
BACK_LAYER
 10
2.953099816023745
 20
8.471586176705237
 30
0.0
  0
VERTEX
  5
F62
  8
BACK_LAYER
 10
2.968302529402929
 20
8.429176748948404
 30
0.0
  0
VERTEX
  5
F63
  8
BACK_LAYER
 10
2.982731494463467
 20
8.386602736437153
 30
0.0
  0
VERTEX
  5
F64
  8
BACK_LAYER
 10
2.996386132900875
 20
8.343872240098973
 30
0.0
  0
VERTEX
  5
F65
  8
BACK_LAYER
 10
3.009265866410669
 20
8.30099336086135
 30
0.0
  0
VERTEX
  5
F66
  8
BACK_LAYER
 10
3.021370116688363
 20
8.257974199651773
 30
0.0
  0
VERTEX
  5
F67
  8
BACK_LAYER
 10
3.032698305429473
 20
8.214822857397735
 30
0.0
  0
VERTEX
  5
F68
  8
BACK_LAYER
 10
3.043249854329513
 20
8.171547435026719
 30
0.0
  0
VERTEX
  5
F69
  8
BACK_LAYER
 10
3.053024185084
 20
8.128156033466215
 30
0.0
  0
VERTEX
  5
F6A
  8
BACK_LAYER
 10
3.062020719388448
 20
8.084656753643714
 30
0.0
  0
VERTEX
  5
F6B
  8
BACK_LAYER
 10
3.070238878938372
 20
8.041057696486698
 30
0.0
  0
VERTEX
  5
F6C
  8
BACK_LAYER
 10
3.077678085429287
 20
7.99736696292266
 30
0.0
  0
VERTEX
  5
F6D
  8
BACK_LAYER
 10
3.08433776055671
 20
7.953592653879087
 30
0.0
  0
VERTEX
  5
F6E
  8
BACK_LAYER
 10
3.090217326016154
 20
7.909742870283468
 30
0.0
  0
VERTEX
  5
F6F
  8
BACK_LAYER
 10
3.095316203503136
 20
7.865825713063289
 30
0.0
  0
VERTEX
  5
F70
  8
BACK_LAYER
 10
3.09963381471317
 20
7.821849283146042
 30
0.0
  0
VERTEX
  5
F71
  8
BACK_LAYER
 10
3.103169581341771
 20
7.777821681459213
 30
0.0
  0
VERTEX
  5
F72
  8
BACK_LAYER
 10
3.105922925084454
 20
7.73375100893029
 30
0.0
  0
VERTEX
  5
F73
  8
BACK_LAYER
 10
3.107893267636736
 20
7.689645366486762
 30
0.0
  0
VERTEX
  5
F74
  8
BACK_LAYER
 10
3.10908003069413
 20
7.645512855056118
 30
0.0
  0
VERTEX
  5
F75
  8
BACK_LAYER
 10
3.109482635952153
 20
7.601361575565845
 30
0.0
  0
VERTEX
  5
F76
  8
BACK_LAYER
 10
3.109100505106319
 20
7.557199628943431
 30
0.0
  0
VERTEX
  5
F77
  8
BACK_LAYER
 10
3.107933059852143
 20
7.513035116116367
 30
0.0
  0
VERTEX
  5
F78
  8
BACK_LAYER
 10
3.105979721885142
 20
7.468876138012138
 30
0.0
  0
VERTEX
  5
F79
  8
BACK_LAYER
 10
3.103239912900829
 20
7.424730795558235
 30
0.0
  0
VERTEX
  5
F7A
  8
BACK_LAYER
 10
3.09971305459472
 20
7.380607189682143
 30
0.0
  0
VERTEX
  5
F7B
  8
BACK_LAYER
 10
3.095398568662331
 20
7.336513421311354
 30
0.0
  0
VERTEX
  5
F7C
  8
BACK_LAYER
 10
3.090295876799176
 20
7.292457591373354
 30
0.0
  0
VERTEX
  5
F7D
  8
BACK_LAYER
 10
3.084404400700771
 20
7.248447800795633
 30
0.0
  0
VERTEX
  5
F7E
  8
BACK_LAYER
 10
3.07772356206263
 20
7.204492150505677
 30
0.0
  0
VERTEX
  5
F7F
  8
BACK_LAYER
 10
3.07025278258027
 20
7.160598741430976
 30
0.0
  0
VERTEX
  5
F80
  8
BACK_LAYER
 10
3.061991483949205
 20
7.116775674499017
 30
0.0
  0
VERTEX
  5
F81
  8
BACK_LAYER
 10
3.05293908786495
 20
7.073031050637289
 30
0.0
  0
VERTEX
  5
F82
  8
BACK_LAYER
 10
3.043566503416588
 20
7.03056012594535
 30
0.0
  0
VERTEX
  5
F83
  8
BACK_LAYER
 10
3.03382839735895
 20
6.988162263555469
 30
0.0
  0
VERTEX
  5
F84
  8
BACK_LAYER
 10
3.023725418288703
 20
6.945839246396543
 30
0.0
  0
VERTEX
  5
F85
  8
BACK_LAYER
 10
3.013258214802513
 20
6.903592857397464
 30
0.0
  0
VERTEX
  5
F86
  8
BACK_LAYER
 10
3.002427435497046
 20
6.861424879487126
 30
0.0
  0
VERTEX
  5
F87
  8
BACK_LAYER
 10
2.99123372896897
 20
6.819337095594422
 30
0.0
  0
VERTEX
  5
F88
  8
BACK_LAYER
 10
2.979677743814952
 20
6.777331288648247
 30
0.0
  0
VERTEX
  5
F89
  8
BACK_LAYER
 10
2.967760128631657
 20
6.735409241577494
 30
0.0
  0
VERTEX
  5
F8A
  8
BACK_LAYER
 10
2.955481532015752
 20
6.693572737311055
 30
0.0
  0
VERTEX
  5
F8B
  8
BACK_LAYER
 10
2.942842602563903
 20
6.651823558777824
 30
0.0
  0
VERTEX
  5
F8C
  8
BACK_LAYER
 10
2.929843988872779
 20
6.610163488906696
 30
0.0
  0
VERTEX
  5
F8D
  8
BACK_LAYER
 10
2.916486339539044
 20
6.568594310626563
 30
0.0
  0
VERTEX
  5
F8E
  8
BACK_LAYER
 10
2.902770303159365
 20
6.527117806866318
 30
0.0
  0
VERTEX
  5
F8F
  8
BACK_LAYER
 10
2.88869652833041
 20
6.485735760554857
 30
0.0
  0
VERTEX
  5
F90
  8
BACK_LAYER
 10
2.874265663648843
 20
6.444449954621073
 30
0.0
  0
VERTEX
  5
F91
  8
BACK_LAYER
 10
2.859478357711334
 20
6.403262171993858
 30
0.0
  0
VERTEX
  5
F92
  8
BACK_LAYER
 10
2.844335259114547
 20
6.362174195602107
 30
0.0
  0
VERTEX
  5
F93
  8
BACK_LAYER
 10
2.828837016455149
 20
6.321187808374712
 30
0.0
  0
VERTEX
  5
F94
  8
BACK_LAYER
 10
2.812984278329807
 20
6.280304793240568
 30
0.0
  0
VERTEX
  5
F95
  8
BACK_LAYER
 10
2.796777693335188
 20
6.239526933128567
 30
0.0
  0
VERTEX
  5
F96
  8
BACK_LAYER
 10
2.780217910067957
 20
6.198856010967603
 30
0.0
  0
VERTEX
  5
F97
  8
BACK_LAYER
 10
2.763305577124783
 20
6.158293809686571
 30
0.0
  0
VERTEX
  5
F98
  8
BACK_LAYER
 10
2.74604134310233
 20
6.117842112214364
 30
0.0
  0
VERTEX
  5
F99
  8
BACK_LAYER
 10
2.728425856597267
 20
6.077502701479874
 30
0.0
  0
VERTEX
  5
F9A
  8
BACK_LAYER
 10
2.710459766206258
 20
6.037277360411997
 30
0.0
  0
VERTEX
  5
F9B
  8
BACK_LAYER
 10
2.692143720525972
 20
5.997167871939624
 30
0.0
  0
VERTEX
  5
F9C
  8
BACK_LAYER
 10
2.673478368153074
 20
5.95717601899165
 30
0.0
  0
VERTEX
  5
F9D
  8
BACK_LAYER
 10
2.654464357684231
 20
5.917303584496969
 30
0.0
  0
VERTEX
  5
F9E
  8
BACK_LAYER
 10
2.635102337716109
 20
5.877552351384472
 30
0.0
  0
VERTEX
  5
F9F
  8
BACK_LAYER
 10
2.615392956845376
 20
5.837924102583055
 30
0.0
  0
VERTEX
  5
FA0
  8
BACK_LAYER
 10
2.595336863668698
 20
5.798420621021611
 30
0.0
  0
VERTEX
  5
FA1
  8
BACK_LAYER
 10
2.574934706782741
 20
5.759043689629035
 30
0.0
  0
VERTEX
  5
FA2
  8
BACK_LAYER
 10
2.554529651509194
 20
5.719486381701815
 30
0.0
  0
VERTEX
  5
FA3
  8
BACK_LAYER
 10
2.534627565825133
 20
5.67975336210346
 30
0.0
  0
VERTEX
  5
FA4
  8
BACK_LAYER
 10
2.515229566936058
 20
5.639848377069666
 30
0.0
  0
VERTEX
  5
FA5
  8
BACK_LAYER
 10
2.49633677204747
 20
5.599775172836127
 30
0.0
  0
VERTEX
  5
FA6
  8
BACK_LAYER
 10
2.477950298364867
 20
5.559537495638539
 30
0.0
  0
VERTEX
  5
FA7
  8
BACK_LAYER
 10
2.46007126309375
 20
5.519139091712598
 30
0.0
  0
VERTEX
  5
FA8
  8
BACK_LAYER
 10
2.442700783439617
 20
5.478583707293996
 30
0.0
  0
VERTEX
  5
FA9
  8
BACK_LAYER
 10
2.425839976607967
 20
5.43787508861843
 30
0.0
  0
VERTEX
  5
FAA
  8
BACK_LAYER
 10
2.409489959804302
 20
5.397016981921595
 30
0.0
  0
VERTEX
  5
FAB
  8
BACK_LAYER
 10
2.39365185023412
 20
5.356013133439188
 30
0.0
  0
VERTEX
  5
FAC
  8
BACK_LAYER
 10
2.378326765102921
 20
5.314867289406901
 30
0.0
  0
VERTEX
  5
FAD
  8
BACK_LAYER
 10
2.363515821616205
 20
5.27358319606043
 30
0.0
  0
VERTEX
  5
FAE
  8
BACK_LAYER
 10
2.34922013697947
 20
5.232164599635472
 30
0.0
  0
VERTEX
  5
FAF
  8
BACK_LAYER
 10
2.335440828398218
 20
5.19061524636772
 30
0.0
  0
VERTEX
  5
FB0
  8
BACK_LAYER
 10
2.322179013077946
 20
5.148938882492871
 30
0.0
  0
VERTEX
  5
FB1
  8
BACK_LAYER
 10
2.309435808224155
 20
5.107139254246619
 30
0.0
  0
VERTEX
  5
FB2
  8
BACK_LAYER
 10
2.297212331042344
 20
5.065220107864659
 30
0.0
  0
VERTEX
  5
FB3
  8
BACK_LAYER
 10
2.285509698738013
 20
5.023185189582687
 30
0.0
  0
VERTEX
  5
FB4
  8
BACK_LAYER
 10
2.274329028516662
 20
4.981038245636398
 30
0.0
  0
VERTEX
  5
FB5
  8
BACK_LAYER
 10
2.26367143758379
 20
4.938783022261487
 30
0.0
  0
VERTEX
  5
FB6
  8
BACK_LAYER
 10
2.253538043144895
 20
4.896423265693649
 30
0.0
  0
VERTEX
  5
FB7
  8
BACK_LAYER
 10
2.24392996240548
 20
4.853962722168579
 30
0.0
  0
VERTEX
  5
FB8
  8
BACK_LAYER
 10
2.234848312571041
 20
4.811405137921972
 30
0.0
  0
VERTEX
  5
FB9
  8
BACK_LAYER
 10
2.226294210847081
 20
4.768754259189524
 30
0.0
  0
VERTEX
  5
FBA
  8
BACK_LAYER
 10
2.218268774439097
 20
4.72601383220693
 30
0.0
  0
VERTEX
  5
FBB
  8
BACK_LAYER
 10
2.210773120552589
 20
4.683187603209885
 30
0.0
  0
VERTEX
  5
FBC
  8
BACK_LAYER
 10
2.203808366393057
 20
4.640279318434082
 30
0.0
  0
VERTEX
  5
FBD
  8
BACK_LAYER
 10
2.197375629166
 20
4.597292724115221
 30
0.0
  0
VERTEX
  5
FBE
  8
BACK_LAYER
 10
2.191476026076919
 20
4.554231566488992
 30
0.0
  0
VERTEX
  5
FBF
  8
BACK_LAYER
 10
2.186110674331313
 20
4.511099591791093
 30
0.0
  0
VERTEX
  5
FC0
  8
BACK_LAYER
 10
2.18128069113468
 20
4.467900546257218
 30
0.0
  0
VERTEX
  5
FC1
  8
BACK_LAYER
 10
2.176987193692521
 20
4.424638176123064
 30
0.0
  0
VERTEX
  5
FC2
  8
BACK_LAYER
 10
2.169704487141476
 20
4.342483912430772
 30
0.0
  0
VERTEX
  5
FC3
  8
BACK_LAYER
 10
2.163128281932297
 20
4.260291936652255
 30
0.0
  0
VERTEX
  5
FC4
  8
BACK_LAYER
 10
2.157258662605948
 20
4.178065761640523
 30
0.0
  0
VERTEX
  5
FC5
  8
BACK_LAYER
 10
2.152095713703397
 20
4.09580890024859
 30
0.0
  0
VERTEX
  5
FC6
  8
BACK_LAYER
 10
2.147639519765607
 20
4.013524865329465
 30
0.0
  0
VERTEX
  5
FC7
  8
BACK_LAYER
 10
2.143890165333545
 20
3.931217169736159
 30
0.0
  0
VERTEX
  5
FC8
  8
BACK_LAYER
 10
2.140847734948176
 20
3.848889326321681
 30
0.0
  0
VERTEX
  5
FC9
  8
BACK_LAYER
 10
2.138512313150465
 20
3.766544847939045
 30
0.0
  0
VERTEX
  5
FCA
  8
BACK_LAYER
 10
2.136883984481378
 20
3.684187247441261
 30
0.0
  0
VERTEX
  5
FCB
  8
BACK_LAYER
 10
2.13596283348188
 20
3.601820037681338
 30
0.0
  0
VERTEX
  5
FCC
  8
BACK_LAYER
 10
2.135748944692937
 20
3.519446731512289
 30
0.0
  0
VERTEX
  5
FCD
  8
BACK_LAYER
 10
2.136242402655514
 20
3.437070841787124
 30
0.0
  0
VERTEX
  5
FCE
  8
BACK_LAYER
 10
2.137443291910576
 20
3.354695881358854
 30
0.0
  0
VERTEX
  5
FCF
  8
BACK_LAYER
 10
2.13935169699909
 20
3.272325363080489
 30
0.0
  0
VERTEX
  5
FD0
  8
BACK_LAYER
 10
2.14196770246202
 20
3.189962799805041
 30
0.0
  0
VERTEX
  5
FD1
  8
BACK_LAYER
 10
2.145291392840332
 20
3.10761170438552
 30
0.0
  0
VERTEX
  5
FD2
  8
BACK_LAYER
 10
2.148200197514749
 20
3.050425733088121
 30
0.0
  0
VERTEX
  5
FD3
  8
BACK_LAYER
 10
2.151816408523645
 20
2.993282769715579
 30
0.0
  0
VERTEX
  5
FD4
  8
BACK_LAYER
 10
2.156139298919172
 20
2.936187846525347
 30
0.0
  0
VERTEX
  5
FD5
  8
BACK_LAYER
 10
2.161168141753478
 20
2.879145995774877
 30
0.0
  0
VERTEX
  5
FD6
  8
BACK_LAYER
 10
2.166902210078715
 20
2.822162249721625
 30
0.0
  0
VERTEX
  5
FD7
  8
BACK_LAYER
 10
2.173340776947031
 20
2.765241640623045
 30
0.0
  0
VERTEX
  5
FD8
  8
BACK_LAYER
 10
2.180483115410576
 20
2.70838920073659
 30
0.0
  0
VERTEX
  5
FD9
  8
BACK_LAYER
 10
2.188328498521501
 20
2.651609962319714
 30
0.0
  0
VERTEX
  5
FDA
  8
BACK_LAYER
 10
2.196876199331956
 20
2.594908957629872
 30
0.0
  0
VERTEX
  5
FDB
  8
BACK_LAYER
 10
2.206125490894089
 20
2.538291218924517
 30
0.0
  0
VERTEX
  5
FDC
  8
BACK_LAYER
 10
2.216075646260052
 20
2.481761778461103
 30
0.0
  0
VERTEX
  5
FDD
  8
BACK_LAYER
 10
2.226725938481994
 20
2.425325668497084
 30
0.0
  0
VERTEX
  5
FDE
  8
BACK_LAYER
 10
2.238075640612064
 20
2.368987921289914
 30
0.0
  0
VERTEX
  5
FDF
  8
BACK_LAYER
 10
2.250124025702414
 20
2.312753569097048
 30
0.0
  0
VERTEX
  5
FE0
  8
BACK_LAYER
 10
2.262870366805192
 20
2.256627644175939
 30
0.0
  0
VERTEX
  5
FE1
  8
BACK_LAYER
 10
2.276313936972549
 20
2.20061517878404
 30
0.0
  0
VERTEX
  5
FE2
  8
BACK_LAYER
 10
2.282546929932659
 20
2.175522527164382
 30
0.0
  0
VERTEX
  5
FE3
  8
BACK_LAYER
 10
2.289055990157324
 20
2.151278045213012
 30
0.0
  0
VERTEX
  5
FE4
  8
BACK_LAYER
 10
2.295822925925087
 20
2.127842041444132
 30
0.0
  0
VERTEX
  5
FE5
  8
BACK_LAYER
 10
2.302829545514486
 20
2.105174824371947
 30
0.0
  0
VERTEX
  5
FE6
  8
BACK_LAYER
 10
2.310057657204062
 20
2.083236702510658
 30
0.0
  0
VERTEX
  5
FE7
  8
BACK_LAYER
 10
2.317489069272354
 20
2.061987984374468
 30
0.0
  0
VERTEX
  5
FE8
  8
BACK_LAYER
 10
2.325105589997903
 20
2.041388978477582
 30
0.0
  0
SEQEND
  5
FF4
  8
BACK_LAYER
  0
ENDSEC
  0
EOF
