  0
SECTION
  2
HEADER
  9
$ACADVER
  1
AC1021
  9
$ACADMAINTVER
 70
    25
  9
$DWGCODEPAGE
  3
ANSI_1252
  9
$LASTSAVEDBY
  1
admin
  9
$INSBASE
 10
0.0
 20
0.0
 30
0.0
  9
$EXTMIN
 10
1.000000000000000E+20
 20
1.000000000000000E+20
 30
1.000000000000000E+20
  9
$EXTMAX
 10
-1.000000000000000E+20
 20
-1.000000000000000E+20
 30
-1.000000000000000E+20
  9
$LIMMIN
 10
0.0
 20
0.0
  9
$LIMMAX
 10
12.0
 20
9.0
  9
$ORTHOMODE
 70
     0
  9
$REGENMODE
 70
     1
  9
$FILLMODE
 70
     1
  9
$QTEXTMODE
 70
     0
  9
$MIRRTEXT
 70
     1
  9
$LTSCALE
 40
1.0
  9
$ATTMODE
 70
     1
  9
$TEXTSIZE
 40
0.2
  9
$TRACEWID
 40
0.05
  9
$TEXTSTYLE
  7
Standard
  9
$CLAYER
  8
0
  9
$CELTYPE
  6
ByLayer
  9
$CECOLOR
 62
   256
  9
$CELTSCALE
 40
1.0
  9
$DISPSILH
 70
     0
  9
$DIMSCALE
 40
1.0
  9
$DIMASZ
 40
0.18
  9
$DIMEXO
 40
0.0625
  9
$DIMDLI
 40
0.38
  9
$DIMRND
 40
0.0
  9
$DIMDLE
 40
0.0
  9
$DIMEXE
 40
0.18
  9
$DIMTP
 40
0.0
  9
$DIMTM
 40
0.0
  9
$DIMTXT
 40
0.18
  9
$DIMCEN
 40
0.09
  9
$DIMTSZ
 40
0.0
  9
$DIMTOL
 70
     0
  9
$DIMLIM
 70
     0
  9
$DIMTIH
 70
     1
  9
$DIMTOH
 70
     1
  9
$DIMSE1
 70
     0
  9
$DIMSE2
 70
     0
  9
$DIMTAD
 70
     0
  9
$DIMZIN
 70
     0
  9
$DIMBLK
  1

  9
$DIMASO
 70
     1
  9
$DIMSHO
 70
     1
  9
$DIMPOST
  1

  9
$DIMAPOST
  1

  9
$DIMALT
 70
     0
  9
$DIMALTD
 70
     2
  9
$DIMALTF
 40
25.4
  9
$DIMLFAC
 40
1.0
  9
$DIMTOFL
 70
     0
  9
$DIMTVP
 40
0.0
  9
$DIMTIX
 70
     0
  9
$DIMSOXD
 70
     0
  9
$DIMSAH
 70
     0
  9
$DIMBLK1
  1

  9
$DIMBLK2
  1

  9
$DIMSTYLE
  2
STANDARD_ACAD
  9
$DIMCLRD
 70
     0
  9
$DIMCLRE
 70
     0
  9
$DIMCLRT
 70
     0
  9
$DIMTFAC
 40
1.0
  9
$DIMGAP
 40
0.09
  9
$DIMJUST
 70
     0
  9
$DIMSD1
 70
     0
  9
$DIMSD2
 70
     0
  9
$DIMTOLJ
 70
     1
  9
$DIMTZIN
 70
     0
  9
$DIMALTZ
 70
     0
  9
$DIMALTTZ
 70
     0
  9
$DIMUPT
 70
     0
  9
$DIMDEC
 70
     4
  9
$DIMTDEC
 70
     4
  9
$DIMALTU
 70
     2
  9
$DIMALTTD
 70
     2
  9
$DIMTXSTY
  7
Standard
  9
$DIMAUNIT
 70
     0
  9
$DIMADEC
 70
     0
  9
$DIMALTRND
 40
0.0
  9
$DIMAZIN
 70
     0
  9
$DIMDSEP
 70
    46
  9
$DIMATFIT
 70
     3
  9
$DIMFRAC
 70
     0
  9
$DIMLDRBLK
  1

  9
$DIMLUNIT
 70
     2
  9
$DIMLWD
 70
    -2
  9
$DIMLWE
 70
    -2
  9
$DIMTMOVE
 70
     2
  9
$DIMFXL
 40
1.0
  9
$DIMFXLON
 70
     0
  9
$DIMJOGANG
 40
0.7853981633974483
  9
$DIMTFILL
 70
     0
  9
$DIMTFILLCLR
 70
     0
  9
$DIMARCSYM
 70
     0
  9
$DIMLTYPE
  6

  9
$DIMLTEX1
  6

  9
$DIMLTEX2
  6

  9
$LUNITS
 70
     2
  9
$LUPREC
 70
     2
  9
$SKETCHINC
 40
0.1
  9
$FILLETRAD
 40
0.0
  9
$AUNITS
 70
     0
  9
$AUPREC
 70
     0
  9
$MENU
  1
.
  9
$ELEVATION
 40
0.0
  9
$PELEVATION
 40
0.0
  9
$THICKNESS
 40
0.0
  9
$LIMCHECK
 70
     0
  9
$CHAMFERA
 40
0.0
  9
$CHAMFERB
 40
0.0
  9
$CHAMFERC
 40
0.0
  9
$CHAMFERD
 40
0.0
  9
$SKPOLY
 70
     0
  9
$TDCREATE
 40
2460970.580839178
  9
$TDUCREATE
 40
2460970.247505845
  9
$TDUPDATE
 40
2460970.580857025
  9
$TDUUPDATE
 40
2460970.247523692
  9
$TDINDWG
 40
0.0000000116
  9
$TDUSRTIMER
 40
0.0000000116
  9
$USRTIMER
 70
     1
  9
$ANGBASE
 50
0.0
  9
$ANGDIR
 70
     0
  9
$PDMODE
 70
     0
  9
$PDSIZE
 40
0.0
  9
$PLINEWID
 40
0.0
  9
$SPLFRAME
 70
     0
  9
$SPLINETYPE
 70
     6
  9
$SPLINESEGS
 70
     8
  9
$HANDSEED
  5
130
  9
$SURFTAB1
 70
     6
  9
$SURFTAB2
 70
     6
  9
$SURFTYPE
 70
     6
  9
$SURFU
 70
     6
  9
$SURFV
 70
     6
  9
$UCSBASE
  2

  9
$UCSNAME
  2

  9
$UCSORG
 10
0.0
 20
0.0
 30
0.0
  9
$UCSXDIR
 10
1.0
 20
0.0
 30
0.0
  9
$UCSYDIR
 10
0.0
 20
1.0
 30
0.0
  9
$UCSORTHOREF
  2

  9
$UCSORTHOVIEW
 70
     0
  9
$UCSORGTOP
 10
0.0
 20
0.0
 30
0.0
  9
$UCSORGBOTTOM
 10
0.0
 20
0.0
 30
0.0
  9
$UCSORGLEFT
 10
0.0
 20
0.0
 30
0.0
  9
$UCSORGRIGHT
 10
0.0
 20
0.0
 30
0.0
  9
$UCSORGFRONT
 10
0.0
 20
0.0
 30
0.0
  9
$UCSORGBACK
 10
0.0
 20
0.0
 30
0.0
  9
$PUCSBASE
  2

  9
$PUCSNAME
  2

  9
$PUCSORG
 10
0.0
 20
0.0
 30
0.0
  9
$PUCSXDIR
 10
1.0
 20
0.0
 30
0.0
  9
$PUCSYDIR
 10
0.0
 20
1.0
 30
0.0
  9
$PUCSORTHOREF
  2

  9
$PUCSORTHOVIEW
 70
     0
  9
$PUCSORGTOP
 10
0.0
 20
0.0
 30
0.0
  9
$PUCSORGBOTTOM
 10
0.0
 20
0.0
 30
0.0
  9
$PUCSORGLEFT
 10
0.0
 20
0.0
 30
0.0
  9
$PUCSORGRIGHT
 10
0.0
 20
0.0
 30
0.0
  9
$PUCSORGFRONT
 10
0.0
 20
0.0
 30
0.0
  9
$PUCSORGBACK
 10
0.0
 20
0.0
 30
0.0
  9
$USERI1
 70
     0
  9
$USERI2
 70
     0
  9
$USERI3
 70
     0
  9
$USERI4
 70
     0
  9
$USERI5
 70
     0
  9
$USERR1
 40
0.0
  9
$USERR2
 40
0.0
  9
$USERR3
 40
0.0
  9
$USERR4
 40
0.0
  9
$USERR5
 40
0.0
  9
$WORLDVIEW
 70
     1
  9
$SHADEDGE
 70
     3
  9
$SHADEDIF
 70
    70
  9
$TILEMODE
 70
     1
  9
$MAXACTVP
 70
    64
  9
$PINSBASE
 10
0.0
 20
0.0
 30
0.0
  9
$PLIMCHECK
 70
     0
  9
$PEXTMIN
 10
1.000000000000000E+20
 20
1.000000000000000E+20
 30
1.000000000000000E+20
  9
$PEXTMAX
 10
-1.000000000000000E+20
 20
-1.000000000000000E+20
 30
-1.000000000000000E+20
  9
$PLIMMIN
 10
0.0
 20
0.0
  9
$PLIMMAX
 10
12.0
 20
9.0
  9
$UNITMODE
 70
     0
  9
$VISRETAIN
 70
     1
  9
$PLINEGEN
 70
     0
  9
$PSLTSCALE
 70
     1
  9
$TREEDEPTH
 70
  3020
  9
$CMLSTYLE
  2
Standard
  9
$CMLJUST
 70
     0
  9
$CMLSCALE
 40
1.0
  9
$PROXYGRAPHICS
 70
     1
  9
$MEASUREMENT
 70
     1
  9
$CELWEIGHT
370
    -1
  9
$ENDCAPS
280
     0
  9
$JOINSTYLE
280
     0
  9
$LWDISPLAY
290
     0
  9
$INSUNITS
 70
     5
  9
$HYPERLINKBASE
  1

  9
$STYLESHEET
  1

  9
$XEDIT
290
     1
  9
$CEPSNTYPE
380
     0
  9
$PSTYLEMODE
290
     1
  9
$FINGERPRINTGUID
  2
{77d7bbb7-006b-44d5-b3df-2e5923ad6527}
  9
$VERSIONGUID
  2
{FAEB1C32-E019-11D5-929B-00C0DF256EC4}
  9
$EXTNAMES
290
     1
  9
$PSVPSCALE
 40
0.0
  9
$OLESTARTUP
290
     0
  9
$SORTENTS
280
   127
  9
$INDEXCTL
280
     0
  9
$HIDETEXT
280
     1
  9
$XCLIPFRAME
290
     0
  9
$HALOGAP
280
     0
  9
$OBSCOLOR
 70
   257
  9
$OBSLTYPE
280
     0
  9
$INTERSECTIONDISPLAY
280
     0
  9
$INTERSECTIONCOLOR
 70
   257
  9
$DIMASSOC
280
     2
  9
$PROJECTNAME
  1

  9
$CAMERADISPLAY
290
     0
  9
$LENSLENGTH
 40
50.0
  9
$CAMERAHEIGHT
 40
0.0
  9
$STEPSPERSEC
 40
2.0
  9
$STEPSIZE
 40
6.0
  9
$3DDWFPREC
 40
2.0
  9
$PSOLWIDTH
 40
0.25
  9
$PSOLHEIGHT
 40
4.0
  9
$LOFTANG1
 40
1.570796326794897
  9
$LOFTANG2
 40
1.570796326794897
  9
$LOFTMAG1
 40
0.0
  9
$LOFTMAG2
 40
0.0
  9
$LOFTPARAM
 70
     7
  9
$LOFTNORMALS
280
     1
  9
$LATITUDE
 40
37.795
  9
$LONGITUDE
 40
-122.394
  9
$NORTHDIRECTION
 40
0.0
  9
$TIMEZONE
 70
 -8000
  9
$LIGHTGLYPHDISPLAY
280
     1
  9
$TILEMODELIGHTSYNCH
280
     1
  9
$CMATERIAL
347
44
  9
$SOLIDHIST
280
     0
  9
$SHOWHIST
280
     1
  9
$DWFFRAME
280
     2
  9
$DGNFRAME
280
     2
  9
$REALWORLDSCALE
290
     1
  9
$INTERFERECOLOR
 62
   256
  9
$CSHADOW
280
     0
  9
$SHADOWPLANELOCATION
 40
0.0
  0
ENDSEC
  0
SECTION
  2
CLASSES
  0
CLASS
  1
ACDBDICTIONARYWDFLT
  2
AcDbDictionaryWithDefault
  3
ObjectDBX Classes
 90
        0
 91
        3
280
     0
281
     0
  0
CLASS
  1
VISUALSTYLE
  2
AcDbVisualStyle
  3
ObjectDBX Classes
 90
     4095
 91
        3
280
     0
281
     0
  0
CLASS
  1
MATERIAL
  2
AcDbMaterial
  3
ObjectDBX Classes
 90
     1153
 91
        3
280
     0
281
     0
  0
CLASS
  1
SCALE
  2
AcDbScale
  3
ObjectDBX Classes
 90
     1153
 91
        3
280
     0
281
     0
  0
CLASS
  1
TABLESTYLE
  2
AcDbTableStyle
  3
ObjectDBX Classes
 90
     4095
 91
        3
280
     0
281
     0
  0
CLASS
  1
MLEADERSTYLE
  2
AcDbMLeaderStyle
  3
ACDB_MLEADERSTYLE_CLASS
 90
     4095
 91
        3
280
     0
281
     0
  0
CLASS
  1
SUN
  2
AcDbSun
  3
SCENEOE
 90
     1153
 91
        3
280
     0
281
     0
  0
CLASS
  1
DICTIONARYVAR
  2
AcDbDictionaryVar
  3
ObjectDBX Classes
 90
        0
 91
        3
280
     0
281
     0
  0
CLASS
  1
CELLSTYLEMAP
  2
AcDbCellStyleMap
  3
ObjectDBX Classes
 90
     1152
 91
        3
280
     0
281
     0
  0
ENDSEC
  0
SECTION
  2
TABLES
  0
TABLE
  2
VPORT
  5
8
330
0
100
AcDbSymbolTable
 70
     1
  0
VPORT
  5
29
330
8
100
AcDbSymbolTableRecord
100
AcDbViewportTableRecord
  2
*Active
 70
     0
 10
0.0
 20
0.0
 11
1.0
 21
1.0
 12
10.42990654205607
 22
4.5
 13
0.0
 23
0.0
 14
0.5
 24
0.5
 15
0.5
 25
0.5
 16
0.0
 26
0.0
 36
1.0
 17
0.0
 27
0.0
 37
0.0
 40
9.0
 41
1.972972972850329
 42
50.0
 43
0.0
 44
0.0
 50
0.0
 51
0.0
 71
     0
 72
   100
 73
     1
 74
     3
 75
     0
 76
     0
 77
     0
 78
     0
281
     0
 65
     1
110
0.0
120
0.0
130
0.0
111
1.0
121
0.0
131
0.0
112
0.0
122
1.0
132
0.0
 79
     0
146
0.0
348
2F
 60
     3
 61
     5
292
     1
282
     1
141
0.0
142
0.0
 63
   250
361
5D
  0
ENDTAB
  0
TABLE
  2
LTYPE
  5
5
330
0
100
AcDbSymbolTable
 70
     1
  0
LTYPE
  5
14
330
5
100
AcDbSymbolTableRecord
100
AcDbLinetypeTableRecord
  2
ByBlock
 70
     0
  3

 72
    65
 73
     0
 40
0.0
  0
LTYPE
  5
15
330
5
100
AcDbSymbolTableRecord
100
AcDbLinetypeTableRecord
  2
ByLayer
 70
     0
  3

 72
    65
 73
     0
 40
0.0
  0
LTYPE
  5
16
330
5
100
AcDbSymbolTableRecord
100
AcDbLinetypeTableRecord
  2
Continuous
 70
     0
  3
Solid line
 72
    65
 73
     0
 40
0.0
  0
ENDTAB
  0
TABLE
  2
LAYER
  5
2
330
0
100
AcDbSymbolTable
 70
     3
  0
LAYER
  5
10
330
2
100
AcDbSymbolTableRecord
100
AcDbLayerTableRecord
  2
0
 70
     0
 62
     7
  6
Continuous
370
    -3
390
F
347
46
  0
LAYER
  5
5F
330
2
100
AcDbSymbolTableRecord
100
AcDbLayerTableRecord
  2
图层 03
 70
     0
 62
     4
420
    65529
  6
Continuous
370
    -3
390
F
347
46
  0
LAYER
  5
EC
330
2
100
AcDbSymbolTableRecord
100
AcDbLayerTableRecord
  2
图层01
 70
     0
 62
    12
420
 13107200
  6
Continuous
370
    -3
390
F
347
46
  0
ENDTAB
  0
TABLE
  2
STYLE
  5
3
330
0
100
AcDbSymbolTable
 70
     1
  0
STYLE
  5
11
330
3
100
AcDbSymbolTableRecord
100
AcDbTextStyleTableRecord
  2
Standard
 70
     0
 40
0.0
 41
1.0
 50
0.0
 71
     0
 42
0.2
  3
txt
  4

  0
ENDTAB
  0
TABLE
  2
VIEW
  5
6
330
0
100
AcDbSymbolTable
 70
     0
  0
ENDTAB
  0
TABLE
  2
UCS
  5
7
330
0
100
AcDbSymbolTable
 70
     0
  0
ENDTAB
  0
TABLE
  2
APPID
  5
9
330
0
100
AcDbSymbolTable
 70
     3
  0
APPID
  5
12
330
9
100
AcDbSymbolTableRecord
100
AcDbRegAppTableRecord
  2
ACAD
 70
     0
  0
APPID
  5
5E
330
9
100
AcDbSymbolTableRecord
100
AcDbRegAppTableRecord
  2
Rhino
 70
     0
  0
APPID
  5
128
330
9
100
AcDbSymbolTableRecord
100
AcDbRegAppTableRecord
  2
ACAD_MLEADERVER
 70
     0
  0
ENDTAB
  0
TABLE
  2
DIMSTYLE
  5
A
330
0
100
AcDbSymbolTable
 70
     1
100
AcDbDimStyleTable
  0
DIMSTYLE
105
27
330
A
100
AcDbSymbolTableRecord
100
AcDbDimStyleTableRecord
  2
STANDARD_ACAD
 70
     0
178
     0
340
11
  0
ENDTAB
  0
TABLE
  2
BLOCK_RECORD
  5
1
330
0
100
AcDbSymbolTable
 70
     1
  0
BLOCK_RECORD
  5
1F
330
1
100
AcDbSymbolTableRecord
100
AcDbBlockTableRecord
  2
*Model_Space
340
22
 70
     0
280
     1
281
     0
  0
BLOCK_RECORD
  5
1B
330
1
100
AcDbSymbolTableRecord
100
AcDbBlockTableRecord
  2
*Paper_Space
340
1E
 70
     0
280
     1
281
     0
  0
BLOCK_RECORD
  5
23
330
1
100
AcDbSymbolTableRecord
100
AcDbBlockTableRecord
  2
*Paper_Space0
340
26
 70
     0
280
     1
281
     0
  0
ENDTAB
  0
ENDSEC
  0
SECTION
  2
BLOCKS
  0
BLOCK
  5
20
330
1F
100
AcDbEntity
  8
0
100
AcDbBlockBegin
  2
*Model_Space
 70
     0
 10
0.0
 20
0.0
 30
0.0
  3
*Model_Space
  1

  0
ENDBLK
  5
21
330
1F
100
AcDbEntity
  8
0
100
AcDbBlockEnd
  0
BLOCK
  5
1C
330
1B
100
AcDbEntity
 67
     1
  8
0
100
AcDbBlockBegin
  2
*Paper_Space
 70
     0
 10
0.0
 20
0.0
 30
0.0
  3
*Paper_Space
  1

  0
ENDBLK
  5
1D
330
1B
100
AcDbEntity
 67
     1
  8
0
100
AcDbBlockEnd
  0
BLOCK
  5
24
330
23
100
AcDbEntity
  8
0
100
AcDbBlockBegin
  2
*Paper_Space0
 70
     0
 10
0.0
 20
0.0
 30
0.0
  3
*Paper_Space0
  1

  0
ENDBLK
  5
25
330
23
100
AcDbEntity
  8
0
100
AcDbBlockEnd
  0
ENDSEC
  0
SECTION
  2
ENTITIES
  0
SPLINE
  5
60
330
1F
100
AcDbEntity
  8
图层 03
100
AcDbSpline
210
0.0
220
0.0
230
1.0
 70
    11
 71
     3
 72
    29
 73
    25
 74
     0
 42
0.0000000001
 43
0.0000000001
 40
-15.70796326794897
 40
-15.70796326794897
 40
-15.70796326794897
 40
-15.70796326794897
 40
-14.72621556370216
 40
-13.74446785945534
 40
-12.76272015520853
 40
-12.27184630308513
 40
-11.78097245096172
 40
-11.29009859883832
 40
-10.79922474671491
 40
-9.817477042468102
 40
-8.835729338221292
 40
-8.344855486097888
 40
-7.853981633974483
 40
-7.363107781851078
 40
-6.872233929727672
 40
-5.890486225480862
 40
-4.908738521234051
 40
-4.417864669110646
 40
-3.926990816987241
 40
-3.436116964863836
 40
-2.945243112740431
 40
-1.963495408493621
 40
-0.9817477042468103
 40
0.0
 40
0.0
 40
0.0
 40
0.0
 10
3730.005116047503
 20
323.0714950294689
 30
-0.0000000000004832
 10
3730.005116047498
 20
322.7187174585304
 30
-0.0000000000004832
 10
3729.876882226023
 20
321.9537444429509
 30
-0.0000000000004832
 10
3729.189475144819
 20
320.8870836665769
 30
-0.0000000000004832
 10
3728.3014421417
 20
320.3136547829281
 30
-0.0000000000004832
 10
3727.547020411382
 20
320.1031981998362
 30
-0.0000000000004832
 10
3727.005112873791
 20
320.0556401088153
 30
-0.0000000000004832
 10
3726.463224378473
 20
320.1032115417161
 30
-0.0000000000004832
 10
3725.708726479065
 20
320.313579178943
 30
-0.0000000000004832
 10
3724.821017390891
 20
320.88739616916
 30
-0.0000000000004832
 10
3724.24719986798
 20
321.7751057431249
 30
-0.0000000000004832
 10
3724.036833515008
 20
322.529602563902
 30
-0.0000000000004832
 10
3723.989257313751
 20
323.0714950294687
 30
-0.0000000000004832
 10
3724.036833515008
 20
323.6133874950362
 30
-0.0000000000004832
 10
3724.24719986798
 20
324.3678843158135
 30
-0.0000000000004832
 10
3724.821017390891
 20
325.2555938897785
 30
-0.0000000000004832
 10
3725.708726479064
 20
325.8294108799942
 30
-0.0000000000004832
 10
3726.463224378473
 20
326.0397785172223
 30
-0.0000000000004832
 10
3727.005112873791
 20
326.0873499501222
 30
-0.0000000000004832
 10
3727.547020411382
 20
326.039791859102
 30
-0.0000000000004832
 10
3728.3014421417
 20
325.8293352760091
 30
-0.0000000000004832
 10
3729.189475144819
 20
325.2559063923622
 30
-0.0000000000004832
 10
3729.876882226023
 20
324.1892456159858
 30
-0.0000000000004832
 10
3730.005116047498
 20
323.4242726004094
 30
-0.0000000000004832
 10
3730.005116047503
 20
323.0714950294689
 30
-0.0000000000004832
  0
SPLINE
  5
61
330
1F
100
AcDbEntity
  8
图层 03
100
AcDbSpline
210
0.0
220
0.0
230
1.0
 70
    11
 71
     3
 72
    29
 73
    25
 74
     0
 42
0.0000000001
 43
0.0000000001
 40
-15.70796326794897
 40
-15.70796326794897
 40
-15.70796326794897
 40
-15.70796326794897
 40
-14.72621556370216
 40
-13.74446785945534
 40
-12.76272015520853
 40
-12.27184630308513
 40
-11.78097245096172
 40
-11.29009859883832
 40
-10.79922474671491
 40
-9.817477042468102
 40
-8.835729338221292
 40
-8.344855486097888
 40
-7.853981633974483
 40
-7.363107781851078
 40
-6.872233929727672
 40
-5.890486225480862
 40
-4.908738521234051
 40
-4.417864669110646
 40
-3.926990816987241
 40
-3.436116964863836
 40
-2.945243112740431
 40
-1.963495408493621
 40
-0.9817477042468103
 40
0.0
 40
0.0
 40
0.0
 40
0.0
 10
3786.05006552645
 20
373.3043040209144
 30
-0.0000000000004832
 10
3786.050065526445
 20
372.9515264499753
 30
-0.0000000000004832
 10
3785.921831704969
 20
372.1865534343959
 30
-0.0000000000004832
 10
3785.234424623766
 20
371.1198926580217
 30
-0.0000000000004832
 10
3784.346391620646
 20
370.5464637743737
 30
-0.0000000000004832
 10
3783.591969890328
 20
370.3360071912813
 30
-0.0000000000004832
 10
3783.050062352737
 20
370.2884491002606
 30
-0.0000000000004832
 10
3782.508173857419
 20
370.3360205331613
 30
-0.0000000000004832
 10
3781.753675958011
 20
370.5463881703884
 30
-0.0000000000004832
 10
3780.865966869837
 20
371.1202051606047
 30
-0.0000000000004832
 10
3780.292149346927
 20
372.0079147345698
 30
-0.0000000000004832
 10
3780.081782993955
 20
372.7624115553471
 30
-0.0000000000004832
 10
3780.034206792697
 20
373.3043040209142
 30
-0.0000000000004832
 10
3780.081782993954
 20
373.8461964864816
 30
-0.0000000000004832
 10
3780.292149346927
 20
374.6006933072587
 30
-0.0000000000004832
 10
3780.865966869837
 20
375.4884028812239
 30
-0.0000000000004832
 10
3781.753675958011
 20
376.0622198714402
 30
-0.0000000000004832
 10
3782.508173857419
 20
376.2725875086676
 30
-0.0000000000004832
 10
3783.050062352737
 20
376.320158941568
 30
-0.0000000000004832
 10
3783.591969890328
 20
376.2726008505473
 30
-0.0000000000004832
 10
3784.346391620646
 20
376.0621442674558
 30
-0.0000000000004832
 10
3785.234424623765
 20
375.4887153838071
 30
-0.0000000000004832
 10
3785.921831704969
 20
374.4220546074318
 30
-0.0000000000004832
 10
3786.050065526445
 20
373.657081591854
 30
-0.0000000000004832
 10
3786.05006552645
 20
373.3043040209144
 30
-0.0000000000004832
  0
SPLINE
  5
62
330
1F
100
AcDbEntity
  8
图层 03
100
AcDbSpline
210
0.0
220
0.0
230
1.0
 70
    11
 71
     3
 72
    29
 73
    25
 74
     0
 42
0.0000000001
 43
0.0000000001
 40
-15.70796326794897
 40
-15.70796326794897
 40
-15.70796326794897
 40
-15.70796326794897
 40
-14.72621556370216
 40
-13.74446785945534
 40
-12.76272015520853
 40
-12.27184630308513
 40
-11.78097245096172
 40
-11.29009859883832
 40
-10.79922474671491
 40
-9.817477042468102
 40
-8.835729338221292
 40
-8.344855486097888
 40
-7.853981633974483
 40
-7.363107781851078
 40
-6.872233929727672
 40
-5.890486225480862
 40
-4.908738521234051
 40
-4.417864669110646
 40
-3.926990816987241
 40
-3.436116964863836
 40
-2.945243112740431
 40
-1.963495408493621
 40
-0.9817477042468103
 40
0.0
 40
0.0
 40
0.0
 40
0.0
 10
3877.784423830311
 20
429.6456531249264
 30
-0.0000000000004832
 10
3877.784423830305
 20
429.2928755539875
 30
-0.0000000000004832
 10
3877.656190008831
 20
428.5279025384079
 30
-0.0000000000004832
 10
3876.968782927627
 20
427.461241762034
 30
-0.0000000000004832
 10
3876.080749924507
 20
426.8878128783861
 30
-0.0000000000004832
 10
3875.326328194189
 20
426.6773562952937
 30
-0.0000000000004832
 10
3874.784420656599
 20
426.6297982042736
 30
-0.0000000000004832
 10
3874.242532161281
 20
426.6773696371738
 30
-0.0000000000004832
 10
3873.488034261873
 20
426.8877372744014
 30
-0.0000000000004832
 10
3872.600325173698
 20
427.4615542646168
 30
-0.0000000000004832
 10
3872.026507650788
 20
428.3492638385824
 30
-0.0000000000004832
 10
3871.816141297816
 20
429.1037606593591
 30
-0.0000000000004832
 10
3871.768565096558
 20
429.6456531249262
 30
-0.0000000000004832
 10
3871.816141297816
 20
430.1875455904935
 30
-0.0000000000004832
 10
3872.026507650788
 20
430.9420424112709
 30
-0.0000000000004832
 10
3872.600325173698
 20
431.8297519852364
 30
-0.0000000000004832
 10
3873.488034261872
 20
432.4035689754517
 30
-0.0000000000004832
 10
3874.24253216128
 20
432.6139366126796
 30
-0.0000000000004832
 10
3874.784420656599
 20
432.6615080455797
 30
-0.0000000000004832
 10
3875.326328194189
 20
432.6139499545595
 30
-0.0000000000004832
 10
3876.080749924507
 20
432.403493371467
 30
-0.0000000000004832
 10
3876.968782927627
 20
431.8300644878198
 30
-0.0000000000004832
 10
3877.65619000883
 20
430.7634037114439
 30
-0.0000000000004832
 10
3877.784423830306
 20
429.9984306958659
 30
-0.0000000000004832
 10
3877.784423830311
 20
429.6456531249264
 30
-0.0000000000004832
  0
SPLINE
  5
63
330
1F
100
AcDbEntity
  8
图层 03
100
AcDbSpline
210
0.0
220
0.0
230
1.0
 70
    11
 71
     3
 72
    29
 73
    25
 74
     0
 42
0.0000000001
 43
0.0000000001
 40
-15.70796326794897
 40
-15.70796326794897
 40
-15.70796326794897
 40
-15.70796326794897
 40
-14.72621556370216
 40
-13.74446785945534
 40
-12.76272015520853
 40
-12.27184630308513
 40
-11.78097245096172
 40
-11.29009859883832
 40
-10.79922474671491
 40
-9.817477042468102
 40
-8.835729338221292
 40
-8.344855486097888
 40
-7.853981633974483
 40
-7.363107781851078
 40
-6.872233929727672
 40
-5.890486225480862
 40
-4.908738521234051
 40
-4.417864669110646
 40
-3.926990816987241
 40
-3.436116964863836
 40
-2.945243112740431
 40
-1.963495408493621
 40
-0.9817477042468103
 40
0.0
 40
0.0
 40
0.0
 40
0.0
 10
3789.217430530733
 20
474.3880839130024
 30
-0.0000000000004832
 10
3789.217430530728
 20
474.035306342063
 30
-0.0000000000004832
 10
3789.089196709253
 20
473.2703333264849
 30
-0.0000000000004832
 10
3788.401789628049
 20
472.2036725501098
 30
-0.0000000000004832
 10
3787.513756624929
 20
471.6302436664612
 30
-0.0000000000004832
 10
3786.759334894612
 20
471.4197870833698
 30
-0.0000000000004832
 10
3786.217427357021
 20
471.3722289923491
 30
-0.0000000000004832
 10
3785.675538861703
 20
471.4198004252493
 30
-0.0000000000004832
 10
3784.921040962294
 20
471.6301680624772
 30
-0.0000000000004832
 10
3784.033331874121
 20
472.2039850526926
 30
-0.0000000000004832
 10
3783.45951435121
 20
473.0916946266586
 30
-0.0000000000004832
 10
3783.249147998238
 20
473.8461914474349
 30
-0.0000000000004832
 10
3783.201571796981
 20
474.3880839130027
 30
-0.0000000000004832
 10
3783.249147998238
 20
474.9299763785696
 30
-0.0000000000004832
 10
3783.45951435121
 20
475.6844731993473
 30
-0.0000000000004832
 10
3784.03333187412
 20
476.5721827733122
 30
-0.0000000000004832
 10
3784.921040962295
 20
477.145999763528
 30
-0.0000000000004832
 10
3785.675538861703
 20
477.356367400756
 30
-0.0000000000004832
 10
3786.217427357021
 20
477.4039388336557
 30
-0.0000000000004832
 10
3786.759334894611
 20
477.3563807426356
 30
-0.0000000000004832
 10
3787.51375662493
 20
477.1459241595431
 30
-0.0000000000004832
 10
3788.401789628049
 20
476.5724952758958
 30
-0.0000000000004832
 10
3789.089196709253
 20
475.5058344995196
 30
-0.0000000000004832
 10
3789.217430530728
 20
474.7408614839428
 30
-0.0000000000004832
 10
3789.217430530733
 20
474.3880839130024
 30
-0.0000000000004832
  0
SPLINE
  5
64
330
1F
100
AcDbEntity
  8
图层 03
100
AcDbSpline
210
0.0
220
0.0
230
1.0
 70
    11
 71
     3
 72
    29
 73
    25
 74
     0
 42
0.0000000001
 43
0.0000000001
 40
-15.70796326794897
 40
-15.70796326794897
 40
-15.70796326794897
 40
-15.70796326794897
 40
-14.72621556370216
 40
-13.74446785945534
 40
-12.76272015520853
 40
-12.27184630308513
 40
-11.78097245096172
 40
-11.29009859883832
 40
-10.79922474671491
 40
-9.817477042468102
 40
-8.835729338221292
 40
-8.344855486097888
 40
-7.853981633974483
 40
-7.363107781851078
 40
-6.872233929727672
 40
-5.890486225480862
 40
-4.908738521234051
 40
-4.417864669110646
 40
-3.926990816987241
 40
-3.436116964863836
 40
-2.945243112740431
 40
-1.963495408493621
 40
-0.9817477042468103
 40
0.0
 40
0.0
 40
0.0
 40
0.0
 10
3800.341580124925
 20
421.4028637808581
 30
-0.0000000000004832
 10
3800.34158012492
 20
421.0500862099184
 30
-0.0000000000004832
 10
3800.213346303445
 20
420.2851131943403
 30
-0.0000000000004832
 10
3799.525939222241
 20
419.2184524179659
 30
-0.0000000000004832
 10
3798.637906219122
 20
418.6450235343174
 30
-0.0000000000004832
 10
3797.883484488803
 20
418.4345669512252
 30
-0.0000000000004832
 10
3797.341576951213
 20
418.3870088602044
 30
-0.0000000000004832
 10
3796.799688455895
 20
418.4345802931052
 30
-0.0000000000004832
 10
3796.045190556486
 20
418.6449479303324
 30
-0.0000000000004832
 10
3795.157481468313
 20
419.2187649205489
 30
-0.0000000000004832
 10
3794.583663945402
 20
420.1064744945137
 30
-0.0000000000004832
 10
3794.373297592429
 20
420.8609713152916
 30
-0.0000000000004832
 10
3794.325721391172
 20
421.4028637808574
 30
-0.0000000000004832
 10
3794.373297592429
 20
421.9447562464254
 30
-0.0000000000004832
 10
3794.583663945402
 20
422.6992530672027
 30
-0.0000000000004832
 10
3795.157481468313
 20
423.5869626411674
 30
-0.0000000000004832
 10
3796.045190556486
 20
424.160779631384
 30
-0.0000000000004832
 10
3796.799688455894
 20
424.3711472686111
 30
-0.0000000000004832
 10
3797.341576951213
 20
424.4187187015115
 30
-0.0000000000004832
 10
3797.883484488803
 20
424.371160610491
 30
-0.0000000000004832
 10
3798.637906219121
 20
424.1607040273993
 30
-0.0000000000004832
 10
3799.525939222241
 20
423.587275143751
 30
-0.0000000000004832
 10
3800.213346303444
 20
422.5206143673753
 30
-0.0000000000004832
 10
3800.34158012492
 20
421.7556413517977
 30
-0.0000000000004832
 10
3800.341580124925
 20
421.4028637808581
 30
-0.0000000000004832
  0
SPLINE
  5
65
330
1F
100
AcDbEntity
  8
图层 03
100
AcDbSpline
210
0.0
220
0.0
230
1.0
 70
     8
 71
     3
 72
     8
 73
     4
 74
     0
 42
0.0000000001
 43
0.0000000001
 40
4117.977345601114
 40
4117.977345601114
 40
4117.977345601114
 40
4117.977345601114
 40
4153.142671105059
 40
4153.142671105059
 40
4153.142671105059
 40
4153.142671105059
 10
3809.794058731811
 20
319.6397750663889
 30
-0.0000000000004832
 10
3812.440173879652
 20
319.5003314570239
 30
-0.0000000000004832
 10
3815.067447823139
 20
319.1131375344714
 30
-0.0000000000004832
 10
3817.679457650458
 20
318.5312814994538
 30
-0.0000000000004832
  0
SPLINE
  5
66
330
1F
100
AcDbEntity
  8
图层 03
100
AcDbSpline
210
0.0
220
0.0
230
1.0
 70
     8
 71
     3
 72
    15
 73
    11
 74
     0
 42
0.0000000001
 43
0.0000000001
 40
4153.142671105059
 40
4153.142671105059
 40
4153.142671105059
 40
4153.142671105059
 40
4160.858067520824
 40
4168.573463936589
 40
4176.288860352354
 40
4184.004256768119
 40
4191.592824156489
 40
4199.181391544857
 40
4206.769958933227
 40
4214.358526321595
 40
4214.358526321595
 40
4214.358526321595
 40
4214.358526321595
 10
3817.679457650458
 20
318.5312814994538
 30
-0.0000000000004832
 10
3818.179035152665
 20
318.230685280982
 30
-0.0000000000004832
 10
3819.193578619219
 20
317.6235786926383
 30
-0.0000000000004832
 10
3820.739556673137
 20
316.7110418469373
 30
-0.0000000000004832
 10
3822.295930696015
 20
315.8078416934703
 30
-0.0000000000004832
 10
3823.814214492357
 20
314.9448326546417
 30
-0.0000000000004832
 10
3825.351512080696
 20
314.0927760171378
 30
-0.0000000000004832
 10
3826.947645295431
 20
313.2377756060991
 30
-0.0000000000004832
 10
3828.553284996337
 20
312.4168001298422
 30
-0.0000000000004832
 10
3829.609342530151
 20
311.9098726488858
 30
-0.0000000000004832
 10
3830.127207302517
 20
311.6717208555688
 30
-0.0000000000004832
  0
SPLINE
  5
67
330
1F
100
AcDbEntity
  8
图层 03
100
AcDbSpline
210
0.0
220
0.0
230
1.0
 70
     8
 71
     3
 72
     8
 73
     4
 74
     0
 42
0.0000000001
 43
0.0000000001
 40
4214.358526321595
 40
4214.358526321595
 40
4214.358526321595
 40
4214.358526321595
 40
4283.446512182667
 40
4283.446512182667
 40
4283.446512182667
 40
4283.446512182667
 10
3830.127207302517
 20
311.6717208555688
 30
-0.0000000000004832
 10
3833.672039881591
 20
307.5492350883103
 30
-0.0000000000004832
 10
3837.227513325462
 20
303.4362104934579
 30
-0.0000000000004832
 10
3840.80072956096
 20
299.3396980096054
 30
-0.0000000000004832
  0
SPLINE
  5
68
330
1F
100
AcDbEntity
  8
图层 03
100
AcDbSpline
210
0.0
220
0.0
230
1.0
 70
     8
 71
     3
 72
     8
 73
     4
 74
     0
 42
0.0000000001
 43
0.0000000001
 40
4283.446512182667
 40
4283.446512182667
 40
4283.446512182667
 40
4283.446512182667
 40
4321.60876722486
 40
4321.60876722486
 40
4321.60876722486
 40
4321.60876722486
 10
3840.80072956096
 20
299.3396980096054
 30
-0.0000000000004832
 10
3842.575463001651
 20
296.9135725485966
 30
-0.0000000000004832
 10
3844.378422056664
 20
294.5010923432549
 30
-0.0000000000004832
 10
3846.20587736788
 20
292.1157913820991
 30
-0.0000000000004832
  0
SPLINE
  5
69
330
1F
100
AcDbEntity
  8
图层 03
100
AcDbSpline
210
0.0
220
0.0
230
1.0
 70
     8
 71
     3
 72
     8
 73
     4
 74
     0
 42
0.0000000001
 43
0.0000000001
 40
4321.60876722486
 40
4321.60876722486
 40
4321.60876722486
 40
4321.60876722486
 40
4350.907813752459
 40
4350.907813752459
 40
4350.907813752459
 40
4350.907813752459
 10
3846.20587736788
 20
292.1157913820991
 30
-0.0000000000004832
 10
3847.782774130715
 20
290.4375246584807
 30
-0.0000000000004832
 10
3849.357702342473
 20
288.7572791789428
 30
-0.0000000000004832
 10
3850.930303695124
 20
287.0747346675037
 30
-0.0000000000004832
  0
SPLINE
  5
6A
330
1F
100
AcDbEntity
  8
图层 03
100
AcDbSpline
210
0.0
220
0.0
230
1.0
 70
     8
 71
     3
 72
     8
 73
     4
 74
     0
 42
0.0000000001
 43
0.0000000001
 40
4350.907813752459
 40
4350.907813752459
 40
4350.907813752459
 40
4350.907813752459
 40
4380.066957509614
 40
4380.066957509614
 40
4380.066957509614
 40
4380.066957509614
 10
3850.930303695124
 20
287.0747346675037
 30
-0.0000000000004832
 10
3852.544346503544
 20
285.4505782043873
 30
-0.0000000000004832
 10
3854.159766675645
 20
283.8278830948693
 30
-0.0000000000004832
 10
3855.776703599722
 20
282.206816931018
 30
-0.0000000000004832
  0
SPLINE
  5
6B
330
1F
100
AcDbEntity
  8
图层 03
100
AcDbSpline
210
0.0
220
0.0
230
1.0
 70
     8
 71
     3
 72
     8
 73
     4
 74
     0
 42
0.0000000001
 43
0.0000000001
 40
4380.066957509614
 40
4380.066957509614
 40
4380.066957509614
 40
4380.066957509614
 40
4404.80604715409
 40
4404.80604715409
 40
4404.80604715409
 40
4404.80604715409
 10
3855.776703599722
 20
282.206816931018
 30
-0.0000000000004832
 10
3857.29876603692
 20
281.0158880790066
 30
-0.0000000000004832
 10
3858.812539765913
 20
279.8128722251522
 30
-0.0000000000004832
 10
3860.316475663426
 20
278.5969807058623
 30
-0.0000000000004832
  0
SPLINE
  5
6C
330
1F
100
AcDbEntity
  8
图层 03
100
AcDbSpline
210
0.0
220
0.0
230
1.0
 70
     8
 71
     3
 72
     8
 73
     4
 74
     0
 42
0.0000000001
 43
0.0000000001
 40
4404.80604715409
 40
4404.80604715409
 40
4404.80604715409
 40
4404.80604715409
 40
4415.940528622348
 40
4415.940528622348
 40
4415.940528622348
 40
4415.940528622348
 10
3860.316475663426
 20
278.5969807058623
 30
-0.0000000000004832
 10
3861.077488287467
 20
278.1932977399838
 30
-0.0000000000004832
 10
3861.837580756383
 20
277.7875667039079
 30
-0.0000000000004832
 10
3862.59668219056
 20
277.3797242997628
 30
-0.0000000000004832
  0
SPLINE
  5
6D
330
1F
100
AcDbEntity
  8
图层 03
100
AcDbSpline
210
0.0
220
0.0
230
1.0
 70
     8
 71
     3
 72
     8
 73
     4
 74
     0
 42
0.0000000001
 43
0.0000000001
 40
4415.940528622348
 40
4415.940528622348
 40
4415.940528622348
 40
4415.940528622348
 40
4437.408097333067
 40
4437.408097333067
 40
4437.408097333067
 40
4437.408097333067
 10
3862.59668219056
 20
277.3797242997628
 30
-0.0000000000004832
 10
3864.192119755461
 20
277.0391464683785
 30
-0.0000000000004832
 10
3865.787064801661
 20
276.6951091515318
 30
-0.0000000000004832
 10
3867.381381360221
 20
276.3470395713605
 30
-0.0000000000004832
  0
SPLINE
  5
6E
330
1F
100
AcDbEntity
  8
图层 03
100
AcDbSpline
210
0.0
220
0.0
230
1.0
 70
     8
 71
     3
 72
     8
 73
     4
 74
     0
 42
0.0000000001
 43
0.0000000001
 40
4437.408097333067
 40
4437.408097333067
 40
4437.408097333067
 40
4437.408097333067
 40
4443.757047790549
 40
4443.757047790549
 40
4443.757047790549
 40
4443.757047790549
 10
3867.381381360221
 20
276.3470395713605
 30
-0.0000000000004832
 10
3867.824079982092
 20
276.5045385533153
 30
-0.0000000000004832
 10
3868.266708507471
 20
276.6622219751628
 30
-0.0000000000004832
 10
3868.709262137848
 20
276.8201011270774
 30
-0.0000000000004832
  0
SPLINE
  5
6F
330
1F
100
AcDbEntity
  8
图层 03
100
AcDbSpline
210
0.0
220
0.0
230
1.0
 70
     8
 71
     3
 72
     8
 73
     4
 74
     0
 42
0.0000000001
 43
0.0000000001
 40
4443.757047790549
 40
4443.757047790549
 40
4443.757047790549
 40
4443.757047790549
 40
4454.612378955243
 40
4454.612378955243
 40
4454.612378955243
 40
4454.612378955243
 10
3868.709262137848
 20
276.8201011270774
 30
-0.0000000000004832
 10
3869.330658374163
 20
277.3287226668028
 30
-0.0000000000004832
 10
3869.939852749
 20
277.8528059160083
 30
-0.0000000000004832
 10
3870.537083478179
 20
278.390865484236
 30
-0.0000000000004832
  0
SPLINE
  5
70
330
1F
100
AcDbEntity
  8
图层 03
100
AcDbSpline
210
0.0
220
0.0
230
1.0
 70
     8
 71
     3
 72
     8
 73
     4
 74
     0
 42
0.0000000001
 43
0.0000000001
 40
4454.612378955243
 40
4454.612378955243
 40
4454.612378955243
 40
4454.612378955243
 40
4473.553814566194
 40
4473.553814566194
 40
4473.553814566194
 40
4473.553814566194
 10
3870.537083478179
 20
278.390865484236
 30
-0.0000000000004832
 10
3871.073216322709
 20
279.7193893946064
 30
-0.0000000000004832
 10
3871.591353267881
 20
281.0574907744776
 30
-0.0000000000004832
 10
3872.092264260048
 20
282.4023003553696
 30
-0.0000000000004832
  0
SPLINE
  5
71
330
1F
100
AcDbEntity
  8
图层 03
100
AcDbSpline
210
0.0
220
0.0
230
1.0
 70
     8
 71
     3
 72
     8
 73
     4
 74
     0
 42
0.0000000001
 43
0.0000000001
 40
4473.553814566194
 40
4473.553814566194
 40
4473.553814566194
 40
4473.553814566194
 40
4492.478486974895
 40
4492.478486974895
 40
4492.478486974895
 40
4492.478486974895
 10
3872.092264260048
 20
282.4023003553696
 30
-0.0000000000004832
 10
3871.969550786208
 20
283.8713656378443
 30
-0.0000000000004832
 10
3871.851516699424
 20
285.3406037919046
 30
-0.0000000000004832
 10
3871.738854906367
 20
286.8099248358801
 30
-0.0000000000004832
  0
SPLINE
  5
72
330
1F
100
AcDbEntity
  8
图层 03
100
AcDbSpline
210
0.0
220
0.0
230
1.0
 70
     8
 71
     3
 72
     8
 73
     4
 74
     0
 42
0.0000000001
 43
0.0000000001
 40
4492.478486974895
 40
4492.478486974895
 40
4492.478486974895
 40
4492.478486974895
 40
4505.060939005551
 40
4505.060939005551
 40
4505.060939005551
 40
4505.060939005551
 10
3871.738854906367
 20
286.8099248358801
 30
-0.0000000000004832
 10
3871.129090880711
 20
287.5875812904885
 30
-0.0000000000004832
 10
3870.519233991649
 20
288.3767318957916
 30
-0.0000000000004832
 10
3869.922210136925
 20
289.1645994622195
 30
-0.0000000000004832
  0
SPLINE
  5
73
330
1F
100
AcDbEntity
  8
图层 03
100
AcDbSpline
210
0.0
220
0.0
230
1.0
 70
     8
 71
     3
 72
     8
 73
     4
 74
     0
 42
0.0000000001
 43
0.0000000001
 40
4505.060939005551
 40
4505.060939005551
 40
4505.060939005551
 40
4505.060939005551
 40
4512.662217813474
 40
4512.662217813474
 40
4512.662217813474
 40
4512.662217813474
 10
3869.922210136925
 20
289.1645994622195
 30
-0.0000000000004832
 10
3869.654002362267
 20
289.7007290435404
 30
-0.0000000000004832
 10
3869.389938012443
 20
290.2389633026844
 30
-0.0000000000004832
 10
3869.130172713792
 20
290.7791012280647
 30
-0.0000000000004832
  0
SPLINE
  5
74
330
1F
100
AcDbEntity
  8
图层 03
100
AcDbSpline
210
0.0
220
0.0
230
1.0
 70
     8
 71
     3
 72
     8
 73
     4
 74
     0
 42
0.0000000001
 43
0.0000000001
 40
4512.662217813474
 40
4512.662217813474
 40
4512.662217813474
 40
4512.662217813474
 40
4544.75648323746
 40
4544.75648323746
 40
4544.75648323746
 40
4544.75648323746
 10
3869.130172713792
 20
290.7791012280647
 30
-0.0000000000004832
 10
3867.469492910783
 20
292.6819077708943
 30
-0.0000000000004832
 10
3865.884385525148
 20
294.6496092696641
 30
-0.0000000000004832
 10
3864.386028653439
 20
296.6884653354966
 30
-0.0000000000004832
  0
SPLINE
  5
75
330
1F
100
AcDbEntity
  8
图层 03
100
AcDbSpline
210
0.0
220
0.0
230
1.0
 70
     8
 71
     3
 72
     8
 73
     4
 74
     0
 42
0.0000000001
 43
0.0000000001
 40
4544.75648323746
 40
4544.75648323746
 40
4544.75648323746
 40
4544.75648323746
 40
4547.408783999022
 40
4547.408783999022
 40
4547.408783999022
 40
4547.408783999022
 10
3864.386028653439
 20
296.6884653354966
 30
-0.0000000000004832
 10
3864.235427405073
 20
296.8320387240276
 30
-0.0000000000004832
 10
3864.085188629825
 20
296.9760261956925
 30
-0.0000000000004832
 10
3863.935324545288
 20
297.1204266919028
 30
-0.0000000000004832
  0
SPLINE
  5
76
330
1F
100
AcDbEntity
  8
图层 03
100
AcDbSpline
210
0.0
220
0.0
230
1.0
 70
     8
 71
     3
 72
     8
 73
     4
 74
     0
 42
0.0000000001
 43
0.0000000001
 40
4547.408783999022
 40
4547.408783999022
 40
4547.408783999022
 40
4547.408783999022
 40
4600.971501955559
 40
4600.971501955559
 40
4600.971501955559
 40
4600.971501955559
 10
3863.935324545288
 20
297.1204266919028
 30
-0.0000000000004832
 10
3861.815464604099
 20
300.7760345995562
 30
-0.0000000000004832
 10
3859.729303990287
 20
304.4496734649372
 30
-0.0000000000004832
 10
3857.678813272853
 20
308.1445549697302
 30
-0.0000000000004832
  0
SPLINE
  5
77
330
1F
100
AcDbEntity
  8
图层 03
100
AcDbSpline
210
0.0
220
0.0
230
1.0
 70
     8
 71
     3
 72
     8
 73
     4
 74
     0
 42
0.0000000001
 43
0.0000000001
 40
4600.971501955559
 40
4600.971501955559
 40
4600.971501955559
 40
4600.971501955559
 40
4608.007591086027
 40
4608.007591086027
 40
4608.007591086027
 40
4608.007591086027
 10
3857.678813272853
 20
308.1445549697302
 30
-0.0000000000004832
 10
3857.366645706174
 20
308.603252268086
 30
-0.0000000000004832
 10
3857.053632725434
 20
309.0613656713437
 30
-0.0000000000004832
 10
3856.73976750323
 20
309.5188743204473
 30
-0.0000000000004832
  0
SPLINE
  5
78
330
1F
100
AcDbEntity
  8
图层 03
100
AcDbSpline
210
0.0
220
0.0
230
1.0
 70
     8
 71
     3
 72
     8
 73
     4
 74
     0
 42
0.0000000001
 43
0.0000000001
 40
4608.007591086027
 40
4608.007591086027
 40
4608.007591086027
 40
4608.007591086027
 40
4678.937698535283
 40
4678.937698535283
 40
4678.937698535283
 40
4678.937698535283
 10
3856.73976750323
 20
309.5188743204473
 30
-0.0000000000004832
 10
3854.226328415565
 20
314.5164783677508
 30
-0.0000000000004832
 10
3851.678714929415
 20
319.4977347044421
 30
-0.0000000000004832
 10
3849.099856422792
 20
324.4622559600928
 30
-0.0000000000004832
  0
SPLINE
  5
79
330
1F
100
AcDbEntity
  8
图层 03
100
AcDbSpline
210
0.0
220
0.0
230
1.0
 70
     8
 71
     3
 72
     8
 73
     4
 74
     0
 42
0.0000000001
 43
0.0000000001
 40
4678.937698535283
 40
4678.937698535283
 40
4678.937698535283
 40
4678.937698535283
 40
4684.053489289401
 40
4684.053489289401
 40
4684.053489289401
 40
4684.053489289401
 10
3849.099856422792
 20
324.4622559600928
 30
-0.0000000000004832
 10
3848.87548714778
 20
324.7975570972408
 30
-0.0000000000004832
 10
3848.650289847728
 20
325.1322985057825
 30
-0.0000000000004832
 10
3848.424275432484
 20
325.4664671778376
 30
-0.0000000000004832
  0
SPLINE
  5
7A
330
1F
100
AcDbEntity
  8
图层 03
100
AcDbSpline
210
0.0
220
0.0
230
1.0
 70
     8
 71
     3
 72
     8
 73
     4
 74
     0
 42
0.0000000001
 43
0.0000000001
 40
4684.053489289401
 40
4684.053489289401
 40
4684.053489289401
 40
4684.053489289401
 40
4766.435287148669
 40
4766.435287148669
 40
4766.435287148669
 40
4766.435287148669
 10
3848.424275432484
 20
325.4664671778376
 30
-0.0000000000004832
 10
3845.576928626617
 20
331.305904568277
 30
-0.0000000000004832
 10
3842.726518718019
 20
337.1438875051058
 30
-0.0000000000004832
 10
3839.874417874759
 20
342.9810604205928
 30
-0.0000000000004832
  0
SPLINE
  5
7B
330
1F
100
AcDbEntity
  8
图层 03
100
AcDbSpline
210
0.0
220
0.0
230
1.0
 70
     8
 71
     3
 72
    15
 73
    11
 74
     0
 42
0.0000000001
 43
0.0000000001
 40
4766.435287148669
 40
4766.435287148669
 40
4766.435287148669
 40
4766.435287148669
 40
4777.204480492001
 40
4787.973673835333
 40
4798.742867178665
 40
4809.512060521997
 40
4820.561159773169
 40
4831.61025902434
 40
4842.659358275512
 40
4853.708457526684
 40
4853.708457526684
 40
4853.708457526684
 40
4853.708457526684
 10
3839.874417874759
 20
342.9810604205928
 30
-0.0000000000004832
 10
3839.629460656513
 20
343.7801717823264
 30
-0.0000000000004832
 10
3839.122652615289
 20
345.4078188583819
 30
-0.0000000000004832
 10
3838.330833765387
 20
347.8899284025287
 30
-0.0000000000004832
 10
3837.524320149616
 20
350.3716349001234
 30
-0.0000000000004832
 10
3836.720033892159
 20
352.8117606288106
 30
-0.0000000000004832
 10
3835.916757085469
 20
355.2238054024667
 30
-0.0000000000004832
 10
3835.096015466102
 20
357.6670912516215
 30
-0.0000000000004832
 10
3834.271050723817
 20
360.105298509322
 30
-0.0000000000004832
 10
3833.718027258044
 20
361.7305826516368
 30
-0.0000000000004832
 10
3833.441047359248
 20
362.5429058215976
 30
-0.0000000000004832
  0
SPLINE
  5
7C
330
1F
100
AcDbEntity
  8
图层 03
100
AcDbSpline
210
0.0
220
0.0
230
1.0
 70
     8
 71
     3
 72
     8
 73
     4
 74
     0
 42
0.0000000001
 43
0.0000000001
 40
4853.708457526684
 40
4853.708457526684
 40
4853.708457526684
 40
4853.708457526684
 40
4905.328806942335
 40
4905.328806942335
 40
4905.328806942335
 40
4905.328806942335
 10
3833.441047359248
 20
362.5429058215976
 30
-0.0000000000004832
 10
3832.493260976471
 20
366.4797743664654
 30
-0.0000000000004832
 10
3831.534535336426
 20
370.4144831707438
 30
-0.0000000000004832
 10
3830.568280969198
 20
374.3475685398628
 30
-0.0000000000004832
  0
SPLINE
  5
7D
330
1F
100
AcDbEntity
  8
图层 03
100
AcDbSpline
210
0.0
220
0.0
230
1.0
 70
     8
 71
     3
 72
     8
 73
     4
 74
     0
 42
0.0000000001
 43
0.0000000001
 40
4905.328806942335
 40
4905.328806942335
 40
4905.328806942335
 40
4905.328806942335
 40
4939.89355263404
 40
4939.89355263404
 40
4939.89355263404
 40
4939.89355263404
 10
3830.568280969198
 20
374.3475685398628
 30
-0.0000000000004832
 10
3830.2548443889
 20
377.0264113746736
 30
-0.0000000000004832
 10
3829.94220597015
 20
379.7053077163355
 30
-0.0000000000004832
 10
3829.630329494662
 20
382.3842536727398
 30
-0.0000000000004832
  0
SPLINE
  5
7E
330
1F
100
AcDbEntity
  8
图层 03
100
AcDbSpline
210
0.0
220
0.0
230
1.0
 70
     8
 71
     3
 72
     8
 73
     4
 74
     0
 42
0.0000000001
 43
0.0000000001
 40
4939.89355263404
 40
4939.89355263404
 40
4939.89355263404
 40
4939.89355263404
 40
4968.277292530212
 40
4968.277292530212
 40
4968.277292530212
 40
4968.277292530212
 10
3829.630329494662
 20
382.3842536727398
 30
-0.0000000000004832
 10
3829.717120354329
 20
384.577984765958
 30
-0.0000000000004832
 10
3829.820637440956
 20
386.7702530422591
 30
-0.0000000000004832
 10
3829.94118395302
 20
388.9601982513416
 30
-0.0000000000004832
  0
SPLINE
  5
7F
330
1F
100
AcDbEntity
  8
图层 03
100
AcDbSpline
210
0.0
220
0.0
230
1.0
 70
     8
 71
     3
 72
     8
 73
     4
 74
     0
 42
0.0000000001
 43
0.0000000001
 40
4968.277292530212
 40
4968.277292530212
 40
4968.277292530212
 40
4968.277292530212
 40
4997.7663052495
 40
4997.7663052495
 40
4997.7663052495
 40
4997.7663052495
 10
3829.94118395302
 20
388.9601982513416
 30
-0.0000000000004832
 10
3830.378468098831
 20
391.1715140033853
 30
-0.0000000000004832
 10
3830.910391271622
 20
393.3689475804077
 30
-0.0000000000004832
 10
3831.509695412312
 20
395.5301172406139
 30
-0.0000000000004832
  0
SPLINE
  5
80
330
1F
100
AcDbEntity
  8
图层 03
100
AcDbSpline
210
0.0
220
0.0
230
1.0
 70
     8
 71
     3
 72
     8
 73
     4
 74
     0
 42
0.0000000001
 43
0.0000000001
 40
4997.7663052495
 40
4997.7663052495
 40
4997.7663052495
 40
4997.7663052495
 40
5012.507580658555
 40
5012.507580658555
 40
5012.507580658555
 40
5012.507580658555
 10
3831.509695412312
 20
395.5301172406139
 30
-0.0000000000004832
 10
3831.728199926662
 20
396.6402752714665
 30
-0.0000000000004832
 10
3831.994080340532
 20
397.7288903953636
 30
-0.0000000000004832
 10
3832.321024938553
 20
398.8044711360232
 30
-0.0000000000004832
  0
SPLINE
  5
81
330
1F
100
AcDbEntity
  8
图层 03
100
AcDbSpline
210
0.0
220
0.0
230
1.0
 70
     8
 71
     3
 72
     8
 73
     4
 74
     0
 42
0.0000000001
 43
0.0000000001
 40
5012.507580658555
 40
5012.507580658555
 40
5012.507580658555
 40
5012.507580658555
 40
5042.203373120639
 40
5042.203373120639
 40
5042.203373120639
 40
5042.203373120639
 10
3832.321024938553
 20
398.8044711360232
 30
-0.0000000000004832
 10
3833.464429111786
 20
400.649301213693
 30
-0.0000000000004832
 10
3834.756660801077
 20
402.5830926933743
 30
-0.0000000000004832
 10
3836.097328820839
 20
404.2770621365968
 30
-0.0000000000004832
  0
SPLINE
  5
82
330
1F
100
AcDbEntity
  8
图层 03
100
AcDbSpline
210
0.0
220
0.0
230
1.0
 70
     8
 71
     3
 72
     8
 73
     4
 74
     0
 42
0.0000000001
 43
0.0000000001
 40
5042.203373120639
 40
5042.203373120639
 40
5042.203373120639
 40
5042.203373120639
 40
5046.461038487514
 40
5046.461038487514
 40
5046.461038487514
 40
5046.461038487514
 10
3836.097328820839
 20
404.2770621365968
 30
-0.0000000000004832
 10
3836.215545546016
 20
404.5768568209219
 30
-0.0000000000004832
 10
3836.33485678268
 20
404.8761463408605
 30
-0.0000000000004832
 10
3836.455320869874
 20
405.1748727540099
 30
-0.0000000000004832
  0
SPLINE
  5
83
330
1F
100
AcDbEntity
  8
图层 03
100
AcDbSpline
210
0.0
220
0.0
230
1.0
 70
     8
 71
     3
 72
     8
 73
     4
 74
     0
 42
0.0000000001
 43
0.0000000001
 40
5046.461038487514
 40
5046.461038487514
 40
5046.461038487514
 40
5046.461038487514
 40
5077.520730607038
 40
5077.520730607038
 40
5077.520730607038
 40
5077.520730607038
 10
3836.455320869874
 20
405.1748727540099
 30
-0.0000000000004832
 10
3838.02675557556
 20
406.8475707069631
 30
-0.0000000000004832
 10
3839.64438567759
 20
408.5196964098393
 30
-0.0000000000004832
 10
3841.272998457403
 20
410.1330859478235
 30
-0.0000000000004832
  0
SPLINE
  5
84
330
1F
100
AcDbEntity
  8
图层 03
100
AcDbSpline
210
0.0
220
0.0
230
1.0
 70
     8
 71
     3
 72
     8
 73
     4
 74
     0
 42
0.0000000001
 43
0.0000000001
 40
5077.520730607038
 40
5077.520730607038
 40
5077.520730607038
 40
5077.520730607038
 40
5104.538657279543
 40
5104.538657279543
 40
5104.538657279543
 40
5104.538657279543
 10
3841.272998457403
 20
410.1330859478235
 30
-0.0000000000004832
 10
3843.172754724721
 20
410.7603793587282
 30
-0.0000000000004832
 10
3845.071564554772
 20
411.3903419608772
 30
-0.0000000000004832
 10
3846.969061795284
 20
412.0239095513534
 30
-0.0000000000004832
  0
SPLINE
  5
85
330
1F
100
AcDbEntity
  8
图层 03
100
AcDbSpline
210
0.0
220
0.0
230
1.0
 70
     8
 71
     3
 72
     8
 73
     4
 74
     0
 42
0.0000000001
 43
0.0000000001
 40
5104.538657279543
 40
5104.538657279543
 40
5104.538657279543
 40
5104.538657279543
 40
5137.01088213684
 40
5137.01088213684
 40
5137.01088213684
 40
5137.01088213684
 10
3846.969061795284
 20
412.0239095513534
 30
-0.0000000000004832
 10
3849.398599086551
 20
411.5683775078697
 30
-0.0000000000004832
 10
3851.784591843243
 20
410.9843246054727
 30
-0.0000000000004832
 10
3854.172262051888
 20
410.2867541561238
 30
-0.0000000000004832
  0
SPLINE
  5
86
330
1F
100
AcDbEntity
  8
图层 03
100
AcDbSpline
210
0.0
220
0.0
230
1.0
 70
     8
 71
     3
 72
     8
 73
     4
 74
     0
 42
0.0000000001
 43
0.0000000001
 40
5137.01088213684
 40
5137.01088213684
 40
5137.01088213684
 40
5137.01088213684
 40
5137.322111949964
 40
5137.322111949964
 40
5137.322111949964
 40
5137.322111949964
 10
3854.172262051888
 20
410.2867541561238
 30
-0.0000000000004832
 10
3854.192096302199
 20
410.2727983618357
 30
-0.0000000000004832
 10
3854.211926434218
 20
410.2588360022162
 30
-0.0000000000004832
 10
3854.231752462167
 20
410.2448671299383
 30
-0.0000000000004832
  0
SPLINE
  5
87
330
1F
100
AcDbEntity
  8
图层 03
100
AcDbSpline
210
0.0
220
0.0
230
1.0
 70
     8
 71
     3
 72
    13
 73
     9
 74
     0
 42
0.0000000001
 43
0.0000000001
 40
5137.322111949964
 40
5137.322111949964
 40
5137.322111949964
 40
5137.322111949964
 40
5147.736137711852
 40
5152.943150592796
 40
5158.150163473741
 40
5163.303242181468
 40
5168.456320889196
 40
5178.762478304651
 40
5178.762478304651
 40
5178.762478304651
 40
5178.762478304651
 10
3854.231752462167
 20
410.2448671299383
 30
-0.0000000000004832
 10
3854.985109800999
 20
409.9931704794398
 30
-0.0000000000004832
 10
3856.106366709633
 20
409.5936834331984
 30
-0.0000000000004832
 10
3857.591102475762
 20
409.0247131863488
 30
-0.0000000000004832
 10
3858.695405970644
 20
408.5841250439182
 30
-0.0000000000004832
 10
3859.799995548796
 20
408.1285164857846
 30
-0.0000000000004832
 10
3861.274553126295
 20
407.503208379792
 30
-0.0000000000004832
 10
3862.375020882222
 20
407.0201814688237
 30
-0.0000000000004832
 10
3863.097345069053
 20
406.6981887117652
 30
-0.0000000000004832
  0
SPLINE
  5
88
330
1F
100
AcDbEntity
  8
图层 03
100
AcDbSpline
210
0.0
220
0.0
230
1.0
 70
     8
 71
     3
 72
     8
 73
     4
 74
     0
 42
0.0000000001
 43
0.0000000001
 40
5178.762478304651
 40
5178.762478304651
 40
5178.762478304651
 40
5178.762478304651
 40
5233.883934328021
 40
5233.883934328021
 40
5233.883934328021
 40
5233.883934328021
 10
3863.097345069053
 20
406.6981887117652
 30
-0.0000000000004832
 10
3867.058867527686
 20
405.2162545757595
 30
-0.0000000000004832
 10
3871.022382941993
 20
403.7406588212749
 30
-0.0000000000004832
 10
3874.991846016177
 20
402.2854968150264
 30
-0.0000000000004832
  0
SPLINE
  5
89
330
1F
100
AcDbEntity
  8
图层 03
100
AcDbSpline
210
0.0
220
0.0
230
1.0
 70
     8
 71
     3
 72
     8
 73
     4
 74
     0
 42
0.0000000001
 43
0.0000000001
 40
5233.883934328021
 40
5233.883934328021
 40
5233.883934328021
 40
5233.883934328021
 40
5294.280653426308
 40
5294.280653426308
 40
5294.280653426308
 40
5294.280653426308
 10
3874.991846016177
 20
402.2854968150264
 30
-0.0000000000004832
 10
3879.422447969498
 20
401.0086521095305
 30
-0.0000000000004832
 10
3883.853739815167
 20
399.7349453406016
 30
-0.0000000000004832
 10
3888.285959027203
 20
398.4655531960408
 30
-0.0000000000004832
  0
SPLINE
  5
8A
330
1F
100
AcDbEntity
  8
图层 03
100
AcDbSpline
210
0.0
220
0.0
230
1.0
 70
     8
 71
     3
 72
     8
 73
     4
 74
     0
 42
0.0000000001
 43
0.0000000001
 40
5294.280653426308
 40
5294.280653426308
 40
5294.280653426308
 40
5294.280653426308
 40
5352.898739335632
 40
5352.898739335632
 40
5352.898739335632
 40
5352.898739335632
 10
3888.285959027203
 20
398.4655531960408
 30
-0.0000000000004832
 10
3892.679624814619
 20
397.8804187189883
 30
-0.0000000000004832
 10
3897.0728639095
 20
397.2890316775072
 30
-0.0000000000004832
 10
3901.465708687182
 20
396.6924632096388
 30
-0.0000000000004832
  0
SPLINE
  5
8B
330
1F
100
AcDbEntity
  8
图层 03
100
AcDbSpline
210
0.0
220
0.0
230
1.0
 70
     8
 71
     3
 72
     8
 73
     4
 74
     0
 42
0.0000000001
 43
0.0000000001
 40
5352.898739335632
 40
5352.898739335632
 40
5352.898739335632
 40
5352.898739335632
 40
5400.677233387732
 40
5400.677233387732
 40
5400.677233387732
 40
5400.677233387732
 10
3901.465708687182
 20
396.6924632096388
 30
-0.0000000000004832
 10
3904.916449775532
 20
397.5125596223614
 30
-0.0000000000004832
 10
3908.372449465441
 20
398.3137794313775
 30
-0.0000000000004832
 10
3911.830638068413
 20
399.1061445169016
 30
-0.0000000000004832
  0
SPLINE
  5
8C
330
1F
100
AcDbEntity
  8
图层 03
100
AcDbSpline
210
0.0
220
0.0
230
1.0
 70
     8
 71
     3
 72
     8
 73
     4
 74
     0
 42
0.0000000001
 43
0.0000000001
 40
5400.677233387732
 40
5400.677233387732
 40
5400.677233387732
 40
5400.677233387732
 40
5439.020636919575
 40
5439.020636919575
 40
5439.020636919575
 40
5439.020636919575
 10
3911.830638068413
 20
399.1061445169016
 30
-0.0000000000004832
 10
3912.849114054608
 20
401.8053216464434
 30
-0.0000000000004832
 10
3913.856265088183
 20
404.5749182904883
 30
-0.0000000000004832
 10
3914.783420794685
 20
407.3137206352096
 30
-0.0000000000004832
  0
SPLINE
  5
8D
330
1F
100
AcDbEntity
  8
图层 03
100
AcDbSpline
210
0.0
220
0.0
230
1.0
 70
     8
 71
     3
 72
     8
 73
     4
 74
     0
 42
0.0000000001
 43
0.0000000001
 40
5439.020636919575
 40
5439.020636919575
 40
5439.020636919575
 40
5439.020636919575
 40
5482.941673642596
 40
5482.941673642596
 40
5482.941673642596
 40
5482.941673642596
 10
3914.783420794685
 20
407.3137206352096
 30
-0.0000000000004832
 10
3914.261635739566
 20
410.7070260903656
 30
-0.0000000000004832
 10
3913.735127108823
 20
414.0998429928916
 30
-0.0000000000004832
 10
3913.203224961345
 20
417.4920502399812
 30
-0.0000000000004832
  0
SPLINE
  5
8E
330
1F
100
AcDbEntity
  8
图层 03
100
AcDbSpline
210
0.0
220
0.0
230
1.0
 70
     8
 71
     3
 72
     8
 73
     4
 74
     0
 42
0.0000000001
 43
0.0000000001
 40
5482.941673642596
 40
5482.941673642596
 40
5482.941673642596
 40
5482.941673642596
 40
5529.554566251839
 40
5529.554566251839
 40
5529.554566251839
 40
5529.554566251839
 10
3913.203224961345
 20
417.4920502399812
 30
-0.0000000000004832
 10
3911.777075262034
 20
420.8770244313781
 30
-0.0000000000004832
 10
3910.362446192076
 20
424.2666882784703
 30
-0.0000000000004832
 10
3908.957455651915
 20
427.6600284509379
 30
-0.0000000000004832
  0
SPLINE
  5
8F
330
1F
100
AcDbEntity
  8
图层 03
100
AcDbSpline
210
0.0
220
0.0
230
1.0
 70
     8
 71
     3
 72
     8
 73
     4
 74
     0
 42
0.0000000001
 43
0.0000000001
 40
5529.554566251839
 40
5529.554566251839
 40
5529.554566251839
 40
5529.554566251839
 40
5574.654520769932
 40
5574.654520769932
 40
5574.654520769932
 40
5574.654520769932
 10
3908.957455651915
 20
427.6600284509379
 30
-0.0000000000004832
 10
3907.021619593434
 20
430.5756773046354
 30
-0.0000000000004832
 10
3905.088074689044
 20
433.697677365785
 30
-0.0000000000004832
 10
3903.287358892876
 20
436.6990592594524
 30
-0.0000000000004832
  0
SPLINE
  5
90
330
1F
100
AcDbEntity
  8
图层 03
100
AcDbSpline
210
0.0
220
0.0
230
1.0
 70
     8
 71
     3
 72
     8
 73
     4
 74
     0
 42
0.0000000001
 43
0.0000000001
 40
5574.654520769932
 40
5574.654520769932
 40
5574.654520769932
 40
5574.654520769932
 40
5610.491648180994
 40
5610.491648180994
 40
5610.491648180994
 40
5610.491648180994
 10
3903.287358892876
 20
436.6990592594524
 30
-0.0000000000004832
 10
3901.533238821912
 20
438.8945860841354
 30
-0.0000000000004832
 10
3899.73912279337
 20
441.1051042014456
 30
-0.0000000000004832
 10
3897.94384060991
 20
443.2656033288918
 30
-0.0000000000004832
  0
SPLINE
  5
91
330
1F
100
AcDbEntity
  8
图层 03
100
AcDbSpline
210
0.0
220
0.0
230
1.0
 70
     8
 71
     3
 72
     8
 73
     4
 74
     0
 42
0.0000000001
 43
0.0000000001
 40
5610.491648180994
 40
5610.491648180994
 40
5610.491648180994
 40
5610.491648180994
 40
5638.248768303928
 40
5638.248768303928
 40
5638.248768303928
 40
5638.248768303928
 10
3897.94384060991
 20
443.2656033288918
 30
-0.0000000000004832
 10
3896.45002533046
 20
444.8556184735112
 30
-0.0000000000004832
 10
3894.95020802567
 20
446.4397259008714
 30
-0.0000000000004832
 10
3893.44394069001
 20
448.0171351746544
 30
-0.0000000000004832
  0
SPLINE
  5
92
330
1F
100
AcDbEntity
  8
图层 03
100
AcDbSpline
210
0.0
220
0.0
230
1.0
 70
     8
 71
     3
 72
     8
 73
     4
 74
     0
 42
0.0000000001
 43
0.0000000001
 40
5638.248768303928
 40
5638.248768303928
 40
5638.248768303928
 40
5638.248768303928
 40
5662.155028526204
 40
5662.155028526204
 40
5662.155028526204
 40
5662.155028526204
 10
3893.44394069001
 20
448.0171351746544
 30
-0.0000000000004832
 10
3892.01011114563
 20
449.218337927661
 30
-0.0000000000004832
 10
3890.575407592231
 20
450.4184009453957
 30
-0.0000000000004832
 10
3889.13981000196
 20
451.6172856847377
 30
-0.0000000000004832
  0
SPLINE
  5
93
330
1F
100
AcDbEntity
  8
图层 03
100
AcDbSpline
210
0.0
220
0.0
230
1.0
 70
     8
 71
     3
 72
     8
 73
     4
 74
     0
 42
0.0000000001
 43
0.0000000001
 40
5662.155028526204
 40
5662.155028526204
 40
5662.155028526204
 40
5662.155028526204
 40
5685.447491840509
 40
5685.447491840509
 40
5685.447491840509
 40
5685.447491840509
 10
3889.13981000196
 20
451.6172856847377
 30
-0.0000000000004832
 10
3887.563856704052
 20
452.4959992297886
 30
-0.0000000000004832
 10
3885.98787914585
 20
453.3746624235174
 30
-0.0000000000004832
 10
3884.411877175244
 20
454.2532749247725
 30
-0.0000000000004832
  0
SPLINE
  5
94
330
1F
100
AcDbEntity
  8
图层 03
100
AcDbSpline
210
0.0
220
0.0
230
1.0
 70
     8
 71
     3
 72
     8
 73
     4
 74
     0
 42
0.0000000001
 43
0.0000000001
 40
5685.447491840509
 40
5685.447491840509
 40
5685.447491840509
 40
5685.447491840509
 40
5711.124939536125
 40
5711.124939536125
 40
5711.124939536125
 40
5711.124939536125
 10
3884.411877175244
 20
454.2532749247725
 30
-0.0000000000004832
 10
3882.534151207708
 20
454.8224308952027
 30
-0.0000000000004832
 10
3880.656406561971
 20
455.3915065764218
 30
-0.0000000000004832
 10
3878.778643280762
 20
455.9605020607236
 30
-0.0000000000004832
  0
SPLINE
  5
95
330
1F
100
AcDbEntity
  8
图层 03
100
AcDbSpline
210
0.0
220
0.0
230
1.0
 70
     8
 71
     3
 72
     8
 73
     4
 74
     0
 42
0.0000000001
 43
0.0000000001
 40
5711.124939536125
 40
5711.124939536125
 40
5711.124939536125
 40
5711.124939536125
 40
5739.439628030358
 40
5739.439628030358
 40
5739.439628030358
 40
5739.439628030358
 10
3878.778643280762
 20
455.9605020607236
 30
-0.0000000000004832
 10
3876.652279567053
 20
456.1663176872624
 30
-0.0000000000004832
 10
3874.52593262461
 20
456.3726078745451
 30
-0.0000000000004832
 10
3872.399603186485
 20
456.5793761802814
 30
-0.0000000000004832
  0
SPLINE
  5
96
330
1F
100
AcDbEntity
  8
图层 03
100
AcDbSpline
210
0.0
220
0.0
230
1.0
 70
     8
 71
     3
 72
     8
 73
     4
 74
     0
 42
0.0000000001
 43
0.0000000001
 40
5739.439628030358
 40
5739.439628030358
 40
5739.439628030358
 40
5739.439628030358
 40
5770.011794837335
 40
5770.011794837335
 40
5770.011794837335
 40
5770.011794837335
 10
3872.399603186485
 20
456.5793761802814
 30
-0.0000000000004832
 10
3870.131451984813
 20
456.3356884938414
 30
-0.0000000000004832
 10
3867.862052525085
 20
456.0997940103159
 30
-0.0000000000004832
 10
3865.591530877578
 20
455.8718732360305
 30
-0.0000000000004832
  0
SPLINE
  5
97
330
1F
100
AcDbEntity
  8
图层 03
100
AcDbSpline
210
0.0
220
0.0
230
1.0
 70
     8
 71
     3
 72
     8
 73
     4
 74
     0
 42
0.0000000001
 43
0.0000000001
 40
5770.011794837335
 40
5770.011794837335
 40
5770.011794837335
 40
5770.011794837335
 40
5804.857609455783
 40
5804.857609455783
 40
5804.857609455783
 40
5804.857609455783
 10
3865.591530877578
 20
455.8718732360305
 30
-0.0000000000004832
 10
3863.185497241795
 20
454.9466208323674
 30
-0.0000000000004832
 10
3860.754406395382
 20
454.0870222013242
 30
-0.0000000000004832
 10
3858.300270949971
 20
453.2885296976792
 30
-0.0000000000004832
  0
SPLINE
  5
98
330
1F
100
AcDbEntity
  8
图层 03
100
AcDbSpline
210
0.0
220
0.0
230
1.0
 70
     8
 71
     3
 72
     8
 73
     4
 74
     0
 42
0.0000000001
 43
0.0000000001
 40
5804.857609455783
 40
5804.857609455783
 40
5804.857609455783
 40
5804.857609455783
 40
5837.438209603846
 40
5837.438209603846
 40
5837.438209603846
 40
5837.438209603846
 10
3858.300270949971
 20
453.2885296976792
 30
-0.0000000000004832
 10
3856.645374128848
 20
451.5286869393941
 30
-0.0000000000004832
 10
3854.901004341204
 20
449.8535323908773
 30
-0.0000000000004832
 10
3853.004343118026
 20
448.3684376418564
 30
-0.0000000000004832
  0
SPLINE
  5
99
330
1F
100
AcDbEntity
  8
图层 03
100
AcDbSpline
210
0.0
220
0.0
230
1.0
 70
     8
 71
     3
 72
     8
 73
     4
 74
     0
 42
0.0000000001
 43
0.0000000001
 40
5837.438209603846
 40
5837.438209603846
 40
5837.438209603846
 40
5837.438209603846
 40
5851.755785738001
 40
5851.755785738001
 40
5851.755785738001
 40
5851.755785738001
 10
3853.004343118026
 20
448.3684376418564
 30
-0.0000000000004832
 10
3851.992463355675
 20
448.0506908521072
 30
-0.0000000000004832
 10
3850.98062341039
 20
447.7328279644964
 30
-0.0000000000004832
 10
3849.968836539164
 20
447.4148106690884
 30
-0.0000000000004832
  0
SPLINE
  5
9A
330
1F
100
AcDbEntity
  8
图层 03
100
AcDbSpline
210
0.0
220
0.0
230
1.0
 70
     8
 71
     3
 72
     8
 73
     4
 74
     0
 42
0.0000000001
 43
0.0000000001
 40
5851.755785738001
 40
5851.755785738001
 40
5851.755785738001
 40
5851.755785738001
 40
5879.250694136955
 40
5879.250694136955
 40
5879.250694136955
 40
5879.250694136955
 10
3849.968836539164
 20
447.4148106690884
 30
-0.0000000000004832
 10
3848.456529637842
 20
446.0521625490355
 30
-0.0000000000004832
 10
3846.922173192464
 20
444.7130320324133
 30
-0.0000000000004832
 10
3845.364061246335
 20
443.4055365998579
 30
-0.0000000000004832
  0
SPLINE
  5
9B
330
1F
100
AcDbEntity
  8
图层 03
100
AcDbSpline
210
0.0
220
0.0
230
1.0
 70
     8
 71
     3
 72
     8
 73
     4
 74
     0
 42
0.0000000001
 43
0.0000000001
 40
5879.250694136955
 40
5879.250694136955
 40
5879.250694136955
 40
5879.250694136955
 40
5910.947652643749
 40
5910.947652643749
 40
5910.947652643749
 40
5910.947652643749
 10
3845.364061246335
 20
443.4055365998579
 30
-0.0000000000004832
 10
3843.010880066306
 20
443.9246776731895
 30
-0.0000000000004832
 10
3840.654596080444
 20
444.4247340517063
 30
-0.0000000000004832
 10
3838.296742751289
 20
444.911386386927
 30
-0.0000000000004832
  0
SPLINE
  5
9C
330
1F
100
AcDbEntity
  8
图层 03
100
AcDbSpline
210
0.0
220
0.0
230
1.0
 70
     8
 71
     3
 72
     8
 73
     4
 74
     0
 42
0.0000000001
 43
0.0000000001
 40
5910.947652643749
 40
5910.947652643749
 40
5910.947652643749
 40
5910.947652643749
 40
5935.917378247773
 40
5935.917378247773
 40
5935.917378247773
 40
5935.917378247773
 10
3838.296742751289
 20
444.911386386927
 30
-0.0000000000004832
 10
3837.044903012504
 20
446.4176189104147
 30
-0.0000000000004832
 10
3835.746326347809
 20
447.9116228292039
 30
-0.0000000000004832
 10
3834.439614629609
 20
449.367814123646
 30
-0.0000000000004832
  0
SPLINE
  5
9D
330
1F
100
AcDbEntity
  8
图层 03
100
AcDbSpline
210
0.0
220
0.0
230
1.0
 70
     8
 71
     3
 72
     8
 73
     4
 74
     0
 42
0.0000000001
 43
0.0000000001
 40
5935.917378247773
 40
5935.917378247773
 40
5935.917378247773
 40
5935.917378247773
 40
5954.928067375903
 40
5954.928067375903
 40
5954.928067375903
 40
5954.928067375903
 10
3834.439614629609
 20
449.367814123646
 30
-0.0000000000004832
 10
3833.164731049592
 20
450.1079989793138
 30
-0.0000000000004832
 10
3831.885754260069
 20
450.840230300769
 30
-0.0000000000004832
 10
3830.603918002243
 20
451.5663652912381
 30
-0.0000000000004832
  0
SPLINE
  5
9E
330
1F
100
AcDbEntity
  8
图层 03
100
AcDbSpline
210
0.0
220
0.0
230
1.0
 70
     8
 71
     3
 72
     8
 73
     4
 74
     0
 42
0.0000000001
 43
0.0000000001
 40
5954.928067375903
 40
5954.928067375903
 40
5954.928067375903
 40
5954.928067375903
 40
6012.658395884161
 40
6012.658395884161
 40
6012.658395884161
 40
6012.658395884161
 10
3830.603918002243
 20
451.5663652912381
 30
-0.0000000000004832
 10
3827.765735352561
 20
454.5775838137284
 30
-0.0000000000004832
 10
3824.205280138241
 20
458.5583640788237
 30
-0.0000000000004832
 10
3821.459131266848
 20
461.657948031705
 30
-0.0000000000004832
  0
SPLINE
  5
9F
330
1F
100
AcDbEntity
  8
图层 03
100
AcDbSpline
210
0.0
220
0.0
230
1.0
 70
     8
 71
     3
 72
     8
 73
     4
 74
     0
 42
0.0000000001
 43
0.0000000001
 40
6012.658395884161
 40
6012.658395884161
 40
6012.658395884161
 40
6012.658395884161
 40
6026.317333999614
 40
6026.317333999614
 40
6026.317333999614
 40
6026.317333999614
 10
3821.459131266848
 20
461.657948031705
 30
-0.0000000000004832
 10
3820.781061564964
 20
462.493341873446
 30
-0.0000000000004832
 10
3820.082908116179
 20
463.3100087465647
 30
-0.0000000000004832
 10
3819.366782157915
 20
464.1112654503693
 30
-0.0000000000004832
  0
SPLINE
  5
A0
330
1F
100
AcDbEntity
  8
图层 03
100
AcDbSpline
210
0.0
220
0.0
230
1.0
 70
     8
 71
     3
 72
     8
 73
     4
 74
     0
 42
0.0000000001
 43
0.0000000001
 40
6026.317333999614
 40
6026.317333999614
 40
6026.317333999614
 40
6026.317333999614
 40
6041.023427246999
 40
6041.023427246999
 40
6041.023427246999
 40
6041.023427246999
 10
3819.366782157915
 20
464.1112654503693
 30
-0.0000000000004832
 10
3818.305353217072
 20
464.4716064577815
 30
-0.0000000000004832
 10
3817.235112515785
 20
464.8585553373362
 30
-0.0000000000004832
 10
3816.189526702324
 20
465.2729459641529
 30
-0.0000000000004832
  0
SPLINE
  5
A1
330
1F
100
AcDbEntity
  8
图层 03
100
AcDbSpline
210
0.0
220
0.0
230
1.0
 70
     8
 71
     3
 72
     8
 73
     4
 74
     0
 42
0.0000000001
 43
0.0000000001
 40
6041.023427246999
 40
6041.023427246999
 40
6041.023427246999
 40
6041.023427246999
 40
6083.514159480906
 40
6083.514159480906
 40
6083.514159480906
 40
6083.514159480906
 10
3816.189526702324
 20
465.2729459641529
 30
-0.0000000000004832
 10
3816.773722711285
 20
468.3884012916975
 30
-0.0000000000004832
 10
3817.531557469598
 20
471.7158230797015
 30
-0.0000000000004832
 10
3818.609741759523
 20
474.6687608045663
 30
-0.0000000000004832
  0
SPLINE
  5
A2
330
1F
100
AcDbEntity
  8
图层 03
100
AcDbSpline
210
0.0
220
0.0
230
1.0
 70
     8
 71
     3
 72
     8
 73
     4
 74
     0
 42
0.0000000001
 43
0.0000000001
 40
6083.514159480906
 40
6083.514159480906
 40
6083.514159480906
 40
6083.514159480906
 40
6106.979718334806
 40
6106.979718334806
 40
6106.979718334806
 40
6106.979718334806
 10
3818.609741759523
 20
474.6687608045663
 30
-0.0000000000004832
 10
3819.319563120096
 20
476.2886456767179
 30
-0.0000000000004832
 10
3820.048451040684
 20
477.9100540279574
 30
-0.0000000000004832
 10
3820.792446164328
 20
479.5119554786293
 30
-0.0000000000004832
  0
SPLINE
  5
A3
330
1F
100
AcDbEntity
  8
图层 03
100
AcDbSpline
210
0.0
220
0.0
230
1.0
 70
     8
 71
     3
 72
     8
 73
     4
 74
     0
 42
0.0000000001
 43
0.0000000001
 40
6106.979718334806
 40
6106.979718334806
 40
6106.979718334806
 40
6106.979718334806
 40
6123.275543102299
 40
6123.275543102299
 40
6123.275543102299
 40
6123.275543102299
 10
3820.792446164328
 20
479.5119554786293
 30
-0.0000000000004832
 10
3821.206070025009
 20
480.6753475107666
 30
-0.0000000000004832
 10
3821.634077062267
 20
481.8369393357498
 30
-0.0000000000004832
 10
3822.076345891463
 20
482.9876203454885
 30
-0.0000000000004832
  0
SPLINE
  5
A4
330
1F
100
AcDbEntity
  8
图层 03
100
AcDbSpline
210
0.0
220
0.0
230
1.0
 70
     8
 71
     3
 72
     8
 73
     4
 74
     0
 42
0.0000000001
 43
0.0000000001
 40
6123.275543102299
 40
6123.275543102299
 40
6123.275543102299
 40
6123.275543102299
 40
6162.106993817032
 40
6162.106993817032
 40
6162.106993817032
 40
6162.106993817032
 10
3822.076345891463
 20
482.9876203454885
 30
-0.0000000000004832
 10
3823.117138848151
 20
485.7391100025579
 30
-0.0000000000004832
 10
3824.157448082969
 20
488.4908188358548
 30
-0.0000000000004832
 10
3825.197299832977
 20
491.2427343896229
 30
-0.0000000000004832
  0
SPLINE
  5
A5
330
1F
100
AcDbEntity
  8
图层 03
100
AcDbSpline
210
0.0
220
0.0
230
1.0
 70
     8
 71
     3
 72
     8
 73
     4
 74
     0
 42
0.0000000001
 43
0.0000000001
 40
6162.106993817032
 40
6162.106993817032
 40
6162.106993817032
 40
6162.106993817032
 40
6178.670468286497
 40
6178.670468286497
 40
6178.670468286497
 40
6178.670468286497
 10
3825.197299832977
 20
491.2427343896229
 30
-0.0000000000004832
 10
3825.52515685373
 20
492.4569014711157
 30
-0.0000000000004832
 10
3825.877855619962
 20
493.6786814546913
 30
-0.0000000000004832
 10
3826.240623786457
 20
494.8803106483033
 30
-0.0000000000004832
  0
SPLINE
  5
A6
330
1F
100
AcDbEntity
  8
图层 03
100
AcDbSpline
210
0.0
220
0.0
230
1.0
 70
     8
 71
     3
 72
     8
 73
     4
 74
     0
 42
0.0000000001
 43
0.0000000001
 40
6178.670468286497
 40
6178.670468286497
 40
6178.670468286497
 40
6178.670468286497
 40
6205.779910744418
 40
6205.779910744418
 40
6205.779910744418
 40
6205.779910744418
 10
3826.240623786457
 20
494.8803106483033
 30
-0.0000000000004832
 10
3826.654161847528
 20
496.8979294670478
 30
-0.0000000000004832
 10
3827.181493615524
 20
498.9306103245967
 30
-0.0000000000004832
 10
3827.756757178191
 20
500.8959508013186
 30
-0.0000000000004832
  0
SPLINE
  5
A7
330
1F
100
AcDbEntity
  8
图层 03
100
AcDbSpline
210
0.0
220
0.0
230
1.0
 70
     8
 71
     3
 72
     8
 73
     4
 74
     0
 42
0.0000000001
 43
0.0000000001
 40
6205.779910744418
 40
6205.779910744418
 40
6205.779910744418
 40
6205.779910744418
 40
6232.248784371353
 40
6232.248784371353
 40
6232.248784371353
 40
6232.248784371353
 10
3827.756757178191
 20
500.8959508013186
 30
-0.0000000000004832
 10
3828.648048236159
 20
502.6524313225531
 30
-0.0000000000004832
 10
3829.558533570195
 20
504.474944245917
 30
-0.0000000000004832
 10
3830.418788051603
 20
506.2492143890859
 30
-0.0000000000004832
  0
SPLINE
  5
A8
330
1F
100
AcDbEntity
  8
图层 03
100
AcDbSpline
210
0.0
220
0.0
230
1.0
 70
     8
 71
     3
 72
     8
 73
     4
 74
     0
 42
0.0000000001
 43
0.0000000001
 40
6232.248784371353
 40
6232.248784371353
 40
6232.248784371353
 40
6232.248784371353
 40
6254.014663225456
 40
6254.014663225456
 40
6254.014663225456
 40
6254.014663225456
 10
3830.418788051603
 20
506.2492143890859
 30
-0.0000000000004832
 10
3830.945183915639
 20
507.816049480009
 30
-0.0000000000004832
 10
3831.470533511424
 20
509.3833157324318
 30
-0.0000000000004832
 10
3831.994012952909
 20
510.951341122998
 30
-0.0000000000004832
  0
SPLINE
  5
A9
330
1F
100
AcDbEntity
  8
图层 03
100
AcDbSpline
210
0.0
220
0.0
230
1.0
 70
     8
 71
     3
 72
     8
 73
     4
 74
     0
 42
0.0000000001
 43
0.0000000001
 40
6254.014663225456
 40
6254.014663225456
 40
6254.014663225456
 40
6254.014663225456
 40
6295.711392587142
 40
6295.711392587142
 40
6295.711392587142
 40
6295.711392587142
 10
3831.994012952909
 20
510.951341122998
 30
-0.0000000000004832
 10
3833.534160791224
 20
513.6761158476224
 30
-0.0000000000004832
 10
3835.073236525463
 20
516.4015814156375
 30
-0.0000000000004832
 10
3836.609366802157
 20
519.1289269857837
 30
-0.0000000000004832
  0
SPLINE
  5
AA
330
1F
100
AcDbEntity
  8
图层 03
100
AcDbSpline
210
0.0
220
0.0
230
1.0
 70
     8
 71
     3
 72
    11
 73
     7
 74
     0
 42
0.0000000001
 43
0.0000000001
 40
6295.711392587142
 40
6295.711392587142
 40
6295.711392587142
 40
6295.711392587142
 40
6329.82037638747
 40
6329.82037638747
 40
6329.82037638747
 40
6332.673117862621
 40
6332.673117862621
 40
6332.673117862621
 40
6332.673117862621
 10
3836.609366802157
 20
519.1289269857837
 30
-0.0000000000004832
 10
3838.024549840448
 20
521.2506107081776
 30
-0.0000000000004832
 10
3839.441921967091
 20
523.3706974097798
 30
-0.0000000000004832
 10
3840.866727217508
 20
525.4851986834109
 30
-0.0000000000004832
 10
3840.98597874706
 20
525.6619838013422
 30
-0.0000000000004832
 10
3841.105359702402
 20
525.8386721997865
 30
-0.0000000000004832
 10
3841.224901163186
 20
526.0152395245077
 30
-0.0000000000004832
  0
SPLINE
  5
AB
330
1F
100
AcDbEntity
  8
图层 03
100
AcDbSpline
210
0.0
220
0.0
230
1.0
 70
     8
 71
     3
 72
     8
 73
     4
 74
     0
 42
0.0000000001
 43
0.0000000001
 40
6332.673117862621
 40
6332.673117862621
 40
6332.673117862621
 40
6332.673117862621
 40
6356.074112104793
 40
6356.074112104793
 40
6356.074112104793
 40
6356.074112104793
 10
3841.224901163186
 20
526.0152395245077
 30
-0.0000000000004832
 10
3842.043023257015
 20
527.5731261759851
 30
-0.0000000000004832
 10
3842.855467749466
 20
529.1345226333705
 30
-0.0000000000004832
 10
3843.656901708572
 20
530.7022840470679
 30
-0.0000000000004832
  0
SPLINE
  5
AC
330
1F
100
AcDbEntity
  8
图层 03
100
AcDbSpline
210
0.0
220
0.0
230
1.0
 70
     8
 71
     3
 72
     8
 73
     4
 74
     0
 42
0.0000000001
 43
0.0000000001
 40
6356.074112104793
 40
6356.074112104793
 40
6356.074112104793
 40
6356.074112104793
 40
6358.163911004134
 40
6358.163911004134
 40
6358.163911004134
 40
6358.163911004134
 10
3843.656901708572
 20
530.7022840470679
 30
-0.0000000000004832
 10
3843.70468016425
 20
530.8535003845669
 30
-0.0000000000004832
 10
3843.754450887819
 20
531.0048967748517
 30
-0.0000000000004832
 10
3843.805285964059
 20
531.1548865703762
 30
-0.0000000000004832
  0
SPLINE
  5
AD
330
1F
100
AcDbEntity
  8
图层 03
100
AcDbSpline
210
0.0
220
0.0
230
1.0
 70
     8
 71
     3
 72
     8
 73
     4
 74
     0
 42
0.0000000001
 43
0.0000000001
 40
6358.163911004134
 40
6358.163911004134
 40
6358.163911004134
 40
6358.163911004134
 40
6367.47542834835
 40
6367.47542834835
 40
6367.47542834835
 40
6367.47542834835
 10
3843.805285964059
 20
531.1548865703762
 30
-0.0000000000004832
 10
3843.499374672914
 20
531.8223548408992
 30
-0.0000000000004832
 10
3843.214222571354
 20
532.4981881219804
 30
-0.0000000000004832
 10
3842.949070683049
 20
533.1820502022631
 30
-0.0000000000004832
  0
SPLINE
  5
AE
330
1F
100
AcDbEntity
  8
图层 03
100
AcDbSpline
210
0.0
220
0.0
230
1.0
 70
     8
 71
     3
 72
     8
 73
     4
 74
     0
 42
0.0000000001
 43
0.0000000001
 40
6367.47542834835
 40
6367.47542834835
 40
6367.47542834835
 40
6367.47542834835
 40
6381.896969972911
 40
6381.896969972911
 40
6381.896969972911
 40
6381.896969972911
 10
3842.949070683049
 20
533.1820502022631
 30
-0.0000000000004832
 10
3841.866681043325
 20
533.3018585342259
 30
-0.0000000000004832
 10
3840.784278966304
 20
533.4214143837421
 30
-0.0000000000004832
 10
3839.701861949362
 20
533.5406578686352
 30
-0.0000000000004832
  0
SPLINE
  5
AF
330
1F
100
AcDbEntity
  8
图层 03
100
AcDbSpline
210
0.0
220
0.0
230
1.0
 70
     8
 71
     3
 72
     8
 73
     4
 74
     0
 42
0.0000000001
 43
0.0000000001
 40
6381.896969972911
 40
6381.896969972911
 40
6381.896969972911
 40
6381.896969972911
 40
6400.694737457052
 40
6400.694737457052
 40
6400.694737457052
 40
6400.694737457052
 10
3839.701861949362
 20
533.5406578686352
 30
-0.0000000000004832
 10
3838.330796810139
 20
533.2706644291894
 30
-0.0000000000004832
 10
3836.958136890926
 20
533.0066375860815
 30
-0.0000000000004832
 10
3835.581479848222
 20
532.7614129385765
 30
-0.0000000000004832
  0
SPLINE
  5
B0
330
1F
100
AcDbEntity
  8
图层 03
100
AcDbSpline
210
0.0
220
0.0
230
1.0
 70
     8
 71
     3
 72
     9
 73
     5
 74
     0
 42
0.0000000001
 43
0.0000000001
 40
6400.694737457052
 40
6400.694737457052
 40
6400.694737457052
 40
6400.694737457052
 40
6416.532530744318
 40
6432.370694764258
 40
6432.370694764258
 40
6432.370694764258
 40
6432.370694764258
 10
3835.581479848222
 20
532.7614129385765
 30
-0.0000000000004832
 10
3834.480462133374
 20
532.359828456961
 30
-0.0000000000004832
 10
3832.272148060738
 20
531.5730388077643
 30
-0.0000000000004832
 10
3830.059862465249
 20
530.7967044088075
 30
-0.0000000000004832
 10
3828.95311455352
 20
530.4102059081196
 30
-0.0000000000004832
  0
SPLINE
  5
B1
330
1F
100
AcDbEntity
  8
图层 03
100
AcDbSpline
210
0.0
220
0.0
230
1.0
 70
     8
 71
     3
 72
     8
 73
     4
 74
     0
 42
0.0000000001
 43
0.0000000001
 40
6432.370694764258
 40
6432.370694764258
 40
6432.370694764258
 40
6432.370694764258
 40
6483.726160173018
 40
6483.726160173018
 40
6483.726160173018
 40
6483.726160173018
 10
3828.95311455352
 20
530.4102059081196
 30
-0.0000000000004832
 10
3825.510161800325
 20
528.8139952258633
 30
-0.0000000000004832
 10
3822.064120638664
 20
527.2242385374548
 30
-0.0000000000004832
 10
3818.616990018744
 20
525.6368219589585
 30
-0.0000000000004832
  0
SPLINE
  5
B2
330
1F
100
AcDbEntity
  8
图层 03
100
AcDbSpline
210
0.0
220
0.0
230
1.0
 70
     8
 71
     3
 72
     8
 73
     4
 74
     0
 42
0.0000000001
 43
0.0000000001
 40
6483.726160173018
 40
6483.726160173018
 40
6483.726160173018
 40
6483.726160173018
 40
6545.256655238371
 40
6545.256655238371
 40
6545.256655238371
 40
6545.256655238371
 10
3818.616990018744
 20
525.6368219589585
 30
-0.0000000000004832
 10
3814.751410194737
 20
523.2465737609439
 30
-0.0000000000004832
 10
3810.885825052563
 20
520.8563342356347
 30
-0.0000000000004832
 10
3807.020237431828
 20
518.4660987524003
 30
-0.0000000000004832
  0
SPLINE
  5
B3
330
1F
100
AcDbEntity
  8
图层 03
100
AcDbSpline
210
0.0
220
0.0
230
1.0
 70
     8
 71
     3
 72
     8
 73
     4
 74
     0
 42
0.0000000001
 43
0.0000000001
 40
6545.256655238371
 40
6545.256655238371
 40
6545.256655238371
 40
6545.256655238371
 40
6611.020658566664
 40
6611.020658566664
 40
6611.020658566664
 40
6611.020658566664
 10
3807.020237431828
 20
518.4660987524003
 30
-0.0000000000004832
 10
3803.343945904939
 20
515.2748439055341
 30
-0.0000000000004832
 10
3799.664548942381
 20
512.0873319944675
 30
-0.0000000000004832
 10
3795.98351574575
 20
508.9018128874941
 30
-0.0000000000004832
  0
SPLINE
  5
B4
330
1F
100
AcDbEntity
  8
图层 03
100
AcDbSpline
210
0.0
220
0.0
230
1.0
 70
     8
 71
     3
 72
     8
 73
     4
 74
     0
 42
0.0000000001
 43
0.0000000001
 40
6611.020658566664
 40
6611.020658566664
 40
6611.020658566664
 40
6611.020658566664
 40
6677.879525951996
 40
6677.879525951996
 40
6677.879525951996
 40
6677.879525951996
 10
3795.98351574575
 20
508.9018128874941
 30
-0.0000000000004832
 10
3792.918144141301
 20
504.9750427079636
 30
-0.0000000000004832
 10
3789.838049705467
 20
501.0607487478234
 30
-0.0000000000004832
 10
3786.749656135711
 20
497.153779536401
 30
-0.0000000000004832
  0
SPLINE
  5
B5
330
1F
100
AcDbEntity
  8
图层 03
100
AcDbSpline
210
0.0
220
0.0
230
1.0
 70
     8
 71
     3
 72
     8
 73
     4
 74
     0
 42
0.0000000001
 43
0.0000000001
 40
6677.879525951996
 40
6677.879525951996
 40
6677.879525951996
 40
6677.879525951996
 40
6748.05418775692
 40
6748.05418775692
 40
6748.05418775692
 40
6748.05418775692
 10
3786.749656135711
 20
497.153779536401
 30
-0.0000000000004832
 10
3784.033751108807
 20
492.6499381537129
 30
-0.0000000000004832
 10
3781.277756878169
 20
488.1728374211941
 30
-0.0000000000004832
 10
3778.500440919226
 20
483.7115159708392
 30
-0.0000000000004832
  0
SPLINE
  5
B6
330
1F
100
AcDbEntity
  8
图层 03
100
AcDbSpline
210
0.0
220
0.0
230
1.0
 70
     8
 71
     3
 72
     8
 73
     4
 74
     0
 42
0.0000000001
 43
0.0000000001
 40
6748.05418775692
 40
6748.05418775692
 40
6748.05418775692
 40
6748.05418775692
 40
6801.032458287097
 40
6801.032458287097
 40
6801.032458287097
 40
6801.032458287097
 10
3778.500440919226
 20
483.7115159708392
 30
-0.0000000000004832
 10
3776.506300556621
 20
480.2738398982199
 30
-0.0000000000004832
 10
3774.479755967461
 20
476.8570128859487
 30
-0.0000000000004832
 10
3772.435308408777
 20
473.4530580071603
 30
-0.0000000000004832
  0
SPLINE
  5
B7
330
1F
100
AcDbEntity
  8
图层 03
100
AcDbSpline
210
0.0
220
0.0
230
1.0
 70
     8
 71
     3
 72
     8
 73
     4
 74
     0
 42
0.0000000001
 43
0.0000000001
 40
6801.032458287097
 40
6801.032458287097
 40
6801.032458287097
 40
6801.032458287097
 40
6823.09357901532
 40
6823.09357901532
 40
6823.09357901532
 40
6823.09357901532
 10
3772.435308408777
 20
473.4530580071603
 30
-0.0000000000004832
 10
3771.714651462841
 20
471.9550556823099
 30
-0.0000000000004832
 10
3770.989364731592
 20
470.4596060400279
 30
-0.0000000000004832
 10
3770.260097462135
 20
468.9664426400899
 30
-0.0000000000004832
  0
SPLINE
  5
B8
330
1F
100
AcDbEntity
  8
图层 03
100
AcDbSpline
210
0.0
220
0.0
230
1.0
 70
     8
 71
     3
 72
     8
 73
     4
 74
     0
 42
0.0000000001
 43
0.0000000001
 40
6823.09357901532
 40
6823.09357901532
 40
6823.09357901532
 40
6823.09357901532
 40
6914.581985930503
 40
6914.581985930503
 40
6914.581985930503
 40
6914.581985930503
 10
3770.260097462135
 20
468.9664426400899
 30
-0.0000000000004832
 10
3766.746159272988
 20
463.0766083411871
 30
-0.0000000000004832
 10
3763.167179649664
 20
457.2297536197542
 30
-0.0000000000004832
 10
3759.563723878488
 20
451.4014792261354
 30
-0.0000000000004832
  0
SPLINE
  5
B9
330
1F
100
AcDbEntity
  8
图层 03
100
AcDbSpline
210
0.0
220
0.0
230
1.0
 70
     8
 71
     3
 72
     8
 73
     4
 74
     0
 42
0.0000000001
 43
0.0000000001
 40
6914.581985930503
 40
6914.581985930503
 40
6914.581985930503
 40
6914.581985930503
 40
6935.14880164391
 40
6935.14880164391
 40
6935.14880164391
 40
6935.14880164391
 10
3759.563723878488
 20
451.4014792261354
 30
-0.0000000000004832
 10
3758.446883132925
 20
450.3650035855503
 30
-0.0000000000004832
 10
3757.321170573846
 20
449.33839875775
 30
-0.0000000000004832
 10
3756.188066192748
 20
448.3208014578005
 30
-0.0000000000004832
  0
SPLINE
  5
BA
330
1F
100
AcDbEntity
  8
图层 03
100
AcDbSpline
210
0.0
220
0.0
230
1.0
 70
     8
 71
     3
 72
     8
 73
     4
 74
     0
 42
0.0000000001
 43
0.0000000001
 40
6935.14880164391
 40
6935.14880164391
 40
6935.14880164391
 40
6935.14880164391
 40
6974.466311604028
 40
6974.466311604028
 40
6974.466311604028
 40
6974.466311604028
 10
3756.188066192748
 20
448.3208014578005
 30
-0.0000000000004832
 10
3754.699846563267
 20
445.7749055402596
 30
-0.0000000000004832
 10
3753.216127097836
 20
443.2260155754688
 30
-0.0000000000004832
 10
3751.737867378437
 20
440.6735781528295
 30
-0.0000000000004832
  0
SPLINE
  5
BB
330
1F
100
AcDbEntity
  8
图层 03
100
AcDbSpline
210
0.0
220
0.0
230
1.0
 70
     8
 71
     3
 72
     8
 73
     4
 74
     0
 42
0.0000000001
 43
0.0000000001
 40
6974.466311604028
 40
6974.466311604028
 40
6974.466311604028
 40
6974.466311604028
 40
7030.175073263377
 40
7030.175073263377
 40
7030.175073263377
 40
7030.175073263377
 10
3751.737867378437
 20
440.6735781528295
 30
-0.0000000000004832
 10
3749.567172885963
 20
437.1081770884483
 30
-0.0000000000004832
 10
3747.413177300017
 20
433.530711149628
 30
-0.0000000000004832
 10
3745.304572386193
 20
429.9237882511952
 30
-0.0000000000004832
  0
SPLINE
  5
BC
330
1F
100
AcDbEntity
  8
图层 03
100
AcDbSpline
210
0.0
220
0.0
230
1.0
 70
     8
 71
     3
 72
     8
 73
     4
 74
     0
 42
0.0000000001
 43
0.0000000001
 40
7030.175073263377
 40
7030.175073263377
 40
7030.175073263377
 40
7030.175073263377
 40
7081.373327859628
 40
7081.373327859628
 40
7081.373327859628
 40
7081.373327859628
 10
3745.304572386193
 20
429.9237882511952
 30
-0.0000000000004832
 10
3744.342841510643
 20
426.1368738146161
 30
-0.0000000000004832
 10
3743.400740238682
 20
422.3432395303029
 30
-0.0000000000004832
 10
3742.491458758593
 20
418.5398085498007
 30
-0.0000000000004832
  0
SPLINE
  5
BD
330
1F
100
AcDbEntity
  8
图层 03
100
AcDbSpline
210
0.0
220
0.0
230
1.0
 70
     8
 71
     3
 72
     8
 73
     4
 74
     0
 42
0.0000000001
 43
0.0000000001
 40
7081.373327859628
 40
7081.373327859628
 40
7081.373327859628
 40
7081.373327859628
 40
7115.171842444759
 40
7115.171842444759
 40
7115.171842444759
 40
7115.171842444759
 10
3742.491458758593
 20
418.5398085498007
 30
-0.0000000000004832
 10
3743.09698858886
 20
415.9591709127716
 30
-0.0000000000004832
 10
3743.693725529439
 20
413.3767708898754
 30
-0.0000000000004832
 10
3744.282060434973
 20
410.7928806926452
 30
-0.0000000000004832
  0
SPLINE
  5
BE
330
1F
100
AcDbEntity
  8
图层 03
100
AcDbSpline
210
0.0
220
0.0
230
1.0
 70
     8
 71
     3
 72
     8
 73
     4
 74
     0
 42
0.0000000001
 43
0.0000000001
 40
7115.171842444759
 40
7115.171842444759
 40
7115.171842444759
 40
7115.171842444759
 40
7145.20127137856
 40
7145.20127137856
 40
7145.20127137856
 40
7145.20127137856
 10
3744.282060434973
 20
410.7928806926452
 30
-0.0000000000004832
 10
3746.258963782596
 20
409.612346096927
 30
-0.0000000000004832
 10
3748.270198653085
 20
408.3200522029504
 30
-0.0000000000004832
 10
3750.189814479836
 20
407.0371705830653
 30
-0.0000000000004832
  0
SPLINE
  5
BF
330
1F
100
AcDbEntity
  8
图层 03
100
AcDbSpline
210
0.0
220
0.0
230
1.0
 70
     8
 71
     3
 72
     8
 73
     4
 74
     0
 42
0.0000000001
 43
0.0000000001
 40
7145.20127137856
 40
7145.20127137856
 40
7145.20127137856
 40
7145.20127137856
 40
7152.116586960707
 40
7152.116586960707
 40
7152.116586960707
 40
7152.116586960707
 10
3750.189814479836
 20
407.0371705830653
 30
-0.0000000000004832
 10
3750.51640037729
 20
406.6012452606283
 30
-0.0000000000004832
 10
3750.832036101497
 20
406.155954775584
 30
-0.0000000000004832
 10
3751.137307749495
 20
405.7044486647123
 30
-0.0000000000004832
  0
SPLINE
  5
C0
330
1F
100
AcDbEntity
  8
图层 03
100
AcDbSpline
210
0.0
220
0.0
230
1.0
 70
     8
 71
     3
 72
     8
 73
     4
 74
     0
 42
0.0000000001
 43
0.0000000001
 40
7152.116586960707
 40
7152.116586960707
 40
7152.116586960707
 40
7152.116586960707
 40
7176.380745625097
 40
7176.380745625097
 40
7176.380745625097
 40
7176.380745625097
 10
3751.137307749495
 20
405.7044486647123
 30
-0.0000000000004832
 10
3752.707204629177
 20
404.657178285823
 30
-0.0000000000004832
 10
3754.264678231152
 20
403.5830684415437
 30
-0.0000000000004832
 10
3755.801720432468
 20
402.482383719888
 30
-0.0000000000004832
  0
SPLINE
  5
C1
330
1F
100
AcDbEntity
  8
图层 03
100
AcDbSpline
210
0.0
220
0.0
230
1.0
 70
     8
 71
     3
 72
     8
 73
     4
 74
     0
 42
0.0000000001
 43
0.0000000001
 40
7176.380745625097
 40
7176.380745625097
 40
7176.380745625097
 40
7176.380745625097
 40
7193.356292691161
 40
7193.356292691161
 40
7193.356292691161
 40
7193.356292691161
 10
3755.801720432468
 20
402.482383719888
 30
-0.0000000000004832
 10
3756.47762062136
 20
401.3264680979582
 30
-0.0000000000004832
 10
3757.140867163476
 20
400.162794441912
 30
-0.0000000000004832
 10
3757.791751945463
 20
398.9926386635339
 30
-0.0000000000004832
  0
SPLINE
  5
C2
330
1F
100
AcDbEntity
  8
图层 03
100
AcDbSpline
210
0.0
220
0.0
230
1.0
 70
     8
 71
     3
 72
     8
 73
     4
 74
     0
 42
0.0000000001
 43
0.0000000001
 40
7193.356292691161
 40
7193.356292691161
 40
7193.356292691161
 40
7193.356292691161
 40
7215.09173153114
 40
7215.09173153114
 40
7215.09173153114
 40
7215.09173153114
 10
3757.791751945463
 20
398.9926386635339
 30
-0.0000000000004832
 10
3757.859488870697
 20
397.3048472763782
 30
-0.0000000000004832
 10
3757.927409947925
 20
395.617052898926
 30
-0.0000000000004832
 10
3757.995505937133
 20
393.9292558020368
 30
-0.0000000000004832
  0
SPLINE
  5
C3
330
1F
100
AcDbEntity
  8
图层 03
100
AcDbSpline
210
0.0
220
0.0
230
1.0
 70
     8
 71
     3
 72
     8
 73
     4
 74
     0
 42
0.0000000001
 43
0.0000000001
 40
7215.09173153114
 40
7215.09173153114
 40
7215.09173153114
 40
7215.09173153114
 40
7258.898368255421
 40
7258.898368255421
 40
7258.898368255421
 40
7258.898368255421
 10
3757.995505937133
 20
393.9292558020368
 30
-0.0000000000004832
 10
3757.211799535638
 20
390.6820558867626
 30
-0.0000000000004832
 10
3756.369080443144
 20
387.4371243759792
 30
-0.0000000000004832
 10
3755.486302818407
 20
384.2226120554703
 30
-0.0000000000004832
  0
SPLINE
  5
C4
330
1F
100
AcDbEntity
  8
图层 03
100
AcDbSpline
210
0.0
220
0.0
230
1.0
 70
     8
 71
     3
 72
     8
 73
     4
 74
     0
 42
0.0000000001
 43
0.0000000001
 40
7258.898368255421
 40
7258.898368255421
 40
7258.898368255421
 40
7258.898368255421
 40
7263.668011599928
 40
7263.668011599928
 40
7263.668011599928
 40
7263.668011599928
 10
3755.486302818407
 20
384.2226120554703
 30
-0.0000000000004832
 10
3755.44382567112
 20
383.8579062100525
 30
-0.0000000000004832
 10
3755.400985770892
 20
383.4932656817303
 30
-0.0000000000004832
 10
3755.357738317309
 20
383.1287012431485
 30
-0.0000000000004832
  0
SPLINE
  5
C5
330
1F
100
AcDbEntity
  8
图层 03
100
AcDbSpline
210
0.0
220
0.0
230
1.0
 70
     8
 71
     3
 72
     8
 73
     4
 74
     0
 42
0.0000000001
 43
0.0000000001
 40
7263.668011599928
 40
7263.668011599928
 40
7263.668011599928
 40
7263.668011599928
 40
7276.132627238972
 40
7276.132627238972
 40
7276.132627238972
 40
7276.132627238972
 10
3755.357738317309
 20
383.1287012431485
 30
-0.0000000000004832
 10
3754.817021409236
 20
382.3730092801884
 30
-0.0000000000004832
 10
3754.266957818464
 20
381.6198834257889
 30
-0.0000000000004832
 10
3753.709868117287
 20
380.8773859002291
 30
-0.0000000000004832
  0
SPLINE
  5
C6
330
1F
100
AcDbEntity
  8
图层 03
100
AcDbSpline
210
0.0
220
0.0
230
1.0
 70
     8
 71
     3
 72
     8
 73
     4
 74
     0
 42
0.0000000001
 43
0.0000000001
 40
7276.132627238972
 40
7276.132627238972
 40
7276.132627238972
 40
7276.132627238972
 40
7326.432703971313
 40
7326.432703971313
 40
7326.432703971313
 40
7326.432703971313
 10
3753.709868117287
 20
380.8773859002291
 30
-0.0000000000004832
 10
3751.957856382984
 20
377.7393615693779
 30
-0.0000000000004832
 10
3749.882904566731
 20
374.160815564032
 30
-0.0000000000004832
 10
3747.896218058133
 20
371.1812885623666
 30
-0.0000000000004832
  0
SPLINE
  5
C7
330
1F
100
AcDbEntity
  8
图层 03
100
AcDbSpline
210
0.0
220
0.0
230
1.0
 70
     8
 71
     3
 72
     8
 73
     4
 74
     0
 42
0.0000000001
 43
0.0000000001
 40
7326.432703971313
 40
7326.432703971313
 40
7326.432703971313
 40
7326.432703971313
 40
7381.892523804041
 40
7381.892523804041
 40
7381.892523804041
 40
7381.892523804041
 10
3747.896218058133
 20
371.1812885623666
 30
-0.0000000000004832
 10
3745.424644026803
 20
367.9754624223484
 30
-0.0000000000004832
 10
3742.73810496356
 20
364.6184068993505
 30
-0.0000000000004832
 10
3740.075566795966
 20
361.5818610777924
 30
-0.0000000000004832
  0
SPLINE
  5
C8
330
1F
100
AcDbEntity
  8
图层 03
100
AcDbSpline
210
0.0
220
0.0
230
1.0
 70
     8
 71
     3
 72
     8
 73
     4
 74
     0
 42
0.0000000001
 43
0.0000000001
 40
7381.892523804041
 40
7381.892523804041
 40
7381.892523804041
 40
7381.892523804041
 40
7381.965400658218
 40
7381.965400658218
 40
7381.965400658218
 40
7381.965400658218
 10
3740.075566795966
 20
361.5818610777924
 30
-0.0000000000004832
 10
3740.071786136552
 20
361.5779956140021
 30
-0.0000000000004832
 10
3740.068005403275
 20
361.5741302272716
 30
-0.0000000000004832
 10
3740.064224596081
 20
361.5702649176753
 30
-0.0000000000004832
  0
SPLINE
  5
C9
330
1F
100
AcDbEntity
  8
图层 03
100
AcDbSpline
210
0.0
220
0.0
230
1.0
 70
     8
 71
     3
 72
     8
 73
     4
 74
     0
 42
0.0000000001
 43
0.0000000001
 40
7381.965400658218
 40
7381.965400658218
 40
7381.965400658218
 40
7381.965400658218
 40
7440.48833474824
 40
7440.48833474824
 40
7440.48833474824
 40
7440.48833474824
 10
3740.064224596081
 20
361.5702649176753
 30
-0.0000000000004832
 10
3737.433153448026
 20
358.0892747695043
 30
-0.0000000000004832
 10
3734.812817138247
 20
354.5991611128171
 30
-0.0000000000004832
 10
3732.216003997219
 20
351.0901148835135
 30
-0.0000000000004832
  0
SPLINE
  5
CA
330
1F
100
AcDbEntity
  8
图层 03
100
AcDbSpline
210
0.0
220
0.0
230
1.0
 70
     8
 71
     3
 72
     8
 73
     4
 74
     0
 42
0.0000000001
 43
0.0000000001
 40
7440.48833474824
 40
7440.48833474824
 40
7440.48833474824
 40
7440.48833474824
 40
7446.813090189472
 40
7446.813090189472
 40
7446.813090189472
 40
7446.813090189472
 10
3732.216003997219
 20
351.0901148835135
 30
-0.0000000000004832
 10
3731.916169864368
 20
350.7272709194089
 30
-0.0000000000004832
 10
3731.616629564304
 20
350.3641624668387
 30
-0.0000000000004832
 10
3731.317406549705
 20
350.0007710700816
 30
-0.0000000000004832
  0
SPLINE
  5
CB
330
1F
100
AcDbEntity
  8
图层 03
100
AcDbSpline
210
0.0
220
0.0
230
1.0
 70
     8
 71
     3
 72
     8
 73
     4
 74
     0
 42
0.0000000001
 43
0.0000000001
 40
7446.813090189472
 40
7446.813090189472
 40
7446.813090189472
 40
7446.813090189472
 40
7495.513665237873
 40
7495.513665237873
 40
7495.513665237873
 40
7495.513665237873
 10
3731.317406549705
 20
350.0007710700816
 30
-0.0000000000004832
 10
3729.231827650283
 20
347.0652733235847
 30
-0.0000000000004832
 10
3727.147152501538
 20
343.996666185017
 30
-0.0000000000004832
 10
3725.229371283443
 20
340.9358861888064
 30
-0.0000000000004832
  0
SPLINE
  5
CC
330
1F
100
AcDbEntity
  8
图层 03
100
AcDbSpline
210
0.0
220
0.0
230
1.0
 70
     8
 71
     3
 72
     8
 73
     4
 74
     0
 42
0.0000000001
 43
0.0000000001
 40
7495.513665237873
 40
7495.513665237873
 40
7495.513665237873
 40
7495.513665237873
 40
7499.637331550297
 40
7499.637331550297
 40
7499.637331550297
 40
7499.637331550297
 10
3725.229371283443
 20
340.9358861888064
 30
-0.0000000000004832
 10
3725.071938843662
 20
340.6697670210381
 30
-0.0000000000004832
 10
3724.915797308596
 20
340.4027712646107
 30
-0.0000000000004832
 10
3724.761033722196
 20
340.13489604722
 30
-0.0000000000004832
  0
SPLINE
  5
CD
330
1F
100
AcDbEntity
  8
图层 03
100
AcDbSpline
210
0.0
220
0.0
230
1.0
 70
     8
 71
     3
 72
    11
 73
     7
 74
     0
 42
0.0000000001
 43
0.0000000001
 40
7499.637331550297
 40
7499.637331550297
 40
7499.637331550297
 40
7499.637331550297
 40
7533.07303254715
 40
7533.07303254715
 40
7533.07303254715
 40
7563.366735023217
 40
7563.366735023217
 40
7563.366735023217
 40
7563.366735023217
 10
3724.761033722196
 20
340.13489604722
 30
-0.0000000000004832
 10
3723.390314305655
 20
338.0481464498663
 30
-0.0000000000004832
 10
3722.055425083603
 20
335.9202464152914
 30
-0.0000000000004832
 10
3720.783613334875
 20
333.7642675671343
 30
-0.0000000000004832
 10
3719.627203187017
 20
331.8104999329543
 30
-0.0000000000004832
 10
3718.54075398905
 20
329.8080531264659
 30
-0.0000000000004832
 10
3717.545211417381
 20
327.7553608064578
 30
-0.0000000000004832
  0
SPLINE
  5
CE
330
1F
100
AcDbEntity
  8
图层 03
100
AcDbSpline
210
0.0
220
0.0
230
1.0
 70
     8
 71
     3
 72
     8
 73
     4
 74
     0
 42
0.0000000001
 43
0.0000000001
 40
7563.366735023217
 40
7563.366735023217
 40
7563.366735023217
 40
7563.366735023217
 40
7565.47646649837
 40
7565.47646649837
 40
7565.47646649837
 40
7565.47646649837
 10
3717.545211417381
 20
327.7553608064578
 30
-0.0000000000004832
 10
3717.485354988197
 20
327.607414904296
 30
-0.0000000000004832
 10
3717.426065178587
 20
327.4591929432952
 30
-0.0000000000004832
 10
3717.367352236828
 20
327.3107060151544
 30
-0.0000000000004832
  0
SPLINE
  5
CF
330
1F
100
AcDbEntity
  8
图层 03
100
AcDbSpline
210
0.0
220
0.0
230
1.0
 70
     8
 71
     3
 72
     8
 73
     4
 74
     0
 42
0.0000000001
 43
0.0000000001
 40
7565.47646649837
 40
7565.47646649837
 40
7565.47646649837
 40
7565.47646649837
 40
7588.550343774687
 40
7588.550343774687
 40
7588.550343774687
 40
7588.550343774687
 10
3717.367352236828
 20
327.3107060151544
 30
-0.0000000000004832
 10
3716.635613677242
 20
325.7317213839611
 30
-0.0000000000004832
 10
3715.932606996047
 20
324.1380387236962
 30
-0.0000000000004832
 10
3715.260879096271
 20
322.5280949533194
 30
-0.0000000000004832
  0
SPLINE
  5
D0
330
1F
100
AcDbEntity
  8
图层 03
100
AcDbSpline
210
0.0
220
0.0
230
1.0
 70
     8
 71
     3
 72
     8
 73
     4
 74
     0
 42
0.0000000001
 43
0.0000000001
 40
7588.550343774687
 40
7588.550343774687
 40
7588.550343774687
 40
7588.550343774687
 40
7610.139864900275
 40
7610.139864900275
 40
7610.139864900275
 40
7610.139864900275
 10
3715.260879096271
 20
322.5280949533194
 30
-0.0000000000004832
 10
3714.892878669721
 20
320.9192986382003
 30
-0.0000000000004832
 10
3714.55855115024
 20
319.3012989114557
 30
-0.0000000000004832
 10
3714.259981185289
 20
317.6733590429501
 30
-0.0000000000004832
  0
SPLINE
  5
D1
330
1F
100
AcDbEntity
  8
图层 03
100
AcDbSpline
210
0.0
220
0.0
230
1.0
 70
     8
 71
     3
 72
     8
 73
     4
 74
     0
 42
0.0000000001
 43
0.0000000001
 40
7610.139864900275
 40
7610.139864900275
 40
7610.139864900275
 40
7610.139864900275
 40
7630.263243533231
 40
7630.263243533231
 40
7630.263243533231
 40
7630.263243533231
 10
3714.259981185289
 20
317.6733590429501
 30
-0.0000000000004832
 10
3714.386107055955
 20
316.1109492468477
 30
-0.0000000000004832
 10
3714.529606935775
 20
314.5495917628289
 30
-0.0000000000004832
 10
3714.690086957423
 20
312.9885348583598
 30
-0.0000000000004832
  0
SPLINE
  5
D2
330
1F
100
AcDbEntity
  8
图层 03
100
AcDbSpline
210
0.0
220
0.0
230
1.0
 70
     8
 71
     3
 72
     8
 73
     4
 74
     0
 42
0.0000000001
 43
0.0000000001
 40
7630.263243533231
 40
7630.263243533231
 40
7630.263243533231
 40
7630.263243533231
 40
7651.122708022303
 40
7651.122708022303
 40
7651.122708022303
 40
7651.122708022303
 10
3714.690086957423
 20
312.9885348583598
 30
-0.0000000000004832
 10
3715.286740322504
 20
311.4578074611882
 30
-0.0000000000004832
 10
3715.883123974804
 20
309.926981314245
 30
-0.0000000000004832
 10
3716.47926327288
 20
308.3960660235703
 30
-0.0000000000004832
  0
SPLINE
  5
D3
330
1F
100
AcDbEntity
  8
图层 03
100
AcDbSpline
210
0.0
220
0.0
230
1.0
 70
     8
 71
     3
 72
     8
 73
     4
 74
     0
 42
0.0000000001
 43
0.0000000001
 40
7651.122708022303
 40
7651.122708022303
 40
7651.122708022303
 40
7651.122708022303
 40
7672.091049424031
 40
7672.091049424031
 40
7672.091049424031
 40
7672.091049424031
 10
3716.47926327288
 20
308.3960660235703
 30
-0.0000000000004832
 10
3717.38086702292
 20
307.0096335702932
 30
-0.0000000000004832
 10
3718.281489197276
 20
305.6225506055282
 30
-0.0000000000004832
 10
3719.181188278724
 20
304.2348622333491
 30
-0.0000000000004832
  0
SPLINE
  5
D4
330
1F
100
AcDbEntity
  8
图层 03
100
AcDbSpline
210
0.0
220
0.0
230
1.0
 70
     8
 71
     3
 72
     8
 73
     4
 74
     0
 42
0.0000000001
 43
0.0000000001
 40
7672.091049424031
 40
7672.091049424031
 40
7672.091049424031
 40
7672.091049424031
 40
7691.190680833951
 40
7691.190680833951
 40
7691.190680833951
 40
7691.190680833951
 10
3719.181188278724
 20
304.2348622333491
 30
-0.0000000000004832
 10
3720.22578662344
 20
303.157763866492
 30
-0.0000000000004832
 10
3721.272137762424
 20
302.0824699175048
 30
-0.0000000000004832
 10
3722.320297256312
 20
301.0090805699838
 30
-0.0000000000004832
  0
SPLINE
  5
D5
330
1F
100
AcDbEntity
  8
图层 03
100
AcDbSpline
210
0.0
220
0.0
230
1.0
 70
     8
 71
     3
 72
     8
 73
     4
 74
     0
 42
0.0000000001
 43
0.0000000001
 40
7691.190680833951
 40
7691.190680833951
 40
7691.190680833951
 40
7691.190680833951
 40
7706.249316595566
 40
7706.249316595566
 40
7706.249316595566
 40
7706.249316595566
 10
3722.320297256312
 20
301.0090805699838
 30
-0.0000000000004832
 10
3723.331396413751
 20
300.4250783410264
 30
-0.0000000000004832
 10
3724.347311158951
 20
299.8511941469949
 30
-0.0000000000004832
 10
3725.368465507672
 20
299.2877613752482
 30
-0.0000000000004832
  0
SPLINE
  5
D6
330
1F
100
AcDbEntity
  8
图层 03
100
AcDbSpline
210
0.0
220
0.0
230
1.0
 70
     8
 71
     3
 72
     8
 73
     4
 74
     0
 42
0.0000000001
 43
0.0000000001
 40
7706.249316595566
 40
7706.249316595566
 40
7706.249316595566
 40
7706.249316595566
 40
7718.24022895998
 40
7718.24022895998
 40
7718.24022895998
 40
7718.24022895998
 10
3725.368465507672
 20
299.2877613752482
 30
-0.0000000000004832
 10
3726.260885481552
 20
299.3556613951303
 30
-0.0000000000004832
 10
3727.154940747148
 20
299.4356431458975
 30
-0.0000000000004832
 10
3728.044404564193
 20
299.5250441511706
 30
-0.0000000000004832
  0
SPLINE
  5
D7
330
1F
100
AcDbEntity
  8
图层 03
100
AcDbSpline
210
0.0
220
0.0
230
1.0
 70
     8
 71
     3
 72
     8
 73
     4
 74
     0
 42
0.0000000001
 43
0.0000000001
 40
7718.24022895998
 40
7718.24022895998
 40
7718.24022895998
 40
7718.24022895998
 40
7732.96121959473
 40
7732.96121959473
 40
7732.96121959473
 40
7732.96121959473
 10
3728.044404564193
 20
299.5250441511706
 30
-0.0000000000004832
 10
3728.896474492583
 20
300.1989930061393
 30
-0.0000000000004832
 10
3729.765452334791
 20
300.8620382493536
 30
-0.0000000000004832
 10
3730.637480252386
 20
301.5090279383843
 30
-0.0000000000004832
  0
SPLINE
  5
D8
330
1F
100
AcDbEntity
  8
图层 03
100
AcDbSpline
210
0.0
220
0.0
230
1.0
 70
     8
 71
     3
 72
     8
 73
     4
 74
     0
 42
0.0000000001
 43
0.0000000001
 40
7732.96121959473
 40
7732.96121959473
 40
7732.96121959473
 40
7732.96121959473
 40
7747.34877023857
 40
7747.34877023857
 40
7747.34877023857
 40
7747.34877023857
 10
3730.637480252386
 20
301.5090279383843
 30
-0.0000000000004832
 10
3731.307319955496
 20
302.3448614511261
 30
-0.0000000000004832
 10
3731.993108968355
 20
303.1677009873381
 30
-0.0000000000004832
 10
3732.691746907842
 20
303.9775183822264
 30
-0.0000000000004832
  0
SPLINE
  5
D9
330
1F
100
AcDbEntity
  8
图层 03
100
AcDbSpline
210
0.0
220
0.0
230
1.0
 70
     8
 71
     3
 72
     8
 73
     4
 74
     0
 42
0.0000000001
 43
0.0000000001
 40
7747.34877023857
 40
7747.34877023857
 40
7747.34877023857
 40
7747.34877023857
 40
7752.396785085133
 40
7752.396785085133
 40
7752.396785085133
 40
7752.396785085133
 10
3732.691746907842
 20
303.9775183822264
 30
-0.0000000000004832
 10
3732.916896802233
 20
304.2792338960705
 30
-0.0000000000004832
 10
3733.146648163845
 20
304.5772199891132
 30
-0.0000000000004832
 10
3733.380583949671
 20
304.8715245396737
 30
-0.0000000000004832
  0
SPLINE
  5
DA
330
1F
100
AcDbEntity
  8
图层 03
100
AcDbSpline
210
0.0
220
0.0
230
1.0
 70
     8
 71
     3
 72
     8
 73
     4
 74
     0
 42
0.0000000001
 43
0.0000000001
 40
7752.396785085133
 40
7752.396785085133
 40
7752.396785085133
 40
7752.396785085133
 40
7776.527544121174
 40
7776.527544121174
 40
7776.527544121174
 40
7776.527544121174
 10
3733.380583949671
 20
304.8715245396737
 30
-0.0000000000004832
 10
3734.34538699748
 20
306.3979735061363
 30
-0.0000000000004832
 10
3735.394651597815
 20
307.8644702781105
 30
-0.0000000000004832
 10
3736.506753092368
 20
309.2754026400991
 30
-0.0000000000004832
  0
SPLINE
  5
DB
330
1F
100
AcDbEntity
  8
图层 03
100
AcDbSpline
210
0.0
220
0.0
230
1.0
 70
     8
 71
     3
 72
    11
 73
     7
 74
     0
 42
0.0000000001
 43
0.0000000001
 40
7776.527544121174
 40
7776.527544121174
 40
7776.527544121174
 40
7776.527544121174
 40
7796.810310445341
 40
7796.810310445341
 40
7796.810310445341
 40
7805.415552009141
 40
7805.415552009141
 40
7805.415552009141
 40
7805.415552009141
 10
3736.506753092368
 20
309.2754026400991
 30
-0.0000000000004832
 10
3737.360572372991
 20
310.5272887625322
 30
-0.0000000000004832
 10
3738.246161202066
 20
311.7562848137152
 30
-0.0000000000004832
 10
3739.15697230442
 20
312.9629831443569
 30
-0.0000000000004832
 10
3739.551896608347
 20
313.4678213420397
 30
-0.0000000000004832
 10
3739.956544540295
 20
313.9649303920755
 30
-0.0000000000004832
 10
3740.369111290075
 20
314.4541606592456
 30
-0.0000000000004832
  0
SPLINE
  5
DC
330
1F
100
AcDbEntity
  8
图层 03
100
AcDbSpline
210
0.0
220
0.0
230
1.0
 70
     8
 71
     3
 72
     8
 73
     4
 74
     0
 42
0.0000000001
 43
0.0000000001
 40
7805.415552009141
 40
7805.415552009141
 40
7805.415552009141
 40
7805.415552009141
 40
7838.84210106234
 40
7838.84210106234
 40
7838.84210106234
 40
7838.84210106234
 10
3740.369111290075
 20
314.4541606592456
 30
-0.0000000000004832
 10
3741.761477862637
 20
316.5218768028636
 30
-0.0000000000004832
 10
3743.245120686454
 20
318.5415813682126
 30
-0.0000000000004832
 10
3744.77426444807
 20
320.4995103275638
 30
-0.0000000000004832
  0
SPLINE
  5
DD
330
1F
100
AcDbEntity
  8
图层 03
100
AcDbSpline
210
0.0
220
0.0
230
1.0
 70
     8
 71
     3
 72
     8
 73
     4
 74
     0
 42
0.0000000001
 43
0.0000000001
 40
7838.84210106234
 40
7838.84210106234
 40
7838.84210106234
 40
7838.84210106234
 40
7840.666771603574
 40
7840.666771603574
 40
7840.666771603574
 40
7840.666771603574
 10
3744.77426444807
 20
320.4995103275638
 30
-0.0000000000004832
 10
3744.86164849549
 20
320.6033902546997
 30
-0.0000000000004832
 10
3744.949278084129
 20
320.7070477906982
 30
-0.0000000000004832
 10
3745.03714547987
 20
320.8104841979846
 30
-0.0000000000004832
  0
SPLINE
  5
DE
330
1F
100
AcDbEntity
  8
图层 03
100
AcDbSpline
210
0.0
220
0.0
230
1.0
 70
     8
 71
     3
 72
     8
 73
     4
 74
     0
 42
0.0000000001
 43
0.0000000001
 40
7840.666771603574
 40
7840.666771603574
 40
7840.666771603574
 40
7840.666771603574
 40
7879.56980273593
 40
7879.56980273593
 40
7879.56980273593
 40
7879.56980273593
 10
3745.03714547987
 20
320.8104841979846
 30
-0.0000000000004832
 10
3746.576282724821
 20
323.2822454351325
 30
-0.0000000000004832
 10
3748.235512503333
 20
325.6729338744969
 30
-0.0000000000004832
 10
3749.975424637392
 20
327.9916162426217
 30
-0.0000000000004832
  0
SPLINE
  5
DF
330
1F
100
AcDbEntity
  8
图层 03
100
AcDbSpline
210
0.0
220
0.0
230
1.0
 70
     8
 71
     3
 72
     8
 73
     4
 74
     0
 42
0.0000000001
 43
0.0000000001
 40
7879.56980273593
 40
7879.56980273593
 40
7879.56980273593
 40
7879.56980273593
 40
7885.479987179504
 40
7885.479987179504
 40
7885.479987179504
 40
7885.479987179504
 10
3749.975424637392
 20
327.9916162426217
 30
-0.0000000000004832
 10
3750.249002276242
 20
328.3365322740658
 30
-0.0000000000004832
 10
3750.526139375434
 20
328.6782340300922
 30
-0.0000000000004832
 10
3750.806799558838
 20
329.0168979997904
 30
-0.0000000000004832
  0
SPLINE
  5
E0
330
1F
100
AcDbEntity
  8
图层 03
100
AcDbSpline
210
0.0
220
0.0
230
1.0
 70
     8
 71
     3
 72
     8
 73
     4
 74
     0
 42
0.0000000001
 43
0.0000000001
 40
7885.479987179504
 40
7885.479987179504
 40
7885.479987179504
 40
7885.479987179504
 40
7918.617276526875
 40
7918.617276526875
 40
7918.617276526875
 40
7918.617276526875
 10
3750.806799558838
 20
329.0168979997904
 30
-0.0000000000004832
 10
3752.039916188449
 20
331.1940459869254
 30
-0.0000000000004832
 10
3753.416243726536
 20
333.2178696050225
 30
-0.0000000000004832
 10
3754.964415280574
 20
335.1581151595506
 30
-0.0000000000004832
  0
SPLINE
  5
E1
330
1F
100
AcDbEntity
  8
图层 03
100
AcDbSpline
210
0.0
220
0.0
230
1.0
 70
     8
 71
     3
 72
    13
 73
     9
 74
     0
 42
0.0000000001
 43
0.0000000001
 40
7918.617276526875
 40
7918.617276526875
 40
7918.617276526875
 40
7918.617276526875
 40
7926.188435442735
 40
7929.974014900664
 40
7933.759594358594
 40
7937.507633686024
 40
7941.255673013454
 40
7948.751751668313
 40
7948.751751668313
 40
7948.751751668313
 40
7948.751751668313
 10
3754.964415280574
 20
335.1581151595506
 30
-0.0000000000004832
 10
3755.343159308248
 20
335.5768845503084
 30
-0.0000000000004832
 10
3755.945410126568
 20
336.1536952580915
 30
-0.0000000000004832
 10
3756.819728020744
 20
336.8328598902924
 30
-0.0000000000004832
 10
3757.511433180239
 20
337.3001060604638
 30
-0.0000000000004832
 10
3758.232714040309
 20
337.7245230758027
 30
-0.0000000000004832
 10
3759.21920685771
 20
338.2325327213266
 30
-0.0000000000004832
 10
3759.987598187035
 20
338.5573193966615
 30
-0.0000000000004832
 10
3760.507424519139
 20
338.7532802927199
 30
-0.0000000000004832
  0
SPLINE
  5
E2
330
1F
100
AcDbEntity
  8
图层 03
100
AcDbSpline
210
0.0
220
0.0
230
1.0
 70
     8
 71
     3
 72
     8
 73
     4
 74
     0
 42
0.0000000001
 43
0.0000000001
 40
7948.751751668313
 40
7948.751751668313
 40
7948.751751668313
 40
7948.751751668313
 40
7949.353125971853
 40
7949.353125971853
 40
7949.353125971853
 40
7949.353125971853
 10
3760.507424519139
 20
338.7532802927199
 30
-0.0000000000004832
 10
3760.535591763374
 20
338.7880844379708
 30
-0.0000000000004832
 10
3760.563782883254
 20
338.8228675876348
 30
-0.0000000000004832
 10
3760.591997809308
 20
338.8576296398749
 30
-0.0000000000004832
  0
SPLINE
  5
E3
330
1F
100
AcDbEntity
  8
图层 03
100
AcDbSpline
210
0.0
220
0.0
230
1.0
 70
     8
 71
     3
 72
    11
 73
     7
 74
     0
 42
0.0000000001
 43
0.0000000001
 40
7949.353125971853
 40
7949.353125971853
 40
7949.353125971853
 40
7949.353125971853
 40
7954.29208597153
 40
7954.29208597153
 40
7954.29208597153
 40
7967.41901964596
 40
7967.41901964596
 40
7967.41901964596
 40
7967.41901964596
 10
3760.591997809308
 20
338.8576296398749
 30
-0.0000000000004832
 10
3760.894181448667
 20
338.6175028755287
 30
-0.0000000000004832
 10
3761.195134621275
 20
338.3756290074336
 30
-0.0000000000004832
 10
3761.494683758237
 20
338.1319116336089
 30
-0.0000000000004832
 10
3762.301159541849
 20
337.4980872856738
 30
-0.0000000000004832
 10
3763.087425163773
 20
336.8375219930228
 30
-0.0000000000004832
 10
3763.854097541499
 20
336.1517450842287
 30
-0.0000000000004832
  0
SPLINE
  5
E4
330
1F
100
AcDbEntity
  8
图层 03
100
AcDbSpline
210
0.0
220
0.0
230
1.0
 70
     8
 71
     3
 72
     8
 73
     4
 74
     0
 42
0.0000000001
 43
0.0000000001
 40
7967.41901964596
 40
7967.41901964596
 40
7967.41901964596
 40
7967.41901964596
 40
7981.530325299163
 40
7981.530325299163
 40
7981.530325299163
 40
7981.530325299163
 10
3763.854097541499
 20
336.1517450842287
 30
-0.0000000000004832
 10
3764.536523806084
 20
335.2741138077563
 30
-0.0000000000004832
 10
3765.215664072293
 20
334.3937886551502
 30
-0.0000000000004832
 10
3765.89158823773
 20
333.5109624809934
 30
-0.0000000000004832
  0
SPLINE
  5
E5
330
1F
100
AcDbEntity
  8
图层 03
100
AcDbSpline
210
0.0
220
0.0
230
1.0
 70
     8
 71
     3
 72
     8
 73
     4
 74
     0
 42
0.0000000001
 43
0.0000000001
 40
7981.530325299163
 40
7981.530325299163
 40
7981.530325299163
 40
7981.530325299163
 40
7996.901861192174
 40
7996.901861192174
 40
7996.901861192174
 40
7996.901861192174
 10
3765.89158823773
 20
333.5109624809934
 30
-0.0000000000004832
 10
3766.684962356023
 20
332.5979909560119
 30
-0.0000000000004832
 10
3767.47857073041
 20
331.685233827446
 30
-0.0000000000004832
 10
3768.272405894015
 20
330.7726849972627
 30
-0.0000000000004832
  0
SPLINE
  5
E6
330
1F
100
AcDbEntity
  8
图层 03
100
AcDbSpline
210
0.0
220
0.0
230
1.0
 70
     8
 71
     3
 72
     8
 73
     4
 74
     0
 42
0.0000000001
 43
0.0000000001
 40
7996.901861192174
 40
7996.901861192174
 40
7996.901861192174
 40
7996.901861192174
 40
8020.259955384265
 40
8020.259955384265
 40
8020.259955384265
 40
8020.259955384265
 10
3768.272405894015
 20
330.7726849972627
 30
-0.0000000000004832
 10
3769.647919438466
 20
329.5666353166276
 30
-0.0000000000004832
 10
3771.029602651935
 20
328.3681238132831
 30
-0.0000000000004832
 10
3772.41639745468
 20
327.1763124190014
 30
-0.0000000000004832
  0
SPLINE
  5
E7
330
1F
100
AcDbEntity
  8
图层 03
100
AcDbSpline
210
0.0
220
0.0
230
1.0
 70
     8
 71
     3
 72
     8
 73
     4
 74
     0
 42
0.0000000001
 43
0.0000000001
 40
8020.259955384265
 40
8020.259955384265
 40
8020.259955384265
 40
8020.259955384265
 40
8027.484762920141
 40
8027.484762920141
 40
8027.484762920141
 40
8027.484762920141
 10
3772.41639745468
 20
327.1763124190014
 30
-0.0000000000004832
 10
3772.92853337103
 20
326.9602019832323
 30
-0.0000000000004832
 10
3773.439766660274
 20
326.7414108140588
 30
-0.0000000000004832
 10
3773.949828148903
 20
326.5194867582579
 30
-0.0000000000004832
  0
SPLINE
  5
E8
330
1F
100
AcDbEntity
  8
图层 03
100
AcDbSpline
210
0.0
220
0.0
230
1.0
 70
     8
 71
     3
 72
     8
 73
     4
 74
     0
 42
0.0000000001
 43
0.0000000001
 40
8027.484762920141
 40
8027.484762920141
 40
8027.484762920141
 40
8027.484762920141
 40
8062.141445760879
 40
8062.141445760879
 40
8062.141445760879
 40
8062.141445760879
 10
3773.949828148903
 20
326.5194867582579
 30
-0.0000000000004832
 10
3776.128542705995
 20
325.0490950980817
 30
-0.0000000000004832
 10
3778.458959796387
 20
323.4294273816779
 30
-0.0000000000004832
 10
3780.572366768022
 20
321.8551672232577
 30
-0.0000000000004832
  0
SPLINE
  5
E9
330
1F
100
AcDbEntity
  8
图层 03
100
AcDbSpline
210
0.0
220
0.0
230
1.0
 70
     8
 71
     3
 72
     8
 73
     4
 74
     0
 42
0.0000000001
 43
0.0000000001
 40
8062.141445760879
 40
8062.141445760879
 40
8062.141445760879
 40
8062.141445760879
 40
8103.73976733543
 40
8103.73976733543
 40
8103.73976733543
 40
8103.73976733543
 10
3780.572366768022
 20
321.8551672232577
 30
-0.0000000000004832
 10
3783.574573663015
 20
320.8160860234159
 30
-0.0000000000004832
 10
3786.596167211731
 20
319.7368410253838
 30
-0.0000000000004832
 10
3789.577941944166
 20
318.626376378044
 30
-0.0000000000004832
  0
SPLINE
  5
EA
330
1F
100
AcDbEntity
  8
图层 03
100
AcDbSpline
210
0.0
220
0.0
230
1.0
 70
     8
 71
     3
 72
     8
 73
     4
 74
     0
 42
0.0000000001
 43
0.0000000001
 40
8103.73976733543
 40
8103.73976733543
 40
8103.73976733543
 40
8103.73976733543
 40
8154.441357010526
 40
8154.441357010526
 40
8154.441357010526
 40
8154.441357010526
 10
3789.577941944166
 20
318.626376378044
 30
-0.0000000000004832
 10
3793.364145403474
 20
318.155443042031
 30
-0.0000000000004832
 10
3797.204029161818
 20
317.771393140139
 30
-0.0000000000004832
 10
3800.996637068467
 20
317.4565865337793
 30
-0.0000000000004832
  0
SPLINE
  5
EB
330
1F
100
AcDbEntity
  8
图层 03
100
AcDbSpline
210
0.0
220
0.0
230
1.0
 70
     8
 71
     3
 72
     8
 73
     4
 74
     0
 42
0.0000000001
 43
0.0000000001
 40
8154.441357010526
 40
8154.441357010526
 40
8154.441357010526
 40
8154.441357010526
 40
8195.198024106377
 40
8195.198024106377
 40
8195.198024106377
 40
8195.198024106377
 10
3800.996637068467
 20
317.4565865337795
 30
-0.0000000000004832
 10
3803.888741152025
 20
317.9701972811471
 30
-0.0000000000004832
 10
3806.995103376677
 20
318.7977329253886
 30
-0.0000000000004832
 10
3809.794058731811
 20
319.6397750663889
 30
-0.0000000000004832
  0
POLYLINE
  5
ED
330
1F
100
AcDbEntity
  8
图层01
100
AcDb2dPolyline
 66
     1
 10
0.0
 20
0.0
 30
0.0
 70
     1
  0
VERTEX
  5
EE
330
ED
100
AcDbEntity
  8
图层01
100
AcDbVertex
100
AcDb2dVertex
 10
3610.0
 20
200.0
 30
0.0
  0
VERTEX
  5
EF
330
ED
100
AcDbEntity
  8
图层01
100
AcDbVertex
100
AcDb2dVertex
 10
4010.0
 20
200.0
 30
0.0
  0
VERTEX
  5
F0
330
ED
100
AcDbEntity
  8
图层01
100
AcDbVertex
100
AcDb2dVertex
 10
4010.0
 20
600.0
 30
0.0
  0
VERTEX
  5
F1
330
ED
100
AcDbEntity
  8
图层01
100
AcDbVertex
100
AcDb2dVertex
 10
3610.0
 20
600.0
 30
0.0
  0
SEQEND
  5
F2
330
ED
100
AcDbEntity
  8
图层01
  0
ENDSEC
  0
SECTION
  2
OBJECTS
  0
DICTIONARY
  5
C
330
0
100
AcDbDictionary
281
     1
  3
ACAD_DETAILVIEWSTYLE
350
12E
  3
ACAD_GROUP
350
D
  3
ACAD_LAYOUT
350
1A
  3
ACAD_MATERIAL
350
43
  3
ACAD_MLEADERSTYLE
350
5B
  3
ACAD_MLINESTYLE
350
17
  3
ACAD_PLOTSETTINGS
350
19
  3
ACAD_PLOTSTYLENAME
350
E
  3
ACAD_SCALELIST
350
47
  3
ACAD_SECTIONVIEWSTYLE
350
12F
  3
ACAD_TABLESTYLE
350
59
  3
ACAD_VISUALSTYLE
350
2A
  3
ACDB_RECOMPOSE_DATA
350
12B
  3
AcDbVariableDictionary
350
F3
  0
SUN
  5
5D
330
29
100
AcDbSun
 90
        1
290
     0
 63
     7
421
 16777215
 40
1.0
291
     1
 91
  2455826
 92
 54000000
292
     0
 70
     2
 71
   256
280
     1
  0
DICTIONARY
  5
12E
102
{ACAD_REACTORS
330
C
102
}
330
C
100
AcDbDictionary
281
     1
  0
DICTIONARY
  5
D
102
{ACAD_REACTORS
330
C
102
}
330
C
100
AcDbDictionary
281
     1
  0
DICTIONARY
  5
1A
102
{ACAD_REACTORS
330
C
102
}
330
C
100
AcDbDictionary
281
     1
  3
Layout1
350
1E
  3
Layout2
350
26
  3
Model
350
22
  0
DICTIONARY
  5
43
102
{ACAD_REACTORS
330
C
102
}
330
C
100
AcDbDictionary
281
     1
  3
ByBlock
350
45
  3
ByLayer
350
44
  3
Global
350
46
  0
DICTIONARY
  5
5B
102
{ACAD_REACTORS
330
C
102
}
330
C
100
AcDbDictionary
281
     1
  3
Standard
350
5C
  0
DICTIONARY
  5
17
102
{ACAD_REACTORS
330
C
102
}
330
C
100
AcDbDictionary
281
     1
  3
Standard
350
18
  0
DICTIONARY
  5
19
102
{ACAD_REACTORS
330
C
102
}
330
C
100
AcDbDictionary
281
     1
  0
ACDBDICTIONARYWDFLT
  5
E
102
{ACAD_REACTORS
330
C
102
}
330
C
100
AcDbDictionary
281
     1
  3
Normal
350
F
100
AcDbDictionaryWithDefault
340
F
  0
DICTIONARY
  5
47
102
{ACAD_REACTORS
330
C
102
}
330
C
100
AcDbDictionary
281
     1
  3
A0
350
48
  3
A1
350
49
  3
A2
350
4A
  3
A3
350
4B
  3
A4
350
4C
  3
A5
350
4D
  3
A6
350
4E
  3
A7
350
4F
  3
A8
350
50
  3
A9
350
51
  3
B1
350
52
  3
B2
350
53
  3
B3
350
54
  3
B4
350
55
  3
B5
350
56
  3
B6
350
57
  3
B7
350
58
  0
DICTIONARY
  5
12F
102
{ACAD_REACTORS
330
C
102
}
330
C
100
AcDbDictionary
281
     1
  0
DICTIONARY
  5
59
102
{ACAD_REACTORS
330
C
102
}
330
C
100
AcDbDictionary
281
     1
  3
Standard
350
5A
  0
DICTIONARY
  5
2A
102
{ACAD_REACTORS
330
C
102
}
330
C
100
AcDbDictionary
281
     1
  3
2dWireframe
350
2F
  3
Basic
350
32
  3
Brighten
350
36
  3
ColorChange
350
3A
  3
Conceptual
350
34
  3
Dim
350
35
  3
EdgeColorOff
350
3D
  3
Facepattern
350
39
  3
Flat
350
2B
  3
FlatWithEdges
350
2C
  3
Gouraud
350
2D
  3
GouraudWithEdges
350
2E
  3
Hidden
350
31
  3
JitterOff
350
3B
  3
Linepattern
350
38
  3
OverhangOff
350
3C
  3
Realistic
350
33
  3
Shaded
350
42
  3
Shaded with edges
350
41
  3
Shades of Gray
350
3E
  3
Sketchy
350
3F
  3
Thicken
350
37
  3
Wireframe
350
30
  3
X-Ray
350
40
  0
XRECORD
  5
12B
102
{ACAD_REACTORS
330
C
102
}
330
C
100
AcDbXrecord
280
     1
 90
        1
330
5A
  0
DICTIONARY
  5
F3
102
{ACAD_REACTORS
330
C
102
}
330
C
100
AcDbDictionary
281
     1
  3
CANNOSCALE
350
F4
  3
CMLEADERSTYLE
350
12D
  3
CTABLESTYLE
350
12C
  3
XCLIPFRAME
350
F5
  0
LAYOUT
  5
1E
102
{ACAD_REACTORS
330
1A
102
}
330
1A
100
AcDbPlotSettings
  1

  2
none_device
  4

  6

 40
0.0
 41
0.0
 42
0.0
 43
0.0
 44
0.0
 45
0.0
 46
0.0
 47
0.0
 48
0.0
 49
0.0
140
0.0
141
0.0
142
1.0
143
1.0
 70
   688
 72
     0
 73
     0
 74
     5
  7

 75
    16
 76
     0
 77
     2
 78
   300
147
1.0
148
0.0
149
0.0
100
AcDbLayout
  1
Layout1
 70
     1
 71
     1
 10
0.0
 20
0.0
 11
12.0
 21
9.0
 12
0.0
 22
0.0
 32
0.0
 14
1.000000000000000E+20
 24
1.000000000000000E+20
 34
1.000000000000000E+20
 15
-1.000000000000000E+20
 25
-1.000000000000000E+20
 35
-1.000000000000000E+20
146
0.0
 13
0.0
 23
0.0
 33
0.0
 16
1.0
 26
0.0
 36
0.0
 17
0.0
 27
1.0
 37
0.0
 76
     0
330
1B
  0
LAYOUT
  5
26
102
{ACAD_REACTORS
330
1A
102
}
330
1A
100
AcDbPlotSettings
  1

  2
none_device
  4

  6

 40
0.0
 41
0.0
 42
0.0
 43
0.0
 44
0.0
 45
0.0
 46
0.0
 47
0.0
 48
0.0
 49
0.0
140
0.0
141
0.0
142
1.0
143
1.0
 70
   688
 72
     0
 73
     0
 74
     5
  7

 75
    16
 76
     0
 77
     2
 78
   300
147
1.0
148
0.0
149
0.0
100
AcDbLayout
  1
Layout2
 70
     1
 71
     2
 10
0.0
 20
0.0
 11
0.0
 21
0.0
 12
0.0
 22
0.0
 32
0.0
 14
0.0
 24
0.0
 34
0.0
 15
0.0
 25
0.0
 35
0.0
146
0.0
 13
0.0
 23
0.0
 33
0.0
 16
1.0
 26
0.0
 36
0.0
 17
0.0
 27
1.0
 37
0.0
 76
     0
330
23
  0
LAYOUT
  5
22
102
{ACAD_REACTORS
330
1A
102
}
330
1A
100
AcDbPlotSettings
  1

  2
none_device
  4
Letter_(8.50_x_11.00_Inches)
  6

 40
6.35
 41
6.35
 42
6.35000508
 43
6.35000508
 44
215.9
 45
279.4
 46
0.0
 47
0.0
 48
0.0
 49
0.0
140
0.0
141
0.0
142
1.0
143
1.0
 70
  1712
 72
     0
 73
     0
 74
     0
  7

 75
     0
 76
     0
 77
     2
 78
   300
147
1.0
148
0.0
149
0.0
100
AcDbLayout
  1
Model
 70
     1
 71
     0
 10
0.0
 20
0.0
 11
12.0
 21
9.0
 12
0.0
 22
0.0
 32
0.0
 14
1.000000000000000E+20
 24
1.000000000000000E+20
 34
1.000000000000000E+20
 15
-1.000000000000000E+20
 25
-1.000000000000000E+20
 35
-1.000000000000000E+20
146
0.0
 13
0.0
 23
0.0
 33
0.0
 16
1.0
 26
0.0
 36
0.0
 17
0.0
 27
1.0
 37
0.0
 76
     0
330
1F
331
29
  0
MATERIAL
  5
45
102
{ACAD_REACTORS
330
43
102
}
330
43
100
AcDbMaterial
  1
ByBlock
 72
     1
 94
      127
  0
MATERIAL
  5
44
102
{ACAD_REACTORS
330
43
102
}
330
43
100
AcDbMaterial
  1
ByLayer
 72
     1
 94
      127
  0
MATERIAL
  5
46
102
{ACAD_REACTORS
330
43
102
}
330
43
100
AcDbMaterial
  1
Global
 72
     1
 94
      127
  0
MLEADERSTYLE
  5
5C
102
{ACAD_REACTORS
330
5B
102
}
102
{ACAD_XDICTIONARY
360
129
102
}
330
5B
100
AcDbMLeaderStyle
170
     2
171
     1
172
     0
 90
        2
 40
0.0
 41
0.0
173
     1
 91
-1056964608
340
14
 92
       -2
290
     1
 42
0.09
291
     1
 43
0.36
  3
Standard
341
0
 44
0.18
300

342
11
174
     1
178
     6
175
     1
176
     0
 93
-1056964608
 45
0.18
292
     0
297
     0
 46
0.18
343
0
 94
-1056964608
 47
1.0
 49
1.0
140
1.0
293
     1
141
0.0
294
     1
177
     0
142
1.0
295
     0
296
     0
143
0.125
1001
ACAD_MLEADERVER
1070
     2
  0
MLINESTYLE
  5
18
102
{ACAD_REACTORS
330
17
102
}
330
17
100
AcDbMlineStyle
  2
Standard
 70
     0
  3

 62
   256
 51
90.0
 52
90.0
 71
     2
 49
0.5
 62
   256
  6
BYLAYER
 49
-0.5
 62
   256
  6
BYLAYER
  0
ACDBPLACEHOLDER
  5
F
102
{ACAD_REACTORS
330
E
102
}
330
E
  0
SCALE
  5
48
102
{ACAD_REACTORS
330
47
102
}
330
47
100
AcDbScale
 70
     0
300
1:1
140
1.0
141
1.0
290
     1
  0
SCALE
  5
49
102
{ACAD_REACTORS
330
47
102
}
330
47
100
AcDbScale
 70
     0
300
1/128" = 1'-0"
140
0.0078125
141
12.0
290
     0
  0
SCALE
  5
4A
102
{ACAD_REACTORS
330
47
102
}
330
47
100
AcDbScale
 70
     0
300
1/64" = 1'-0"
140
0.015625
141
12.0
290
     0
  0
SCALE
  5
4B
102
{ACAD_REACTORS
330
47
102
}
330
47
100
AcDbScale
 70
     0
300
1/32" = 1'-0"
140
0.03125
141
12.0
290
     0
  0
SCALE
  5
4C
102
{ACAD_REACTORS
330
47
102
}
330
47
100
AcDbScale
 70
     0
300
1/16" = 1'-0"
140
0.0625
141
12.0
290
     0
  0
SCALE
  5
4D
102
{ACAD_REACTORS
330
47
102
}
330
47
100
AcDbScale
 70
     0
300
3/32" = 1'-0"
140
0.09375
141
12.0
290
     0
  0
SCALE
  5
4E
102
{ACAD_REACTORS
330
47
102
}
330
47
100
AcDbScale
 70
     0
300
1/8" = 1'-0"
140
0.125
141
12.0
290
     0
  0
SCALE
  5
4F
102
{ACAD_REACTORS
330
47
102
}
330
47
100
AcDbScale
 70
     0
300
3/16" = 1'-0"
140
0.1875
141
12.0
290
     0
  0
SCALE
  5
50
102
{ACAD_REACTORS
330
47
102
}
330
47
100
AcDbScale
 70
     0
300
1/4" = 1'-0"
140
0.25
141
12.0
290
     0
  0
SCALE
  5
51
102
{ACAD_REACTORS
330
47
102
}
330
47
100
AcDbScale
 70
     0
300
3/8" = 1'-0"
140
0.375
141
12.0
290
     0
  0
SCALE
  5
52
102
{ACAD_REACTORS
330
47
102
}
330
47
100
AcDbScale
 70
     0
300
1/2" = 1'-0"
140
0.5
141
12.0
290
     0
  0
SCALE
  5
53
102
{ACAD_REACTORS
330
47
102
}
330
47
100
AcDbScale
 70
     0
300
3/4" = 1'-0"
140
0.75
141
12.0
290
     0
  0
SCALE
  5
54
102
{ACAD_REACTORS
330
47
102
}
330
47
100
AcDbScale
 70
     0
300
1" = 1'-0"
140
1.0
141
12.0
290
     0
  0
SCALE
  5
55
102
{ACAD_REACTORS
330
47
102
}
330
47
100
AcDbScale
 70
     0
300
1-1/2" = 1'-0"
140
1.5
141
12.0
290
     0
  0
SCALE
  5
56
102
{ACAD_REACTORS
330
47
102
}
330
47
100
AcDbScale
 70
     0
300
3" = 1'-0"
140
3.0
141
12.0
290
     0
  0
SCALE
  5
57
102
{ACAD_REACTORS
330
47
102
}
330
47
100
AcDbScale
 70
     0
300
6" = 1'-0"
140
6.0
141
12.0
290
     0
  0
SCALE
  5
58
102
{ACAD_REACTORS
330
47
102
}
330
47
100
AcDbScale
 70
     0
300
1'-0" = 1'-0"
140
12.0
141
12.0
290
     0
  0
TABLESTYLE
  5
5A
102
{ACAD_REACTORS
330
59
102
}
102
{ACAD_XDICTIONARY
360
126
102
}
330
59
100
AcDbTableStyle
  3
Standard
 70
     0
 71
     0
 40
0.06
 41
0.06
280
     0
281
     0
  7
Standard
140
0.18
170
     2
 62
     0
 63
   257
283
     0
 90
        4
 91
        0
  1

274
    -2
284
     1
 64
     0
275
    -2
285
     1
 65
     0
276
    -2
286
     1
 66
     0
277
    -2
287
     1
 67
     0
278
    -2
288
     1
 68
     0
279
    -2
289
     1
 69
     0
  7
Standard
140
0.25
170
     5
 62
     0
 63
   257
283
     0
 90
        4
 91
        0
  1

274
    -2
284
     1
 64
     0
275
    -2
285
     1
 65
     0
276
    -2
286
     1
 66
     0
277
    -2
287
     1
 67
     0
278
    -2
288
     1
 68
     0
279
    -2
289
     1
 69
     0
  7
Standard
140
0.18
170
     5
 62
     0
 63
   257
283
     0
 90
        4
 91
        0
  1

274
    -2
284
     1
 64
     0
275
    -2
285
     1
 65
     0
276
    -2
286
     1
 66
     0
277
    -2
287
     1
 67
     0
278
    -2
288
     1
 68
     0
279
    -2
289
     1
 69
     0
  0
VISUALSTYLE
  5
2F
102
{ACAD_REACTORS
330
2A
102
}
102
{ACAD_XDICTIONARY
360
FE
102
}
330
2A
100
AcDbVisualStyle
  2
2dWireframe
 70
     4
 71
     0
 72
     2
 73
     0
 90
        0
 40
0.6
 41
30.0
 62
     5
 63
     7
421
 16777215
 74
     1
 91
        4
 64
     7
 65
   257
 75
     1
175
     1
 42
1.0
 92
        0
 66
   257
 43
1.0
 76
     1
 77
     6
 78
     2
 67
     7
 79
     5
170
     0
171
     0
290
     0
174
     0
 93
        1
 44
0.0
173
     0
291
     0
 45
0.0
  0
VISUALSTYLE
  5
32
102
{ACAD_REACTORS
330
2A
102
}
102
{ACAD_XDICTIONARY
360
104
102
}
330
2A
100
AcDbVisualStyle
  2
Basic
 70
     7
 71
     1
 72
     0
 73
     1
 90
        0
 40
0.6
 41
30.0
 62
     5
 63
     7
421
 16777215
 74
     0
 91
        4
 64
     7
 65
   257
 75
     1
175
     1
 42
1.0
 92
        8
 66
     7
 43
1.0
 76
     1
 77
     6
 78
     2
 67
     7
 79
     5
170
     0
171
     0
290
     0
174
     0
 93
        1
 44
0.0
173
     0
291
     1
 45
0.0
  0
VISUALSTYLE
  5
36
102
{ACAD_REACTORS
330
2A
102
}
102
{ACAD_XDICTIONARY
360
10C
102
}
330
2A
100
AcDbVisualStyle
  2
Brighten
 70
    12
 71
     2
 72
     2
 73
     0
 90
        0
 40
0.6
 41
30.0
 62
     5
 63
     7
421
 16777215
 74
     1
 91
        4
 64
     7
 65
   257
 75
     1
175
     1
 42
1.0
 92
        8
 66
     7
 43
1.0
 76
     1
 77
     6
 78
     2
 67
     7
 79
     5
170
     0
171
     0
290
     0
174
     0
 93
        1
 44
50.0
173
     0
291
     1
 45
0.0
  0
VISUALSTYLE
  5
3A
102
{ACAD_REACTORS
330
2A
102
}
102
{ACAD_XDICTIONARY
360
114
102
}
330
2A
100
AcDbVisualStyle
  2
ColorChange
 70
    16
 71
     2
 72
     2
 73
     3
 90
        0
 40
0.6
 41
30.0
 62
     5
 63
     8
421
  8421504
 74
     1
 91
        4
 64
     7
 65
   257
 75
     1
175
     1
 42
1.0
 92
        8
 66
     8
424
  8421504
 43
1.0
 76
     1
 77
     6
 78
     2
 67
     7
 79
     5
170
     0
171
     0
290
     0
174
     0
 93
        1
 44
0.0
173
     0
291
     1
 45
0.0
  0
VISUALSTYLE
  5
34
102
{ACAD_REACTORS
330
2A
102
}
102
{ACAD_XDICTIONARY
360
108
102
}
330
2A
100
AcDbVisualStyle
  2
Conceptual
 70
     9
 71
     3
 72
     2
 73
     0
 90
        0
 40
0.6
 41
30.0
 62
     5
 63
     7
421
 16777215
 74
     2
 91
        2
 64
     7
 65
   257
 75
     1
175
     1
 42
179.0
 92
        8
 66
     7
 43
1.0
 76
     1
 77
     6
 78
     2
 67
     7
 79
     3
170
     0
171
     0
290
     0
174
     0
 93
        1
 44
0.0
173
     0
291
     0
 45
0.0
  0
VISUALSTYLE
  5
35
102
{ACAD_REACTORS
330
2A
102
}
102
{ACAD_XDICTIONARY
360
10A
102
}
330
2A
100
AcDbVisualStyle
  2
Dim
 70
    11
 71
     2
 72
     2
 73
     0
 90
        0
 40
0.6
 41
30.0
 62
     5
 63
     7
421
 16777215
 74
     1
 91
        4
 64
     7
 65
   257
 75
     1
175
     1
 42
1.0
 92
        8
 66
     7
 43
1.0
 76
     1
 77
     6
 78
     2
 67
     7
 79
     5
170
     0
171
     0
290
     0
174
     0
 93
        1
 44
-50.0
173
     0
291
     1
 45
0.0
  0
VISUALSTYLE
  5
3D
102
{ACAD_REACTORS
330
2A
102
}
102
{ACAD_XDICTIONARY
360
11A
102
}
330
2A
100
AcDbVisualStyle
  2
EdgeColorOff
 70
    22
 71
     2
 72
     2
 73
     0
 90
        0
 40
0.6
 41
30.0
 62
     5
 63
     7
421
 16777215
 74
     1
 91
        4
 64
     7
 65
   257
 75
     1
175
     1
 42
1.0
 92
        8
 66
     7
 43
1.0
 76
     1
 77
     6
 78
     2
 67
     7
 79
     5
170
     0
171
     0
290
     0
174
     0
 93
        1
 44
0.0
173
     0
291
     1
 45
0.0
  0
VISUALSTYLE
  5
39
102
{ACAD_REACTORS
330
2A
102
}
102
{ACAD_XDICTIONARY
360
112
102
}
330
2A
100
AcDbVisualStyle
  2
Facepattern
 70
    15
 71
     2
 72
     2
 73
     0
 90
        0
 40
0.6
 41
30.0
 62
     5
 63
     7
421
 16777215
 74
     1
 91
        4
 64
     7
 65
   257
 75
     1
175
     1
 42
1.0
 92
        8
 66
     7
 43
1.0
 76
     1
 77
     6
 78
     2
 67
     7
 79
     5
170
     0
171
     0
290
     0
174
     0
 93
        1
 44
0.0
173
     0
291
     1
 45
0.0
  0
VISUALSTYLE
  5
2B
102
{ACAD_REACTORS
330
2A
102
}
102
{ACAD_XDICTIONARY
360
F6
102
}
330
2A
100
AcDbVisualStyle
  2
Flat
 70
     0
 71
     2
 72
     1
 73
     1
 90
        2
 40
0.6
 41
30.0
 62
     5
 63
     7
421
 16777215
 74
     0
 91
        0
 64
     7
 65
   257
 75
     1
175
     1
 42
1.0
 92
        8
 66
     7
 43
1.0
 76
     1
 77
     6
 78
     2
 67
     7
 79
     5
170
     0
171
     0
290
     0
174
     0
 93
       13
 44
0.0
173
     0
291
     1
 45
0.0
  0
VISUALSTYLE
  5
2C
102
{ACAD_REACTORS
330
2A
102
}
102
{ACAD_XDICTIONARY
360
F8
102
}
330
2A
100
AcDbVisualStyle
  2
FlatWithEdges
 70
     1
 71
     2
 72
     1
 73
     1
 90
        2
 40
0.6
 41
30.0
 62
     5
 63
     7
421
 16777215
 74
     1
 91
        0
 64
     7
 65
   257
 75
     1
175
     1
 42
1.0
 92
        0
 66
   257
 43
1.0
 76
     1
 77
     6
 78
     2
 67
     7
 79
     5
170
     0
171
     0
290
     0
174
     0
 93
       13
 44
0.0
173
     0
291
     1
 45
0.0
  0
VISUALSTYLE
  5
2D
102
{ACAD_REACTORS
330
2A
102
}
102
{ACAD_XDICTIONARY
360
FA
102
}
330
2A
100
AcDbVisualStyle
  2
Gouraud
 70
     2
 71
     2
 72
     2
 73
     1
 90
        2
 40
0.6
 41
30.0
 62
     5
 63
     7
421
 16777215
 74
     0
 91
        0
 64
     7
 65
   257
 75
     1
175
     1
 42
1.0
 92
        0
 66
     7
 43
1.0
 76
     1
 77
     6
 78
     2
 67
     7
 79
     5
170
     0
171
     0
290
     0
174
     0
 93
       13
 44
0.0
173
     0
291
     1
 45
0.0
  0
VISUALSTYLE
  5
2E
102
{ACAD_REACTORS
330
2A
102
}
102
{ACAD_XDICTIONARY
360
FC
102
}
330
2A
100
AcDbVisualStyle
  2
GouraudWithEdges
 70
     3
 71
     2
 72
     2
 73
     1
 90
        2
 40
0.6
 41
30.0
 62
     5
 63
     7
421
 16777215
 74
     1
 91
        0
 64
     7
 65
   257
 75
     1
175
     1
 42
1.0
 92
        0
 66
   257
 43
1.0
 76
     1
 77
     6
 78
     2
 67
     7
 79
     5
170
     0
171
     0
290
     0
174
     0
 93
       13
 44
0.0
173
     0
291
     1
 45
0.0
  0
VISUALSTYLE
  5
31
102
{ACAD_REACTORS
330
2A
102
}
102
{ACAD_XDICTIONARY
360
102
102
}
330
2A
100
AcDbVisualStyle
  2
Hidden
 70
     6
 71
     1
 72
     2
 73
     2
 90
        0
 40
0.6
 41
30.0
 62
     5
 63
     7
421
 16777215
 74
     2
 91
        2
 64
     7
 65
   257
 75
     2
175
     1
 42
40.0
 92
        0
 66
   257
 43
1.0
 76
     1
 77
     6
 78
     2
 67
     7
 79
     3
170
     0
171
     0
290
     0
174
     0
 93
        1
 44
0.0
173
     0
291
     0
 45
0.0
  0
VISUALSTYLE
  5
3B
102
{ACAD_REACTORS
330
2A
102
}
102
{ACAD_XDICTIONARY
360
116
102
}
330
2A
100
AcDbVisualStyle
  2
JitterOff
 70
    20
 71
     2
 72
     2
 73
     0
 90
        0
 40
0.6
 41
30.0
 62
     5
 63
     7
421
 16777215
 74
     1
 91
        4
 64
     7
 65
   257
 75
     1
175
     1
 42
1.0
 92
       10
 66
     7
 43
1.0
 76
     1
 77
     6
 78
     2
 67
     7
 79
     5
170
     0
171
     0
290
     0
174
     0
 93
        1
 44
0.0
173
     0
291
     1
 45
0.0
  0
VISUALSTYLE
  5
38
102
{ACAD_REACTORS
330
2A
102
}
102
{ACAD_XDICTIONARY
360
110
102
}
330
2A
100
AcDbVisualStyle
  2
Linepattern
 70
    14
 71
     2
 72
     2
 73
     0
 90
        0
 40
0.6
 41
30.0
 62
     5
 63
     7
421
 16777215
 74
     1
 91
        4
 64
     7
 65
   257
 75
     7
175
     7
 42
1.0
 92
        8
 66
     7
 43
1.0
 76
     1
 77
     6
 78
     2
 67
     7
 79
     5
170
     0
171
     0
290
     0
174
     0
 93
        1
 44
0.0
173
     0
291
     1
 45
0.0
  0
VISUALSTYLE
  5
3C
102
{ACAD_REACTORS
330
2A
102
}
102
{ACAD_XDICTIONARY
360
118
102
}
330
2A
100
AcDbVisualStyle
  2
OverhangOff
 70
    21
 71
     2
 72
     2
 73
     0
 90
        0
 40
0.6
 41
30.0
 62
     5
 63
     7
421
 16777215
 74
     1
 91
        4
 64
     7
 65
   257
 75
     1
175
     1
 42
1.0
 92
        9
 66
     7
 43
1.0
 76
     1
 77
     6
 78
     2
 67
     7
 79
     5
170
     0
171
     0
290
     0
174
     0
 93
        1
 44
0.0
173
     0
291
     1
 45
0.0
  0
VISUALSTYLE
  5
33
102
{ACAD_REACTORS
330
2A
102
}
102
{ACAD_XDICTIONARY
360
106
102
}
330
2A
100
AcDbVisualStyle
  2
Realistic
 70
     8
 71
     2
 72
     3
 73
     0
 90
        2
 40
0.6
 41
30.0
 62
     5
 63
     7
421
 16777215
 74
     0
 91
        0
 64
     7
 65
   257
 75
     1
175
     1
 42
1.0
 92
        8
 66
   257
 43
1.0
 76
     1
 77
     6
 78
     2
 67
     7
 79
     3
170
     0
171
     0
290
     0
174
     0
 93
       13
 44
0.0
173
     0
291
     0
 45
0.0
  0
VISUALSTYLE
  5
42
102
{ACAD_REACTORS
330
2A
102
}
102
{ACAD_XDICTIONARY
360
124
102
}
330
2A
100
AcDbVisualStyle
  2
Shaded
 70
    27
 71
     2
 72
     2
 73
     1
 90
        2
 40
0.6
 41
30.0
 62
     5
 63
     7
421
 16777215
 74
     0
 91
        4
 64
     7
 65
   257
 75
     1
175
     1
 42
1.0
 92
        8
 66
   257
 43
1.0
 76
     1
 77
     6
 78
     2
 67
     8
425
  7895160
 79
     3
170
     0
171
     0
290
     0
174
     0
 93
        5
 44
0.0
173
     0
291
     0
 45
0.0
  0
VISUALSTYLE
  5
41
102
{ACAD_REACTORS
330
2A
102
}
102
{ACAD_XDICTIONARY
360
122
102
}
330
2A
100
AcDbVisualStyle
  2
Shaded with edges
 70
    26
 71
     2
 72
     2
 73
     1
 90
        2
 40
0.6
 41
30.0
 62
     5
 63
     7
421
 16777215
 74
     1
 91
       10
 64
     7
 65
   257
 75
     2
175
     1
 42
1.0
 92
        8
 66
   257
 43
1.0
 76
     1
 77
     6
 78
     2
 67
     7
 79
     3
170
     0
171
     0
290
     0
174
     0
 93
        5
 44
0.0
173
     0
291
     0
 45
0.0
  0
VISUALSTYLE
  5
3E
102
{ACAD_REACTORS
330
2A
102
}
102
{ACAD_XDICTIONARY
360
11C
102
}
330
2A
100
AcDbVisualStyle
  2
Shades of Gray
 70
    23
 71
     2
 72
     2
 73
     3
 90
        0
 40
0.6
 41
30.0
 62
     5
 63
     7
421
 16777215
 74
     2
 91
        2
 64
     7
 65
     7
 75
     1
175
     1
 42
40.0
 92
        8
 66
     7
 43
1.0
 76
     1
 77
     6
 78
     2
 67
     7
 79
     3
170
     0
171
     0
290
     0
174
     0
 93
        1
 44
0.0
173
     0
291
     0
 45
0.0
  0
VISUALSTYLE
  5
3F
102
{ACAD_REACTORS
330
2A
102
}
102
{ACAD_XDICTIONARY
360
11E
102
}
330
2A
100
AcDbVisualStyle
  2
Sketchy
 70
    24
 71
     1
 72
     2
 73
     2
 90
        0
 40
0.6
 41
30.0
 62
     5
 63
     7
421
 16777215
 74
     2
 91
        2
 64
     7
 65
     7
 75
     1
175
     1
 42
40.0
 92
       11
 66
     7
 43
1.0
 76
     1
 77
     6
 78
     2
 67
     7
 79
     6
170
     0
171
     0
290
     0
174
     0
 93
        1
 44
0.0
173
     0
291
     0
 45
0.0
  0
VISUALSTYLE
  5
37
102
{ACAD_REACTORS
330
2A
102
}
102
{ACAD_XDICTIONARY
360
10E
102
}
330
2A
100
AcDbVisualStyle
  2
Thicken
 70
    13
 71
     2
 72
     2
 73
     0
 90
        0
 40
0.6
 41
30.0
 62
     5
 63
     7
421
 16777215
 74
     1
 91
        4
 64
     7
 65
   257
 75
     1
175
     1
 42
1.0
 92
       12
 66
     7
 43
1.0
 76
     1
 77
     6
 78
     2
 67
     7
 79
     5
170
     0
171
     0
290
     0
174
     0
 93
        1
 44
0.0
173
     0
291
     1
 45
0.0
  0
VISUALSTYLE
  5
30
102
{ACAD_REACTORS
330
2A
102
}
102
{ACAD_XDICTIONARY
360
100
102
}
330
2A
100
AcDbVisualStyle
  2
Wireframe
 70
     5
 71
     0
 72
     2
 73
     0
 90
        0
 40
0.6
 41
30.0
 62
     5
 63
     7
421
 16777215
 74
     1
 91
        4
 64
     7
 65
   257
 75
     1
175
     1
 42
1.0
 92
        0
 66
   257
 43
1.0
 76
     1
 77
     6
 78
     2
 67
     7
 79
     3
170
     0
171
     0
290
     0
174
     0
 93
        1
 44
0.0
173
     0
291
     0
 45
0.0
  0
VISUALSTYLE
  5
40
102
{ACAD_REACTORS
330
2A
102
}
102
{ACAD_XDICTIONARY
360
120
102
}
330
2A
100
AcDbVisualStyle
  2
X-Ray
 70
    25
 71
     2
 72
     2
 73
     1
 90
        1
 40
0.5
 41
30.0
 62
     5
 63
     7
421
 16777215
 74
     1
 91
        0
 64
     7
 65
   257
 75
     1
175
     1
 42
1.0
 92
        8
 66
     7
 43
1.0
 76
     1
 77
     6
 78
     2
 67
     7
 79
     3
170
     0
171
     0
290
     0
174
     0
 93
       13
 44
0.0
173
     0
291
     0
 45
0.0
  0
DICTIONARYVAR
  5
F4
102
{ACAD_REACTORS
330
F3
102
}
330
F3
100
DictionaryVariables
280
     0
  1
1:1
  0
DICTIONARYVAR
  5
12D
102
{ACAD_REACTORS
330
F3
102
}
330
F3
100
DictionaryVariables
280
     0
  1
Standard
  0
DICTIONARYVAR
  5
12C
102
{ACAD_REACTORS
330
F3
102
}
330
F3
100
DictionaryVariables
280
     0
  1
Standard
  0
DICTIONARYVAR
  5
F5
102
{ACAD_REACTORS
330
F3
102
}
330
F3
100
DictionaryVariables
280
     0
  1
2
  0
DICTIONARY
  5
129
330
5C
100
AcDbDictionary
280
     1
281
     1
  3
ACAD_XREC_ROUNDTRIP
360
12A
  0
DICTIONARY
  5
126
330
5A
100
AcDbDictionary
280
     1
281
     1
  3
ACAD_ROUNDTRIP_2008_TABLESTYLE_CELLSTYLEMAP
360
127
  0
DICTIONARY
  5
FE
330
2F
100
AcDbDictionary
280
     1
281
     1
  3
ACAD_XREC_ROUNDTRIP
360
FF
  0
DICTIONARY
  5
104
330
32
100
AcDbDictionary
280
     1
281
     1
  3
ACAD_XREC_ROUNDTRIP
360
105
  0
DICTIONARY
  5
10C
330
36
100
AcDbDictionary
280
     1
281
     1
  3
ACAD_XREC_ROUNDTRIP
360
10D
  0
DICTIONARY
  5
114
330
3A
100
AcDbDictionary
280
     1
281
     1
  3
ACAD_XREC_ROUNDTRIP
360
115
  0
DICTIONARY
  5
108
330
34
100
AcDbDictionary
280
     1
281
     1
  3
ACAD_XREC_ROUNDTRIP
360
109
  0
DICTIONARY
  5
10A
330
35
100
AcDbDictionary
280
     1
281
     1
  3
ACAD_XREC_ROUNDTRIP
360
10B
  0
DICTIONARY
  5
11A
330
3D
100
AcDbDictionary
280
     1
281
     1
  3
ACAD_XREC_ROUNDTRIP
360
11B
  0
DICTIONARY
  5
112
330
39
100
AcDbDictionary
280
     1
281
     1
  3
ACAD_XREC_ROUNDTRIP
360
113
  0
DICTIONARY
  5
F6
330
2B
100
AcDbDictionary
280
     1
281
     1
  3
ACAD_XREC_ROUNDTRIP
360
F7
  0
DICTIONARY
  5
F8
330
2C
100
AcDbDictionary
280
     1
281
     1
  3
ACAD_XREC_ROUNDTRIP
360
F9
  0
DICTIONARY
  5
FA
330
2D
100
AcDbDictionary
280
     1
281
     1
  3
ACAD_XREC_ROUNDTRIP
360
FB
  0
DICTIONARY
  5
FC
330
2E
100
AcDbDictionary
280
     1
281
     1
  3
ACAD_XREC_ROUNDTRIP
360
FD
  0
DICTIONARY
  5
102
330
31
100
AcDbDictionary
280
     1
281
     1
  3
ACAD_XREC_ROUNDTRIP
360
103
  0
DICTIONARY
  5
116
330
3B
100
AcDbDictionary
280
     1
281
     1
  3
ACAD_XREC_ROUNDTRIP
360
117
  0
DICTIONARY
  5
110
330
38
100
AcDbDictionary
280
     1
281
     1
  3
ACAD_XREC_ROUNDTRIP
360
111
  0
DICTIONARY
  5
118
330
3C
100
AcDbDictionary
280
     1
281
     1
  3
ACAD_XREC_ROUNDTRIP
360
119
  0
DICTIONARY
  5
106
330
33
100
AcDbDictionary
280
     1
281
     1
  3
ACAD_XREC_ROUNDTRIP
360
107
  0
DICTIONARY
  5
124
330
42
100
AcDbDictionary
280
     1
281
     1
  3
ACAD_XREC_ROUNDTRIP
360
125
  0
DICTIONARY
  5
122
330
41
100
AcDbDictionary
280
     1
281
     1
  3
ACAD_XREC_ROUNDTRIP
360
123
  0
DICTIONARY
  5
11C
330
3E
100
AcDbDictionary
280
     1
281
     1
  3
ACAD_XREC_ROUNDTRIP
360
11D
  0
DICTIONARY
  5
11E
330
3F
100
AcDbDictionary
280
     1
281
     1
  3
ACAD_XREC_ROUNDTRIP
360
11F
  0
DICTIONARY
  5
10E
330
37
100
AcDbDictionary
280
     1
281
     1
  3
ACAD_XREC_ROUNDTRIP
360
10F
  0
DICTIONARY
  5
100
330
30
100
AcDbDictionary
280
     1
281
     1
  3
ACAD_XREC_ROUNDTRIP
360
101
  0
DICTIONARY
  5
120
330
40
100
AcDbDictionary
280
     1
281
     1
  3
ACAD_XREC_ROUNDTRIP
360
121
  0
XRECORD
  5
12A
102
{ACAD_REACTORS
330
129
102
}
330
129
100
AcDbXrecord
280
     1
102
ACAD_ROUNDTRIP_2010_MLEADER_STYLE
  0
CELLSTYLEMAP
  5
127
102
{ACAD_REACTORS
330
126
102
}
330
126
100
AcDbCellStyleMap
 90
        3
300
CELLSTYLE
  1
TABLEFORMAT_BEGIN
 90
        5
170
     1
 91
        0
 92
    32768
 62
   257
 93
        1
300
CONTENTFORMAT
  1
CONTENTFORMAT_BEGIN
 90
        0
 91
        0
 92
        4
 93
        0
300

 40
0.0
140
1.0
 94
        5
 62
     0
340
11
144
0.25
309
CONTENTFORMAT_END
171
     1
301
MARGIN
  1
CELLMARGIN_BEGIN
 40
0.06
 40
0.06
 40
0.06
 40
0.06
 40
0.06
 40
0.06
309
CELLMARGIN_END
 94
        6
 95
        1
302
GRIDFORMAT
  1
GRIDFORMAT_BEGIN
 90
        0
 91
        1
 62
     0
 92
       -2
340
14
 93
        0
 40
0.045
309
GRIDFORMAT_END
 95
        2
302
GRIDFORMAT
  1
GRIDFORMAT_BEGIN
 90
        0
 91
        1
 62
     0
 92
       -2
340
14
 93
        0
 40
0.045
309
GRIDFORMAT_END
 95
        4
302
GRIDFORMAT
  1
GRIDFORMAT_BEGIN
 90
        0
 91
        1
 62
     0
 92
       -2
340
14
 93
        0
 40
0.045
309
GRIDFORMAT_END
 95
        8
302
GRIDFORMAT
  1
GRIDFORMAT_BEGIN
 90
        0
 91
        1
 62
     0
 92
       -2
340
14
 93
        0
 40
0.045
309
GRIDFORMAT_END
 95
       16
302
GRIDFORMAT
  1
GRIDFORMAT_BEGIN
 90
        0
 91
        1
 62
     0
 92
       -2
340
14
 93
        0
 40
0.045
309
GRIDFORMAT_END
 95
       32
302
GRIDFORMAT
  1
GRIDFORMAT_BEGIN
 90
        0
 91
        1
 62
     0
 92
       -2
340
14
 93
        0
 40
0.045
309
GRIDFORMAT_END
309
TABLEFORMAT_END
  1
CELLSTYLE_BEGIN
 90
        1
 91
        1
300
_TITLE
309
CELLSTYLE_END
300
CELLSTYLE
  1
TABLEFORMAT_BEGIN
 90
        5
170
     1
 91
        0
 92
        0
 62
   257
 93
        1
300
CONTENTFORMAT
  1
CONTENTFORMAT_BEGIN
 90
        0
 91
        0
 92
        4
 93
        0
300

 40
0.0
140
1.0
 94
        5
 62
     0
340
11
144
0.18
309
CONTENTFORMAT_END
171
     1
301
MARGIN
  1
CELLMARGIN_BEGIN
 40
0.06
 40
0.06
 40
0.06
 40
0.06
 40
0.06
 40
0.06
309
CELLMARGIN_END
 94
        6
 95
        1
302
GRIDFORMAT
  1
GRIDFORMAT_BEGIN
 90
        0
 91
        1
 62
     0
 92
       -2
340
14
 93
        0
 40
0.045
309
GRIDFORMAT_END
 95
        2
302
GRIDFORMAT
  1
GRIDFORMAT_BEGIN
 90
        0
 91
        1
 62
     0
 92
       -2
340
14
 93
        0
 40
0.045
309
GRIDFORMAT_END
 95
        4
302
GRIDFORMAT
  1
GRIDFORMAT_BEGIN
 90
        0
 91
        1
 62
     0
 92
       -2
340
14
 93
        0
 40
0.045
309
GRIDFORMAT_END
 95
        8
302
GRIDFORMAT
  1
GRIDFORMAT_BEGIN
 90
        0
 91
        1
 62
     0
 92
       -2
340
14
 93
        0
 40
0.045
309
GRIDFORMAT_END
 95
       16
302
GRIDFORMAT
  1
GRIDFORMAT_BEGIN
 90
        0
 91
        1
 62
     0
 92
       -2
340
14
 93
        0
 40
0.045
309
GRIDFORMAT_END
 95
       32
302
GRIDFORMAT
  1
GRIDFORMAT_BEGIN
 90
        0
 91
        1
 62
     0
 92
       -2
340
14
 93
        0
 40
0.045
309
GRIDFORMAT_END
309
TABLEFORMAT_END
  1
CELLSTYLE_BEGIN
 90
        2
 91
        1
300
_HEADER
309
CELLSTYLE_END
300
CELLSTYLE
  1
TABLEFORMAT_BEGIN
 90
        5
170
     1
 91
        0
 92
        0
 62
   257
 93
        1
300
CONTENTFORMAT
  1
CONTENTFORMAT_BEGIN
 90
        0
 91
        0
 92
        4
 93
        0
300

 40
0.0
140
1.0
 94
        2
 62
     0
340
11
144
0.18
309
CONTENTFORMAT_END
171
     1
301
MARGIN
  1
CELLMARGIN_BEGIN
 40
0.06
 40
0.06
 40
0.06
 40
0.06
 40
0.06
 40
0.06
309
CELLMARGIN_END
 94
        6
 95
        1
302
GRIDFORMAT
  1
GRIDFORMAT_BEGIN
 90
        0
 91
        1
 62
     0
 92
       -2
340
14
 93
        0
 40
0.045
309
GRIDFORMAT_END
 95
        2
302
GRIDFORMAT
  1
GRIDFORMAT_BEGIN
 90
        0
 91
        1
 62
     0
 92
       -2
340
14
 93
        0
 40
0.045
309
GRIDFORMAT_END
 95
        4
302
GRIDFORMAT
  1
GRIDFORMAT_BEGIN
 90
        0
 91
        1
 62
     0
 92
       -2
340
14
 93
        0
 40
0.045
309
GRIDFORMAT_END
 95
        8
302
GRIDFORMAT
  1
GRIDFORMAT_BEGIN
 90
        0
 91
        1
 62
     0
 92
       -2
340
14
 93
        0
 40
0.045
309
GRIDFORMAT_END
 95
       16
302
GRIDFORMAT
  1
GRIDFORMAT_BEGIN
 90
        0
 91
        1
 62
     0
 92
       -2
340
14
 93
        0
 40
0.045
309
GRIDFORMAT_END
 95
       32
302
GRIDFORMAT
  1
GRIDFORMAT_BEGIN
 90
        0
 91
        1
 62
     0
 92
       -2
340
14
 93
        0
 40
0.045
309
GRIDFORMAT_END
309
TABLEFORMAT_END
  1
CELLSTYLE_BEGIN
 90
        3
 91
        2
300
_DATA
309
CELLSTYLE_END
  0
XRECORD
  5
FF
102
{ACAD_REACTORS
330
FE
102
}
330
FE
100
AcDbXrecord
280
     1
102
RTVSPropertyOp0
 70
     1
102
RTVSPropertyOp1
 70
     1
102
RTVSPropertyOp2
 70
     1
102
RTVSPropertyOp3
 70
     1
102
RTVSPropertyOp4
 70
     1
102
RTVSPropertyOp5
 70
     1
102
RTVSPropertyOp6
 70
     1
102
RTVSPropertyOp7
 70
     1
102
RTVSPropertyOp8
 70
     1
102
RTVSPropertyOp9
 70
     1
102
RTVSPropertyOp10
 70
     1
102
RTVSPropertyOp11
 70
     1
102
RTVSPropertyOp12
 70
     1
102
RTVSPropertyOp13
 70
     1
102
RTVSPropertyOp14
 70
     1
102
RTVSPropertyOp15
 70
     1
102
RTVSPropertyOp16
 70
     1
102
RTVSPropertyOp17
 70
     1
102
RTVSPropertyOp18
 70
     1
102
RTVSPropertyOp19
 70
     1
102
RTVSPropertyOp20
 70
     1
102
RTVSPropertyOp21
 70
     1
102
RTVSPropertyOp22
 70
     1
102
RTVSPropertyOp23
 70
     1
102
RTVSPropertyOp24
 70
     1
102
RTVSPropertyOp25
 70
     1
102
RTVSPropertyOp26
 70
     1
102
RTVSPropertyOp27
 70
     1
102
RTVSPropertyOp28
 70
     1
102
RTVSPropertyOp29
 70
     1
102
RTVSPropertyOp30
 70
     1
102
RTVSPropertyOp31
 70
     1
102
RTVSPropertyOp32
 70
     1
102
RTVSPropertyOp33
 70
     1
102
RTVSPropertyOp34
 70
     1
102
RTVSPropertyOp35
 70
     1
102
RTVSPropertyOp36
 70
     1
102
RTVSPropertyOp37
 70
     1
102
RTVSPropertyOp38
 70
     1
102
RTVSPropertyOp39
 70
     1
102
RTVSPropertyOp40
 70
     1
102
RTVSPropertyOp41
 70
     1
102
RTVSPropertyOp42
 70
     1
102
RTVSPropertyOp43
 70
     1
102
RTVSPropertyOp44
 70
     1
102
RTVSPropertyOp45
 70
     1
102
RTVSPropertyOp46
 70
     1
102
RTVSPropertyOp47
 70
     1
102
RTVSPropertyOp48
 70
     1
102
RTVSPropertyOp49
 70
     1
102
RTVSPropertyOp50
 70
     1
102
RTVSPropertyOp51
 70
     0
102
RTVSPropertyOp52
 70
     0
102
RTVSPropertyOp53
 70
     1
102
RTVSPropertyOp54
 70
     1
102
RTVSPropertyOp55
 70
     1
102
RTVSPropertyOp56
 70
     1
102
RTVSPropertyOp57
 70
     1
102
RTVSPost2010Prop28
280
     1
102
RTVSPost2010PropOp28
 70
     1
102
RTVSPost2010Prop29
280
     1
102
RTVSPost2010PropOp29
 70
     1
102
RTVSPost2010Prop30
280
     0
102
RTVSPost2010PropOp30
 70
     1
102
RTVSPost2010Prop31
280
     0
102
RTVSPost2010PropOp31
 70
     1
102
RTVSPost2010Prop32
280
     0
102
RTVSPost2010PropOp32
 70
     1
102
RTVSPost2010Prop33
280
     0
102
RTVSPost2010PropOp33
 70
     1
102
RTVSPost2010Prop34
280
     0
102
RTVSPost2010PropOp34
 70
     1
102
RTVSPost2010Prop35
280
     0
102
RTVSPost2010PropOp35
 70
     1
102
RTVSPost2010Prop36
280
     0
102
RTVSPost2010PropOp36
 70
     1
102
RTVSPost2010Prop37
 90
       50
102
RTVSPost2010PropOp37
 70
     1
102
RTVSPost2010Prop38
140
0.0
102
RTVSPost2010PropOp38
 70
     1
102
RTVSPost2010Prop39
140
1.0
102
RTVSPost2010PropOp39
 70
     1
102
RTVSPost2010Prop40
 90
        0
102
RTVSPost2010PropOp40
 70
     1
102
RTVSPost2010Prop41ColorIndex
 90
       18
102
RTVSPost2010Prop41ColorRGB
 90
        0
102
RTVSPost2010PropOp41
 70
     1
102
RTVSPost2010Prop42
 90
       50
102
RTVSPost2010PropOp42
 70
     1
102
RTVSPost2010Prop43
 90
        3
102
RTVSPost2010PropOp43
 70
     1
102
RTVSPost2010Prop44ColorIndex
 90
        5
102
RTVSPost2010Prop44ColorRGB
 90
      255
102
RTVSPost2010PropOp44
 70
     1
102
RTVSPost2010Prop45
280
     0
102
RTVSPost2010PropOp45
 70
     1
102
RTVSPost2010Prop46
 90
       50
102
RTVSPost2010PropOp46
 70
     1
102
RTVSPost2010Prop47
 90
       50
102
RTVSPost2010PropOp47
 70
     1
102
RTVSPost2010Prop48
 90
       50
102
RTVSPost2010PropOp48
 70
     1
102
RTVSPost2010Prop49
280
     0
102
RTVSPost2010PropOp49
 70
     1
102
RTVSPost2010Prop50
 90
       50
102
RTVSPost2010PropOp50
 70
     1
102
RTVSPost2010Prop51ColorIndex
 90
      256
102
RTVSPost2010Prop51ColorRGB
 90
-16777216
102
RTVSPost2010PropOp51
 70
     0
102
RTVSPost2010Prop52
140
1.0
102
RTVSPost2010PropOp52
 70
     0
102
RTVSPost2010Prop53
 90
        2
102
RTVSPost2010PropOp53
 70
     1
102
RTVSPost2010Prop54
  1
strokes_ogs.tif
102
RTVSPost2010PropOp54
 70
     1
102
RTVSPost2010Prop55
280
     0
102
RTVSPost2010PropOp55
 70
     1
102
RTVSPost2010Prop56
140
1.0
102
RTVSPost2010PropOp56
 70
     1
102
RTVSPost2010Prop57
140
1.0
102
RTVSPost2010PropOp57
 70
     1
  0
XRECORD
  5
105
102
{ACAD_REACTORS
330
104
102
}
330
104
100
AcDbXrecord
280
     1
102
RTVSPropertyOp0
 70
     1
102
RTVSPropertyOp1
 70
     1
102
RTVSPropertyOp2
 70
     1
102
RTVSPropertyOp3
 70
     1
102
RTVSPropertyOp4
 70
     1
102
RTVSPropertyOp5
 70
     1
102
RTVSPropertyOp6
 70
     1
102
RTVSPropertyOp7
 70
     1
102
RTVSPropertyOp8
 70
     1
102
RTVSPropertyOp9
 70
     1
102
RTVSPropertyOp10
 70
     1
102
RTVSPropertyOp11
 70
     1
102
RTVSPropertyOp12
 70
     1
102
RTVSPropertyOp13
 70
     1
102
RTVSPropertyOp14
 70
     1
102
RTVSPropertyOp15
 70
     1
102
RTVSPropertyOp16
 70
     1
102
RTVSPropertyOp17
 70
     1
102
RTVSPropertyOp18
 70
     1
102
RTVSPropertyOp19
 70
     1
102
RTVSPropertyOp20
 70
     1
102
RTVSPropertyOp21
 70
     1
102
RTVSPropertyOp22
 70
     1
102
RTVSPropertyOp23
 70
     1
102
RTVSPropertyOp24
 70
     1
102
RTVSPropertyOp25
 70
     1
102
RTVSPropertyOp26
 70
     1
102
RTVSPropertyOp27
 70
     1
102
RTVSPropertyOp28
 70
     1
102
RTVSPropertyOp29
 70
     1
102
RTVSPropertyOp30
 70
     1
102
RTVSPropertyOp31
 70
     1
102
RTVSPropertyOp32
 70
     1
102
RTVSPropertyOp33
 70
     1
102
RTVSPropertyOp34
 70
     1
102
RTVSPropertyOp35
 70
     1
102
RTVSPropertyOp36
 70
     1
102
RTVSPropertyOp37
 70
     1
102
RTVSPropertyOp38
 70
     1
102
RTVSPropertyOp39
 70
     1
102
RTVSPropertyOp40
 70
     1
102
RTVSPropertyOp41
 70
     1
102
RTVSPropertyOp42
 70
     1
102
RTVSPropertyOp43
 70
     1
102
RTVSPropertyOp44
 70
     1
102
RTVSPropertyOp45
 70
     1
102
RTVSPropertyOp46
 70
     1
102
RTVSPropertyOp47
 70
     1
102
RTVSPropertyOp48
 70
     1
102
RTVSPropertyOp49
 70
     1
102
RTVSPropertyOp50
 70
     1
102
RTVSPropertyOp51
 70
     0
102
RTVSPropertyOp52
 70
     0
102
RTVSPropertyOp53
 70
     1
102
RTVSPropertyOp54
 70
     1
102
RTVSPropertyOp55
 70
     1
102
RTVSPropertyOp56
 70
     1
102
RTVSPropertyOp57
 70
     1
102
RTVSPost2010Prop28
280
     0
102
RTVSPost2010PropOp28
 70
     1
102
RTVSPost2010Prop29
280
     1
102
RTVSPost2010PropOp29
 70
     1
102
RTVSPost2010Prop30
280
     1
102
RTVSPost2010PropOp30
 70
     1
102
RTVSPost2010Prop31
280
     0
102
RTVSPost2010PropOp31
 70
     1
102
RTVSPost2010Prop32
280
     0
102
RTVSPost2010PropOp32
 70
     1
102
RTVSPost2010Prop33
280
     0
102
RTVSPost2010PropOp33
 70
     1
102
RTVSPost2010Prop34
280
     0
102
RTVSPost2010PropOp34
 70
     1
102
RTVSPost2010Prop35
280
     0
102
RTVSPost2010PropOp35
 70
     1
102
RTVSPost2010Prop36
280
     0
102
RTVSPost2010PropOp36
 70
     1
102
RTVSPost2010Prop37
 90
       50
102
RTVSPost2010PropOp37
 70
     1
102
RTVSPost2010Prop38
140
0.0
102
RTVSPost2010PropOp38
 70
     1
102
RTVSPost2010Prop39
140
1.0
102
RTVSPost2010PropOp39
 70
     1
102
RTVSPost2010Prop40
 90
        0
102
RTVSPost2010PropOp40
 70
     1
102
RTVSPost2010Prop41ColorIndex
 90
       18
102
RTVSPost2010Prop41ColorRGB
 90
        0
102
RTVSPost2010PropOp41
 70
     1
102
RTVSPost2010Prop42
 90
       50
102
RTVSPost2010PropOp42
 70
     1
102
RTVSPost2010Prop43
 90
        3
102
RTVSPost2010PropOp43
 70
     1
102
RTVSPost2010Prop44ColorIndex
 90
        5
102
RTVSPost2010Prop44ColorRGB
 90
      255
102
RTVSPost2010PropOp44
 70
     1
102
RTVSPost2010Prop45
280
     0
102
RTVSPost2010PropOp45
 70
     1
102
RTVSPost2010Prop46
 90
       50
102
RTVSPost2010PropOp46
 70
     1
102
RTVSPost2010Prop47
 90
       50
102
RTVSPost2010PropOp47
 70
     1
102
RTVSPost2010Prop48
 90
       50
102
RTVSPost2010PropOp48
 70
     1
102
RTVSPost2010Prop49
280
     0
102
RTVSPost2010PropOp49
 70
     1
102
RTVSPost2010Prop50
 90
       50
102
RTVSPost2010PropOp50
 70
     1
102
RTVSPost2010Prop51ColorIndex
 90
      256
102
RTVSPost2010Prop51ColorRGB
 90
-16777216
102
RTVSPost2010PropOp51
 70
     0
102
RTVSPost2010Prop52
140
1.0
102
RTVSPost2010PropOp52
 70
     0
102
RTVSPost2010Prop53
 90
        2
102
RTVSPost2010PropOp53
 70
     1
102
RTVSPost2010Prop54
  1
strokes_ogs.tif
102
RTVSPost2010PropOp54
 70
     1
102
RTVSPost2010Prop55
280
     0
102
RTVSPost2010PropOp55
 70
     1
102
RTVSPost2010Prop56
140
1.0
102
RTVSPost2010PropOp56
 70
     1
102
RTVSPost2010Prop57
140
1.0
102
RTVSPost2010PropOp57
 70
     1
  0
XRECORD
  5
10D
102
{ACAD_REACTORS
330
10C
102
}
330
10C
100
AcDbXrecord
280
     1
102
RTVSPropertyOp0
 70
     1
102
RTVSPropertyOp1
 70
     1
102
RTVSPropertyOp2
 70
     1
102
RTVSPropertyOp3
 70
     1
102
RTVSPropertyOp4
 70
     1
102
RTVSPropertyOp5
 70
     1
102
RTVSPropertyOp6
 70
     1
102
RTVSPropertyOp7
 70
     1
102
RTVSPropertyOp8
 70
     1
102
RTVSPropertyOp9
 70
     1
102
RTVSPropertyOp10
 70
     1
102
RTVSPropertyOp11
 70
     1
102
RTVSPropertyOp12
 70
     1
102
RTVSPropertyOp13
 70
     1
102
RTVSPropertyOp14
 70
     1
102
RTVSPropertyOp15
 70
     1
102
RTVSPropertyOp16
 70
     1
102
RTVSPropertyOp17
 70
     1
102
RTVSPropertyOp18
 70
     1
102
RTVSPropertyOp19
 70
     1
102
RTVSPropertyOp20
 70
     1
102
RTVSPropertyOp21
 70
     1
102
RTVSPropertyOp22
 70
     1
102
RTVSPropertyOp23
 70
     1
102
RTVSPropertyOp24
 70
     1
102
RTVSPropertyOp25
 70
     1
102
RTVSPropertyOp26
 70
     1
102
RTVSPropertyOp27
 70
     1
102
RTVSPropertyOp28
 70
     1
102
RTVSPropertyOp29
 70
     1
102
RTVSPropertyOp30
 70
     1
102
RTVSPropertyOp31
 70
     1
102
RTVSPropertyOp32
 70
     1
102
RTVSPropertyOp33
 70
     1
102
RTVSPropertyOp34
 70
     1
102
RTVSPropertyOp35
 70
     1
102
RTVSPropertyOp36
 70
     1
102
RTVSPropertyOp37
 70
     1
102
RTVSPropertyOp38
 70
     1
102
RTVSPropertyOp39
 70
     1
102
RTVSPropertyOp40
 70
     1
102
RTVSPropertyOp41
 70
     1
102
RTVSPropertyOp42
 70
     1
102
RTVSPropertyOp43
 70
     1
102
RTVSPropertyOp44
 70
     1
102
RTVSPropertyOp45
 70
     1
102
RTVSPropertyOp46
 70
     1
102
RTVSPropertyOp47
 70
     1
102
RTVSPropertyOp48
 70
     1
102
RTVSPropertyOp49
 70
     1
102
RTVSPropertyOp50
 70
     1
102
RTVSPropertyOp51
 70
     0
102
RTVSPropertyOp52
 70
     0
102
RTVSPropertyOp53
 70
     1
102
RTVSPropertyOp54
 70
     1
102
RTVSPropertyOp55
 70
     1
102
RTVSPropertyOp56
 70
     1
102
RTVSPropertyOp57
 70
     1
102
RTVSPost2010Prop28
280
     0
102
RTVSPost2010PropOp28
 70
     1
102
RTVSPost2010Prop29
280
     1
102
RTVSPost2010PropOp29
 70
     1
102
RTVSPost2010Prop30
280
     1
102
RTVSPost2010PropOp30
 70
     1
102
RTVSPost2010Prop31
280
     0
102
RTVSPost2010PropOp31
 70
     1
102
RTVSPost2010Prop32
280
     0
102
RTVSPost2010PropOp32
 70
     1
102
RTVSPost2010Prop33
280
     0
102
RTVSPost2010PropOp33
 70
     1
102
RTVSPost2010Prop34
280
     0
102
RTVSPost2010PropOp34
 70
     1
102
RTVSPost2010Prop35
280
     0
102
RTVSPost2010PropOp35
 70
     1
102
RTVSPost2010Prop36
280
     0
102
RTVSPost2010PropOp36
 70
     1
102
RTVSPost2010Prop37
 90
       50
102
RTVSPost2010PropOp37
 70
     1
102
RTVSPost2010Prop38
140
0.0
102
RTVSPost2010PropOp38
 70
     1
102
RTVSPost2010Prop39
140
1.0
102
RTVSPost2010PropOp39
 70
     1
102
RTVSPost2010Prop40
 90
        0
102
RTVSPost2010PropOp40
 70
     1
102
RTVSPost2010Prop41ColorIndex
 90
       18
102
RTVSPost2010Prop41ColorRGB
 90
        0
102
RTVSPost2010PropOp41
 70
     1
102
RTVSPost2010Prop42
 90
       50
102
RTVSPost2010PropOp42
 70
     1
102
RTVSPost2010Prop43
 90
        3
102
RTVSPost2010PropOp43
 70
     1
102
RTVSPost2010Prop44ColorIndex
 90
        5
102
RTVSPost2010Prop44ColorRGB
 90
      255
102
RTVSPost2010PropOp44
 70
     1
102
RTVSPost2010Prop45
280
     0
102
RTVSPost2010PropOp45
 70
     1
102
RTVSPost2010Prop46
 90
       50
102
RTVSPost2010PropOp46
 70
     1
102
RTVSPost2010Prop47
 90
       50
102
RTVSPost2010PropOp47
 70
     1
102
RTVSPost2010Prop48
 90
       50
102
RTVSPost2010PropOp48
 70
     1
102
RTVSPost2010Prop49
280
     0
102
RTVSPost2010PropOp49
 70
     1
102
RTVSPost2010Prop50
 90
       50
102
RTVSPost2010PropOp50
 70
     1
102
RTVSPost2010Prop51ColorIndex
 90
      256
102
RTVSPost2010Prop51ColorRGB
 90
-16777216
102
RTVSPost2010PropOp51
 70
     0
102
RTVSPost2010Prop52
140
1.0
102
RTVSPost2010PropOp52
 70
     0
102
RTVSPost2010Prop53
 90
        2
102
RTVSPost2010PropOp53
 70
     1
102
RTVSPost2010Prop54
  1
strokes_ogs.tif
102
RTVSPost2010PropOp54
 70
     1
102
RTVSPost2010Prop55
280
     0
102
RTVSPost2010PropOp55
 70
     1
102
RTVSPost2010Prop56
140
1.0
102
RTVSPost2010PropOp56
 70
     1
102
RTVSPost2010Prop57
140
1.0
102
RTVSPost2010PropOp57
 70
     1
  0
XRECORD
  5
115
102
{ACAD_REACTORS
330
114
102
}
330
114
100
AcDbXrecord
280
     1
102
RTVSPropertyOp0
 70
     1
102
RTVSPropertyOp1
 70
     1
102
RTVSPropertyOp2
 70
     1
102
RTVSPropertyOp3
 70
     1
102
RTVSPropertyOp4
 70
     1
102
RTVSPropertyOp5
 70
     1
102
RTVSPropertyOp6
 70
     1
102
RTVSPropertyOp7
 70
     1
102
RTVSPropertyOp8
 70
     1
102
RTVSPropertyOp9
 70
     1
102
RTVSPropertyOp10
 70
     1
102
RTVSPropertyOp11
 70
     1
102
RTVSPropertyOp12
 70
     1
102
RTVSPropertyOp13
 70
     1
102
RTVSPropertyOp14
 70
     1
102
RTVSPropertyOp15
 70
     1
102
RTVSPropertyOp16
 70
     1
102
RTVSPropertyOp17
 70
     1
102
RTVSPropertyOp18
 70
     1
102
RTVSPropertyOp19
 70
     1
102
RTVSPropertyOp20
 70
     1
102
RTVSPropertyOp21
 70
     1
102
RTVSPropertyOp22
 70
     1
102
RTVSPropertyOp23
 70
     1
102
RTVSPropertyOp24
 70
     1
102
RTVSPropertyOp25
 70
     1
102
RTVSPropertyOp26
 70
     1
102
RTVSPropertyOp27
 70
     1
102
RTVSPropertyOp28
 70
     1
102
RTVSPropertyOp29
 70
     1
102
RTVSPropertyOp30
 70
     1
102
RTVSPropertyOp31
 70
     1
102
RTVSPropertyOp32
 70
     1
102
RTVSPropertyOp33
 70
     1
102
RTVSPropertyOp34
 70
     1
102
RTVSPropertyOp35
 70
     1
102
RTVSPropertyOp36
 70
     1
102
RTVSPropertyOp37
 70
     1
102
RTVSPropertyOp38
 70
     1
102
RTVSPropertyOp39
 70
     1
102
RTVSPropertyOp40
 70
     1
102
RTVSPropertyOp41
 70
     1
102
RTVSPropertyOp42
 70
     1
102
RTVSPropertyOp43
 70
     1
102
RTVSPropertyOp44
 70
     1
102
RTVSPropertyOp45
 70
     1
102
RTVSPropertyOp46
 70
     1
102
RTVSPropertyOp47
 70
     1
102
RTVSPropertyOp48
 70
     1
102
RTVSPropertyOp49
 70
     1
102
RTVSPropertyOp50
 70
     1
102
RTVSPropertyOp51
 70
     0
102
RTVSPropertyOp52
 70
     0
102
RTVSPropertyOp53
 70
     1
102
RTVSPropertyOp54
 70
     1
102
RTVSPropertyOp55
 70
     1
102
RTVSPropertyOp56
 70
     1
102
RTVSPropertyOp57
 70
     1
102
RTVSPost2010Prop28
280
     0
102
RTVSPost2010PropOp28
 70
     1
102
RTVSPost2010Prop29
280
     1
102
RTVSPost2010PropOp29
 70
     1
102
RTVSPost2010Prop30
280
     1
102
RTVSPost2010PropOp30
 70
     1
102
RTVSPost2010Prop31
280
     0
102
RTVSPost2010PropOp31
 70
     1
102
RTVSPost2010Prop32
280
     0
102
RTVSPost2010PropOp32
 70
     1
102
RTVSPost2010Prop33
280
     0
102
RTVSPost2010PropOp33
 70
     1
102
RTVSPost2010Prop34
280
     0
102
RTVSPost2010PropOp34
 70
     1
102
RTVSPost2010Prop35
280
     0
102
RTVSPost2010PropOp35
 70
     1
102
RTVSPost2010Prop36
280
     0
102
RTVSPost2010PropOp36
 70
     1
102
RTVSPost2010Prop37
 90
       50
102
RTVSPost2010PropOp37
 70
     1
102
RTVSPost2010Prop38
140
0.0
102
RTVSPost2010PropOp38
 70
     1
102
RTVSPost2010Prop39
140
1.0
102
RTVSPost2010PropOp39
 70
     1
102
RTVSPost2010Prop40
 90
        0
102
RTVSPost2010PropOp40
 70
     1
102
RTVSPost2010Prop41ColorIndex
 90
       18
102
RTVSPost2010Prop41ColorRGB
 90
        0
102
RTVSPost2010PropOp41
 70
     1
102
RTVSPost2010Prop42
 90
       50
102
RTVSPost2010PropOp42
 70
     1
102
RTVSPost2010Prop43
 90
        3
102
RTVSPost2010PropOp43
 70
     1
102
RTVSPost2010Prop44ColorIndex
 90
        5
102
RTVSPost2010Prop44ColorRGB
 90
      255
102
RTVSPost2010PropOp44
 70
     1
102
RTVSPost2010Prop45
280
     0
102
RTVSPost2010PropOp45
 70
     1
102
RTVSPost2010Prop46
 90
       50
102
RTVSPost2010PropOp46
 70
     1
102
RTVSPost2010Prop47
 90
       50
102
RTVSPost2010PropOp47
 70
     1
102
RTVSPost2010Prop48
 90
       50
102
RTVSPost2010PropOp48
 70
     1
102
RTVSPost2010Prop49
280
     0
102
RTVSPost2010PropOp49
 70
     1
102
RTVSPost2010Prop50
 90
       50
102
RTVSPost2010PropOp50
 70
     1
102
RTVSPost2010Prop51ColorIndex
 90
      256
102
RTVSPost2010Prop51ColorRGB
 90
-16777216
102
RTVSPost2010PropOp51
 70
     0
102
RTVSPost2010Prop52
140
1.0
102
RTVSPost2010PropOp52
 70
     0
102
RTVSPost2010Prop53
 90
        2
102
RTVSPost2010PropOp53
 70
     1
102
RTVSPost2010Prop54
  1
strokes_ogs.tif
102
RTVSPost2010PropOp54
 70
     1
102
RTVSPost2010Prop55
280
     0
102
RTVSPost2010PropOp55
 70
     1
102
RTVSPost2010Prop56
140
1.0
102
RTVSPost2010PropOp56
 70
     1
102
RTVSPost2010Prop57
140
1.0
102
RTVSPost2010PropOp57
 70
     1
  0
XRECORD
  5
109
102
{ACAD_REACTORS
330
108
102
}
330
108
100
AcDbXrecord
280
     1
102
RTVSPropertyOp0
 70
     1
102
RTVSPropertyOp1
 70
     1
102
RTVSPropertyOp2
 70
     1
102
RTVSPropertyOp3
 70
     1
102
RTVSPropertyOp4
 70
     1
102
RTVSPropertyOp5
 70
     1
102
RTVSPropertyOp6
 70
     1
102
RTVSPropertyOp7
 70
     1
102
RTVSPropertyOp8
 70
     1
102
RTVSPropertyOp9
 70
     1
102
RTVSPropertyOp10
 70
     1
102
RTVSPropertyOp11
 70
     1
102
RTVSPropertyOp12
 70
     1
102
RTVSPropertyOp13
 70
     1
102
RTVSPropertyOp14
 70
     1
102
RTVSPropertyOp15
 70
     1
102
RTVSPropertyOp16
 70
     1
102
RTVSPropertyOp17
 70
     1
102
RTVSPropertyOp18
 70
     1
102
RTVSPropertyOp19
 70
     1
102
RTVSPropertyOp20
 70
     1
102
RTVSPropertyOp21
 70
     1
102
RTVSPropertyOp22
 70
     1
102
RTVSPropertyOp23
 70
     1
102
RTVSPropertyOp24
 70
     1
102
RTVSPropertyOp25
 70
     1
102
RTVSPropertyOp26
 70
     1
102
RTVSPropertyOp27
 70
     1
102
RTVSPropertyOp28
 70
     1
102
RTVSPropertyOp29
 70
     1
102
RTVSPropertyOp30
 70
     1
102
RTVSPropertyOp31
 70
     1
102
RTVSPropertyOp32
 70
     1
102
RTVSPropertyOp33
 70
     1
102
RTVSPropertyOp34
 70
     1
102
RTVSPropertyOp35
 70
     1
102
RTVSPropertyOp36
 70
     1
102
RTVSPropertyOp37
 70
     1
102
RTVSPropertyOp38
 70
     1
102
RTVSPropertyOp39
 70
     1
102
RTVSPropertyOp40
 70
     1
102
RTVSPropertyOp41
 70
     1
102
RTVSPropertyOp42
 70
     1
102
RTVSPropertyOp43
 70
     1
102
RTVSPropertyOp44
 70
     1
102
RTVSPropertyOp45
 70
     1
102
RTVSPropertyOp46
 70
     1
102
RTVSPropertyOp47
 70
     1
102
RTVSPropertyOp48
 70
     1
102
RTVSPropertyOp49
 70
     1
102
RTVSPropertyOp50
 70
     1
102
RTVSPropertyOp51
 70
     0
102
RTVSPropertyOp52
 70
     0
102
RTVSPropertyOp53
 70
     1
102
RTVSPropertyOp54
 70
     1
102
RTVSPropertyOp55
 70
     1
102
RTVSPropertyOp56
 70
     1
102
RTVSPropertyOp57
 70
     1
102
RTVSPost2010Prop28
280
     0
102
RTVSPost2010PropOp28
 70
     1
102
RTVSPost2010Prop29
280
     1
102
RTVSPost2010PropOp29
 70
     1
102
RTVSPost2010Prop30
280
     1
102
RTVSPost2010PropOp30
 70
     1
102
RTVSPost2010Prop31
280
     0
102
RTVSPost2010PropOp31
 70
     1
102
RTVSPost2010Prop32
280
     0
102
RTVSPost2010PropOp32
 70
     1
102
RTVSPost2010Prop33
280
     0
102
RTVSPost2010PropOp33
 70
     1
102
RTVSPost2010Prop34
280
     0
102
RTVSPost2010PropOp34
 70
     1
102
RTVSPost2010Prop35
280
     0
102
RTVSPost2010PropOp35
 70
     1
102
RTVSPost2010Prop36
280
     0
102
RTVSPost2010PropOp36
 70
     1
102
RTVSPost2010Prop37
 90
       50
102
RTVSPost2010PropOp37
 70
     1
102
RTVSPost2010Prop38
140
0.0
102
RTVSPost2010PropOp38
 70
     1
102
RTVSPost2010Prop39
140
1.0
102
RTVSPost2010PropOp39
 70
     1
102
RTVSPost2010Prop40
 90
        0
102
RTVSPost2010PropOp40
 70
     1
102
RTVSPost2010Prop41ColorIndex
 90
       18
102
RTVSPost2010Prop41ColorRGB
 90
        0
102
RTVSPost2010PropOp41
 70
     1
102
RTVSPost2010Prop42
 90
       50
102
RTVSPost2010PropOp42
 70
     1
102
RTVSPost2010Prop43
 90
        3
102
RTVSPost2010PropOp43
 70
     1
102
RTVSPost2010Prop44ColorIndex
 90
        5
102
RTVSPost2010Prop44ColorRGB
 90
      255
102
RTVSPost2010PropOp44
 70
     1
102
RTVSPost2010Prop45
280
     0
102
RTVSPost2010PropOp45
 70
     1
102
RTVSPost2010Prop46
 90
       50
102
RTVSPost2010PropOp46
 70
     1
102
RTVSPost2010Prop47
 90
       50
102
RTVSPost2010PropOp47
 70
     1
102
RTVSPost2010Prop48
 90
       50
102
RTVSPost2010PropOp48
 70
     1
102
RTVSPost2010Prop49
280
     0
102
RTVSPost2010PropOp49
 70
     1
102
RTVSPost2010Prop50
 90
       50
102
RTVSPost2010PropOp50
 70
     1
102
RTVSPost2010Prop51ColorIndex
 90
      256
102
RTVSPost2010Prop51ColorRGB
 90
-16777216
102
RTVSPost2010PropOp51
 70
     0
102
RTVSPost2010Prop52
140
1.0
102
RTVSPost2010PropOp52
 70
     0
102
RTVSPost2010Prop53
 90
        2
102
RTVSPost2010PropOp53
 70
     1
102
RTVSPost2010Prop54
  1
strokes_ogs.tif
102
RTVSPost2010PropOp54
 70
     1
102
RTVSPost2010Prop55
280
     0
102
RTVSPost2010PropOp55
 70
     1
102
RTVSPost2010Prop56
140
1.0
102
RTVSPost2010PropOp56
 70
     1
102
RTVSPost2010Prop57
140
1.0
102
RTVSPost2010PropOp57
 70
     1
  0
XRECORD
  5
10B
102
{ACAD_REACTORS
330
10A
102
}
330
10A
100
AcDbXrecord
280
     1
102
RTVSPropertyOp0
 70
     1
102
RTVSPropertyOp1
 70
     1
102
RTVSPropertyOp2
 70
     1
102
RTVSPropertyOp3
 70
     1
102
RTVSPropertyOp4
 70
     1
102
RTVSPropertyOp5
 70
     1
102
RTVSPropertyOp6
 70
     1
102
RTVSPropertyOp7
 70
     1
102
RTVSPropertyOp8
 70
     1
102
RTVSPropertyOp9
 70
     1
102
RTVSPropertyOp10
 70
     1
102
RTVSPropertyOp11
 70
     1
102
RTVSPropertyOp12
 70
     1
102
RTVSPropertyOp13
 70
     1
102
RTVSPropertyOp14
 70
     1
102
RTVSPropertyOp15
 70
     1
102
RTVSPropertyOp16
 70
     1
102
RTVSPropertyOp17
 70
     1
102
RTVSPropertyOp18
 70
     1
102
RTVSPropertyOp19
 70
     1
102
RTVSPropertyOp20
 70
     1
102
RTVSPropertyOp21
 70
     1
102
RTVSPropertyOp22
 70
     1
102
RTVSPropertyOp23
 70
     1
102
RTVSPropertyOp24
 70
     1
102
RTVSPropertyOp25
 70
     1
102
RTVSPropertyOp26
 70
     1
102
RTVSPropertyOp27
 70
     1
102
RTVSPropertyOp28
 70
     1
102
RTVSPropertyOp29
 70
     1
102
RTVSPropertyOp30
 70
     1
102
RTVSPropertyOp31
 70
     1
102
RTVSPropertyOp32
 70
     1
102
RTVSPropertyOp33
 70
     1
102
RTVSPropertyOp34
 70
     1
102
RTVSPropertyOp35
 70
     1
102
RTVSPropertyOp36
 70
     1
102
RTVSPropertyOp37
 70
     1
102
RTVSPropertyOp38
 70
     1
102
RTVSPropertyOp39
 70
     1
102
RTVSPropertyOp40
 70
     1
102
RTVSPropertyOp41
 70
     1
102
RTVSPropertyOp42
 70
     1
102
RTVSPropertyOp43
 70
     1
102
RTVSPropertyOp44
 70
     1
102
RTVSPropertyOp45
 70
     1
102
RTVSPropertyOp46
 70
     1
102
RTVSPropertyOp47
 70
     1
102
RTVSPropertyOp48
 70
     1
102
RTVSPropertyOp49
 70
     1
102
RTVSPropertyOp50
 70
     1
102
RTVSPropertyOp51
 70
     0
102
RTVSPropertyOp52
 70
     0
102
RTVSPropertyOp53
 70
     1
102
RTVSPropertyOp54
 70
     1
102
RTVSPropertyOp55
 70
     1
102
RTVSPropertyOp56
 70
     1
102
RTVSPropertyOp57
 70
     1
102
RTVSPost2010Prop28
280
     0
102
RTVSPost2010PropOp28
 70
     1
102
RTVSPost2010Prop29
280
     1
102
RTVSPost2010PropOp29
 70
     1
102
RTVSPost2010Prop30
280
     1
102
RTVSPost2010PropOp30
 70
     1
102
RTVSPost2010Prop31
280
     0
102
RTVSPost2010PropOp31
 70
     1
102
RTVSPost2010Prop32
280
     0
102
RTVSPost2010PropOp32
 70
     1
102
RTVSPost2010Prop33
280
     0
102
RTVSPost2010PropOp33
 70
     1
102
RTVSPost2010Prop34
280
     0
102
RTVSPost2010PropOp34
 70
     1
102
RTVSPost2010Prop35
280
     0
102
RTVSPost2010PropOp35
 70
     1
102
RTVSPost2010Prop36
280
     0
102
RTVSPost2010PropOp36
 70
     1
102
RTVSPost2010Prop37
 90
       50
102
RTVSPost2010PropOp37
 70
     1
102
RTVSPost2010Prop38
140
0.0
102
RTVSPost2010PropOp38
 70
     1
102
RTVSPost2010Prop39
140
1.0
102
RTVSPost2010PropOp39
 70
     1
102
RTVSPost2010Prop40
 90
        0
102
RTVSPost2010PropOp40
 70
     1
102
RTVSPost2010Prop41ColorIndex
 90
       18
102
RTVSPost2010Prop41ColorRGB
 90
        0
102
RTVSPost2010PropOp41
 70
     1
102
RTVSPost2010Prop42
 90
       50
102
RTVSPost2010PropOp42
 70
     1
102
RTVSPost2010Prop43
 90
        3
102
RTVSPost2010PropOp43
 70
     1
102
RTVSPost2010Prop44ColorIndex
 90
        5
102
RTVSPost2010Prop44ColorRGB
 90
      255
102
RTVSPost2010PropOp44
 70
     1
102
RTVSPost2010Prop45
280
     0
102
RTVSPost2010PropOp45
 70
     1
102
RTVSPost2010Prop46
 90
       50
102
RTVSPost2010PropOp46
 70
     1
102
RTVSPost2010Prop47
 90
       50
102
RTVSPost2010PropOp47
 70
     1
102
RTVSPost2010Prop48
 90
       50
102
RTVSPost2010PropOp48
 70
     1
102
RTVSPost2010Prop49
280
     0
102
RTVSPost2010PropOp49
 70
     1
102
RTVSPost2010Prop50
 90
       50
102
RTVSPost2010PropOp50
 70
     1
102
RTVSPost2010Prop51ColorIndex
 90
      256
102
RTVSPost2010Prop51ColorRGB
 90
-16777216
102
RTVSPost2010PropOp51
 70
     0
102
RTVSPost2010Prop52
140
1.0
102
RTVSPost2010PropOp52
 70
     0
102
RTVSPost2010Prop53
 90
        2
102
RTVSPost2010PropOp53
 70
     1
102
RTVSPost2010Prop54
  1
strokes_ogs.tif
102
RTVSPost2010PropOp54
 70
     1
102
RTVSPost2010Prop55
280
     0
102
RTVSPost2010PropOp55
 70
     1
102
RTVSPost2010Prop56
140
1.0
102
RTVSPost2010PropOp56
 70
     1
102
RTVSPost2010Prop57
140
1.0
102
RTVSPost2010PropOp57
 70
     1
  0
XRECORD
  5
11B
102
{ACAD_REACTORS
330
11A
102
}
330
11A
100
AcDbXrecord
280
     1
102
RTVSPropertyOp0
 70
     0
102
RTVSPropertyOp1
 70
     0
102
RTVSPropertyOp2
 70
     0
102
RTVSPropertyOp3
 70
     0
102
RTVSPropertyOp4
 70
     0
102
RTVSPropertyOp5
 70
     0
102
RTVSPropertyOp6
 70
     0
102
RTVSPropertyOp7
 70
     0
102
RTVSPropertyOp8
 70
     0
102
RTVSPropertyOp9
 70
     0
102
RTVSPropertyOp10
 70
     0
102
RTVSPropertyOp11
 70
     0
102
RTVSPropertyOp12
 70
     0
102
RTVSPropertyOp13
 70
     0
102
RTVSPropertyOp14
 70
     2
102
RTVSPropertyOp15
 70
     0
102
RTVSPropertyOp16
 70
     0
102
RTVSPropertyOp17
 70
     0
102
RTVSPropertyOp18
 70
     0
102
RTVSPropertyOp19
 70
     0
102
RTVSPropertyOp20
 70
     0
102
RTVSPropertyOp21
 70
     0
102
RTVSPropertyOp22
 70
     0
102
RTVSPropertyOp23
 70
     0
102
RTVSPropertyOp24
 70
     0
102
RTVSPropertyOp25
 70
     0
102
RTVSPropertyOp26
 70
     0
102
RTVSPropertyOp27
 70
     0
102
RTVSPropertyOp28
 70
     0
102
RTVSPropertyOp29
 70
     0
102
RTVSPropertyOp30
 70
     0
102
RTVSPropertyOp31
 70
     0
102
RTVSPropertyOp32
 70
     0
102
RTVSPropertyOp33
 70
     0
102
RTVSPropertyOp34
 70
     0
102
RTVSPropertyOp35
 70
     0
102
RTVSPropertyOp36
 70
     0
102
RTVSPropertyOp37
 70
     0
102
RTVSPropertyOp38
 70
     0
102
RTVSPropertyOp39
 70
     0
102
RTVSPropertyOp40
 70
     0
102
RTVSPropertyOp41
 70
     0
102
RTVSPropertyOp42
 70
     0
102
RTVSPropertyOp43
 70
     0
102
RTVSPropertyOp44
 70
     0
102
RTVSPropertyOp45
 70
     0
102
RTVSPropertyOp46
 70
     0
102
RTVSPropertyOp47
 70
     0
102
RTVSPropertyOp48
 70
     0
102
RTVSPropertyOp49
 70
     0
102
RTVSPropertyOp50
 70
     0
102
RTVSPropertyOp51
 70
     0
102
RTVSPropertyOp52
 70
     0
102
RTVSPropertyOp53
 70
     0
102
RTVSPropertyOp54
 70
     0
102
RTVSPropertyOp55
 70
     0
102
RTVSPropertyOp56
 70
     0
102
RTVSPropertyOp57
 70
     0
102
RTVSPost2010Prop28
280
     0
102
RTVSPost2010PropOp28
 70
     0
102
RTVSPost2010Prop29
280
     1
102
RTVSPost2010PropOp29
 70
     0
102
RTVSPost2010Prop30
280
     1
102
RTVSPost2010PropOp30
 70
     0
102
RTVSPost2010Prop31
280
     0
102
RTVSPost2010PropOp31
 70
     0
102
RTVSPost2010Prop32
280
     0
102
RTVSPost2010PropOp32
 70
     0
102
RTVSPost2010Prop33
280
     0
102
RTVSPost2010PropOp33
 70
     0
102
RTVSPost2010Prop34
280
     0
102
RTVSPost2010PropOp34
 70
     0
102
RTVSPost2010Prop35
280
     0
102
RTVSPost2010PropOp35
 70
     0
102
RTVSPost2010Prop36
280
     0
102
RTVSPost2010PropOp36
 70
     0
102
RTVSPost2010Prop37
 90
       50
102
RTVSPost2010PropOp37
 70
     0
102
RTVSPost2010Prop38
140
0.0
102
RTVSPost2010PropOp38
 70
     0
102
RTVSPost2010Prop39
140
1.0
102
RTVSPost2010PropOp39
 70
     0
102
RTVSPost2010Prop40
 90
        0
102
RTVSPost2010PropOp40
 70
     0
102
RTVSPost2010Prop41ColorIndex
 90
       18
102
RTVSPost2010Prop41ColorRGB
 90
        0
102
RTVSPost2010PropOp41
 70
     0
102
RTVSPost2010Prop42
 90
       50
102
RTVSPost2010PropOp42
 70
     0
102
RTVSPost2010Prop43
 90
        3
102
RTVSPost2010PropOp43
 70
     0
102
RTVSPost2010Prop44ColorIndex
 90
        5
102
RTVSPost2010Prop44ColorRGB
 90
      255
102
RTVSPost2010PropOp44
 70
     0
102
RTVSPost2010Prop45
280
     0
102
RTVSPost2010PropOp45
 70
     0
102
RTVSPost2010Prop46
 90
       50
102
RTVSPost2010PropOp46
 70
     0
102
RTVSPost2010Prop47
 90
       50
102
RTVSPost2010PropOp47
 70
     0
102
RTVSPost2010Prop48
 90
       50
102
RTVSPost2010PropOp48
 70
     0
102
RTVSPost2010Prop49
280
     0
102
RTVSPost2010PropOp49
 70
     0
102
RTVSPost2010Prop50
 90
       50
102
RTVSPost2010PropOp50
 70
     0
102
RTVSPost2010Prop51ColorIndex
 90
      256
102
RTVSPost2010Prop51ColorRGB
 90
-16777216
102
RTVSPost2010PropOp51
 70
     0
102
RTVSPost2010Prop52
140
1.0
102
RTVSPost2010PropOp52
 70
     0
102
RTVSPost2010Prop53
 90
        2
102
RTVSPost2010PropOp53
 70
     0
102
RTVSPost2010Prop54
  1
strokes_ogs.tif
102
RTVSPost2010PropOp54
 70
     0
102
RTVSPost2010Prop55
280
     0
102
RTVSPost2010PropOp55
 70
     0
102
RTVSPost2010Prop56
140
1.0
102
RTVSPost2010PropOp56
 70
     0
102
RTVSPost2010Prop57
140
1.0
102
RTVSPost2010PropOp57
 70
     0
  0
XRECORD
  5
113
102
{ACAD_REACTORS
330
112
102
}
330
112
100
AcDbXrecord
280
     1
102
RTVSPropertyOp0
 70
     1
102
RTVSPropertyOp1
 70
     1
102
RTVSPropertyOp2
 70
     1
102
RTVSPropertyOp3
 70
     1
102
RTVSPropertyOp4
 70
     1
102
RTVSPropertyOp5
 70
     1
102
RTVSPropertyOp6
 70
     1
102
RTVSPropertyOp7
 70
     1
102
RTVSPropertyOp8
 70
     1
102
RTVSPropertyOp9
 70
     1
102
RTVSPropertyOp10
 70
     1
102
RTVSPropertyOp11
 70
     1
102
RTVSPropertyOp12
 70
     1
102
RTVSPropertyOp13
 70
     1
102
RTVSPropertyOp14
 70
     1
102
RTVSPropertyOp15
 70
     1
102
RTVSPropertyOp16
 70
     1
102
RTVSPropertyOp17
 70
     1
102
RTVSPropertyOp18
 70
     1
102
RTVSPropertyOp19
 70
     1
102
RTVSPropertyOp20
 70
     1
102
RTVSPropertyOp21
 70
     1
102
RTVSPropertyOp22
 70
     1
102
RTVSPropertyOp23
 70
     1
102
RTVSPropertyOp24
 70
     1
102
RTVSPropertyOp25
 70
     1
102
RTVSPropertyOp26
 70
     1
102
RTVSPropertyOp27
 70
     1
102
RTVSPropertyOp28
 70
     1
102
RTVSPropertyOp29
 70
     1
102
RTVSPropertyOp30
 70
     1
102
RTVSPropertyOp31
 70
     1
102
RTVSPropertyOp32
 70
     1
102
RTVSPropertyOp33
 70
     1
102
RTVSPropertyOp34
 70
     1
102
RTVSPropertyOp35
 70
     1
102
RTVSPropertyOp36
 70
     1
102
RTVSPropertyOp37
 70
     1
102
RTVSPropertyOp38
 70
     1
102
RTVSPropertyOp39
 70
     1
102
RTVSPropertyOp40
 70
     1
102
RTVSPropertyOp41
 70
     1
102
RTVSPropertyOp42
 70
     1
102
RTVSPropertyOp43
 70
     1
102
RTVSPropertyOp44
 70
     1
102
RTVSPropertyOp45
 70
     1
102
RTVSPropertyOp46
 70
     1
102
RTVSPropertyOp47
 70
     1
102
RTVSPropertyOp48
 70
     1
102
RTVSPropertyOp49
 70
     1
102
RTVSPropertyOp50
 70
     1
102
RTVSPropertyOp51
 70
     0
102
RTVSPropertyOp52
 70
     0
102
RTVSPropertyOp53
 70
     1
102
RTVSPropertyOp54
 70
     1
102
RTVSPropertyOp55
 70
     1
102
RTVSPropertyOp56
 70
     1
102
RTVSPropertyOp57
 70
     1
102
RTVSPost2010Prop28
280
     0
102
RTVSPost2010PropOp28
 70
     1
102
RTVSPost2010Prop29
280
     1
102
RTVSPost2010PropOp29
 70
     1
102
RTVSPost2010Prop30
280
     1
102
RTVSPost2010PropOp30
 70
     1
102
RTVSPost2010Prop31
280
     0
102
RTVSPost2010PropOp31
 70
     1
102
RTVSPost2010Prop32
280
     0
102
RTVSPost2010PropOp32
 70
     1
102
RTVSPost2010Prop33
280
     0
102
RTVSPost2010PropOp33
 70
     1
102
RTVSPost2010Prop34
280
     0
102
RTVSPost2010PropOp34
 70
     1
102
RTVSPost2010Prop35
280
     0
102
RTVSPost2010PropOp35
 70
     1
102
RTVSPost2010Prop36
280
     0
102
RTVSPost2010PropOp36
 70
     1
102
RTVSPost2010Prop37
 90
       50
102
RTVSPost2010PropOp37
 70
     1
102
RTVSPost2010Prop38
140
0.0
102
RTVSPost2010PropOp38
 70
     1
102
RTVSPost2010Prop39
140
1.0
102
RTVSPost2010PropOp39
 70
     1
102
RTVSPost2010Prop40
 90
        0
102
RTVSPost2010PropOp40
 70
     1
102
RTVSPost2010Prop41ColorIndex
 90
       18
102
RTVSPost2010Prop41ColorRGB
 90
        0
102
RTVSPost2010PropOp41
 70
     1
102
RTVSPost2010Prop42
 90
       50
102
RTVSPost2010PropOp42
 70
     1
102
RTVSPost2010Prop43
 90
        3
102
RTVSPost2010PropOp43
 70
     1
102
RTVSPost2010Prop44ColorIndex
 90
        5
102
RTVSPost2010Prop44ColorRGB
 90
      255
102
RTVSPost2010PropOp44
 70
     1
102
RTVSPost2010Prop45
280
     0
102
RTVSPost2010PropOp45
 70
     1
102
RTVSPost2010Prop46
 90
       50
102
RTVSPost2010PropOp46
 70
     1
102
RTVSPost2010Prop47
 90
       50
102
RTVSPost2010PropOp47
 70
     1
102
RTVSPost2010Prop48
 90
       50
102
RTVSPost2010PropOp48
 70
     1
102
RTVSPost2010Prop49
280
     0
102
RTVSPost2010PropOp49
 70
     1
102
RTVSPost2010Prop50
 90
       50
102
RTVSPost2010PropOp50
 70
     1
102
RTVSPost2010Prop51ColorIndex
 90
      256
102
RTVSPost2010Prop51ColorRGB
 90
-16777216
102
RTVSPost2010PropOp51
 70
     0
102
RTVSPost2010Prop52
140
1.0
102
RTVSPost2010PropOp52
 70
     0
102
RTVSPost2010Prop53
 90
        2
102
RTVSPost2010PropOp53
 70
     1
102
RTVSPost2010Prop54
  1
strokes_ogs.tif
102
RTVSPost2010PropOp54
 70
     1
102
RTVSPost2010Prop55
280
     0
102
RTVSPost2010PropOp55
 70
     1
102
RTVSPost2010Prop56
140
1.0
102
RTVSPost2010PropOp56
 70
     1
102
RTVSPost2010Prop57
140
1.0
102
RTVSPost2010PropOp57
 70
     1
  0
XRECORD
  5
F7
102
{ACAD_REACTORS
330
F6
102
}
330
F6
100
AcDbXrecord
280
     1
102
RTVSPropertyOp0
 70
     1
102
RTVSPropertyOp1
 70
     1
102
RTVSPropertyOp2
 70
     1
102
RTVSPropertyOp3
 70
     1
102
RTVSPropertyOp4
 70
     1
102
RTVSPropertyOp5
 70
     1
102
RTVSPropertyOp6
 70
     1
102
RTVSPropertyOp7
 70
     1
102
RTVSPropertyOp8
 70
     1
102
RTVSPropertyOp9
 70
     1
102
RTVSPropertyOp10
 70
     1
102
RTVSPropertyOp11
 70
     1
102
RTVSPropertyOp12
 70
     1
102
RTVSPropertyOp13
 70
     1
102
RTVSPropertyOp14
 70
     1
102
RTVSPropertyOp15
 70
     1
102
RTVSPropertyOp16
 70
     1
102
RTVSPropertyOp17
 70
     1
102
RTVSPropertyOp18
 70
     1
102
RTVSPropertyOp19
 70
     1
102
RTVSPropertyOp20
 70
     1
102
RTVSPropertyOp21
 70
     1
102
RTVSPropertyOp22
 70
     1
102
RTVSPropertyOp23
 70
     1
102
RTVSPropertyOp24
 70
     1
102
RTVSPropertyOp25
 70
     1
102
RTVSPropertyOp26
 70
     1
102
RTVSPropertyOp27
 70
     1
102
RTVSPropertyOp28
 70
     1
102
RTVSPropertyOp29
 70
     1
102
RTVSPropertyOp30
 70
     1
102
RTVSPropertyOp31
 70
     1
102
RTVSPropertyOp32
 70
     1
102
RTVSPropertyOp33
 70
     1
102
RTVSPropertyOp34
 70
     1
102
RTVSPropertyOp35
 70
     1
102
RTVSPropertyOp36
 70
     1
102
RTVSPropertyOp37
 70
     1
102
RTVSPropertyOp38
 70
     1
102
RTVSPropertyOp39
 70
     1
102
RTVSPropertyOp40
 70
     1
102
RTVSPropertyOp41
 70
     1
102
RTVSPropertyOp42
 70
     1
102
RTVSPropertyOp43
 70
     1
102
RTVSPropertyOp44
 70
     1
102
RTVSPropertyOp45
 70
     1
102
RTVSPropertyOp46
 70
     1
102
RTVSPropertyOp47
 70
     1
102
RTVSPropertyOp48
 70
     1
102
RTVSPropertyOp49
 70
     1
102
RTVSPropertyOp50
 70
     1
102
RTVSPropertyOp51
 70
     0
102
RTVSPropertyOp52
 70
     0
102
RTVSPropertyOp53
 70
     1
102
RTVSPropertyOp54
 70
     1
102
RTVSPropertyOp55
 70
     1
102
RTVSPropertyOp56
 70
     1
102
RTVSPropertyOp57
 70
     1
102
RTVSPost2010Prop28
280
     0
102
RTVSPost2010PropOp28
 70
     1
102
RTVSPost2010Prop29
280
     1
102
RTVSPost2010PropOp29
 70
     1
102
RTVSPost2010Prop30
280
     1
102
RTVSPost2010PropOp30
 70
     1
102
RTVSPost2010Prop31
280
     0
102
RTVSPost2010PropOp31
 70
     1
102
RTVSPost2010Prop32
280
     0
102
RTVSPost2010PropOp32
 70
     1
102
RTVSPost2010Prop33
280
     0
102
RTVSPost2010PropOp33
 70
     1
102
RTVSPost2010Prop34
280
     0
102
RTVSPost2010PropOp34
 70
     1
102
RTVSPost2010Prop35
280
     0
102
RTVSPost2010PropOp35
 70
     1
102
RTVSPost2010Prop36
280
     0
102
RTVSPost2010PropOp36
 70
     1
102
RTVSPost2010Prop37
 90
       50
102
RTVSPost2010PropOp37
 70
     1
102
RTVSPost2010Prop38
140
0.0
102
RTVSPost2010PropOp38
 70
     1
102
RTVSPost2010Prop39
140
1.0
102
RTVSPost2010PropOp39
 70
     1
102
RTVSPost2010Prop40
 90
        0
102
RTVSPost2010PropOp40
 70
     1
102
RTVSPost2010Prop41ColorIndex
 90
       18
102
RTVSPost2010Prop41ColorRGB
 90
        0
102
RTVSPost2010PropOp41
 70
     1
102
RTVSPost2010Prop42
 90
       50
102
RTVSPost2010PropOp42
 70
     1
102
RTVSPost2010Prop43
 90
        3
102
RTVSPost2010PropOp43
 70
     1
102
RTVSPost2010Prop44ColorIndex
 90
        5
102
RTVSPost2010Prop44ColorRGB
 90
      255
102
RTVSPost2010PropOp44
 70
     1
102
RTVSPost2010Prop45
280
     0
102
RTVSPost2010PropOp45
 70
     1
102
RTVSPost2010Prop46
 90
       50
102
RTVSPost2010PropOp46
 70
     1
102
RTVSPost2010Prop47
 90
       50
102
RTVSPost2010PropOp47
 70
     1
102
RTVSPost2010Prop48
 90
       50
102
RTVSPost2010PropOp48
 70
     1
102
RTVSPost2010Prop49
280
     0
102
RTVSPost2010PropOp49
 70
     1
102
RTVSPost2010Prop50
 90
       50
102
RTVSPost2010PropOp50
 70
     1
102
RTVSPost2010Prop51ColorIndex
 90
      256
102
RTVSPost2010Prop51ColorRGB
 90
-16777216
102
RTVSPost2010PropOp51
 70
     0
102
RTVSPost2010Prop52
140
1.0
102
RTVSPost2010PropOp52
 70
     0
102
RTVSPost2010Prop53
 90
        2
102
RTVSPost2010PropOp53
 70
     1
102
RTVSPost2010Prop54
  1
strokes_ogs.tif
102
RTVSPost2010PropOp54
 70
     1
102
RTVSPost2010Prop55
280
     0
102
RTVSPost2010PropOp55
 70
     1
102
RTVSPost2010Prop56
140
1.0
102
RTVSPost2010PropOp56
 70
     1
102
RTVSPost2010Prop57
140
1.0
102
RTVSPost2010PropOp57
 70
     1
  0
XRECORD
  5
F9
102
{ACAD_REACTORS
330
F8
102
}
330
F8
100
AcDbXrecord
280
     1
102
RTVSPropertyOp0
 70
     1
102
RTVSPropertyOp1
 70
     1
102
RTVSPropertyOp2
 70
     1
102
RTVSPropertyOp3
 70
     1
102
RTVSPropertyOp4
 70
     1
102
RTVSPropertyOp5
 70
     1
102
RTVSPropertyOp6
 70
     1
102
RTVSPropertyOp7
 70
     1
102
RTVSPropertyOp8
 70
     1
102
RTVSPropertyOp9
 70
     1
102
RTVSPropertyOp10
 70
     1
102
RTVSPropertyOp11
 70
     1
102
RTVSPropertyOp12
 70
     1
102
RTVSPropertyOp13
 70
     1
102
RTVSPropertyOp14
 70
     1
102
RTVSPropertyOp15
 70
     1
102
RTVSPropertyOp16
 70
     1
102
RTVSPropertyOp17
 70
     1
102
RTVSPropertyOp18
 70
     1
102
RTVSPropertyOp19
 70
     1
102
RTVSPropertyOp20
 70
     1
102
RTVSPropertyOp21
 70
     1
102
RTVSPropertyOp22
 70
     1
102
RTVSPropertyOp23
 70
     1
102
RTVSPropertyOp24
 70
     1
102
RTVSPropertyOp25
 70
     1
102
RTVSPropertyOp26
 70
     1
102
RTVSPropertyOp27
 70
     1
102
RTVSPropertyOp28
 70
     1
102
RTVSPropertyOp29
 70
     1
102
RTVSPropertyOp30
 70
     1
102
RTVSPropertyOp31
 70
     1
102
RTVSPropertyOp32
 70
     1
102
RTVSPropertyOp33
 70
     1
102
RTVSPropertyOp34
 70
     1
102
RTVSPropertyOp35
 70
     1
102
RTVSPropertyOp36
 70
     1
102
RTVSPropertyOp37
 70
     1
102
RTVSPropertyOp38
 70
     1
102
RTVSPropertyOp39
 70
     1
102
RTVSPropertyOp40
 70
     1
102
RTVSPropertyOp41
 70
     1
102
RTVSPropertyOp42
 70
     1
102
RTVSPropertyOp43
 70
     1
102
RTVSPropertyOp44
 70
     1
102
RTVSPropertyOp45
 70
     1
102
RTVSPropertyOp46
 70
     1
102
RTVSPropertyOp47
 70
     1
102
RTVSPropertyOp48
 70
     1
102
RTVSPropertyOp49
 70
     1
102
RTVSPropertyOp50
 70
     1
102
RTVSPropertyOp51
 70
     0
102
RTVSPropertyOp52
 70
     0
102
RTVSPropertyOp53
 70
     1
102
RTVSPropertyOp54
 70
     1
102
RTVSPropertyOp55
 70
     1
102
RTVSPropertyOp56
 70
     1
102
RTVSPropertyOp57
 70
     1
102
RTVSPost2010Prop28
280
     0
102
RTVSPost2010PropOp28
 70
     1
102
RTVSPost2010Prop29
280
     1
102
RTVSPost2010PropOp29
 70
     1
102
RTVSPost2010Prop30
280
     1
102
RTVSPost2010PropOp30
 70
     1
102
RTVSPost2010Prop31
280
     0
102
RTVSPost2010PropOp31
 70
     1
102
RTVSPost2010Prop32
280
     0
102
RTVSPost2010PropOp32
 70
     1
102
RTVSPost2010Prop33
280
     0
102
RTVSPost2010PropOp33
 70
     1
102
RTVSPost2010Prop34
280
     0
102
RTVSPost2010PropOp34
 70
     1
102
RTVSPost2010Prop35
280
     0
102
RTVSPost2010PropOp35
 70
     1
102
RTVSPost2010Prop36
280
     0
102
RTVSPost2010PropOp36
 70
     1
102
RTVSPost2010Prop37
 90
       50
102
RTVSPost2010PropOp37
 70
     1
102
RTVSPost2010Prop38
140
0.0
102
RTVSPost2010PropOp38
 70
     1
102
RTVSPost2010Prop39
140
1.0
102
RTVSPost2010PropOp39
 70
     1
102
RTVSPost2010Prop40
 90
        0
102
RTVSPost2010PropOp40
 70
     1
102
RTVSPost2010Prop41ColorIndex
 90
       18
102
RTVSPost2010Prop41ColorRGB
 90
        0
102
RTVSPost2010PropOp41
 70
     1
102
RTVSPost2010Prop42
 90
       50
102
RTVSPost2010PropOp42
 70
     1
102
RTVSPost2010Prop43
 90
        3
102
RTVSPost2010PropOp43
 70
     1
102
RTVSPost2010Prop44ColorIndex
 90
        5
102
RTVSPost2010Prop44ColorRGB
 90
      255
102
RTVSPost2010PropOp44
 70
     1
102
RTVSPost2010Prop45
280
     0
102
RTVSPost2010PropOp45
 70
     1
102
RTVSPost2010Prop46
 90
       50
102
RTVSPost2010PropOp46
 70
     1
102
RTVSPost2010Prop47
 90
       50
102
RTVSPost2010PropOp47
 70
     1
102
RTVSPost2010Prop48
 90
       50
102
RTVSPost2010PropOp48
 70
     1
102
RTVSPost2010Prop49
280
     0
102
RTVSPost2010PropOp49
 70
     1
102
RTVSPost2010Prop50
 90
       50
102
RTVSPost2010PropOp50
 70
     1
102
RTVSPost2010Prop51ColorIndex
 90
      256
102
RTVSPost2010Prop51ColorRGB
 90
-16777216
102
RTVSPost2010PropOp51
 70
     0
102
RTVSPost2010Prop52
140
1.0
102
RTVSPost2010PropOp52
 70
     0
102
RTVSPost2010Prop53
 90
        2
102
RTVSPost2010PropOp53
 70
     1
102
RTVSPost2010Prop54
  1
strokes_ogs.tif
102
RTVSPost2010PropOp54
 70
     1
102
RTVSPost2010Prop55
280
     0
102
RTVSPost2010PropOp55
 70
     1
102
RTVSPost2010Prop56
140
1.0
102
RTVSPost2010PropOp56
 70
     1
102
RTVSPost2010Prop57
140
1.0
102
RTVSPost2010PropOp57
 70
     1
  0
XRECORD
  5
FB
102
{ACAD_REACTORS
330
FA
102
}
330
FA
100
AcDbXrecord
280
     1
102
RTVSPropertyOp0
 70
     1
102
RTVSPropertyOp1
 70
     1
102
RTVSPropertyOp2
 70
     1
102
RTVSPropertyOp3
 70
     1
102
RTVSPropertyOp4
 70
     1
102
RTVSPropertyOp5
 70
     1
102
RTVSPropertyOp6
 70
     1
102
RTVSPropertyOp7
 70
     1
102
RTVSPropertyOp8
 70
     1
102
RTVSPropertyOp9
 70
     1
102
RTVSPropertyOp10
 70
     1
102
RTVSPropertyOp11
 70
     1
102
RTVSPropertyOp12
 70
     1
102
RTVSPropertyOp13
 70
     1
102
RTVSPropertyOp14
 70
     1
102
RTVSPropertyOp15
 70
     1
102
RTVSPropertyOp16
 70
     1
102
RTVSPropertyOp17
 70
     1
102
RTVSPropertyOp18
 70
     1
102
RTVSPropertyOp19
 70
     1
102
RTVSPropertyOp20
 70
     1
102
RTVSPropertyOp21
 70
     1
102
RTVSPropertyOp22
 70
     1
102
RTVSPropertyOp23
 70
     1
102
RTVSPropertyOp24
 70
     1
102
RTVSPropertyOp25
 70
     1
102
RTVSPropertyOp26
 70
     1
102
RTVSPropertyOp27
 70
     1
102
RTVSPropertyOp28
 70
     1
102
RTVSPropertyOp29
 70
     1
102
RTVSPropertyOp30
 70
     1
102
RTVSPropertyOp31
 70
     1
102
RTVSPropertyOp32
 70
     1
102
RTVSPropertyOp33
 70
     1
102
RTVSPropertyOp34
 70
     1
102
RTVSPropertyOp35
 70
     1
102
RTVSPropertyOp36
 70
     1
102
RTVSPropertyOp37
 70
     1
102
RTVSPropertyOp38
 70
     1
102
RTVSPropertyOp39
 70
     1
102
RTVSPropertyOp40
 70
     1
102
RTVSPropertyOp41
 70
     1
102
RTVSPropertyOp42
 70
     1
102
RTVSPropertyOp43
 70
     1
102
RTVSPropertyOp44
 70
     1
102
RTVSPropertyOp45
 70
     1
102
RTVSPropertyOp46
 70
     1
102
RTVSPropertyOp47
 70
     1
102
RTVSPropertyOp48
 70
     1
102
RTVSPropertyOp49
 70
     1
102
RTVSPropertyOp50
 70
     1
102
RTVSPropertyOp51
 70
     0
102
RTVSPropertyOp52
 70
     0
102
RTVSPropertyOp53
 70
     1
102
RTVSPropertyOp54
 70
     1
102
RTVSPropertyOp55
 70
     1
102
RTVSPropertyOp56
 70
     1
102
RTVSPropertyOp57
 70
     1
102
RTVSPost2010Prop28
280
     0
102
RTVSPost2010PropOp28
 70
     1
102
RTVSPost2010Prop29
280
     1
102
RTVSPost2010PropOp29
 70
     1
102
RTVSPost2010Prop30
280
     1
102
RTVSPost2010PropOp30
 70
     1
102
RTVSPost2010Prop31
280
     0
102
RTVSPost2010PropOp31
 70
     1
102
RTVSPost2010Prop32
280
     0
102
RTVSPost2010PropOp32
 70
     1
102
RTVSPost2010Prop33
280
     0
102
RTVSPost2010PropOp33
 70
     1
102
RTVSPost2010Prop34
280
     0
102
RTVSPost2010PropOp34
 70
     1
102
RTVSPost2010Prop35
280
     0
102
RTVSPost2010PropOp35
 70
     1
102
RTVSPost2010Prop36
280
     0
102
RTVSPost2010PropOp36
 70
     1
102
RTVSPost2010Prop37
 90
       50
102
RTVSPost2010PropOp37
 70
     1
102
RTVSPost2010Prop38
140
0.0
102
RTVSPost2010PropOp38
 70
     1
102
RTVSPost2010Prop39
140
1.0
102
RTVSPost2010PropOp39
 70
     1
102
RTVSPost2010Prop40
 90
        0
102
RTVSPost2010PropOp40
 70
     1
102
RTVSPost2010Prop41ColorIndex
 90
       18
102
RTVSPost2010Prop41ColorRGB
 90
        0
102
RTVSPost2010PropOp41
 70
     1
102
RTVSPost2010Prop42
 90
       50
102
RTVSPost2010PropOp42
 70
     1
102
RTVSPost2010Prop43
 90
        3
102
RTVSPost2010PropOp43
 70
     1
102
RTVSPost2010Prop44ColorIndex
 90
        5
102
RTVSPost2010Prop44ColorRGB
 90
      255
102
RTVSPost2010PropOp44
 70
     1
102
RTVSPost2010Prop45
280
     0
102
RTVSPost2010PropOp45
 70
     1
102
RTVSPost2010Prop46
 90
       50
102
RTVSPost2010PropOp46
 70
     1
102
RTVSPost2010Prop47
 90
       50
102
RTVSPost2010PropOp47
 70
     1
102
RTVSPost2010Prop48
 90
       50
102
RTVSPost2010PropOp48
 70
     1
102
RTVSPost2010Prop49
280
     0
102
RTVSPost2010PropOp49
 70
     1
102
RTVSPost2010Prop50
 90
       50
102
RTVSPost2010PropOp50
 70
     1
102
RTVSPost2010Prop51ColorIndex
 90
      256
102
RTVSPost2010Prop51ColorRGB
 90
-16777216
102
RTVSPost2010PropOp51
 70
     0
102
RTVSPost2010Prop52
140
1.0
102
RTVSPost2010PropOp52
 70
     0
102
RTVSPost2010Prop53
 90
        2
102
RTVSPost2010PropOp53
 70
     1
102
RTVSPost2010Prop54
  1
strokes_ogs.tif
102
RTVSPost2010PropOp54
 70
     1
102
RTVSPost2010Prop55
280
     0
102
RTVSPost2010PropOp55
 70
     1
102
RTVSPost2010Prop56
140
1.0
102
RTVSPost2010PropOp56
 70
     1
102
RTVSPost2010Prop57
140
1.0
102
RTVSPost2010PropOp57
 70
     1
  0
XRECORD
  5
FD
102
{ACAD_REACTORS
330
FC
102
}
330
FC
100
AcDbXrecord
280
     1
102
RTVSPropertyOp0
 70
     1
102
RTVSPropertyOp1
 70
     1
102
RTVSPropertyOp2
 70
     1
102
RTVSPropertyOp3
 70
     1
102
RTVSPropertyOp4
 70
     1
102
RTVSPropertyOp5
 70
     1
102
RTVSPropertyOp6
 70
     1
102
RTVSPropertyOp7
 70
     1
102
RTVSPropertyOp8
 70
     1
102
RTVSPropertyOp9
 70
     1
102
RTVSPropertyOp10
 70
     1
102
RTVSPropertyOp11
 70
     1
102
RTVSPropertyOp12
 70
     1
102
RTVSPropertyOp13
 70
     1
102
RTVSPropertyOp14
 70
     1
102
RTVSPropertyOp15
 70
     1
102
RTVSPropertyOp16
 70
     1
102
RTVSPropertyOp17
 70
     1
102
RTVSPropertyOp18
 70
     1
102
RTVSPropertyOp19
 70
     1
102
RTVSPropertyOp20
 70
     1
102
RTVSPropertyOp21
 70
     1
102
RTVSPropertyOp22
 70
     1
102
RTVSPropertyOp23
 70
     1
102
RTVSPropertyOp24
 70
     1
102
RTVSPropertyOp25
 70
     1
102
RTVSPropertyOp26
 70
     1
102
RTVSPropertyOp27
 70
     1
102
RTVSPropertyOp28
 70
     1
102
RTVSPropertyOp29
 70
     1
102
RTVSPropertyOp30
 70
     1
102
RTVSPropertyOp31
 70
     1
102
RTVSPropertyOp32
 70
     1
102
RTVSPropertyOp33
 70
     1
102
RTVSPropertyOp34
 70
     1
102
RTVSPropertyOp35
 70
     1
102
RTVSPropertyOp36
 70
     1
102
RTVSPropertyOp37
 70
     1
102
RTVSPropertyOp38
 70
     1
102
RTVSPropertyOp39
 70
     1
102
RTVSPropertyOp40
 70
     1
102
RTVSPropertyOp41
 70
     1
102
RTVSPropertyOp42
 70
     1
102
RTVSPropertyOp43
 70
     1
102
RTVSPropertyOp44
 70
     1
102
RTVSPropertyOp45
 70
     1
102
RTVSPropertyOp46
 70
     1
102
RTVSPropertyOp47
 70
     1
102
RTVSPropertyOp48
 70
     1
102
RTVSPropertyOp49
 70
     1
102
RTVSPropertyOp50
 70
     1
102
RTVSPropertyOp51
 70
     0
102
RTVSPropertyOp52
 70
     0
102
RTVSPropertyOp53
 70
     1
102
RTVSPropertyOp54
 70
     1
102
RTVSPropertyOp55
 70
     1
102
RTVSPropertyOp56
 70
     1
102
RTVSPropertyOp57
 70
     1
102
RTVSPost2010Prop28
280
     0
102
RTVSPost2010PropOp28
 70
     1
102
RTVSPost2010Prop29
280
     1
102
RTVSPost2010PropOp29
 70
     1
102
RTVSPost2010Prop30
280
     1
102
RTVSPost2010PropOp30
 70
     1
102
RTVSPost2010Prop31
280
     0
102
RTVSPost2010PropOp31
 70
     1
102
RTVSPost2010Prop32
280
     0
102
RTVSPost2010PropOp32
 70
     1
102
RTVSPost2010Prop33
280
     0
102
RTVSPost2010PropOp33
 70
     1
102
RTVSPost2010Prop34
280
     0
102
RTVSPost2010PropOp34
 70
     1
102
RTVSPost2010Prop35
280
     0
102
RTVSPost2010PropOp35
 70
     1
102
RTVSPost2010Prop36
280
     0
102
RTVSPost2010PropOp36
 70
     1
102
RTVSPost2010Prop37
 90
       50
102
RTVSPost2010PropOp37
 70
     1
102
RTVSPost2010Prop38
140
0.0
102
RTVSPost2010PropOp38
 70
     1
102
RTVSPost2010Prop39
140
1.0
102
RTVSPost2010PropOp39
 70
     1
102
RTVSPost2010Prop40
 90
        0
102
RTVSPost2010PropOp40
 70
     1
102
RTVSPost2010Prop41ColorIndex
 90
       18
102
RTVSPost2010Prop41ColorRGB
 90
        0
102
RTVSPost2010PropOp41
 70
     1
102
RTVSPost2010Prop42
 90
       50
102
RTVSPost2010PropOp42
 70
     1
102
RTVSPost2010Prop43
 90
        3
102
RTVSPost2010PropOp43
 70
     1
102
RTVSPost2010Prop44ColorIndex
 90
        5
102
RTVSPost2010Prop44ColorRGB
 90
      255
102
RTVSPost2010PropOp44
 70
     1
102
RTVSPost2010Prop45
280
     0
102
RTVSPost2010PropOp45
 70
     1
102
RTVSPost2010Prop46
 90
       50
102
RTVSPost2010PropOp46
 70
     1
102
RTVSPost2010Prop47
 90
       50
102
RTVSPost2010PropOp47
 70
     1
102
RTVSPost2010Prop48
 90
       50
102
RTVSPost2010PropOp48
 70
     1
102
RTVSPost2010Prop49
280
     0
102
RTVSPost2010PropOp49
 70
     1
102
RTVSPost2010Prop50
 90
       50
102
RTVSPost2010PropOp50
 70
     1
102
RTVSPost2010Prop51ColorIndex
 90
      256
102
RTVSPost2010Prop51ColorRGB
 90
-16777216
102
RTVSPost2010PropOp51
 70
     0
102
RTVSPost2010Prop52
140
1.0
102
RTVSPost2010PropOp52
 70
     0
102
RTVSPost2010Prop53
 90
        2
102
RTVSPost2010PropOp53
 70
     1
102
RTVSPost2010Prop54
  1
strokes_ogs.tif
102
RTVSPost2010PropOp54
 70
     1
102
RTVSPost2010Prop55
280
     0
102
RTVSPost2010PropOp55
 70
     1
102
RTVSPost2010Prop56
140
1.0
102
RTVSPost2010PropOp56
 70
     1
102
RTVSPost2010Prop57
140
1.0
102
RTVSPost2010PropOp57
 70
     1
  0
XRECORD
  5
103
102
{ACAD_REACTORS
330
102
102
}
330
102
100
AcDbXrecord
280
     1
102
RTVSPropertyOp0
 70
     1
102
RTVSPropertyOp1
 70
     1
102
RTVSPropertyOp2
 70
     1
102
RTVSPropertyOp3
 70
     1
102
RTVSPropertyOp4
 70
     1
102
RTVSPropertyOp5
 70
     1
102
RTVSPropertyOp6
 70
     1
102
RTVSPropertyOp7
 70
     1
102
RTVSPropertyOp8
 70
     1
102
RTVSPropertyOp9
 70
     1
102
RTVSPropertyOp10
 70
     1
102
RTVSPropertyOp11
 70
     1
102
RTVSPropertyOp12
 70
     1
102
RTVSPropertyOp13
 70
     1
102
RTVSPropertyOp14
 70
     1
102
RTVSPropertyOp15
 70
     1
102
RTVSPropertyOp16
 70
     1
102
RTVSPropertyOp17
 70
     1
102
RTVSPropertyOp18
 70
     1
102
RTVSPropertyOp19
 70
     1
102
RTVSPropertyOp20
 70
     1
102
RTVSPropertyOp21
 70
     1
102
RTVSPropertyOp22
 70
     1
102
RTVSPropertyOp23
 70
     1
102
RTVSPropertyOp24
 70
     1
102
RTVSPropertyOp25
 70
     1
102
RTVSPropertyOp26
 70
     1
102
RTVSPropertyOp27
 70
     1
102
RTVSPropertyOp28
 70
     1
102
RTVSPropertyOp29
 70
     1
102
RTVSPropertyOp30
 70
     1
102
RTVSPropertyOp31
 70
     1
102
RTVSPropertyOp32
 70
     1
102
RTVSPropertyOp33
 70
     1
102
RTVSPropertyOp34
 70
     1
102
RTVSPropertyOp35
 70
     1
102
RTVSPropertyOp36
 70
     1
102
RTVSPropertyOp37
 70
     1
102
RTVSPropertyOp38
 70
     1
102
RTVSPropertyOp39
 70
     1
102
RTVSPropertyOp40
 70
     1
102
RTVSPropertyOp41
 70
     1
102
RTVSPropertyOp42
 70
     1
102
RTVSPropertyOp43
 70
     1
102
RTVSPropertyOp44
 70
     1
102
RTVSPropertyOp45
 70
     1
102
RTVSPropertyOp46
 70
     1
102
RTVSPropertyOp47
 70
     1
102
RTVSPropertyOp48
 70
     1
102
RTVSPropertyOp49
 70
     1
102
RTVSPropertyOp50
 70
     1
102
RTVSPropertyOp51
 70
     0
102
RTVSPropertyOp52
 70
     0
102
RTVSPropertyOp53
 70
     1
102
RTVSPropertyOp54
 70
     1
102
RTVSPropertyOp55
 70
     1
102
RTVSPropertyOp56
 70
     1
102
RTVSPropertyOp57
 70
     1
102
RTVSPost2010Prop28
280
     0
102
RTVSPost2010PropOp28
 70
     1
102
RTVSPost2010Prop29
280
     1
102
RTVSPost2010PropOp29
 70
     1
102
RTVSPost2010Prop30
280
     1
102
RTVSPost2010PropOp30
 70
     1
102
RTVSPost2010Prop31
280
     0
102
RTVSPost2010PropOp31
 70
     1
102
RTVSPost2010Prop32
280
     0
102
RTVSPost2010PropOp32
 70
     1
102
RTVSPost2010Prop33
280
     0
102
RTVSPost2010PropOp33
 70
     1
102
RTVSPost2010Prop34
280
     0
102
RTVSPost2010PropOp34
 70
     1
102
RTVSPost2010Prop35
280
     0
102
RTVSPost2010PropOp35
 70
     1
102
RTVSPost2010Prop36
280
     0
102
RTVSPost2010PropOp36
 70
     1
102
RTVSPost2010Prop37
 90
       50
102
RTVSPost2010PropOp37
 70
     1
102
RTVSPost2010Prop38
140
0.0
102
RTVSPost2010PropOp38
 70
     1
102
RTVSPost2010Prop39
140
1.0
102
RTVSPost2010PropOp39
 70
     1
102
RTVSPost2010Prop40
 90
        0
102
RTVSPost2010PropOp40
 70
     1
102
RTVSPost2010Prop41ColorIndex
 90
       18
102
RTVSPost2010Prop41ColorRGB
 90
        0
102
RTVSPost2010PropOp41
 70
     1
102
RTVSPost2010Prop42
 90
       50
102
RTVSPost2010PropOp42
 70
     1
102
RTVSPost2010Prop43
 90
        3
102
RTVSPost2010PropOp43
 70
     1
102
RTVSPost2010Prop44ColorIndex
 90
        5
102
RTVSPost2010Prop44ColorRGB
 90
      255
102
RTVSPost2010PropOp44
 70
     1
102
RTVSPost2010Prop45
280
     0
102
RTVSPost2010PropOp45
 70
     1
102
RTVSPost2010Prop46
 90
       50
102
RTVSPost2010PropOp46
 70
     1
102
RTVSPost2010Prop47
 90
       50
102
RTVSPost2010PropOp47
 70
     1
102
RTVSPost2010Prop48
 90
       50
102
RTVSPost2010PropOp48
 70
     1
102
RTVSPost2010Prop49
280
     0
102
RTVSPost2010PropOp49
 70
     1
102
RTVSPost2010Prop50
 90
       50
102
RTVSPost2010PropOp50
 70
     1
102
RTVSPost2010Prop51ColorIndex
 90
      256
102
RTVSPost2010Prop51ColorRGB
 90
-16777216
102
RTVSPost2010PropOp51
 70
     0
102
RTVSPost2010Prop52
140
1.0
102
RTVSPost2010PropOp52
 70
     0
102
RTVSPost2010Prop53
 90
        2
102
RTVSPost2010PropOp53
 70
     1
102
RTVSPost2010Prop54
  1
strokes_ogs.tif
102
RTVSPost2010PropOp54
 70
     1
102
RTVSPost2010Prop55
280
     0
102
RTVSPost2010PropOp55
 70
     1
102
RTVSPost2010Prop56
140
1.0
102
RTVSPost2010PropOp56
 70
     1
102
RTVSPost2010Prop57
140
1.0
102
RTVSPost2010PropOp57
 70
     1
  0
XRECORD
  5
117
102
{ACAD_REACTORS
330
116
102
}
330
116
100
AcDbXrecord
280
     1
102
RTVSPropertyOp0
 70
     0
102
RTVSPropertyOp1
 70
     0
102
RTVSPropertyOp2
 70
     0
102
RTVSPropertyOp3
 70
     0
102
RTVSPropertyOp4
 70
     0
102
RTVSPropertyOp5
 70
     0
102
RTVSPropertyOp6
 70
     0
102
RTVSPropertyOp7
 70
     0
102
RTVSPropertyOp8
 70
     0
102
RTVSPropertyOp9
 70
     0
102
RTVSPropertyOp10
 70
     0
102
RTVSPropertyOp11
 70
     0
102
RTVSPropertyOp12
 70
     0
102
RTVSPropertyOp13
 70
     0
102
RTVSPropertyOp14
 70
     2
102
RTVSPropertyOp15
 70
     0
102
RTVSPropertyOp16
 70
     0
102
RTVSPropertyOp17
 70
     0
102
RTVSPropertyOp18
 70
     0
102
RTVSPropertyOp19
 70
     0
102
RTVSPropertyOp20
 70
     0
102
RTVSPropertyOp21
 70
     0
102
RTVSPropertyOp22
 70
     0
102
RTVSPropertyOp23
 70
     0
102
RTVSPropertyOp24
 70
     0
102
RTVSPropertyOp25
 70
     0
102
RTVSPropertyOp26
 70
     0
102
RTVSPropertyOp27
 70
     0
102
RTVSPropertyOp28
 70
     0
102
RTVSPropertyOp29
 70
     0
102
RTVSPropertyOp30
 70
     0
102
RTVSPropertyOp31
 70
     0
102
RTVSPropertyOp32
 70
     0
102
RTVSPropertyOp33
 70
     0
102
RTVSPropertyOp34
 70
     0
102
RTVSPropertyOp35
 70
     0
102
RTVSPropertyOp36
 70
     0
102
RTVSPropertyOp37
 70
     0
102
RTVSPropertyOp38
 70
     0
102
RTVSPropertyOp39
 70
     0
102
RTVSPropertyOp40
 70
     0
102
RTVSPropertyOp41
 70
     0
102
RTVSPropertyOp42
 70
     0
102
RTVSPropertyOp43
 70
     0
102
RTVSPropertyOp44
 70
     0
102
RTVSPropertyOp45
 70
     0
102
RTVSPropertyOp46
 70
     0
102
RTVSPropertyOp47
 70
     0
102
RTVSPropertyOp48
 70
     0
102
RTVSPropertyOp49
 70
     0
102
RTVSPropertyOp50
 70
     0
102
RTVSPropertyOp51
 70
     0
102
RTVSPropertyOp52
 70
     0
102
RTVSPropertyOp53
 70
     0
102
RTVSPropertyOp54
 70
     0
102
RTVSPropertyOp55
 70
     0
102
RTVSPropertyOp56
 70
     0
102
RTVSPropertyOp57
 70
     0
102
RTVSPost2010Prop28
280
     0
102
RTVSPost2010PropOp28
 70
     0
102
RTVSPost2010Prop29
280
     1
102
RTVSPost2010PropOp29
 70
     0
102
RTVSPost2010Prop30
280
     1
102
RTVSPost2010PropOp30
 70
     0
102
RTVSPost2010Prop31
280
     0
102
RTVSPost2010PropOp31
 70
     0
102
RTVSPost2010Prop32
280
     0
102
RTVSPost2010PropOp32
 70
     0
102
RTVSPost2010Prop33
280
     0
102
RTVSPost2010PropOp33
 70
     0
102
RTVSPost2010Prop34
280
     0
102
RTVSPost2010PropOp34
 70
     0
102
RTVSPost2010Prop35
280
     0
102
RTVSPost2010PropOp35
 70
     0
102
RTVSPost2010Prop36
280
     0
102
RTVSPost2010PropOp36
 70
     0
102
RTVSPost2010Prop37
 90
       50
102
RTVSPost2010PropOp37
 70
     0
102
RTVSPost2010Prop38
140
0.0
102
RTVSPost2010PropOp38
 70
     0
102
RTVSPost2010Prop39
140
1.0
102
RTVSPost2010PropOp39
 70
     0
102
RTVSPost2010Prop40
 90
        0
102
RTVSPost2010PropOp40
 70
     0
102
RTVSPost2010Prop41ColorIndex
 90
       18
102
RTVSPost2010Prop41ColorRGB
 90
        0
102
RTVSPost2010PropOp41
 70
     0
102
RTVSPost2010Prop42
 90
       50
102
RTVSPost2010PropOp42
 70
     0
102
RTVSPost2010Prop43
 90
        3
102
RTVSPost2010PropOp43
 70
     0
102
RTVSPost2010Prop44ColorIndex
 90
        5
102
RTVSPost2010Prop44ColorRGB
 90
      255
102
RTVSPost2010PropOp44
 70
     0
102
RTVSPost2010Prop45
280
     0
102
RTVSPost2010PropOp45
 70
     0
102
RTVSPost2010Prop46
 90
       50
102
RTVSPost2010PropOp46
 70
     0
102
RTVSPost2010Prop47
 90
       50
102
RTVSPost2010PropOp47
 70
     0
102
RTVSPost2010Prop48
 90
       50
102
RTVSPost2010PropOp48
 70
     0
102
RTVSPost2010Prop49
280
     0
102
RTVSPost2010PropOp49
 70
     0
102
RTVSPost2010Prop50
 90
       50
102
RTVSPost2010PropOp50
 70
     0
102
RTVSPost2010Prop51ColorIndex
 90
      256
102
RTVSPost2010Prop51ColorRGB
 90
-16777216
102
RTVSPost2010PropOp51
 70
     0
102
RTVSPost2010Prop52
140
1.0
102
RTVSPost2010PropOp52
 70
     0
102
RTVSPost2010Prop53
 90
        2
102
RTVSPost2010PropOp53
 70
     0
102
RTVSPost2010Prop54
  1
strokes_ogs.tif
102
RTVSPost2010PropOp54
 70
     0
102
RTVSPost2010Prop55
280
     0
102
RTVSPost2010PropOp55
 70
     0
102
RTVSPost2010Prop56
140
1.0
102
RTVSPost2010PropOp56
 70
     0
102
RTVSPost2010Prop57
140
1.0
102
RTVSPost2010PropOp57
 70
     0
  0
XRECORD
  5
111
102
{ACAD_REACTORS
330
110
102
}
330
110
100
AcDbXrecord
280
     1
102
RTVSPropertyOp0
 70
     1
102
RTVSPropertyOp1
 70
     1
102
RTVSPropertyOp2
 70
     1
102
RTVSPropertyOp3
 70
     1
102
RTVSPropertyOp4
 70
     1
102
RTVSPropertyOp5
 70
     1
102
RTVSPropertyOp6
 70
     1
102
RTVSPropertyOp7
 70
     1
102
RTVSPropertyOp8
 70
     1
102
RTVSPropertyOp9
 70
     1
102
RTVSPropertyOp10
 70
     1
102
RTVSPropertyOp11
 70
     1
102
RTVSPropertyOp12
 70
     1
102
RTVSPropertyOp13
 70
     1
102
RTVSPropertyOp14
 70
     1
102
RTVSPropertyOp15
 70
     1
102
RTVSPropertyOp16
 70
     1
102
RTVSPropertyOp17
 70
     1
102
RTVSPropertyOp18
 70
     1
102
RTVSPropertyOp19
 70
     1
102
RTVSPropertyOp20
 70
     1
102
RTVSPropertyOp21
 70
     1
102
RTVSPropertyOp22
 70
     1
102
RTVSPropertyOp23
 70
     1
102
RTVSPropertyOp24
 70
     1
102
RTVSPropertyOp25
 70
     1
102
RTVSPropertyOp26
 70
     1
102
RTVSPropertyOp27
 70
     1
102
RTVSPropertyOp28
 70
     1
102
RTVSPropertyOp29
 70
     1
102
RTVSPropertyOp30
 70
     1
102
RTVSPropertyOp31
 70
     1
102
RTVSPropertyOp32
 70
     1
102
RTVSPropertyOp33
 70
     1
102
RTVSPropertyOp34
 70
     1
102
RTVSPropertyOp35
 70
     1
102
RTVSPropertyOp36
 70
     1
102
RTVSPropertyOp37
 70
     1
102
RTVSPropertyOp38
 70
     1
102
RTVSPropertyOp39
 70
     1
102
RTVSPropertyOp40
 70
     1
102
RTVSPropertyOp41
 70
     1
102
RTVSPropertyOp42
 70
     1
102
RTVSPropertyOp43
 70
     1
102
RTVSPropertyOp44
 70
     1
102
RTVSPropertyOp45
 70
     1
102
RTVSPropertyOp46
 70
     1
102
RTVSPropertyOp47
 70
     1
102
RTVSPropertyOp48
 70
     1
102
RTVSPropertyOp49
 70
     1
102
RTVSPropertyOp50
 70
     1
102
RTVSPropertyOp51
 70
     0
102
RTVSPropertyOp52
 70
     0
102
RTVSPropertyOp53
 70
     1
102
RTVSPropertyOp54
 70
     1
102
RTVSPropertyOp55
 70
     1
102
RTVSPropertyOp56
 70
     1
102
RTVSPropertyOp57
 70
     1
102
RTVSPost2010Prop28
280
     0
102
RTVSPost2010PropOp28
 70
     1
102
RTVSPost2010Prop29
280
     1
102
RTVSPost2010PropOp29
 70
     1
102
RTVSPost2010Prop30
280
     1
102
RTVSPost2010PropOp30
 70
     1
102
RTVSPost2010Prop31
280
     0
102
RTVSPost2010PropOp31
 70
     1
102
RTVSPost2010Prop32
280
     0
102
RTVSPost2010PropOp32
 70
     1
102
RTVSPost2010Prop33
280
     0
102
RTVSPost2010PropOp33
 70
     1
102
RTVSPost2010Prop34
280
     0
102
RTVSPost2010PropOp34
 70
     1
102
RTVSPost2010Prop35
280
     0
102
RTVSPost2010PropOp35
 70
     1
102
RTVSPost2010Prop36
280
     0
102
RTVSPost2010PropOp36
 70
     1
102
RTVSPost2010Prop37
 90
       50
102
RTVSPost2010PropOp37
 70
     1
102
RTVSPost2010Prop38
140
0.0
102
RTVSPost2010PropOp38
 70
     1
102
RTVSPost2010Prop39
140
1.0
102
RTVSPost2010PropOp39
 70
     1
102
RTVSPost2010Prop40
 90
        0
102
RTVSPost2010PropOp40
 70
     1
102
RTVSPost2010Prop41ColorIndex
 90
       18
102
RTVSPost2010Prop41ColorRGB
 90
        0
102
RTVSPost2010PropOp41
 70
     1
102
RTVSPost2010Prop42
 90
       50
102
RTVSPost2010PropOp42
 70
     1
102
RTVSPost2010Prop43
 90
        3
102
RTVSPost2010PropOp43
 70
     1
102
RTVSPost2010Prop44ColorIndex
 90
        5
102
RTVSPost2010Prop44ColorRGB
 90
      255
102
RTVSPost2010PropOp44
 70
     1
102
RTVSPost2010Prop45
280
     0
102
RTVSPost2010PropOp45
 70
     1
102
RTVSPost2010Prop46
 90
       50
102
RTVSPost2010PropOp46
 70
     1
102
RTVSPost2010Prop47
 90
       50
102
RTVSPost2010PropOp47
 70
     1
102
RTVSPost2010Prop48
 90
       50
102
RTVSPost2010PropOp48
 70
     1
102
RTVSPost2010Prop49
280
     0
102
RTVSPost2010PropOp49
 70
     1
102
RTVSPost2010Prop50
 90
       50
102
RTVSPost2010PropOp50
 70
     1
102
RTVSPost2010Prop51ColorIndex
 90
      256
102
RTVSPost2010Prop51ColorRGB
 90
-16777216
102
RTVSPost2010PropOp51
 70
     0
102
RTVSPost2010Prop52
140
1.0
102
RTVSPost2010PropOp52
 70
     0
102
RTVSPost2010Prop53
 90
        2
102
RTVSPost2010PropOp53
 70
     1
102
RTVSPost2010Prop54
  1
strokes_ogs.tif
102
RTVSPost2010PropOp54
 70
     1
102
RTVSPost2010Prop55
280
     0
102
RTVSPost2010PropOp55
 70
     1
102
RTVSPost2010Prop56
140
1.0
102
RTVSPost2010PropOp56
 70
     1
102
RTVSPost2010Prop57
140
1.0
102
RTVSPost2010PropOp57
 70
     1
  0
XRECORD
  5
119
102
{ACAD_REACTORS
330
118
102
}
330
118
100
AcDbXrecord
280
     1
102
RTVSPropertyOp0
 70
     0
102
RTVSPropertyOp1
 70
     0
102
RTVSPropertyOp2
 70
     0
102
RTVSPropertyOp3
 70
     0
102
RTVSPropertyOp4
 70
     0
102
RTVSPropertyOp5
 70
     0
102
RTVSPropertyOp6
 70
     0
102
RTVSPropertyOp7
 70
     0
102
RTVSPropertyOp8
 70
     0
102
RTVSPropertyOp9
 70
     0
102
RTVSPropertyOp10
 70
     0
102
RTVSPropertyOp11
 70
     0
102
RTVSPropertyOp12
 70
     0
102
RTVSPropertyOp13
 70
     0
102
RTVSPropertyOp14
 70
     2
102
RTVSPropertyOp15
 70
     0
102
RTVSPropertyOp16
 70
     0
102
RTVSPropertyOp17
 70
     0
102
RTVSPropertyOp18
 70
     0
102
RTVSPropertyOp19
 70
     0
102
RTVSPropertyOp20
 70
     0
102
RTVSPropertyOp21
 70
     0
102
RTVSPropertyOp22
 70
     0
102
RTVSPropertyOp23
 70
     0
102
RTVSPropertyOp24
 70
     0
102
RTVSPropertyOp25
 70
     0
102
RTVSPropertyOp26
 70
     0
102
RTVSPropertyOp27
 70
     0
102
RTVSPropertyOp28
 70
     0
102
RTVSPropertyOp29
 70
     0
102
RTVSPropertyOp30
 70
     0
102
RTVSPropertyOp31
 70
     0
102
RTVSPropertyOp32
 70
     0
102
RTVSPropertyOp33
 70
     0
102
RTVSPropertyOp34
 70
     0
102
RTVSPropertyOp35
 70
     0
102
RTVSPropertyOp36
 70
     0
102
RTVSPropertyOp37
 70
     0
102
RTVSPropertyOp38
 70
     0
102
RTVSPropertyOp39
 70
     0
102
RTVSPropertyOp40
 70
     0
102
RTVSPropertyOp41
 70
     0
102
RTVSPropertyOp42
 70
     0
102
RTVSPropertyOp43
 70
     0
102
RTVSPropertyOp44
 70
     0
102
RTVSPropertyOp45
 70
     0
102
RTVSPropertyOp46
 70
     0
102
RTVSPropertyOp47
 70
     0
102
RTVSPropertyOp48
 70
     0
102
RTVSPropertyOp49
 70
     0
102
RTVSPropertyOp50
 70
     0
102
RTVSPropertyOp51
 70
     0
102
RTVSPropertyOp52
 70
     0
102
RTVSPropertyOp53
 70
     0
102
RTVSPropertyOp54
 70
     0
102
RTVSPropertyOp55
 70
     0
102
RTVSPropertyOp56
 70
     0
102
RTVSPropertyOp57
 70
     0
102
RTVSPost2010Prop28
280
     0
102
RTVSPost2010PropOp28
 70
     0
102
RTVSPost2010Prop29
280
     1
102
RTVSPost2010PropOp29
 70
     0
102
RTVSPost2010Prop30
280
     1
102
RTVSPost2010PropOp30
 70
     0
102
RTVSPost2010Prop31
280
     0
102
RTVSPost2010PropOp31
 70
     0
102
RTVSPost2010Prop32
280
     0
102
RTVSPost2010PropOp32
 70
     0
102
RTVSPost2010Prop33
280
     0
102
RTVSPost2010PropOp33
 70
     0
102
RTVSPost2010Prop34
280
     0
102
RTVSPost2010PropOp34
 70
     0
102
RTVSPost2010Prop35
280
     0
102
RTVSPost2010PropOp35
 70
     0
102
RTVSPost2010Prop36
280
     0
102
RTVSPost2010PropOp36
 70
     0
102
RTVSPost2010Prop37
 90
       50
102
RTVSPost2010PropOp37
 70
     0
102
RTVSPost2010Prop38
140
0.0
102
RTVSPost2010PropOp38
 70
     0
102
RTVSPost2010Prop39
140
1.0
102
RTVSPost2010PropOp39
 70
     0
102
RTVSPost2010Prop40
 90
        0
102
RTVSPost2010PropOp40
 70
     0
102
RTVSPost2010Prop41ColorIndex
 90
       18
102
RTVSPost2010Prop41ColorRGB
 90
        0
102
RTVSPost2010PropOp41
 70
     0
102
RTVSPost2010Prop42
 90
       50
102
RTVSPost2010PropOp42
 70
     0
102
RTVSPost2010Prop43
 90
        3
102
RTVSPost2010PropOp43
 70
     0
102
RTVSPost2010Prop44ColorIndex
 90
        5
102
RTVSPost2010Prop44ColorRGB
 90
      255
102
RTVSPost2010PropOp44
 70
     0
102
RTVSPost2010Prop45
280
     0
102
RTVSPost2010PropOp45
 70
     0
102
RTVSPost2010Prop46
 90
       50
102
RTVSPost2010PropOp46
 70
     0
102
RTVSPost2010Prop47
 90
       50
102
RTVSPost2010PropOp47
 70
     0
102
RTVSPost2010Prop48
 90
       50
102
RTVSPost2010PropOp48
 70
     0
102
RTVSPost2010Prop49
280
     0
102
RTVSPost2010PropOp49
 70
     0
102
RTVSPost2010Prop50
 90
       50
102
RTVSPost2010PropOp50
 70
     0
102
RTVSPost2010Prop51ColorIndex
 90
      256
102
RTVSPost2010Prop51ColorRGB
 90
-16777216
102
RTVSPost2010PropOp51
 70
     0
102
RTVSPost2010Prop52
140
1.0
102
RTVSPost2010PropOp52
 70
     0
102
RTVSPost2010Prop53
 90
        2
102
RTVSPost2010PropOp53
 70
     0
102
RTVSPost2010Prop54
  1
strokes_ogs.tif
102
RTVSPost2010PropOp54
 70
     0
102
RTVSPost2010Prop55
280
     0
102
RTVSPost2010PropOp55
 70
     0
102
RTVSPost2010Prop56
140
1.0
102
RTVSPost2010PropOp56
 70
     0
102
RTVSPost2010Prop57
140
1.0
102
RTVSPost2010PropOp57
 70
     0
  0
XRECORD
  5
107
102
{ACAD_REACTORS
330
106
102
}
330
106
100
AcDbXrecord
280
     1
102
RTVSPropertyOp0
 70
     1
102
RTVSPropertyOp1
 70
     1
102
RTVSPropertyOp2
 70
     1
102
RTVSPropertyOp3
 70
     1
102
RTVSPropertyOp4
 70
     1
102
RTVSPropertyOp5
 70
     1
102
RTVSPropertyOp6
 70
     1
102
RTVSPropertyOp7
 70
     1
102
RTVSPropertyOp8
 70
     1
102
RTVSPropertyOp9
 70
     1
102
RTVSPropertyOp10
 70
     1
102
RTVSPropertyOp11
 70
     1
102
RTVSPropertyOp12
 70
     1
102
RTVSPropertyOp13
 70
     1
102
RTVSPropertyOp14
 70
     1
102
RTVSPropertyOp15
 70
     1
102
RTVSPropertyOp16
 70
     1
102
RTVSPropertyOp17
 70
     1
102
RTVSPropertyOp18
 70
     1
102
RTVSPropertyOp19
 70
     1
102
RTVSPropertyOp20
 70
     1
102
RTVSPropertyOp21
 70
     1
102
RTVSPropertyOp22
 70
     1
102
RTVSPropertyOp23
 70
     1
102
RTVSPropertyOp24
 70
     1
102
RTVSPropertyOp25
 70
     1
102
RTVSPropertyOp26
 70
     1
102
RTVSPropertyOp27
 70
     1
102
RTVSPropertyOp28
 70
     1
102
RTVSPropertyOp29
 70
     1
102
RTVSPropertyOp30
 70
     1
102
RTVSPropertyOp31
 70
     1
102
RTVSPropertyOp32
 70
     1
102
RTVSPropertyOp33
 70
     1
102
RTVSPropertyOp34
 70
     1
102
RTVSPropertyOp35
 70
     1
102
RTVSPropertyOp36
 70
     1
102
RTVSPropertyOp37
 70
     1
102
RTVSPropertyOp38
 70
     1
102
RTVSPropertyOp39
 70
     1
102
RTVSPropertyOp40
 70
     1
102
RTVSPropertyOp41
 70
     1
102
RTVSPropertyOp42
 70
     1
102
RTVSPropertyOp43
 70
     1
102
RTVSPropertyOp44
 70
     1
102
RTVSPropertyOp45
 70
     1
102
RTVSPropertyOp46
 70
     1
102
RTVSPropertyOp47
 70
     1
102
RTVSPropertyOp48
 70
     1
102
RTVSPropertyOp49
 70
     1
102
RTVSPropertyOp50
 70
     1
102
RTVSPropertyOp51
 70
     0
102
RTVSPropertyOp52
 70
     0
102
RTVSPropertyOp53
 70
     1
102
RTVSPropertyOp54
 70
     1
102
RTVSPropertyOp55
 70
     1
102
RTVSPropertyOp56
 70
     1
102
RTVSPropertyOp57
 70
     1
102
RTVSPost2010Prop28
280
     0
102
RTVSPost2010PropOp28
 70
     1
102
RTVSPost2010Prop29
280
     1
102
RTVSPost2010PropOp29
 70
     1
102
RTVSPost2010Prop30
280
     1
102
RTVSPost2010PropOp30
 70
     1
102
RTVSPost2010Prop31
280
     0
102
RTVSPost2010PropOp31
 70
     1
102
RTVSPost2010Prop32
280
     0
102
RTVSPost2010PropOp32
 70
     1
102
RTVSPost2010Prop33
280
     0
102
RTVSPost2010PropOp33
 70
     1
102
RTVSPost2010Prop34
280
     0
102
RTVSPost2010PropOp34
 70
     1
102
RTVSPost2010Prop35
280
     0
102
RTVSPost2010PropOp35
 70
     1
102
RTVSPost2010Prop36
280
     0
102
RTVSPost2010PropOp36
 70
     1
102
RTVSPost2010Prop37
 90
       50
102
RTVSPost2010PropOp37
 70
     1
102
RTVSPost2010Prop38
140
0.0
102
RTVSPost2010PropOp38
 70
     1
102
RTVSPost2010Prop39
140
1.0
102
RTVSPost2010PropOp39
 70
     1
102
RTVSPost2010Prop40
 90
        0
102
RTVSPost2010PropOp40
 70
     1
102
RTVSPost2010Prop41ColorIndex
 90
       18
102
RTVSPost2010Prop41ColorRGB
 90
        0
102
RTVSPost2010PropOp41
 70
     1
102
RTVSPost2010Prop42
 90
       50
102
RTVSPost2010PropOp42
 70
     1
102
RTVSPost2010Prop43
 90
        3
102
RTVSPost2010PropOp43
 70
     1
102
RTVSPost2010Prop44ColorIndex
 90
        5
102
RTVSPost2010Prop44ColorRGB
 90
      255
102
RTVSPost2010PropOp44
 70
     1
102
RTVSPost2010Prop45
280
     0
102
RTVSPost2010PropOp45
 70
     1
102
RTVSPost2010Prop46
 90
       50
102
RTVSPost2010PropOp46
 70
     1
102
RTVSPost2010Prop47
 90
       50
102
RTVSPost2010PropOp47
 70
     1
102
RTVSPost2010Prop48
 90
       50
102
RTVSPost2010PropOp48
 70
     1
102
RTVSPost2010Prop49
280
     0
102
RTVSPost2010PropOp49
 70
     1
102
RTVSPost2010Prop50
 90
       50
102
RTVSPost2010PropOp50
 70
     1
102
RTVSPost2010Prop51ColorIndex
 90
      256
102
RTVSPost2010Prop51ColorRGB
 90
-16777216
102
RTVSPost2010PropOp51
 70
     0
102
RTVSPost2010Prop52
140
1.0
102
RTVSPost2010PropOp52
 70
     0
102
RTVSPost2010Prop53
 90
        2
102
RTVSPost2010PropOp53
 70
     1
102
RTVSPost2010Prop54
  1
strokes_ogs.tif
102
RTVSPost2010PropOp54
 70
     1
102
RTVSPost2010Prop55
280
     0
102
RTVSPost2010PropOp55
 70
     1
102
RTVSPost2010Prop56
140
1.0
102
RTVSPost2010PropOp56
 70
     1
102
RTVSPost2010Prop57
140
1.0
102
RTVSPost2010PropOp57
 70
     1
  0
XRECORD
  5
125
102
{ACAD_REACTORS
330
124
102
}
330
124
100
AcDbXrecord
280
     1
102
RTVSPropertyOp0
 70
     1
102
RTVSPropertyOp1
 70
     1
102
RTVSPropertyOp2
 70
     1
102
RTVSPropertyOp3
 70
     1
102
RTVSPropertyOp4
 70
     1
102
RTVSPropertyOp5
 70
     1
102
RTVSPropertyOp6
 70
     1
102
RTVSPropertyOp7
 70
     1
102
RTVSPropertyOp8
 70
     1
102
RTVSPropertyOp9
 70
     1
102
RTVSPropertyOp10
 70
     1
102
RTVSPropertyOp11
 70
     1
102
RTVSPropertyOp12
 70
     1
102
RTVSPropertyOp13
 70
     1
102
RTVSPropertyOp14
 70
     1
102
RTVSPropertyOp15
 70
     1
102
RTVSPropertyOp16
 70
     1
102
RTVSPropertyOp17
 70
     1
102
RTVSPropertyOp18
 70
     1
102
RTVSPropertyOp19
 70
     1
102
RTVSPropertyOp20
 70
     1
102
RTVSPropertyOp21
 70
     1
102
RTVSPropertyOp22
 70
     1
102
RTVSPropertyOp23
 70
     1
102
RTVSPropertyOp24
 70
     1
102
RTVSPropertyOp25
 70
     1
102
RTVSPropertyOp26
 70
     1
102
RTVSPropertyOp27
 70
     1
102
RTVSPropertyOp28
 70
     1
102
RTVSPropertyOp29
 70
     1
102
RTVSPropertyOp30
 70
     1
102
RTVSPropertyOp31
 70
     1
102
RTVSPropertyOp32
 70
     1
102
RTVSPropertyOp33
 70
     1
102
RTVSPropertyOp34
 70
     1
102
RTVSPropertyOp35
 70
     1
102
RTVSPropertyOp36
 70
     1
102
RTVSPropertyOp37
 70
     1
102
RTVSPropertyOp38
 70
     1
102
RTVSPropertyOp39
 70
     1
102
RTVSPropertyOp40
 70
     1
102
RTVSPropertyOp41
 70
     1
102
RTVSPropertyOp42
 70
     1
102
RTVSPropertyOp43
 70
     1
102
RTVSPropertyOp44
 70
     1
102
RTVSPropertyOp45
 70
     1
102
RTVSPropertyOp46
 70
     1
102
RTVSPropertyOp47
 70
     1
102
RTVSPropertyOp48
 70
     1
102
RTVSPropertyOp49
 70
     1
102
RTVSPropertyOp50
 70
     1
102
RTVSPropertyOp51
 70
     0
102
RTVSPropertyOp52
 70
     0
102
RTVSPropertyOp53
 70
     1
102
RTVSPropertyOp54
 70
     1
102
RTVSPropertyOp55
 70
     1
102
RTVSPropertyOp56
 70
     1
102
RTVSPropertyOp57
 70
     1
102
RTVSPost2010Prop28
280
     0
102
RTVSPost2010PropOp28
 70
     1
102
RTVSPost2010Prop29
280
     1
102
RTVSPost2010PropOp29
 70
     1
102
RTVSPost2010Prop30
280
     1
102
RTVSPost2010PropOp30
 70
     1
102
RTVSPost2010Prop31
280
     0
102
RTVSPost2010PropOp31
 70
     1
102
RTVSPost2010Prop32
280
     0
102
RTVSPost2010PropOp32
 70
     1
102
RTVSPost2010Prop33
280
     0
102
RTVSPost2010PropOp33
 70
     1
102
RTVSPost2010Prop34
280
     0
102
RTVSPost2010PropOp34
 70
     1
102
RTVSPost2010Prop35
280
     0
102
RTVSPost2010PropOp35
 70
     1
102
RTVSPost2010Prop36
280
     0
102
RTVSPost2010PropOp36
 70
     1
102
RTVSPost2010Prop37
 90
       50
102
RTVSPost2010PropOp37
 70
     1
102
RTVSPost2010Prop38
140
0.0
102
RTVSPost2010PropOp38
 70
     1
102
RTVSPost2010Prop39
140
1.0
102
RTVSPost2010PropOp39
 70
     1
102
RTVSPost2010Prop40
 90
        0
102
RTVSPost2010PropOp40
 70
     1
102
RTVSPost2010Prop41ColorIndex
 90
       18
102
RTVSPost2010Prop41ColorRGB
 90
        0
102
RTVSPost2010PropOp41
 70
     1
102
RTVSPost2010Prop42
 90
       50
102
RTVSPost2010PropOp42
 70
     1
102
RTVSPost2010Prop43
 90
        3
102
RTVSPost2010PropOp43
 70
     1
102
RTVSPost2010Prop44ColorIndex
 90
        5
102
RTVSPost2010Prop44ColorRGB
 90
      255
102
RTVSPost2010PropOp44
 70
     1
102
RTVSPost2010Prop45
280
     0
102
RTVSPost2010PropOp45
 70
     1
102
RTVSPost2010Prop46
 90
       50
102
RTVSPost2010PropOp46
 70
     1
102
RTVSPost2010Prop47
 90
       50
102
RTVSPost2010PropOp47
 70
     1
102
RTVSPost2010Prop48
 90
       50
102
RTVSPost2010PropOp48
 70
     1
102
RTVSPost2010Prop49
280
     0
102
RTVSPost2010PropOp49
 70
     1
102
RTVSPost2010Prop50
 90
       50
102
RTVSPost2010PropOp50
 70
     1
102
RTVSPost2010Prop51ColorIndex
 90
      256
102
RTVSPost2010Prop51ColorRGB
 90
-16777216
102
RTVSPost2010PropOp51
 70
     0
102
RTVSPost2010Prop52
140
1.0
102
RTVSPost2010PropOp52
 70
     0
102
RTVSPost2010Prop53
 90
        2
102
RTVSPost2010PropOp53
 70
     1
102
RTVSPost2010Prop54
  1
strokes_ogs.tif
102
RTVSPost2010PropOp54
 70
     1
102
RTVSPost2010Prop55
280
     0
102
RTVSPost2010PropOp55
 70
     1
102
RTVSPost2010Prop56
140
1.0
102
RTVSPost2010PropOp56
 70
     1
102
RTVSPost2010Prop57
140
1.0
102
RTVSPost2010PropOp57
 70
     1
  0
XRECORD
  5
123
102
{ACAD_REACTORS
330
122
102
}
330
122
100
AcDbXrecord
280
     1
102
RTVSPropertyOp0
 70
     1
102
RTVSPropertyOp1
 70
     1
102
RTVSPropertyOp2
 70
     1
102
RTVSPropertyOp3
 70
     1
102
RTVSPropertyOp4
 70
     1
102
RTVSPropertyOp5
 70
     1
102
RTVSPropertyOp6
 70
     1
102
RTVSPropertyOp7
 70
     1
102
RTVSPropertyOp8
 70
     1
102
RTVSPropertyOp9
 70
     1
102
RTVSPropertyOp10
 70
     1
102
RTVSPropertyOp11
 70
     1
102
RTVSPropertyOp12
 70
     1
102
RTVSPropertyOp13
 70
     1
102
RTVSPropertyOp14
 70
     1
102
RTVSPropertyOp15
 70
     1
102
RTVSPropertyOp16
 70
     1
102
RTVSPropertyOp17
 70
     1
102
RTVSPropertyOp18
 70
     1
102
RTVSPropertyOp19
 70
     1
102
RTVSPropertyOp20
 70
     1
102
RTVSPropertyOp21
 70
     1
102
RTVSPropertyOp22
 70
     1
102
RTVSPropertyOp23
 70
     1
102
RTVSPropertyOp24
 70
     1
102
RTVSPropertyOp25
 70
     1
102
RTVSPropertyOp26
 70
     1
102
RTVSPropertyOp27
 70
     1
102
RTVSPropertyOp28
 70
     1
102
RTVSPropertyOp29
 70
     1
102
RTVSPropertyOp30
 70
     1
102
RTVSPropertyOp31
 70
     1
102
RTVSPropertyOp32
 70
     1
102
RTVSPropertyOp33
 70
     1
102
RTVSPropertyOp34
 70
     1
102
RTVSPropertyOp35
 70
     1
102
RTVSPropertyOp36
 70
     1
102
RTVSPropertyOp37
 70
     1
102
RTVSPropertyOp38
 70
     1
102
RTVSPropertyOp39
 70
     1
102
RTVSPropertyOp40
 70
     1
102
RTVSPropertyOp41
 70
     1
102
RTVSPropertyOp42
 70
     1
102
RTVSPropertyOp43
 70
     1
102
RTVSPropertyOp44
 70
     1
102
RTVSPropertyOp45
 70
     1
102
RTVSPropertyOp46
 70
     1
102
RTVSPropertyOp47
 70
     1
102
RTVSPropertyOp48
 70
     1
102
RTVSPropertyOp49
 70
     1
102
RTVSPropertyOp50
 70
     1
102
RTVSPropertyOp51
 70
     0
102
RTVSPropertyOp52
 70
     0
102
RTVSPropertyOp53
 70
     1
102
RTVSPropertyOp54
 70
     1
102
RTVSPropertyOp55
 70
     1
102
RTVSPropertyOp56
 70
     1
102
RTVSPropertyOp57
 70
     1
102
RTVSPost2010Prop28
280
     0
102
RTVSPost2010PropOp28
 70
     1
102
RTVSPost2010Prop29
280
     1
102
RTVSPost2010PropOp29
 70
     1
102
RTVSPost2010Prop30
280
     1
102
RTVSPost2010PropOp30
 70
     1
102
RTVSPost2010Prop31
280
     0
102
RTVSPost2010PropOp31
 70
     1
102
RTVSPost2010Prop32
280
     0
102
RTVSPost2010PropOp32
 70
     1
102
RTVSPost2010Prop33
280
     0
102
RTVSPost2010PropOp33
 70
     1
102
RTVSPost2010Prop34
280
     0
102
RTVSPost2010PropOp34
 70
     1
102
RTVSPost2010Prop35
280
     0
102
RTVSPost2010PropOp35
 70
     1
102
RTVSPost2010Prop36
280
     0
102
RTVSPost2010PropOp36
 70
     1
102
RTVSPost2010Prop37
 90
       50
102
RTVSPost2010PropOp37
 70
     1
102
RTVSPost2010Prop38
140
0.0
102
RTVSPost2010PropOp38
 70
     1
102
RTVSPost2010Prop39
140
1.0
102
RTVSPost2010PropOp39
 70
     1
102
RTVSPost2010Prop40
 90
        0
102
RTVSPost2010PropOp40
 70
     1
102
RTVSPost2010Prop41ColorIndex
 90
       18
102
RTVSPost2010Prop41ColorRGB
 90
        0
102
RTVSPost2010PropOp41
 70
     1
102
RTVSPost2010Prop42
 90
       50
102
RTVSPost2010PropOp42
 70
     1
102
RTVSPost2010Prop43
 90
        3
102
RTVSPost2010PropOp43
 70
     1
102
RTVSPost2010Prop44ColorIndex
 90
        5
102
RTVSPost2010Prop44ColorRGB
 90
      255
102
RTVSPost2010PropOp44
 70
     1
102
RTVSPost2010Prop45
280
     0
102
RTVSPost2010PropOp45
 70
     1
102
RTVSPost2010Prop46
 90
       50
102
RTVSPost2010PropOp46
 70
     1
102
RTVSPost2010Prop47
 90
       50
102
RTVSPost2010PropOp47
 70
     1
102
RTVSPost2010Prop48
 90
       50
102
RTVSPost2010PropOp48
 70
     1
102
RTVSPost2010Prop49
280
     0
102
RTVSPost2010PropOp49
 70
     1
102
RTVSPost2010Prop50
 90
       50
102
RTVSPost2010PropOp50
 70
     1
102
RTVSPost2010Prop51ColorIndex
 90
      256
102
RTVSPost2010Prop51ColorRGB
 90
-16777216
102
RTVSPost2010PropOp51
 70
     0
102
RTVSPost2010Prop52
140
1.0
102
RTVSPost2010PropOp52
 70
     0
102
RTVSPost2010Prop53
 90
        2
102
RTVSPost2010PropOp53
 70
     1
102
RTVSPost2010Prop54
  1
strokes_ogs.tif
102
RTVSPost2010PropOp54
 70
     1
102
RTVSPost2010Prop55
280
     0
102
RTVSPost2010PropOp55
 70
     1
102
RTVSPost2010Prop56
140
1.0
102
RTVSPost2010PropOp56
 70
     1
102
RTVSPost2010Prop57
140
1.0
102
RTVSPost2010PropOp57
 70
     1
  0
XRECORD
  5
11D
102
{ACAD_REACTORS
330
11C
102
}
330
11C
100
AcDbXrecord
280
     1
102
RTVSPropertyOp0
 70
     1
102
RTVSPropertyOp1
 70
     1
102
RTVSPropertyOp2
 70
     1
102
RTVSPropertyOp3
 70
     1
102
RTVSPropertyOp4
 70
     1
102
RTVSPropertyOp5
 70
     1
102
RTVSPropertyOp6
 70
     1
102
RTVSPropertyOp7
 70
     1
102
RTVSPropertyOp8
 70
     1
102
RTVSPropertyOp9
 70
     1
102
RTVSPropertyOp10
 70
     1
102
RTVSPropertyOp11
 70
     1
102
RTVSPropertyOp12
 70
     1
102
RTVSPropertyOp13
 70
     1
102
RTVSPropertyOp14
 70
     1
102
RTVSPropertyOp15
 70
     1
102
RTVSPropertyOp16
 70
     1
102
RTVSPropertyOp17
 70
     1
102
RTVSPropertyOp18
 70
     1
102
RTVSPropertyOp19
 70
     1
102
RTVSPropertyOp20
 70
     1
102
RTVSPropertyOp21
 70
     1
102
RTVSPropertyOp22
 70
     1
102
RTVSPropertyOp23
 70
     1
102
RTVSPropertyOp24
 70
     1
102
RTVSPropertyOp25
 70
     1
102
RTVSPropertyOp26
 70
     1
102
RTVSPropertyOp27
 70
     1
102
RTVSPropertyOp28
 70
     1
102
RTVSPropertyOp29
 70
     1
102
RTVSPropertyOp30
 70
     1
102
RTVSPropertyOp31
 70
     1
102
RTVSPropertyOp32
 70
     1
102
RTVSPropertyOp33
 70
     1
102
RTVSPropertyOp34
 70
     1
102
RTVSPropertyOp35
 70
     1
102
RTVSPropertyOp36
 70
     1
102
RTVSPropertyOp37
 70
     1
102
RTVSPropertyOp38
 70
     1
102
RTVSPropertyOp39
 70
     1
102
RTVSPropertyOp40
 70
     1
102
RTVSPropertyOp41
 70
     1
102
RTVSPropertyOp42
 70
     1
102
RTVSPropertyOp43
 70
     1
102
RTVSPropertyOp44
 70
     1
102
RTVSPropertyOp45
 70
     1
102
RTVSPropertyOp46
 70
     1
102
RTVSPropertyOp47
 70
     1
102
RTVSPropertyOp48
 70
     1
102
RTVSPropertyOp49
 70
     1
102
RTVSPropertyOp50
 70
     1
102
RTVSPropertyOp51
 70
     0
102
RTVSPropertyOp52
 70
     0
102
RTVSPropertyOp53
 70
     1
102
RTVSPropertyOp54
 70
     1
102
RTVSPropertyOp55
 70
     1
102
RTVSPropertyOp56
 70
     1
102
RTVSPropertyOp57
 70
     1
102
RTVSPost2010Prop28
280
     0
102
RTVSPost2010PropOp28
 70
     1
102
RTVSPost2010Prop29
280
     1
102
RTVSPost2010PropOp29
 70
     1
102
RTVSPost2010Prop30
280
     1
102
RTVSPost2010PropOp30
 70
     1
102
RTVSPost2010Prop31
280
     0
102
RTVSPost2010PropOp31
 70
     1
102
RTVSPost2010Prop32
280
     0
102
RTVSPost2010PropOp32
 70
     1
102
RTVSPost2010Prop33
280
     0
102
RTVSPost2010PropOp33
 70
     1
102
RTVSPost2010Prop34
280
     0
102
RTVSPost2010PropOp34
 70
     1
102
RTVSPost2010Prop35
280
     0
102
RTVSPost2010PropOp35
 70
     1
102
RTVSPost2010Prop36
280
     0
102
RTVSPost2010PropOp36
 70
     1
102
RTVSPost2010Prop37
 90
       50
102
RTVSPost2010PropOp37
 70
     1
102
RTVSPost2010Prop38
140
0.0
102
RTVSPost2010PropOp38
 70
     1
102
RTVSPost2010Prop39
140
1.0
102
RTVSPost2010PropOp39
 70
     1
102
RTVSPost2010Prop40
 90
        0
102
RTVSPost2010PropOp40
 70
     1
102
RTVSPost2010Prop41ColorIndex
 90
       18
102
RTVSPost2010Prop41ColorRGB
 90
        0
102
RTVSPost2010PropOp41
 70
     1
102
RTVSPost2010Prop42
 90
       50
102
RTVSPost2010PropOp42
 70
     1
102
RTVSPost2010Prop43
 90
        3
102
RTVSPost2010PropOp43
 70
     1
102
RTVSPost2010Prop44ColorIndex
 90
        5
102
RTVSPost2010Prop44ColorRGB
 90
      255
102
RTVSPost2010PropOp44
 70
     1
102
RTVSPost2010Prop45
280
     0
102
RTVSPost2010PropOp45
 70
     1
102
RTVSPost2010Prop46
 90
       50
102
RTVSPost2010PropOp46
 70
     1
102
RTVSPost2010Prop47
 90
       50
102
RTVSPost2010PropOp47
 70
     1
102
RTVSPost2010Prop48
 90
       50
102
RTVSPost2010PropOp48
 70
     1
102
RTVSPost2010Prop49
280
     0
102
RTVSPost2010PropOp49
 70
     1
102
RTVSPost2010Prop50
 90
       50
102
RTVSPost2010PropOp50
 70
     1
102
RTVSPost2010Prop51ColorIndex
 90
      256
102
RTVSPost2010Prop51ColorRGB
 90
-16777216
102
RTVSPost2010PropOp51
 70
     0
102
RTVSPost2010Prop52
140
1.0
102
RTVSPost2010PropOp52
 70
     0
102
RTVSPost2010Prop53
 90
        2
102
RTVSPost2010PropOp53
 70
     1
102
RTVSPost2010Prop54
  1
strokes_ogs.tif
102
RTVSPost2010PropOp54
 70
     1
102
RTVSPost2010Prop55
280
     0
102
RTVSPost2010PropOp55
 70
     1
102
RTVSPost2010Prop56
140
1.0
102
RTVSPost2010PropOp56
 70
     1
102
RTVSPost2010Prop57
140
1.0
102
RTVSPost2010PropOp57
 70
     1
  0
XRECORD
  5
11F
102
{ACAD_REACTORS
330
11E
102
}
330
11E
100
AcDbXrecord
280
     1
102
RTVSPropertyOp0
 70
     1
102
RTVSPropertyOp1
 70
     1
102
RTVSPropertyOp2
 70
     1
102
RTVSPropertyOp3
 70
     1
102
RTVSPropertyOp4
 70
     1
102
RTVSPropertyOp5
 70
     1
102
RTVSPropertyOp6
 70
     1
102
RTVSPropertyOp7
 70
     1
102
RTVSPropertyOp8
 70
     1
102
RTVSPropertyOp9
 70
     1
102
RTVSPropertyOp10
 70
     1
102
RTVSPropertyOp11
 70
     1
102
RTVSPropertyOp12
 70
     1
102
RTVSPropertyOp13
 70
     1
102
RTVSPropertyOp14
 70
     1
102
RTVSPropertyOp15
 70
     1
102
RTVSPropertyOp16
 70
     1
102
RTVSPropertyOp17
 70
     1
102
RTVSPropertyOp18
 70
     1
102
RTVSPropertyOp19
 70
     1
102
RTVSPropertyOp20
 70
     1
102
RTVSPropertyOp21
 70
     1
102
RTVSPropertyOp22
 70
     1
102
RTVSPropertyOp23
 70
     1
102
RTVSPropertyOp24
 70
     1
102
RTVSPropertyOp25
 70
     1
102
RTVSPropertyOp26
 70
     1
102
RTVSPropertyOp27
 70
     1
102
RTVSPropertyOp28
 70
     1
102
RTVSPropertyOp29
 70
     1
102
RTVSPropertyOp30
 70
     1
102
RTVSPropertyOp31
 70
     1
102
RTVSPropertyOp32
 70
     1
102
RTVSPropertyOp33
 70
     1
102
RTVSPropertyOp34
 70
     1
102
RTVSPropertyOp35
 70
     1
102
RTVSPropertyOp36
 70
     1
102
RTVSPropertyOp37
 70
     1
102
RTVSPropertyOp38
 70
     1
102
RTVSPropertyOp39
 70
     1
102
RTVSPropertyOp40
 70
     1
102
RTVSPropertyOp41
 70
     1
102
RTVSPropertyOp42
 70
     1
102
RTVSPropertyOp43
 70
     1
102
RTVSPropertyOp44
 70
     1
102
RTVSPropertyOp45
 70
     1
102
RTVSPropertyOp46
 70
     1
102
RTVSPropertyOp47
 70
     1
102
RTVSPropertyOp48
 70
     1
102
RTVSPropertyOp49
 70
     1
102
RTVSPropertyOp50
 70
     1
102
RTVSPropertyOp51
 70
     0
102
RTVSPropertyOp52
 70
     0
102
RTVSPropertyOp53
 70
     1
102
RTVSPropertyOp54
 70
     1
102
RTVSPropertyOp55
 70
     1
102
RTVSPropertyOp56
 70
     1
102
RTVSPropertyOp57
 70
     1
102
RTVSPost2010Prop28
280
     0
102
RTVSPost2010PropOp28
 70
     1
102
RTVSPost2010Prop29
280
     1
102
RTVSPost2010PropOp29
 70
     1
102
RTVSPost2010Prop30
280
     1
102
RTVSPost2010PropOp30
 70
     1
102
RTVSPost2010Prop31
280
     0
102
RTVSPost2010PropOp31
 70
     1
102
RTVSPost2010Prop32
280
     0
102
RTVSPost2010PropOp32
 70
     1
102
RTVSPost2010Prop33
280
     0
102
RTVSPost2010PropOp33
 70
     1
102
RTVSPost2010Prop34
280
     0
102
RTVSPost2010PropOp34
 70
     1
102
RTVSPost2010Prop35
280
     0
102
RTVSPost2010PropOp35
 70
     1
102
RTVSPost2010Prop36
280
     0
102
RTVSPost2010PropOp36
 70
     1
102
RTVSPost2010Prop37
 90
       50
102
RTVSPost2010PropOp37
 70
     1
102
RTVSPost2010Prop38
140
0.0
102
RTVSPost2010PropOp38
 70
     1
102
RTVSPost2010Prop39
140
1.0
102
RTVSPost2010PropOp39
 70
     1
102
RTVSPost2010Prop40
 90
        0
102
RTVSPost2010PropOp40
 70
     1
102
RTVSPost2010Prop41ColorIndex
 90
       18
102
RTVSPost2010Prop41ColorRGB
 90
        0
102
RTVSPost2010PropOp41
 70
     1
102
RTVSPost2010Prop42
 90
       50
102
RTVSPost2010PropOp42
 70
     1
102
RTVSPost2010Prop43
 90
        3
102
RTVSPost2010PropOp43
 70
     1
102
RTVSPost2010Prop44ColorIndex
 90
        5
102
RTVSPost2010Prop44ColorRGB
 90
      255
102
RTVSPost2010PropOp44
 70
     1
102
RTVSPost2010Prop45
280
     0
102
RTVSPost2010PropOp45
 70
     1
102
RTVSPost2010Prop46
 90
       50
102
RTVSPost2010PropOp46
 70
     1
102
RTVSPost2010Prop47
 90
       50
102
RTVSPost2010PropOp47
 70
     1
102
RTVSPost2010Prop48
 90
       50
102
RTVSPost2010PropOp48
 70
     1
102
RTVSPost2010Prop49
280
     0
102
RTVSPost2010PropOp49
 70
     1
102
RTVSPost2010Prop50
 90
       50
102
RTVSPost2010PropOp50
 70
     1
102
RTVSPost2010Prop51ColorIndex
 90
      256
102
RTVSPost2010Prop51ColorRGB
 90
-16777216
102
RTVSPost2010PropOp51
 70
     0
102
RTVSPost2010Prop52
140
1.0
102
RTVSPost2010PropOp52
 70
     0
102
RTVSPost2010Prop53
 90
        2
102
RTVSPost2010PropOp53
 70
     1
102
RTVSPost2010Prop54
  1
strokes_ogs.tif
102
RTVSPost2010PropOp54
 70
     1
102
RTVSPost2010Prop55
280
     0
102
RTVSPost2010PropOp55
 70
     1
102
RTVSPost2010Prop56
140
1.0
102
RTVSPost2010PropOp56
 70
     1
102
RTVSPost2010Prop57
140
1.0
102
RTVSPost2010PropOp57
 70
     1
  0
XRECORD
  5
10F
102
{ACAD_REACTORS
330
10E
102
}
330
10E
100
AcDbXrecord
280
     1
102
RTVSPropertyOp0
 70
     1
102
RTVSPropertyOp1
 70
     1
102
RTVSPropertyOp2
 70
     1
102
RTVSPropertyOp3
 70
     1
102
RTVSPropertyOp4
 70
     1
102
RTVSPropertyOp5
 70
     1
102
RTVSPropertyOp6
 70
     1
102
RTVSPropertyOp7
 70
     1
102
RTVSPropertyOp8
 70
     1
102
RTVSPropertyOp9
 70
     1
102
RTVSPropertyOp10
 70
     1
102
RTVSPropertyOp11
 70
     1
102
RTVSPropertyOp12
 70
     1
102
RTVSPropertyOp13
 70
     1
102
RTVSPropertyOp14
 70
     1
102
RTVSPropertyOp15
 70
     1
102
RTVSPropertyOp16
 70
     1
102
RTVSPropertyOp17
 70
     1
102
RTVSPropertyOp18
 70
     1
102
RTVSPropertyOp19
 70
     1
102
RTVSPropertyOp20
 70
     1
102
RTVSPropertyOp21
 70
     1
102
RTVSPropertyOp22
 70
     1
102
RTVSPropertyOp23
 70
     1
102
RTVSPropertyOp24
 70
     1
102
RTVSPropertyOp25
 70
     1
102
RTVSPropertyOp26
 70
     1
102
RTVSPropertyOp27
 70
     1
102
RTVSPropertyOp28
 70
     1
102
RTVSPropertyOp29
 70
     1
102
RTVSPropertyOp30
 70
     1
102
RTVSPropertyOp31
 70
     1
102
RTVSPropertyOp32
 70
     1
102
RTVSPropertyOp33
 70
     1
102
RTVSPropertyOp34
 70
     1
102
RTVSPropertyOp35
 70
     1
102
RTVSPropertyOp36
 70
     1
102
RTVSPropertyOp37
 70
     1
102
RTVSPropertyOp38
 70
     1
102
RTVSPropertyOp39
 70
     1
102
RTVSPropertyOp40
 70
     1
102
RTVSPropertyOp41
 70
     1
102
RTVSPropertyOp42
 70
     1
102
RTVSPropertyOp43
 70
     1
102
RTVSPropertyOp44
 70
     1
102
RTVSPropertyOp45
 70
     1
102
RTVSPropertyOp46
 70
     1
102
RTVSPropertyOp47
 70
     1
102
RTVSPropertyOp48
 70
     1
102
RTVSPropertyOp49
 70
     1
102
RTVSPropertyOp50
 70
     1
102
RTVSPropertyOp51
 70
     0
102
RTVSPropertyOp52
 70
     0
102
RTVSPropertyOp53
 70
     1
102
RTVSPropertyOp54
 70
     1
102
RTVSPropertyOp55
 70
     1
102
RTVSPropertyOp56
 70
     1
102
RTVSPropertyOp57
 70
     1
102
RTVSPost2010Prop28
280
     0
102
RTVSPost2010PropOp28
 70
     1
102
RTVSPost2010Prop29
280
     1
102
RTVSPost2010PropOp29
 70
     1
102
RTVSPost2010Prop30
280
     1
102
RTVSPost2010PropOp30
 70
     1
102
RTVSPost2010Prop31
280
     0
102
RTVSPost2010PropOp31
 70
     1
102
RTVSPost2010Prop32
280
     0
102
RTVSPost2010PropOp32
 70
     1
102
RTVSPost2010Prop33
280
     0
102
RTVSPost2010PropOp33
 70
     1
102
RTVSPost2010Prop34
280
     0
102
RTVSPost2010PropOp34
 70
     1
102
RTVSPost2010Prop35
280
     0
102
RTVSPost2010PropOp35
 70
     1
102
RTVSPost2010Prop36
280
     0
102
RTVSPost2010PropOp36
 70
     1
102
RTVSPost2010Prop37
 90
       50
102
RTVSPost2010PropOp37
 70
     1
102
RTVSPost2010Prop38
140
0.0
102
RTVSPost2010PropOp38
 70
     1
102
RTVSPost2010Prop39
140
1.0
102
RTVSPost2010PropOp39
 70
     1
102
RTVSPost2010Prop40
 90
        0
102
RTVSPost2010PropOp40
 70
     1
102
RTVSPost2010Prop41ColorIndex
 90
       18
102
RTVSPost2010Prop41ColorRGB
 90
        0
102
RTVSPost2010PropOp41
 70
     1
102
RTVSPost2010Prop42
 90
       50
102
RTVSPost2010PropOp42
 70
     1
102
RTVSPost2010Prop43
 90
        3
102
RTVSPost2010PropOp43
 70
     1
102
RTVSPost2010Prop44ColorIndex
 90
        5
102
RTVSPost2010Prop44ColorRGB
 90
      255
102
RTVSPost2010PropOp44
 70
     1
102
RTVSPost2010Prop45
280
     0
102
RTVSPost2010PropOp45
 70
     1
102
RTVSPost2010Prop46
 90
       50
102
RTVSPost2010PropOp46
 70
     1
102
RTVSPost2010Prop47
 90
       50
102
RTVSPost2010PropOp47
 70
     1
102
RTVSPost2010Prop48
 90
       50
102
RTVSPost2010PropOp48
 70
     1
102
RTVSPost2010Prop49
280
     0
102
RTVSPost2010PropOp49
 70
     1
102
RTVSPost2010Prop50
 90
       50
102
RTVSPost2010PropOp50
 70
     1
102
RTVSPost2010Prop51ColorIndex
 90
      256
102
RTVSPost2010Prop51ColorRGB
 90
-16777216
102
RTVSPost2010PropOp51
 70
     0
102
RTVSPost2010Prop52
140
1.0
102
RTVSPost2010PropOp52
 70
     0
102
RTVSPost2010Prop53
 90
        2
102
RTVSPost2010PropOp53
 70
     1
102
RTVSPost2010Prop54
  1
strokes_ogs.tif
102
RTVSPost2010PropOp54
 70
     1
102
RTVSPost2010Prop55
280
     0
102
RTVSPost2010PropOp55
 70
     1
102
RTVSPost2010Prop56
140
1.0
102
RTVSPost2010PropOp56
 70
     1
102
RTVSPost2010Prop57
140
1.0
102
RTVSPost2010PropOp57
 70
     1
  0
XRECORD
  5
101
102
{ACAD_REACTORS
330
100
102
}
330
100
100
AcDbXrecord
280
     1
102
RTVSPropertyOp0
 70
     1
102
RTVSPropertyOp1
 70
     1
102
RTVSPropertyOp2
 70
     1
102
RTVSPropertyOp3
 70
     1
102
RTVSPropertyOp4
 70
     1
102
RTVSPropertyOp5
 70
     1
102
RTVSPropertyOp6
 70
     1
102
RTVSPropertyOp7
 70
     1
102
RTVSPropertyOp8
 70
     1
102
RTVSPropertyOp9
 70
     1
102
RTVSPropertyOp10
 70
     1
102
RTVSPropertyOp11
 70
     1
102
RTVSPropertyOp12
 70
     1
102
RTVSPropertyOp13
 70
     1
102
RTVSPropertyOp14
 70
     1
102
RTVSPropertyOp15
 70
     1
102
RTVSPropertyOp16
 70
     1
102
RTVSPropertyOp17
 70
     1
102
RTVSPropertyOp18
 70
     1
102
RTVSPropertyOp19
 70
     1
102
RTVSPropertyOp20
 70
     1
102
RTVSPropertyOp21
 70
     1
102
RTVSPropertyOp22
 70
     1
102
RTVSPropertyOp23
 70
     1
102
RTVSPropertyOp24
 70
     1
102
RTVSPropertyOp25
 70
     1
102
RTVSPropertyOp26
 70
     1
102
RTVSPropertyOp27
 70
     1
102
RTVSPropertyOp28
 70
     1
102
RTVSPropertyOp29
 70
     1
102
RTVSPropertyOp30
 70
     1
102
RTVSPropertyOp31
 70
     1
102
RTVSPropertyOp32
 70
     1
102
RTVSPropertyOp33
 70
     1
102
RTVSPropertyOp34
 70
     1
102
RTVSPropertyOp35
 70
     1
102
RTVSPropertyOp36
 70
     1
102
RTVSPropertyOp37
 70
     1
102
RTVSPropertyOp38
 70
     1
102
RTVSPropertyOp39
 70
     1
102
RTVSPropertyOp40
 70
     1
102
RTVSPropertyOp41
 70
     1
102
RTVSPropertyOp42
 70
     1
102
RTVSPropertyOp43
 70
     1
102
RTVSPropertyOp44
 70
     1
102
RTVSPropertyOp45
 70
     1
102
RTVSPropertyOp46
 70
     1
102
RTVSPropertyOp47
 70
     1
102
RTVSPropertyOp48
 70
     1
102
RTVSPropertyOp49
 70
     1
102
RTVSPropertyOp50
 70
     1
102
RTVSPropertyOp51
 70
     0
102
RTVSPropertyOp52
 70
     0
102
RTVSPropertyOp53
 70
     1
102
RTVSPropertyOp54
 70
     1
102
RTVSPropertyOp55
 70
     1
102
RTVSPropertyOp56
 70
     1
102
RTVSPropertyOp57
 70
     1
102
RTVSPost2010Prop28
280
     0
102
RTVSPost2010PropOp28
 70
     1
102
RTVSPost2010Prop29
280
     1
102
RTVSPost2010PropOp29
 70
     1
102
RTVSPost2010Prop30
280
     1
102
RTVSPost2010PropOp30
 70
     1
102
RTVSPost2010Prop31
280
     0
102
RTVSPost2010PropOp31
 70
     1
102
RTVSPost2010Prop32
280
     0
102
RTVSPost2010PropOp32
 70
     1
102
RTVSPost2010Prop33
280
     0
102
RTVSPost2010PropOp33
 70
     1
102
RTVSPost2010Prop34
280
     0
102
RTVSPost2010PropOp34
 70
     1
102
RTVSPost2010Prop35
280
     0
102
RTVSPost2010PropOp35
 70
     1
102
RTVSPost2010Prop36
280
     0
102
RTVSPost2010PropOp36
 70
     1
102
RTVSPost2010Prop37
 90
       50
102
RTVSPost2010PropOp37
 70
     1
102
RTVSPost2010Prop38
140
0.0
102
RTVSPost2010PropOp38
 70
     1
102
RTVSPost2010Prop39
140
1.0
102
RTVSPost2010PropOp39
 70
     1
102
RTVSPost2010Prop40
 90
        0
102
RTVSPost2010PropOp40
 70
     1
102
RTVSPost2010Prop41ColorIndex
 90
       18
102
RTVSPost2010Prop41ColorRGB
 90
        0
102
RTVSPost2010PropOp41
 70
     1
102
RTVSPost2010Prop42
 90
       50
102
RTVSPost2010PropOp42
 70
     1
102
RTVSPost2010Prop43
 90
        3
102
RTVSPost2010PropOp43
 70
     1
102
RTVSPost2010Prop44ColorIndex
 90
        5
102
RTVSPost2010Prop44ColorRGB
 90
      255
102
RTVSPost2010PropOp44
 70
     1
102
RTVSPost2010Prop45
280
     0
102
RTVSPost2010PropOp45
 70
     1
102
RTVSPost2010Prop46
 90
       50
102
RTVSPost2010PropOp46
 70
     1
102
RTVSPost2010Prop47
 90
       50
102
RTVSPost2010PropOp47
 70
     1
102
RTVSPost2010Prop48
 90
       50
102
RTVSPost2010PropOp48
 70
     1
102
RTVSPost2010Prop49
280
     0
102
RTVSPost2010PropOp49
 70
     1
102
RTVSPost2010Prop50
 90
       50
102
RTVSPost2010PropOp50
 70
     1
102
RTVSPost2010Prop51ColorIndex
 90
      256
102
RTVSPost2010Prop51ColorRGB
 90
-16777216
102
RTVSPost2010PropOp51
 70
     0
102
RTVSPost2010Prop52
140
1.0
102
RTVSPost2010PropOp52
 70
     0
102
RTVSPost2010Prop53
 90
        2
102
RTVSPost2010PropOp53
 70
     1
102
RTVSPost2010Prop54
  1
strokes_ogs.tif
102
RTVSPost2010PropOp54
 70
     1
102
RTVSPost2010Prop55
280
     0
102
RTVSPost2010PropOp55
 70
     1
102
RTVSPost2010Prop56
140
1.0
102
RTVSPost2010PropOp56
 70
     1
102
RTVSPost2010Prop57
140
1.0
102
RTVSPost2010PropOp57
 70
     1
  0
XRECORD
  5
121
102
{ACAD_REACTORS
330
120
102
}
330
120
100
AcDbXrecord
280
     1
102
RTVSPropertyOp0
 70
     1
102
RTVSPropertyOp1
 70
     1
102
RTVSPropertyOp2
 70
     1
102
RTVSPropertyOp3
 70
     1
102
RTVSPropertyOp4
 70
     1
102
RTVSPropertyOp5
 70
     1
102
RTVSPropertyOp6
 70
     1
102
RTVSPropertyOp7
 70
     1
102
RTVSPropertyOp8
 70
     1
102
RTVSPropertyOp9
 70
     1
102
RTVSPropertyOp10
 70
     1
102
RTVSPropertyOp11
 70
     1
102
RTVSPropertyOp12
 70
     1
102
RTVSPropertyOp13
 70
     1
102
RTVSPropertyOp14
 70
     1
102
RTVSPropertyOp15
 70
     1
102
RTVSPropertyOp16
 70
     1
102
RTVSPropertyOp17
 70
     1
102
RTVSPropertyOp18
 70
     1
102
RTVSPropertyOp19
 70
     1
102
RTVSPropertyOp20
 70
     1
102
RTVSPropertyOp21
 70
     1
102
RTVSPropertyOp22
 70
     1
102
RTVSPropertyOp23
 70
     1
102
RTVSPropertyOp24
 70
     1
102
RTVSPropertyOp25
 70
     1
102
RTVSPropertyOp26
 70
     1
102
RTVSPropertyOp27
 70
     1
102
RTVSPropertyOp28
 70
     1
102
RTVSPropertyOp29
 70
     1
102
RTVSPropertyOp30
 70
     1
102
RTVSPropertyOp31
 70
     1
102
RTVSPropertyOp32
 70
     1
102
RTVSPropertyOp33
 70
     1
102
RTVSPropertyOp34
 70
     1
102
RTVSPropertyOp35
 70
     1
102
RTVSPropertyOp36
 70
     1
102
RTVSPropertyOp37
 70
     1
102
RTVSPropertyOp38
 70
     1
102
RTVSPropertyOp39
 70
     1
102
RTVSPropertyOp40
 70
     1
102
RTVSPropertyOp41
 70
     1
102
RTVSPropertyOp42
 70
     1
102
RTVSPropertyOp43
 70
     1
102
RTVSPropertyOp44
 70
     1
102
RTVSPropertyOp45
 70
     1
102
RTVSPropertyOp46
 70
     1
102
RTVSPropertyOp47
 70
     1
102
RTVSPropertyOp48
 70
     1
102
RTVSPropertyOp49
 70
     1
102
RTVSPropertyOp50
 70
     1
102
RTVSPropertyOp51
 70
     0
102
RTVSPropertyOp52
 70
     0
102
RTVSPropertyOp53
 70
     1
102
RTVSPropertyOp54
 70
     1
102
RTVSPropertyOp55
 70
     1
102
RTVSPropertyOp56
 70
     1
102
RTVSPropertyOp57
 70
     1
102
RTVSPost2010Prop28
280
     0
102
RTVSPost2010PropOp28
 70
     1
102
RTVSPost2010Prop29
280
     1
102
RTVSPost2010PropOp29
 70
     1
102
RTVSPost2010Prop30
280
     1
102
RTVSPost2010PropOp30
 70
     1
102
RTVSPost2010Prop31
280
     0
102
RTVSPost2010PropOp31
 70
     1
102
RTVSPost2010Prop32
280
     0
102
RTVSPost2010PropOp32
 70
     1
102
RTVSPost2010Prop33
280
     0
102
RTVSPost2010PropOp33
 70
     1
102
RTVSPost2010Prop34
280
     0
102
RTVSPost2010PropOp34
 70
     1
102
RTVSPost2010Prop35
280
     0
102
RTVSPost2010PropOp35
 70
     1
102
RTVSPost2010Prop36
280
     0
102
RTVSPost2010PropOp36
 70
     1
102
RTVSPost2010Prop37
 90
       50
102
RTVSPost2010PropOp37
 70
     1
102
RTVSPost2010Prop38
140
0.0
102
RTVSPost2010PropOp38
 70
     1
102
RTVSPost2010Prop39
140
1.0
102
RTVSPost2010PropOp39
 70
     1
102
RTVSPost2010Prop40
 90
        0
102
RTVSPost2010PropOp40
 70
     1
102
RTVSPost2010Prop41ColorIndex
 90
       18
102
RTVSPost2010Prop41ColorRGB
 90
        0
102
RTVSPost2010PropOp41
 70
     1
102
RTVSPost2010Prop42
 90
       50
102
RTVSPost2010PropOp42
 70
     1
102
RTVSPost2010Prop43
 90
        3
102
RTVSPost2010PropOp43
 70
     1
102
RTVSPost2010Prop44ColorIndex
 90
        5
102
RTVSPost2010Prop44ColorRGB
 90
      255
102
RTVSPost2010PropOp44
 70
     1
102
RTVSPost2010Prop45
280
     0
102
RTVSPost2010PropOp45
 70
     1
102
RTVSPost2010Prop46
 90
       50
102
RTVSPost2010PropOp46
 70
     1
102
RTVSPost2010Prop47
 90
       50
102
RTVSPost2010PropOp47
 70
     1
102
RTVSPost2010Prop48
 90
       50
102
RTVSPost2010PropOp48
 70
     1
102
RTVSPost2010Prop49
280
     0
102
RTVSPost2010PropOp49
 70
     1
102
RTVSPost2010Prop50
 90
       50
102
RTVSPost2010PropOp50
 70
     1
102
RTVSPost2010Prop51ColorIndex
 90
      256
102
RTVSPost2010Prop51ColorRGB
 90
-16777216
102
RTVSPost2010PropOp51
 70
     0
102
RTVSPost2010Prop52
140
1.0
102
RTVSPost2010PropOp52
 70
     0
102
RTVSPost2010Prop53
 90
        2
102
RTVSPost2010PropOp53
 70
     1
102
RTVSPost2010Prop54
  1
strokes_ogs.tif
102
RTVSPost2010PropOp54
 70
     1
102
RTVSPost2010Prop55
280
     0
102
RTVSPost2010PropOp55
 70
     1
102
RTVSPost2010Prop56
140
1.0
102
RTVSPost2010PropOp56
 70
     1
102
RTVSPost2010Prop57
140
1.0
102
RTVSPost2010PropOp57
 70
     1
  0
ENDSEC
  0
EOF
