  0
SECTION
  2
HEADER
  9
$ACADVER
  1
AC1015
  9
$ACADMAINTVER
 70
     6
  9
$DWGCODEPAGE
  3
ANSI_1252
  9
$INSBASE
 10
0.0
 20
0.0
 30
0.0
  9
$EXTMIN
 10
-60.0
 20
-199.9697282881
 30
0.0
  9
$EXTMAX
 10
1164.9244614159
 20
75.0
 30
0.0
  9
$LIMMIN
 10
0.0
 20
0.0
  9
$LIMMAX
 10
420.0
 20
297.0
  9
$ORTHOMODE
 70
     0
  9
$REGENMODE
 70
     1
  9
$FILLMODE
 70
     1
  9
$QTEXTMODE
 70
     0
  9
$MIRRTEXT
 70
     1
  9
$LTSCALE
 40
1.0
  9
$ATTMODE
 70
     1
  9
$TEXTSIZE
 40
3.5
  9
$TRACEWID
 40
1.0
  9
$TEXTSTYLE
  7
Standard
  9
$CLAYER
  8
0
  9
$CELTYPE
  6
ByLayer
  9
$CECOLOR
 62
   256
  9
$CELTSCALE
 40
1.0
  9
$DISPSILH
 70
     0
  9
$DIMSCALE
 40
1.0
  9
$DIMASZ
 40
3.302
  9
$DIMEXO
 40
1.0
  9
$DIMDLI
 40
3.75
  9
$DIMRND
 40
0.0
  9
$DIMDLE
 40
0.0
  9
$DIMEXE
 40
1.0
  9
$DIMTP
 40
0.0
  9
$DIMTM
 40
0.0
  9
$DIMTXT
 40
3.5
  9
$DIMCEN
 40
2.5
  9
$DIMTSZ
 40
0.0
  9
$DIMTOL
 70
     0
  9
$DIMLIM
 70
     0
  9
$DIMTIH
 70
     1
  9
$DIMTOH
 70
     1
  9
$DIMSE1
 70
     0
  9
$DIMSE2
 70
     0
  9
$DIMTAD
 70
     1
  9
$DIMZIN
 70
     0
  9
$DIMBLK
  1

  9
$DIMASO
 70
     1
  9
$DIMSHO
 70
     1
  9
$DIMPOST
  1

  9
$DIMAPOST
  1

  9
$DIMALT
 70
     0
  9
$DIMALTD
 70
     3
  9
$DIMALTF
 40
0.0393700787
  9
$DIMLFAC
 40
1.0
  9
$DIMTOFL
 70
     1
  9
$DIMTVP
 40
0.0
  9
$DIMTIX
 70
     0
  9
$DIMSOXD
 70
     0
  9
$DIMSAH
 70
     0
  9
$DIMBLK1
  1

  9
$DIMBLK2
  1

  9
$DIMSTYLE
  2
ISO-25
  9
$DIMCLRD
 70
     0
  9
$DIMCLRE
 70
     0
  9
$DIMCLRT
 70
     0
  9
$DIMTFAC
 40
1.0
  9
$DIMGAP
 40
1.524
  9
$DIMJUST
 70
     0
  9
$DIMSD1
 70
     0
  9
$DIMSD2
 70
     0
  9
$DIMTOLJ
 70
     0
  9
$DIMTZIN
 70
     0
  9
$DIMALTZ
 70
     0
  9
$DIMALTTZ
 70
     0
  9
$DIMUPT
 70
     0
  9
$DIMDEC
 70
     2
  9
$DIMTDEC
 70
     2
  9
$DIMALTU
 70
     2
  9
$DIMALTTD
 70
     3
  9
$DIMTXSTY
  7
Standard
  9
$DIMAUNIT
 70
     0
  9
$DIMADEC
 70
     2
  9
$DIMALTRND
 40
0.0
  9
$DIMAZIN
 70
     0
  9
$DIMDSEP
 70
    44
  9
$DIMATFIT
 70
     3
  9
$DIMFRAC
 70
     0
  9
$DIMLDRBLK
  1

  9
$DIMLUNIT
 70
     2
  9
$DIMLWD
 70
    -2
  9
$DIMLWE
 70
    -2
  9
$DIMTMOVE
 70
     0
  9
$LUNITS
 70
     2
  9
$LUPREC
 70
     2
  9
$SKETCHINC
 40
1.0
  9
$FILLETRAD
 40
10.0
  9
$AUNITS
 70
     0
  9
$AUPREC
 70
     2
  9
$MENU
  1
.
  9
$ELEVATION
 40
0.0
  9
$PELEVATION
 40
0.0
  9
$THICKNESS
 40
0.0
  9
$LIMCHECK
 70
     0
  9
$CHAMFERA
 40
0.0
  9
$CHAMFERB
 40
0.0
  9
$CHAMFERC
 40
0.0
  9
$CHAMFERD
 40
0.0
  9
$SKPOLY
 70
     0
  9
$TDCREATE
 40
2460733.706576042
  9
$TDUCREATE
 40
2460733.831576042
  9
$TDUPDATE
 40
2460733.706606007
  9
$TDUUPDATE
 40
2460733.831606007
  9
$TDINDWG
 40
0.0000000116
  9
$TDUSRTIMER
 40
0.0000000116
  9
$USRTIMER
 70
     1
  9
$ANGBASE
 50
0.0
  9
$ANGDIR
 70
     0
  9
$PDMODE
 70
     0
  9
$PDSIZE
 40
-1.0
  9
$PLINEWID
 40
0.0
  9
$SPLFRAME
 70
     0
  9
$SPLINETYPE
 70
     6
  9
$SPLINESEGS
 70
     8
  9
$HANDSEED
  5
149
  9
$SURFTAB1
 70
     6
  9
$SURFTAB2
 70
     6
  9
$SURFTYPE
 70
     6
  9
$SURFU
 70
     6
  9
$SURFV
 70
     6
  9
$UCSBASE
  2

  9
$UCSNAME
  2

  9
$UCSORG
 10
0.0
 20
0.0
 30
0.0
  9
$UCSXDIR
 10
1.0
 20
0.0
 30
0.0
  9
$UCSYDIR
 10
0.0
 20
1.0
 30
0.0
  9
$UCSORTHOREF
  2

  9
$UCSORTHOVIEW
 70
     0
  9
$UCSORGTOP
 10
0.0
 20
0.0
 30
0.0
  9
$UCSORGBOTTOM
 10
0.0
 20
0.0
 30
0.0
  9
$UCSORGLEFT
 10
0.0
 20
0.0
 30
0.0
  9
$UCSORGRIGHT
 10
0.0
 20
0.0
 30
0.0
  9
$UCSORGFRONT
 10
0.0
 20
0.0
 30
0.0
  9
$UCSORGBACK
 10
0.0
 20
0.0
 30
0.0
  9
$PUCSBASE
  2

  9
$PUCSNAME
  2

  9
$PUCSORG
 10
0.0
 20
0.0
 30
0.0
  9
$PUCSXDIR
 10
1.0
 20
0.0
 30
0.0
  9
$PUCSYDIR
 10
0.0
 20
1.0
 30
0.0
  9
$PUCSORTHOREF
  2

  9
$PUCSORTHOVIEW
 70
     0
  9
$PUCSORGTOP
 10
0.0
 20
0.0
 30
0.0
  9
$PUCSORGBOTTOM
 10
0.0
 20
0.0
 30
0.0
  9
$PUCSORGLEFT
 10
0.0
 20
0.0
 30
0.0
  9
$PUCSORGRIGHT
 10
0.0
 20
0.0
 30
0.0
  9
$PUCSORGFRONT
 10
0.0
 20
0.0
 30
0.0
  9
$PUCSORGBACK
 10
0.0
 20
0.0
 30
0.0
  9
$USERI1
 70
     0
  9
$USERI2
 70
     0
  9
$USERI3
 70
     0
  9
$USERI4
 70
     0
  9
$USERI5
 70
     0
  9
$USERR1
 40
0.0
  9
$USERR2
 40
0.0
  9
$USERR3
 40
0.0
  9
$USERR4
 40
0.0
  9
$USERR5
 40
0.0
  9
$WORLDVIEW
 70
     1
  9
$SHADEDGE
 70
     3
  9
$SHADEDIF
 70
    70
  9
$TILEMODE
 70
     1
  9
$MAXACTVP
 70
    64
  9
$PINSBASE
 10
0.0
 20
0.0
 30
0.0
  9
$PLIMCHECK
 70
     0
  9
$PEXTMIN
 10
1.0000000000E+20
 20
1.0000000000E+20
 30
1.0000000000E+20
  9
$PEXTMAX
 10
-1.0000000000E+20
 20
-1.0000000000E+20
 30
-1.0000000000E+20
  9
$PLIMMIN
 10
0.0
 20
0.0
  9
$PLIMMAX
 10
420.0
 20
297.0
  9
$UNITMODE
 70
     0
  9
$VISRETAIN
 70
     1
  9
$PLINEGEN
 70
     0
  9
$PSLTSCALE
 70
     1
  9
$TREEDEPTH
 70
  3020
  9
$CMLSTYLE
  2
Standard
  9
$CMLJUST
 70
     0
  9
$CMLSCALE
 40
20.0
  9
$PROXYGRAPHICS
 70
     1
  9
$MEASUREMENT
 70
     1
  9
$CELWEIGHT
370
    -1
  9
$ENDCAPS
280
     0
  9
$JOINSTYLE
280
     0
  9
$LWDISPLAY
290
     1
  9
$INSUNITS
 70
     4
  9
$HYPERLINKBASE
  1

  9
$STYLESHEET
  1

  9
$XEDIT
290
     1
  9
$CEPSNTYPE
380
     0
  9
$PSTYLEMODE
290
     1
  9
$FINGERPRINTGUID
  2
{7B8CAE2B-F2FD-461E-9244-AD36F5E5D94F}
  9
$VERSIONGUID
  2
{FAEB1C32-E019-11D5-929B-00C0DF256EC4}
  9
$EXTNAMES
290
     1
  9
$PSVPSCALE
 40
0.0
  9
$OLESTARTUP
290
     0
  0
ENDSEC
  0
SECTION
  2
CLASSES
  0
CLASS
  1
ACDBDICTIONARYWDFLT
  2
AcDbDictionaryWithDefault
  3
ObjectDBX Classes
 90
        0
280
     0
281
     0
  0
CLASS
  1
VISUALSTYLE
  2
AcDbVisualStyle
  3
ObjectDBX Classes
 90
     4095
280
     0
281
     0
  0
CLASS
  1
MATERIAL
  2
AcDbMaterial
  3
ObjectDBX Classes
 90
     1153
280
     0
281
     0
  0
CLASS
  1
SCALE
  2
AcDbScale
  3
ObjectDBX Classes
 90
     1153
280
     0
281
     0
  0
CLASS
  1
TABLESTYLE
  2
AcDbTableStyle
  3
ObjectDBX Classes
 90
     4095
280
     0
281
     0
  0
CLASS
  1
MLEADERSTYLE
  2
AcDbMLeaderStyle
  3
ACDB_MLEADERSTYLE_CLASS
 90
     4095
280
     0
281
     0
  0
CLASS
  1
SUN
  2
AcDbSun
  3
SCENEOE
 90
     1153
280
     0
281
     0
  0
CLASS
  1
ACDBPLACEHOLDER
  2
AcDbPlaceHolder
  3
ObjectDBX Classes
 90
        0
280
     0
281
     0
  0
CLASS
  1
LAYOUT
  2
AcDbLayout
  3
ObjectDBX Classes
 90
        0
280
     0
281
     0
  0
ENDSEC
  0
SECTION
  2
TABLES
  0
TABLE
  2
VPORT
  5
8
330
0
100
AcDbSymbolTable
 70
     1
  0
VPORT
  5
29
330
8
100
AcDbSymbolTableRecord
100
AcDbViewportTableRecord
  2
*Active
 70
     0
 10
0.0
 20
0.0
 11
1.0
 21
1.0
 12
552.4622307079
 22
-62.4848641441
 13
0.0
 23
0.0
 14
10.0
 24
10.0
 15
10.0
 25
10.0
 16
0.0
 26
0.0
 36
1.0
 17
0.0
 27
0.0
 37
0.0
 40
280.4691228539
 41
4.4547611442
 42
50.0
 43
0.0
 44
0.0
 50
0.0
 51
0.0
 71
     0
 72
   100
 73
     1
 74
     3
 75
     0
 76
     0
 77
     0
 78
     0
281
     0
 65
     1
110
0.0
120
0.0
130
0.0
111
1.0
121
0.0
131
0.0
112
0.0
122
1.0
132
0.0
 79
     0
146
0.0
  0
ENDTAB
  0
TABLE
  2
LTYPE
  5
5
330
0
100
AcDbSymbolTable
 70
     6
  0
LTYPE
  5
14
330
5
100
AcDbSymbolTableRecord
100
AcDbLinetypeTableRecord
  2
ByBlock
 70
     0
  3

 72
    65
 73
     0
 40
0.0
  0
LTYPE
  5
15
330
5
100
AcDbSymbolTableRecord
100
AcDbLinetypeTableRecord
  2
ByLayer
 70
     0
  3

 72
    65
 73
     0
 40
0.0
  0
LTYPE
  5
16
330
5
100
AcDbSymbolTableRecord
100
AcDbLinetypeTableRecord
  2
Continuous
 70
     0
  3
Solid line
 72
    65
 73
     0
 40
0.0
  0
LTYPE
  5
6E
330
5
100
AcDbSymbolTableRecord
100
AcDbLinetypeTableRecord
  2
HIDDEN
 70
     0
  3
Hidden __ __ __ __ __ __ __ __ __ __ __ __ __ __
 72
    65
 73
     2
 40
1.905
 49
1.27
 74
     0
 49
-0.635
 74
     0
  0
LTYPE
  5
6F
330
5
100
AcDbSymbolTableRecord
100
AcDbLinetypeTableRecord
  2
PHANTOM
 70
     0
  3
Phantom ______  __  __  ______  __  __  ______
 72
    65
 73
     6
 40
12.7
 49
6.35
 74
     0
 49
-1.27
 74
     0
 49
1.27
 74
     0
 49
-1.27
 74
     0
 49
1.27
 74
     0
 49
-1.27
 74
     0
  0
LTYPE
  5
70
330
5
100
AcDbSymbolTableRecord
100
AcDbLinetypeTableRecord
  2
CENTER
 70
     0
  3
Center ____ _ ____ _ ____ _ ____ _ ____ _ ____
 72
    65
 73
     4
 40
10.16
 49
6.35
 74
     0
 49
-1.27
 74
     0
 49
1.27
 74
     0
 49
-1.27
 74
     0
  0
LTYPE
  5
71
330
5
100
AcDbSymbolTableRecord
100
AcDbLinetypeTableRecord
  2
CENTERX2
 70
     0
  3
Center (2x) ________  __  ________  __  _____
 72
    65
 73
     4
 40
20.32
 49
12.7
 74
     0
 49
-2.54
 74
     0
 49
2.54
 74
     0
 49
-2.54
 74
     0
  0
LTYPE
  5
72
330
5
100
AcDbSymbolTableRecord
100
AcDbLinetypeTableRecord
  2
DOT2
 70
     0
  3
Dot (.5x) ........................................
 72
    65
 73
     2
 40
0.635
 49
0.0
 74
     0
 49
-0.635
 74
     0
  0
ENDTAB
  0
TABLE
  2
LAYER
  5
2
330
0
100
AcDbSymbolTable
 70
     1
  0
LAYER
  5
10
330
2
100
AcDbSymbolTableRecord
100
AcDbLayerTableRecord
  2
0
 70
     0
 62
     7
  6
Continuous
370
    -3
390
F
  0
ENDTAB
  0
TABLE
  2
STYLE
  5
3
330
0
100
AcDbSymbolTable
 70
     2
  0
STYLE
  5
11
330
3
100
AcDbSymbolTableRecord
100
AcDbTextStyleTableRecord
  2
Standard
 70
     0
 40
0.0
 41
1.0
 50
0.0
 71
     0
 42
3.5
  3
txt
  4

  0
STYLE
  5
146
330
3
100
AcDbSymbolTableRecord
100
AcDbTextStyleTableRecord
  2
SLDTEXTSTYLE0
 70
     0
 40
0.0
 41
0.7
 50
0.0
 71
     0
 42
3.5
  3
TXT
  4

  0
ENDTAB
  0
TABLE
  2
VIEW
  5
6
330
0
100
AcDbSymbolTable
 70
     0
  0
ENDTAB
  0
TABLE
  2
UCS
  5
7
330
0
100
AcDbSymbolTable
 70
     0
  0
ENDTAB
  0
TABLE
  2
APPID
  5
9
330
0
100
AcDbSymbolTable
 70
     1
  0
APPID
  5
12
330
9
100
AcDbSymbolTableRecord
100
AcDbRegAppTableRecord
  2
ACAD
 70
     0
  0
ENDTAB
  0
TABLE
  2
DIMSTYLE
  5
A
330
0
100
AcDbSymbolTable
 70
     1
100
AcDbDimStyleTable
  0
DIMSTYLE
105
27
330
A
100
AcDbSymbolTableRecord
100
AcDbDimStyleTableRecord
  2
ISO-25
 70
     0
 41
2.5
 42
0.625
 43
3.75
 44
1.25
 73
     0
 74
     0
 77
     1
 78
     8
140
2.5
141
2.5
143
0.0393700787
147
0.625
171
     3
172
     1
178
     0
271
     2
272
     2
274
     3
278
    44
283
     0
284
     8
340
11
  0
ENDTAB
  0
TABLE
  2
BLOCK_RECORD
  5
1
330
0
100
AcDbSymbolTable
 70
     1
  0
BLOCK_RECORD
  5
1F
330
1
100
AcDbSymbolTableRecord
100
AcDbBlockTableRecord
  2
*Model_Space
340
22
  0
BLOCK_RECORD
  5
1B
330
1
100
AcDbSymbolTableRecord
100
AcDbBlockTableRecord
  2
*Paper_Space
340
1E
  0
BLOCK_RECORD
  5
23
330
1
100
AcDbSymbolTableRecord
100
AcDbBlockTableRecord
  2
*Paper_Space0
340
26
  0
ENDTAB
  0
ENDSEC
  0
SECTION
  2
BLOCKS
  0
BLOCK
  5
20
330
1F
100
AcDbEntity
  8
0
100
AcDbBlockBegin
  2
*Model_Space
 70
     0
 10
0.0
 20
0.0
 30
0.0
  3
*Model_Space
  1

  0
ENDBLK
  5
21
330
1F
100
AcDbEntity
  8
0
100
AcDbBlockEnd
  0
BLOCK
  5
1C
330
1B
100
AcDbEntity
 67
     1
  8
0
100
AcDbBlockBegin
  2
*Paper_Space
 70
     0
 10
0.0
 20
0.0
 30
0.0
  3
*Paper_Space
  1

  0
ENDBLK
  5
1D
330
1B
100
AcDbEntity
 67
     1
  8
0
100
AcDbBlockEnd
  0
BLOCK
  5
24
330
23
100
AcDbEntity
  8
0
100
AcDbBlockBegin
  2
*Paper_Space0
 70
     0
 10
0.0
 20
0.0
 30
0.0
  3
*Paper_Space0
  1

  0
ENDBLK
  5
25
330
23
100
AcDbEntity
  8
0
100
AcDbBlockEnd
  0
ENDSEC
  0
SECTION
  2
ENTITIES
  0
CIRCLE
  5
73
330
1F
100
AcDbEntity
  8
0
  6
Continuous
 62
     7
100
AcDbCircle
 10
0.0
 20
0.0
 30
0.0
 40
60.0
  0
CIRCLE
  5
74
330
1F
100
AcDbEntity
  8
0
  6
Continuous
 62
     7
100
AcDbCircle
 10
180.0
 20
0.0
 30
0.0
 40
59.99999999999997
  0
CIRCLE
  5
75
330
1F
100
AcDbEntity
  8
0
  6
Continuous
 62
     7
100
AcDbCircle
 10
360.0
 20
0.0
 30
0.0
 40
59.99999999999997
  0
CIRCLE
  5
76
330
1F
100
AcDbEntity
  8
0
  6
Continuous
 62
     7
100
AcDbCircle
 10
540.0
 20
0.0
 30
0.0
 40
60.00000000000014
  0
CIRCLE
  5
77
330
1F
100
AcDbEntity
  8
0
  6
Continuous
 62
     7
100
AcDbCircle
 10
720.0
 20
0.0
 30
0.0
 40
60.00000000000003
  0
CIRCLE
  5
78
330
1F
100
AcDbEntity
  8
0
  6
Continuous
 62
     7
100
AcDbCircle
 10
900.0
 20
0.0
 30
0.0
 40
60.00000000000014
  0
CIRCLE
  5
79
330
1F
100
AcDbEntity
  8
0
  6
Continuous
 62
     7
100
AcDbCircle
 10
1089.9244614159
 20
0.0
 30
0.0
 40
67.50000000000006
  0
CIRCLE
  5
7A
330
1F
100
AcDbEntity
  8
0
  6
Continuous
 62
     7
100
AcDbCircle
 10
1089.9244614159
 20
0.0
 30
0.0
 40
60.00000000000014
  0
CIRCLE
  5
7B
330
1F
100
AcDbEntity
  8
0
  6
Continuous
 62
     7
100
AcDbCircle
 10
1089.9244614159
 20
0.0
 30
0.0
 40
74.99999999999996
  0
CIRCLE
  5
7C
330
1F
100
AcDbEntity
  8
0
  6
Continuous
 62
     7
100
AcDbCircle
 10
249.9817136265
 20
-138.4697282881
 30
0.0
 40
61.50000000000001
  0
CIRCLE
  5
7D
330
1F
100
AcDbEntity
  8
0
  6
Continuous
 62
     7
100
AcDbCircle
 10
249.9817136265
 20
-138.4697282881
 30
0.0
 40
12.50000000000003
  0
CIRCLE
  5
7E
330
1F
100
AcDbEntity
  8
0
  6
Continuous
 62
     7
100
AcDbCircle
 10
360.0
 20
0.0
 30
0.0
 40
1.999999999999994
  0
CIRCLE
  5
7F
330
1F
100
AcDbEntity
  8
0
  6
Continuous
 62
     7
100
AcDbCircle
 10
540.0
 20
0.0
 30
0.0
 40
2.000000000000048
  0
CIRCLE
  5
80
330
1F
100
AcDbEntity
  8
0
  6
Continuous
 62
     7
100
AcDbCircle
 10
720.0
 20
0.0
 30
0.0
 40
1.999999999999939
  0
CIRCLE
  5
81
330
1F
100
AcDbEntity
  8
0
  6
Continuous
 62
     7
100
AcDbCircle
 10
180.0
 20
0.0
 30
0.0
 40
1.999999999999994
  0
CIRCLE
  5
82
330
1F
100
AcDbEntity
  8
0
  6
Continuous
 62
     7
100
AcDbCircle
 10
80.9898258664
 20
-135.5662425153
 30
0.0
 40
59.99999999999998
  0
CIRCLE
  5
83
330
1F
100
AcDbEntity
  8
0
  6
Continuous
 62
     7
100
AcDbCircle
 10
80.9898258664
 20
-135.5662425153
 30
0.0
 40
10.00000000000001
  0
LINE
  5
84
330
1F
100
AcDbEntity
  8
0
  6
Continuous
 62
     7
100
AcDbLine
 10
0.0
 20
60.0
 30
0.0
 11
0.0
 21
-60.0
 31
0.0
  0
LINE
  5
85
330
1F
100
AcDbEntity
  8
0
  6
Continuous
 62
     7
100
AcDbLine
 10
180.0
 20
60.0
 30
0.0
 11
180.0
 21
2.0
 31
0.0
  0
LINE
  5
86
330
1F
100
AcDbEntity
  8
0
  6
Continuous
 62
     7
100
AcDbLine
 10
178.2679491924
 20
-1.0
 30
0.0
 11
128.0384757729
 21
-30.0
 31
0.0
  0
LINE
  5
87
330
1F
100
AcDbEntity
  8
0
  6
Continuous
 62
     7
100
AcDbLine
 10
181.7320508076
 20
-1.0
 30
0.0
 11
231.9615242271
 21
-30.0
 31
0.0
  0
LINE
  5
88
330
1F
100
AcDbEntity
  8
0
  6
Continuous
 62
     7
100
AcDbLine
 10
360.0
 20
-2.0
 30
0.0
 11
360.0
 21
-60.0
 31
0.0
  0
LINE
  5
89
330
1F
100
AcDbEntity
  8
0
  6
Continuous
 62
     7
100
AcDbLine
 10
358.0
 20
0.0
 30
0.0
 11
300.0
 21
0.0
 31
0.0
  0
LINE
  5
8A
330
1F
100
AcDbEntity
  8
0
  6
Continuous
 62
     7
100
AcDbLine
 10
539.2161604113
 20
-1.8399987769
 30
0.0
 11
516.4848123383
 21
-55.1999633083
 31
0.0
  0
LINE
  5
8B
330
1F
100
AcDbEntity
  8
0
  6
Continuous
 62
     7
100
AcDbLine
 10
540.7838395887
 20
1.8399987769
 30
0.0
 11
563.5151876617
 21
55.1999633083
 31
0.0
  0
LINE
  5
8C
330
1F
100
AcDbEntity
  8
0
  6
Continuous
 62
     7
100
AcDbLine
 10
503.9530233179
 20
47.964731544
 30
0.0
 11
538.7984341106
 21
1.5988243848
 31
0.0
  0
LINE
  5
8D
330
1F
100
AcDbEntity
  8
0
  6
Continuous
 62
     7
100
AcDbLine
 10
480.4378356562
 20
-7.2352317643
 30
0.0
 11
538.0145945219
 21
-0.2411743921
 31
0.0
  0
LINE
  5
8E
330
1F
100
AcDbEntity
  8
0
  6
CENTERX2
 62
     7
100
AcDbLine
 10
547.2352317643
 20
-59.5621643438
 30
0.0
 11
540.2411743921
 21
-1.9854054781
 31
0.0
  0
LINE
  5
8F
330
1F
100
AcDbEntity
  8
0
  6
CENTERX2
 62
     7
100
AcDbLine
 10
492.035268456
 20
-36.0469766821
 30
0.0
 11
538.4011756152
 21
-1.2015658894
 31
0.0
  0
LINE
  5
90
330
1F
100
AcDbEntity
  8
0
  6
Continuous
 62
     7
100
AcDbLine
 10
722.0
 20
0.0
 30
0.0
 11
780.0
 21
0.0
 31
0.0
  0
LINE
  5
91
330
1F
100
AcDbEntity
  8
0
  6
Continuous
 62
     7
100
AcDbLine
 10
720.0
 20
60.0
 30
0.0
 11
720.0
 21
2.0
 31
0.0
  0
LINE
  5
92
330
1F
100
AcDbEntity
  8
0
  6
Continuous
 62
     7
100
AcDbLine
 10
721.7320508076
 20
-1.0
 30
0.0
 11
771.9615242271
 21
-30.0
 31
0.0
  0
LINE
  5
93
330
1F
100
AcDbEntity
  8
0
  6
Continuous
 62
     7
100
AcDbLine
 10
718.0
 20
0.0
 30
0.0
 11
660.0
 21
0.0
 31
0.0
  0
LINE
  5
94
330
1F
100
AcDbEntity
  8
0
  6
Continuous
 62
     7
100
AcDbLine
 10
718.2679491924
 20
1.0
 30
0.0
 11
668.0384757729
 21
30.0
 31
0.0
  0
LINE
  5
95
330
1F
100
AcDbEntity
  8
0
  6
Continuous
 62
     7
100
AcDbLine
 10
721.7320508076
 20
1.0
 30
0.0
 11
771.9615242271
 21
30.0
 31
0.0
  0
LINE
  5
96
330
1F
100
AcDbEntity
  8
0
  6
Continuous
 62
     7
100
AcDbLine
 10
719.0
 20
1.7320508076
 30
0.0
 11
690.0
 21
51.9615242271
 31
0.0
  0
LINE
  5
97
330
1F
100
AcDbEntity
  8
0
  6
Continuous
 62
     7
100
AcDbLine
 10
441.4949798723
 20
-154.8092766921
 30
0.0
 11
641.4949798723
 21
-154.8092766921
 31
0.0
  0
LINE
  5
98
330
1F
100
AcDbEntity
  8
0
  6
Continuous
 62
     7
100
AcDbLine
 10
721.0
 20
-1.7320508076
 30
0.0
 11
750.0
 21
-51.9615242271
 31
0.0
  0
LINE
  5
99
330
1F
100
AcDbEntity
  8
0
  6
Continuous
 62
     7
100
AcDbLine
 10
720.0
 20
-2.0
 30
0.0
 11
720.0
 21
-60.0
 31
0.0
  0
LINE
  5
9A
330
1F
100
AcDbEntity
  8
0
  6
Continuous
 62
     7
100
AcDbLine
 10
718.2679491924
 20
-1.0
 30
0.0
 11
668.0384757729
 21
-30.0
 31
0.0
  0
LINE
  5
9B
330
1F
100
AcDbEntity
  8
0
  6
Continuous
 62
     7
100
AcDbLine
 10
1089.9244614159
 20
70.9930899951
 30
0.0
 11
1089.9244614159
 21
63.9930899951
 31
0.0
  0
LINE
  5
9C
330
1F
100
AcDbEntity
  8
0
  6
Continuous
 62
     7
100
AcDbLine
 10
1089.9244614159
 20
-63.9839464189
 30
0.0
 11
1089.9244614159
 21
-70.7361961028
 31
0.0
  0
LINE
  5
9D
330
1F
100
AcDbEntity
  8
0
  6
Continuous
 62
     7
100
AcDbLine
 10
1054.4279164184
 20
61.4818194289
 30
0.0
 11
1057.9279164184
 21
55.4196416024
 31
0.0
  0
LINE
  5
9E
330
1F
100
AcDbEntity
  8
0
  6
Continuous
 62
     7
100
AcDbLine
 10
1028.442641987
 20
35.4965449975
 30
0.0
 11
1034.5048198135
 21
31.9965449975
 31
0.0
  0
LINE
  5
9F
330
1F
100
AcDbEntity
  8
0
  6
Continuous
 62
     7
100
AcDbLine
 10
1018.9313714208
 20
0.0
 30
0.0
 11
1025.9313714208
 21
0.0
 31
0.0
  0
LINE
  5
A0
330
1F
100
AcDbEntity
  8
0
  6
Continuous
 62
     7
100
AcDbLine
 10
1028.442641987
 20
-35.4965449975
 30
0.0
 11
1034.5048198135
 21
-31.9965449975
 31
0.0
  0
LINE
  5
A1
330
1F
100
AcDbEntity
  8
0
  6
Continuous
 62
     7
100
AcDbLine
 10
1054.4279164184
 20
-61.4818194289
 30
0.0
 11
1057.9279164184
 21
-55.4196416024
 31
0.0
  0
LINE
  5
A2
330
1F
100
AcDbEntity
  8
0
  6
Continuous
 62
     7
100
AcDbLine
 10
1089.9244614159
 20
-70.9930899951
 30
0.0
 11
1089.9244614159
 21
-63.9930899951
 31
0.0
  0
LINE
  5
A3
330
1F
100
AcDbEntity
  8
0
  6
Continuous
 62
     7
100
AcDbLine
 10
1125.4210064134
 20
-61.4818194289
 30
0.0
 11
1121.9210064134
 21
-55.4196416024
 31
0.0
  0
LINE
  5
A4
330
1F
100
AcDbEntity
  8
0
  6
Continuous
 62
     7
100
AcDbLine
 10
1151.4062808448
 20
-35.4965449975
 30
0.0
 11
1145.3441030183
 21
-31.9965449975
 31
0.0
  0
LINE
  5
A5
330
1F
100
AcDbEntity
  8
0
  6
Continuous
 62
     7
100
AcDbLine
 10
1160.917551411
 20
0.0
 30
0.0
 11
1153.917551411
 21
0.0
 31
0.0
  0
LINE
  5
A6
330
1F
100
AcDbEntity
  8
0
  6
Continuous
 62
     7
100
AcDbLine
 10
1151.4062808448
 20
35.4965449975
 30
0.0
 11
1145.3441030183
 21
31.9965449975
 31
0.0
  0
LINE
  5
A7
330
1F
100
AcDbEntity
  8
0
  6
Continuous
 62
     7
100
AcDbLine
 10
1125.4210064134
 20
61.4818194289
 30
0.0
 11
1121.9210064134
 21
55.4196416024
 31
0.0
  0
LINE
  5
A8
330
1F
100
AcDbEntity
  8
0
  6
Continuous
 62
     7
100
AcDbLine
 10
541.2015658894
 20
-1.5988243848
 30
0.0
 11
576.0469766821
 21
-47.964731544
 31
0.0
  0
LINE
  5
A9
330
1F
100
AcDbEntity
  8
0
  6
Continuous
 62
     7
100
AcDbLine
 10
1056.1779164184
 20
58.4507305156
 30
0.0
 11
1057.179881219
 21
56.7152765735
 31
0.0
  0
LINE
  5
AA
330
1F
100
AcDbEntity
  8
0
  6
Continuous
 62
     7
100
AcDbLine
 10
1055.315554243
 20
59.9443856178
 30
0.0
 11
1057.179881219
 21
56.7152765735
 31
0.0
  0
LINE
  5
AB
330
1F
100
AcDbEntity
  8
0
  6
Continuous
 62
     7
100
AcDbLine
 10
1061.7710399679
 20
63.2336198835
 30
0.0
 11
1063.2876201595
 21
59.8273250026
 31
0.0
  0
LINE
  5
AC
330
1F
100
AcDbEntity
  8
0
  6
Continuous
 62
     7
100
AcDbLine
 10
1068.5349804696
 20
65.8300533772
 30
0.0
 11
1069.6871979069
 21
62.2838927392
 31
0.0
  0
LINE
  5
AD
330
1F
100
AcDbEntity
  8
0
  6
Continuous
 62
     7
100
AcDbLine
 10
1075.5332686006
 20
67.7052390303
 30
0.0
 11
1076.3084993482
 21
64.0580651133
 31
0.0
  0
LINE
  5
AE
330
1F
100
AcDbEntity
  8
0
  6
Continuous
 62
     7
100
AcDbLine
 10
1082.6892296516
 20
68.8386319163
 30
0.0
 11
1083.0789801192
 21
65.1304039209
 31
0.0
  0
LINE
  5
AF
330
1F
100
AcDbEntity
  8
0
  6
Continuous
 62
     7
100
AcDbLine
 10
1089.9244614159
 20
69.2178143457
 30
0.0
 11
1089.9244614159
 21
65.4891603938
 31
0.0
  0
LINE
  5
B0
330
1F
100
AcDbEntity
  8
0
  6
Continuous
 62
     7
100
AcDbLine
 10
1097.1596931802
 20
68.8386319164
 30
0.0
 11
1096.7699427125
 21
65.1304039209
 31
0.0
  0
LINE
  5
B1
330
1F
100
AcDbEntity
  8
0
  6
Continuous
 62
     7
100
AcDbLine
 10
1104.3156542312
 20
67.7052390303
 30
0.0
 11
1103.5404234836
 21
64.0580651133
 31
0.0
  0
LINE
  5
B2
330
1F
100
AcDbEntity
  8
0
  6
Continuous
 62
     7
100
AcDbLine
 10
1111.3139423622
 20
65.8300533772
 30
0.0
 11
1110.1617249249
 21
62.2838927392
 31
0.0
  0
LINE
  5
B3
330
1F
100
AcDbEntity
  8
0
  6
Continuous
 62
     7
100
AcDbLine
 10
1118.0778828639
 20
63.2336198835
 30
0.0
 11
1116.5613026723
 21
59.8273250026
 31
0.0
  0
LINE
  5
B4
330
1F
100
AcDbEntity
  8
0
  6
Continuous
 62
     7
100
AcDbLine
 10
1124.5333685887
 20
59.9443856178
 30
0.0
 11
1122.6690416128
 21
56.7152765735
 31
0.0
  0
LINE
  5
B5
330
1F
100
AcDbEntity
  8
0
  6
Continuous
 62
     7
100
AcDbLine
 10
1130.6096718842
 20
55.9983881192
 30
0.0
 11
1128.4180240804
 21
52.9818437059
 31
0.0
  0
LINE
  5
B6
330
1F
100
AcDbEntity
  8
0
  6
Continuous
 62
     7
100
AcDbLine
 10
1136.2402194999
 20
51.4388605619
 30
0.0
 11
1133.7452630201
 21
48.6679306715
 31
0.0
  0
LINE
  5
B7
330
1F
100
AcDbEntity
  8
0
  6
Continuous
 62
     7
100
AcDbLine
 10
1141.3633219778
 20
46.315758084
 30
0.0
 11
1138.5923920874
 21
43.8208016042
 31
0.0
  0
LINE
  5
B8
330
1F
100
AcDbEntity
  8
0
  6
Continuous
 62
     7
100
AcDbLine
 10
1145.9228495351
 20
40.6852104683
 30
0.0
 11
1142.9063051218
 21
38.4935626645
 31
0.0
  0
LINE
  5
B9
330
1F
100
AcDbEntity
  8
0
  6
Continuous
 62
     7
100
AcDbLine
 10
1149.8688470337
 20
34.6089071729
 30
0.0
 11
1146.6397379894
 21
32.7445801969
 31
0.0
  0
LINE
  5
BA
330
1F
100
AcDbEntity
  8
0
  6
Continuous
 62
     7
100
AcDbLine
 10
1153.1580812994
 20
28.153421448
 30
0.0
 11
1149.7517864185
 21
26.6368412564
 31
0.0
  0
LINE
  5
BB
330
1F
100
AcDbEntity
  8
0
  6
Continuous
 62
     7
100
AcDbLine
 10
1155.7545147931
 20
21.3894809463
 30
0.0
 11
1152.2083541551
 21
20.237263509
 31
0.0
  0
LINE
  5
BC
330
1F
100
AcDbEntity
  8
0
  6
Continuous
 62
     7
100
AcDbLine
 10
1157.6297004462
 20
14.3911928153
 30
0.0
 11
1153.9825265292
 21
13.6159620677
 31
0.0
  0
LINE
  5
BD
330
1F
100
AcDbEntity
  8
0
  6
Continuous
 62
     7
100
AcDbLine
 10
1158.7630933322
 20
7.2352317643
 30
0.0
 11
1155.0548653368
 21
6.8454812967
 31
0.0
  0
LINE
  5
BE
330
1F
100
AcDbEntity
  8
0
  6
Continuous
 62
     7
100
AcDbLine
 10
1159.1422757616
 20
0.0
 30
0.0
 11
1155.4136218097
 21
0.0
 31
0.0
  0
LINE
  5
BF
330
1F
100
AcDbEntity
  8
0
  6
Continuous
 62
     7
100
AcDbLine
 10
1158.7630933322
 20
-7.2352317643
 30
0.0
 11
1155.0548653368
 21
-6.8454812966
 31
0.0
  0
LINE
  5
C0
330
1F
100
AcDbEntity
  8
0
  6
Continuous
 62
     7
100
AcDbLine
 10
1157.6297004462
 20
-14.3911928153
 30
0.0
 11
1153.9825265292
 21
-13.6159620677
 31
0.0
  0
LINE
  5
C1
330
1F
100
AcDbEntity
  8
0
  6
Continuous
 62
     7
100
AcDbLine
 10
1155.7545147931
 20
-21.3894809463
 30
0.0
 11
1152.2083541551
 21
-20.237263509
 31
0.0
  0
LINE
  5
C2
330
1F
100
AcDbEntity
  8
0
  6
Continuous
 62
     7
100
AcDbLine
 10
1153.1580812994
 20
-28.153421448
 30
0.0
 11
1149.7517864185
 21
-26.6368412564
 31
0.0
  0
LINE
  5
C3
330
1F
100
AcDbEntity
  8
0
  6
Continuous
 62
     7
100
AcDbLine
 10
1149.8688470337
 20
-34.6089071729
 30
0.0
 11
1146.6397379894
 21
-32.7445801969
 31
0.0
  0
LINE
  5
C4
330
1F
100
AcDbEntity
  8
0
  6
Continuous
 62
     7
100
AcDbLine
 10
1145.9228495351
 20
-40.6852104683
 30
0.0
 11
1142.9063051218
 21
-38.4935626645
 31
0.0
  0
LINE
  5
C5
330
1F
100
AcDbEntity
  8
0
  6
Continuous
 62
     7
100
AcDbLine
 10
1141.3633219778
 20
-46.315758084
 30
0.0
 11
1138.5923920874
 21
-43.8208016042
 31
0.0
  0
LINE
  5
C6
330
1F
100
AcDbEntity
  8
0
  6
Continuous
 62
     7
100
AcDbLine
 10
1136.2402194999
 20
-51.4388605619
 30
0.0
 11
1133.7452630201
 21
-48.6679306715
 31
0.0
  0
LINE
  5
C7
330
1F
100
AcDbEntity
  8
0
  6
Continuous
 62
     7
100
AcDbLine
 10
1130.6096718842
 20
-55.9983881192
 30
0.0
 11
1128.4180240804
 21
-52.9818437059
 31
0.0
  0
LINE
  5
C8
330
1F
100
AcDbEntity
  8
0
  6
Continuous
 62
     7
100
AcDbLine
 10
1124.5333685887
 20
-59.9443856178
 30
0.0
 11
1122.6690416128
 21
-56.7152765735
 31
0.0
  0
LINE
  5
C9
330
1F
100
AcDbEntity
  8
0
  6
Continuous
 62
     7
100
AcDbLine
 10
1118.0778828639
 20
-63.2336198835
 30
0.0
 11
1116.5613026723
 21
-59.8273250026
 31
0.0
  0
LINE
  5
CA
330
1F
100
AcDbEntity
  8
0
  6
Continuous
 62
     7
100
AcDbLine
 10
1111.3139423622
 20
-65.8300533772
 30
0.0
 11
1110.1617249249
 21
-62.2838927392
 31
0.0
  0
LINE
  5
CB
330
1F
100
AcDbEntity
  8
0
  6
Continuous
 62
     7
100
AcDbLine
 10
1104.3156542312
 20
-67.7052390303
 30
0.0
 11
1103.5404234836
 21
-64.0580651133
 31
0.0
  0
LINE
  5
CC
330
1F
100
AcDbEntity
  8
0
  6
Continuous
 62
     7
100
AcDbLine
 10
1097.1596931802
 20
-68.8386319163
 30
0.0
 11
1096.7699427125
 21
-65.1304039209
 31
0.0
  0
LINE
  5
CD
330
1F
100
AcDbEntity
  8
0
  6
Continuous
 62
     7
100
AcDbLine
 10
1089.9244614159
 20
-69.2178143457
 30
0.0
 11
1089.9244614159
 21
-65.4891603938
 31
0.0
  0
LINE
  5
CE
330
1F
100
AcDbEntity
  8
0
  6
Continuous
 62
     7
100
AcDbLine
 10
1082.6892296516
 20
-68.8386319163
 30
0.0
 11
1083.0789801192
 21
-65.1304039209
 31
0.0
  0
LINE
  5
CF
330
1F
100
AcDbEntity
  8
0
  6
Continuous
 62
     7
100
AcDbLine
 10
1075.5332686006
 20
-67.7052390303
 30
0.0
 11
1076.3084993482
 21
-64.0580651133
 31
0.0
  0
LINE
  5
D0
330
1F
100
AcDbEntity
  8
0
  6
Continuous
 62
     7
100
AcDbLine
 10
1068.5349804696
 20
-65.8300533772
 30
0.0
 11
1069.6871979069
 21
-62.2838927392
 31
0.0
  0
LINE
  5
D1
330
1F
100
AcDbEntity
  8
0
  6
Continuous
 62
     7
100
AcDbLine
 10
1061.7710399679
 20
-63.2336198835
 30
0.0
 11
1063.2876201595
 21
-59.8273250026
 31
0.0
  0
LINE
  5
D2
330
1F
100
AcDbEntity
  8
0
  6
Continuous
 62
     7
100
AcDbLine
 10
1055.315554243
 20
-59.9443856178
 30
0.0
 11
1057.179881219
 21
-56.7152765735
 31
0.0
  0
LINE
  5
D3
330
1F
100
AcDbEntity
  8
0
  6
Continuous
 62
     7
100
AcDbLine
 10
1049.2392509476
 20
-55.9983881192
 30
0.0
 11
1051.4308987514
 21
-52.9818437059
 31
0.0
  0
LINE
  5
D4
330
1F
100
AcDbEntity
  8
0
  6
Continuous
 62
     7
100
AcDbLine
 10
1043.6087033319
 20
-51.4388605619
 30
0.0
 11
1046.1036598117
 21
-48.6679306715
 31
0.0
  0
LINE
  5
D5
330
1F
100
AcDbEntity
  8
0
  6
Continuous
 62
     7
100
AcDbLine
 10
1038.485600854
 20
-46.315758084
 30
0.0
 11
1041.2565307444
 21
-43.8208016042
 31
0.0
  0
LINE
  5
D6
330
1F
100
AcDbEntity
  8
0
  6
Continuous
 62
     7
100
AcDbLine
 10
1033.9260732967
 20
-40.6852104683
 30
0.0
 11
1036.94261771
 21
-38.4935626645
 31
0.0
  0
LINE
  5
D7
330
1F
100
AcDbEntity
  8
0
  6
Continuous
 62
     7
100
AcDbLine
 10
1029.9800757981
 20
-34.6089071729
 30
0.0
 11
1033.2091848423
 21
-32.7445801969
 31
0.0
  0
LINE
  5
D8
330
1F
100
AcDbEntity
  8
0
  6
Continuous
 62
     7
100
AcDbLine
 10
1026.6908415324
 20
-28.153421448
 30
0.0
 11
1030.0971364133
 21
-26.6368412564
 31
0.0
  0
LINE
  5
D9
330
1F
100
AcDbEntity
  8
0
  6
Continuous
 62
     7
100
AcDbLine
 10
1024.0944080387
 20
-21.3894809463
 30
0.0
 11
1027.6405686767
 21
-20.237263509
 31
0.0
  0
LINE
  5
DA
330
1F
100
AcDbEntity
  8
0
  6
Continuous
 62
     7
100
AcDbLine
 10
1022.2192223856
 20
-14.3911928153
 30
0.0
 11
1025.8663963026
 21
-13.6159620677
 31
0.0
  0
LINE
  5
DB
330
1F
100
AcDbEntity
  8
0
  6
Continuous
 62
     7
100
AcDbLine
 10
1021.0858294995
 20
-7.2352317643
 30
0.0
 11
1024.794057495
 21
-6.8454812967
 31
0.0
  0
LINE
  5
DC
330
1F
100
AcDbEntity
  8
0
  6
Continuous
 62
     7
100
AcDbLine
 10
1020.7066470702
 20
0.0
 30
0.0
 11
1024.4353010221
 21
0.0
 31
0.0
  0
LINE
  5
DD
330
1F
100
AcDbEntity
  8
0
  6
Continuous
 62
     7
100
AcDbLine
 10
1021.0858294995
 20
7.2352317643
 30
0.0
 11
1024.794057495
 21
6.8454812966
 31
0.0
  0
LINE
  5
DE
330
1F
100
AcDbEntity
  8
0
  6
Continuous
 62
     7
100
AcDbLine
 10
1022.2192223856
 20
14.3911928153
 30
0.0
 11
1025.8663963026
 21
13.6159620677
 31
0.0
  0
LINE
  5
DF
330
1F
100
AcDbEntity
  8
0
  6
Continuous
 62
     7
100
AcDbLine
 10
1024.0944080387
 20
21.3894809463
 30
0.0
 11
1027.6405686767
 21
20.237263509
 31
0.0
  0
LINE
  5
E0
330
1F
100
AcDbEntity
  8
0
  6
Continuous
 62
     7
100
AcDbLine
 10
1026.6908415324
 20
28.153421448
 30
0.0
 11
1030.0971364133
 21
26.6368412564
 31
0.0
  0
LINE
  5
E1
330
1F
100
AcDbEntity
  8
0
  6
Continuous
 62
     7
100
AcDbLine
 10
1029.9800757981
 20
34.6089071729
 30
0.0
 11
1033.2091848423
 21
32.7445801969
 31
0.0
  0
LINE
  5
E2
330
1F
100
AcDbEntity
  8
0
  6
Continuous
 62
     7
100
AcDbLine
 10
1033.9260732967
 20
40.6852104683
 30
0.0
 11
1036.94261771
 21
38.4935626645
 31
0.0
  0
LINE
  5
E3
330
1F
100
AcDbEntity
  8
0
  6
Continuous
 62
     7
100
AcDbLine
 10
1038.485600854
 20
46.315758084
 30
0.0
 11
1041.2565307444
 21
43.8208016042
 31
0.0
  0
LINE
  5
E4
330
1F
100
AcDbEntity
  8
0
  6
Continuous
 62
     7
100
AcDbLine
 10
1043.6087033319
 20
51.4388605619
 30
0.0
 11
1046.1036598117
 21
48.6679306715
 31
0.0
  0
LINE
  5
E5
330
1F
100
AcDbEntity
  8
0
  6
Continuous
 62
     7
100
AcDbLine
 10
1049.2392509476
 20
55.9983881192
 30
0.0
 11
1051.4308987514
 21
52.9818437059
 31
0.0
  0
LINE
  5
E6
330
1F
100
AcDbEntity
  8
0
  6
CENTERX2
 62
     7
100
AcDbLine
 10
720.5176380902
 20
1.9318516526
 30
0.0
 11
735.5291427061
 21
57.9555495773
 31
0.0
  0
LINE
  5
E7
330
1F
100
AcDbEntity
  8
0
  6
CENTERX2
 62
     7
100
AcDbLine
 10
721.4142135624
 20
1.4142135624
 30
0.0
 11
762.4264068712
 21
42.4264068712
 31
0.0
  0
LINE
  5
E8
330
1F
100
AcDbEntity
  8
0
  6
CENTERX2
 62
     7
100
AcDbLine
 10
721.9318516526
 20
0.5176380902
 30
0.0
 11
777.9555495773
 21
15.5291427062
 31
0.0
  0
LINE
  5
E9
330
1F
100
AcDbEntity
  8
0
  6
CENTERX2
 62
     7
100
AcDbLine
 10
721.9318516526
 20
-0.5176380902
 30
0.0
 11
777.9555495773
 21
-15.5291427061
 31
0.0
  0
LINE
  5
EA
330
1F
100
AcDbEntity
  8
0
  6
CENTERX2
 62
     7
100
AcDbLine
 10
721.4142135624
 20
-1.4142135624
 30
0.0
 11
762.4264068712
 21
-42.4264068712
 31
0.0
  0
LINE
  5
EB
330
1F
100
AcDbEntity
  8
0
  6
CENTERX2
 62
     7
100
AcDbLine
 10
720.5176380902
 20
-1.9318516526
 30
0.0
 11
735.5291427062
 21
-57.9555495773
 31
0.0
  0
LINE
  5
EC
330
1F
100
AcDbEntity
  8
0
  6
CENTERX2
 62
     7
100
AcDbLine
 10
719.4823619098
 20
-1.9318516526
 30
0.0
 11
704.4708572939
 21
-57.9555495773
 31
0.0
  0
LINE
  5
ED
330
1F
100
AcDbEntity
  8
0
  6
CENTERX2
 62
     7
100
AcDbLine
 10
718.5857864376
 20
-1.4142135624
 30
0.0
 11
677.5735931288
 21
-42.4264068712
 31
0.0
  0
LINE
  5
EE
330
1F
100
AcDbEntity
  8
0
  6
CENTERX2
 62
     7
100
AcDbLine
 10
718.0681483474
 20
-0.5176380902
 30
0.0
 11
662.0444504227
 21
-15.5291427062
 31
0.0
  0
LINE
  5
EF
330
1F
100
AcDbEntity
  8
0
  6
CENTERX2
 62
     7
100
AcDbLine
 10
718.0681483474
 20
0.5176380902
 30
0.0
 11
662.0444504227
 21
15.5291427061
 31
0.0
  0
LINE
  5
F0
330
1F
100
AcDbEntity
  8
0
  6
CENTERX2
 62
     7
100
AcDbLine
 10
718.5857864376
 20
1.4142135624
 30
0.0
 11
677.5735931288
 21
42.4264068712
 31
0.0
  0
LINE
  5
F1
330
1F
100
AcDbEntity
  8
0
  6
CENTERX2
 62
     7
100
AcDbLine
 10
719.4823619098
 20
1.9318516526
 30
0.0
 11
704.4708572938
 21
57.9555495774
 31
0.0
  0
LINE
  5
F2
330
1F
100
AcDbEntity
  8
0
  6
CENTERX2
 62
     7
100
AcDbLine
 10
484.8000366917
 20
23.5151876617
 30
0.0
 11
538.1600012231
 21
0.7838395887
 31
0.0
  0
LINE
  5
F3
330
1F
100
AcDbEntity
  8
0
  6
CENTERX2
 62
     7
100
AcDbLine
 10
539.7588256079
 20
1.9854054781
 30
0.0
 11
532.7647682357
 21
59.5621643438
 31
0.0
  0
LINE
  5
F4
330
1F
100
AcDbEntity
  8
0
  6
Continuous
 62
     7
100
AcDbLine
 10
360.0
 20
60.0
 30
0.0
 11
360.0
 21
2.0
 31
0.0
  0
LINE
  5
F5
330
1F
100
AcDbEntity
  8
0
  6
Continuous
 62
     7
100
AcDbLine
 10
362.0
 20
0.0
 30
0.0
 11
420.0
 21
0.0
 31
0.0
  0
LINE
  5
F6
330
1F
100
AcDbEntity
  8
0
  6
CENTERX2
 62
     7
100
AcDbLine
 10
541.5988243848
 20
1.2015658894
 30
0.0
 11
587.964731544
 21
36.0469766821
 31
0.0
  0
LINE
  5
F7
330
1F
100
AcDbEntity
  8
0
  6
Continuous
 62
     7
100
AcDbLine
 10
541.9854054781
 20
0.2411743921
 30
0.0
 11
599.5621643438
 21
7.2352317643
 31
0.0
  0
LINE
  5
F8
330
1F
100
AcDbEntity
  8
0
  6
CENTERX2
 62
     7
100
AcDbLine
 10
541.8399987769
 20
-0.7838395887
 30
0.0
 11
595.1999633083
 21
-23.5151876617
 31
0.0
  0
LINE
  5
F9
330
1F
100
AcDbEntity
  8
0
  6
Continuous
 62
     7
100
AcDbLine
 10
721.0
 20
1.7320508076
 30
0.0
 11
750.0
 21
51.9615242271
 31
0.0
  0
LINE
  5
FA
330
1F
100
AcDbEntity
  8
0
  6
Continuous
 62
     7
100
AcDbLine
 10
719.4823619098
 20
-1.9318516526
 30
0.0
 11
704.4708572939
 21
-57.9555495773
 31
0.0
  0
LINE
  5
FB
330
1F
100
AcDbEntity
  8
0
  6
Continuous
 62
     7
100
AcDbLine
 10
704.4708572938
 20
57.9555495774
 30
0.0
 11
719.4823619098
 21
1.9318516526
 31
0.0
  0
LINE
  5
FC
330
1F
100
AcDbEntity
  8
0
  6
Continuous
 62
     7
100
AcDbLine
 10
735.5291427061
 20
57.9555495773
 30
0.0
 11
720.5176380902
 21
1.9318516526
 31
0.0
  0
LINE
  5
FD
330
1F
100
AcDbEntity
  8
0
  6
Continuous
 62
     7
100
AcDbLine
 10
677.5735931288
 20
42.4264068712
 30
0.0
 11
718.5857864376
 21
1.4142135624
 31
0.0
  0
LINE
  5
FE
330
1F
100
AcDbEntity
  8
0
  6
Continuous
 62
     7
100
AcDbLine
 10
762.4264068712
 20
42.4264068712
 30
0.0
 11
721.4142135624
 21
1.4142135624
 31
0.0
  0
LINE
  5
FF
330
1F
100
AcDbEntity
  8
0
  6
Continuous
 62
     7
100
AcDbLine
 10
721.9318516526
 20
-0.5176380902
 30
0.0
 11
777.9555495773
 21
-15.5291427061
 31
0.0
  0
LINE
  5
100
330
1F
100
AcDbEntity
  8
0
  6
Continuous
 62
     7
100
AcDbLine
 10
662.0444504227
 20
-15.5291427062
 30
0.0
 11
718.0681483474
 21
-0.5176380902
 31
0.0
  0
LINE
  5
101
330
1F
100
AcDbEntity
  8
0
  6
Continuous
 62
     7
100
AcDbLine
 10
720.5176380902
 20
-1.9318516526
 30
0.0
 11
735.5291427062
 21
-57.9555495773
 31
0.0
  0
LINE
  5
102
330
1F
100
AcDbEntity
  8
0
  6
Continuous
 62
     7
100
AcDbLine
 10
721.4142135624
 20
-1.4142135624
 30
0.0
 11
762.4264068712
 21
-42.4264068712
 31
0.0
  0
LINE
  5
103
330
1F
100
AcDbEntity
  8
0
  6
Continuous
 62
     7
100
AcDbLine
 10
718.5857864376
 20
-1.4142135624
 30
0.0
 11
677.5735931288
 21
-42.4264068712
 31
0.0
  0
LINE
  5
104
330
1F
100
AcDbEntity
  8
0
  6
Continuous
 62
     7
100
AcDbLine
 10
719.0
 20
-1.7320508076
 30
0.0
 11
690.0
 21
-51.9615242271
 31
0.0
  0
LWPOLYLINE
  5
105
330
1F
100
AcDbEntity
  8
0
  6
Continuous
 62
     7
100
AcDbPolyline
 90
       12
 70
   128
 43
0.0
 10
442.3732757568
 20
-151.3092766921
 10
443.020620898
 20
-151.3092766921
 10
443.020620898
 20
-151.3092766921
 10
443.020620898
 20
-154.8092766921
 10
443.020620898
 20
-154.8092766921
 10
442.7065183339
 20
-154.8092766921
 10
442.7065183339
 20
-154.8092766921
 10
442.7065183339
 20
-151.6682510511
 10
442.7065183339
 20
-151.6682510511
 10
442.1680567954
 20
-151.6682510511
 10
442.1680567954
 20
-151.6682510511
 10
442.3734854813
 20
-151.3092766921
  0
LWPOLYLINE
  5
106
330
1F
100
AcDbEntity
  8
0
  6
Continuous
 62
     7
100
AcDbPolyline
 90
      106
 70
   128
 43
0.0
 10
446.1166858673
 20
-152.386199769
 10
445.80267218
 20
-152.386199769
 10
445.80267218
 20
-152.386199769
 10
445.8110856416
 20
-152.2614000895
 10
445.8293148082
 20
-152.1422093844
 10
445.8566585582
 20
-152.0293287754
 10
445.8945191352
 20
-151.921356019
 10
445.9414942954
 20
-151.8196933587
 10
445.9982851608
 20
-151.7229385511
 10
446.0648917313
 20
-151.6324938395
 10
446.1413140069
 20
-151.5476581023
 10
446.2247475005
 20
-151.4705347049
 10
446.3137899685
 20
-151.4039281344
 10
446.4070391672
 20
-151.3478383908
 10
446.5044950967
 20
-151.3015643523
 10
446.6075600005
 20
-151.2658071408
 10
446.7148316352
 20
-151.2398656344
 10
446.8270111223
 20
-151.2244409549
 10
446.9440984621
 20
-151.2195331023
 10
446.9440984621
 20
-151.2195331023
 10
447.0590824364
 20
-151.2244409549
 10
447.1691585582
 20
-151.2391645126
 10
447.2729245839
 20
-151.2630026536
 10
447.3717827569
 20
-151.2966564998
 10
447.4643308339
 20
-151.3408271728
 10
447.5512699364
 20
-151.3941124293
 10
447.6333011864
 20
-151.456512269
 10
447.7090223403
 20
-151.5294289357
 10
447.7777322762
 20
-151.6086556985
 10
447.8366265069
 20
-151.6913880703
 10
447.8871072762
 20
-151.7776260511
 10
447.9284734621
 20
-151.866668519
 10
447.9600239428
 20
-151.9599177177
 10
447.9831609621
 20
-152.0566725254
 10
447.9964822762
 20
-152.1562318203
 10
448.0013901287
 20
-152.2599978459
 10
448.0013901287
 20
-152.2599978459
 10
447.9922755454
 20
-152.4058311793
 10
447.9649317954
 20
-152.54675666
 10
447.9200600005
 20
-152.6827742882
 10
447.8562579172
 20
-152.8145851857
 10
447.8155928531
 20
-152.881892878
 10
447.7665143275
 20
-152.9555106664
 10
447.7090223403
 20
-153.0347374293
 10
447.6431168916
 20
-153.1188720446
 10
447.5680968595
 20
-153.210017878
 10
447.4853644877
 20
-153.3060715639
 10
447.3935175326
 20
-153.4077342241
 10
447.2932571159
 20
-153.5157069805
 10
447.2932571159
 20
-153.5157069805
 10
446.4175559941
 20
-154.4503023331
 10
446.4175559941
 20
-154.4503023331
 10
448.0462619236
 20
-154.4503023331
 10
448.0462619236
 20
-154.4503023331
 10
448.0462619236
 20
-154.8092766921
 10
448.0462619236
 20
-154.8092766921
 10
445.6680567954
 20
-154.8092766921
 10
445.6680567954
 20
-154.8092766921
 10
447.0254285903
 20
-153.3607590639
 10
447.0254285903
 20
-153.3607590639
 10
447.1242867634
 20
-153.2569930382
 10
447.2140303531
 20
-153.1602382305
 10
447.2946593595
 20
-153.0704946408
 10
447.3661737826
 20
-152.987762269
 10
447.4285736223
 20
-152.9113399934
 10
447.4825600005
 20
-152.8426300575
 10
447.5267306736
 20
-152.7802302177
 10
447.5624878852
 20
-152.7248415959
 10
447.6171753852
 20
-152.6196733267
 10
447.6564382057
 20
-152.5117005703
 10
447.6795752249
 20
-152.4016244485
 10
447.6872875646
 20
-152.2880427177
 10
447.6872875646
 20
-152.2880427177
 10
447.6837819557
 20
-152.2165282946
 10
447.6732651287
 20
-152.1478183587
 10
447.6564382057
 20
-152.08191291
 10
447.6326000646
 20
-152.0181108267
 10
447.6010495839
 20
-151.9564121087
 10
447.5631890069
 20
-151.8982189998
 10
447.5190183339
 20
-151.8421292562
 10
447.4671353211
 20
-151.788142878
 10
447.4103444557
 20
-151.7390643523
 10
447.3507491031
 20
-151.6962959228
 10
447.2883492634
 20
-151.6605387113
 10
447.2224438146
 20
-151.6310915959
 10
447.1530327569
 20
-151.6079545767
 10
447.0815183339
 20
-151.5918287754
 10
447.0064983018
 20
-151.5820130703
 10
446.9279726608
 20
-151.5785074613
 10
446.9279726608
 20
-151.5785074613
 10
446.8459414108
 20
-151.5820130703
 10
446.7674157698
 20
-151.5918287754
 10
446.6923957377
 20
-151.6086556985
 10
446.6208813146
 20
-151.6317927177
 10
446.5528725005
 20
-151.6612398331
 10
446.4883692954
 20
-151.6976981664
 10
446.4273716993
 20
-151.7411677177
 10
446.3698797121
 20
-151.7909473652
 10
446.3172955775
 20
-151.8463359869
 10
446.271021539
 20
-151.9073335831
 10
446.2303564749
 20
-151.9739401536
 10
446.1953003852
 20
-152.0454545767
 10
446.1665543916
 20
-152.1225779741
 10
446.1441184941
 20
-152.2053103459
 10
446.1272915711
 20
-152.2929505703
 10
446.1167747441
 20
-152.386199769
  0
LWPOLYLINE
  5
107
330
1F
100
AcDbEntity
  8
0
  6
Continuous
 62
     7
100
AcDbPolyline
 90
      184
 70
   128
 43
0.0
 10
450.1550197601
 20
-152.1169689998
 10
449.8411337185
 20
-152.1169689998
 10
449.8411337185
 20
-152.1169689998
 10
449.8684774685
 20
-152.0118007305
 10
449.9021313146
 20
-151.9136436793
 10
449.9406930134
 20
-151.8210956023
 10
449.9855648082
 20
-151.7348576216
 10
450.0353444557
 20
-151.6549297369
 10
450.0914341993
 20
-151.5813119485
 10
450.1531329172
 20
-151.5133031344
 10
450.2204406095
 20
-151.4523055382
 10
450.2919550326
 20
-151.3976180382
 10
450.3669750646
 20
-151.350642878
 10
450.4447995839
 20
-151.3106789357
 10
450.5261297121
 20
-151.2777262113
 10
450.6109654493
 20
-151.2524858267
 10
450.6986056736
 20
-151.23425666
 10
450.7890503852
 20
-151.2230387113
 10
450.8830007057
 20
-151.2195331023
 10
450.8830007057
 20
-151.2195331023
 10
451.0197194557
 20
-151.2272454421
 10
451.1515303531
 20
-151.2510835831
 10
451.278433398
 20
-151.2903464036
 10
451.4011297121
 20
-151.3450339036
 10
451.5147114428
 20
-151.4130427177
 10
451.6142707377
 20
-151.4922694805
 10
451.7005087185
 20
-151.5827141921
 10
451.7734253852
 20
-151.6836757305
 10
451.8309173723
 20
-151.7916484869
 10
451.8722835582
 20
-151.9017246087
 10
451.8968228211
 20
-152.0139040959
 10
451.9052362826
 20
-152.1288880703
 10
451.9052362826
 20
-152.1288880703
 10
451.8989261864
 20
-152.2396653139
 10
451.879995898
 20
-152.3441324613
 10
451.8477442954
 20
-152.4429906344
 10
451.8028725005
 20
-152.5362398331
 10
451.7453805134
 20
-152.6231789357
 10
451.6752683339
 20
-152.7045090639
 10
451.5925359621
 20
-152.7795290959
 10
451.4964822762
 20
-152.8489401536
 10
451.4964822762
 20
-152.8489401536
 10
451.606558398
 20
-152.905731019
 10
451.7068188146
 20
-152.9744409549
 10
451.7965624044
 20
-153.0550699613
 10
451.8757891672
 20
-153.1476180382
 10
451.8757891672
 20
-153.1476180382
 10
451.9248676928
 20
-153.2177302177
 10
451.9669350005
 20
-153.2906468844
 10
452.0033933339
 20
-153.3649657946
 10
452.0328404493
 20
-153.4420891921
 10
452.0552763467
 20
-153.5206148331
 10
452.071402148
 20
-153.6012438395
 10
452.0812178531
 20
-153.6846773331
 10
452.0847234621
 20
-153.7695130703
 10
452.0847234621
 20
-153.7695130703
 10
452.0749077569
 20
-153.9160475254
 10
452.0447595198
 20
-154.0590763716
 10
451.9949798723
 20
-154.1993007305
 10
451.9248676928
 20
-154.3353183587
 10
451.8379285903
 20
-154.4622214036
 10
451.7369670518
 20
-154.573699769
 10
451.6205808339
 20
-154.6704545767
 10
451.49017218
 20
-154.7517847049
 10
451.3485455775
 20
-154.81628791
 10
451.1985055134
 20
-154.8618608267
 10
451.0400519877
 20
-154.8899056985
 10
450.8738861223
 20
-154.8990202818
 10
450.8738861223
 20
-154.8990202818
 10
450.7617066352
 20
-154.8948135511
 10
450.6537338787
 20
-154.8828944805
 10
450.5506689749
 20
-154.8618608267
 10
450.4525119236
 20
-154.8331148331
 10
450.3592627249
 20
-154.7966564998
 10
450.2709213787
 20
-154.7517847049
 10
450.1867867634
 20
-154.6984994485
 10
450.1075600005
 20
-154.6368007305
 10
450.0339422121
 20
-154.5673896728
 10
449.9673356416
 20
-154.4902662754
 10
449.9070391672
 20
-154.4054305382
 10
449.8537539108
 20
-154.3128824613
 10
449.8067787505
 20
-154.2133231664
 10
449.7668148082
 20
-154.10535041
 10
449.7331609621
 20
-153.9903664357
 10
449.7065183339
 20
-153.8669689998
 10
449.7065183339
 20
-153.8669689998
 10
450.020620898
 20
-153.8669689998
 10
450.020620898
 20
-153.8669689998
 10
450.0458612826
 20
-153.9475980062
 10
450.0732050326
 20
-154.0226180382
 10
450.1040543916
 20
-154.0920290959
 10
450.1370071159
 20
-154.1551300575
 10
450.1720632057
 20
-154.2126220446
 10
450.2106249044
 20
-154.2645050575
 10
450.2512899685
 20
-154.3107790959
 10
450.2947595198
 20
-154.3507430382
 10
450.2947595198
 20
-154.3507430382
 10
450.3543548723
 20
-154.3949137113
 10
450.4174558339
 20
-154.43347541
 10
450.4847635262
 20
-154.4664281344
 10
450.5555768275
 20
-154.4923696408
 10
450.6305968595
 20
-154.5134032946
 10
450.7098236223
 20
-154.5281268523
 10
450.7925559941
 20
-154.5372414357
 10
450.8794950967
 20
-154.5400459228
 10
450.8794950967
 20
-154.5400459228
 10
450.977652148
 20
-154.5365403139
 10
451.0709013467
 20
-154.5260234869
 10
451.1592426928
 20
-154.5091965639
 10
451.2426761864
 20
-154.4846573011
 10
451.3205007057
 20
-154.4538079421
 10
451.3941184941
 20
-154.4152462434
 10
451.4621273082
 20
-154.3703744485
 10
451.5259293916
 20
-154.3184914357
 10
451.5834213787
 20
-154.2617005703
 10
451.6332010262
 20
-154.2028063395
 10
451.6752683339
 20
-154.1418087434
 10
451.7096233018
 20
-154.07800666
 10
451.73626593
 20
-154.0121012113
 10
451.7551962185
 20
-153.9433912754
 10
451.767115289
 20
-153.8725779741
 10
451.770620898
 20
-153.7996613075
 10
451.770620898
 20
-153.7996613075
 10
451.7629085582
 20
-153.702205378
 10
451.7404726608
 20
-153.6075539357
 10
451.7026120839
 20
-153.5164081023
 10
451.6493268275
 20
-153.428767878
 10
451.5834213787
 20
-153.3474377498
 10
451.5077002249
 20
-153.2766244485
 10
451.4207611223
 20
-153.2170290959
 10
451.3240063146
 20
-153.1679505703
 10
451.2700199364
 20
-153.1469169164
 10
451.2083212185
 20
-153.127986628
 10
451.1403124044
 20
-153.1118608267
 10
451.0645912505
 20
-153.097137269
 10
450.9825600005
 20
-153.0845170767
 10
450.8935175326
 20
-153.0740002498
 10
450.7967627249
 20
-153.0655867882
 10
450.6936978211
 20
-153.0592766921
 10
450.6936978211
 20
-153.0592766921
 10
450.6936978211
 20
-152.7003023331
 10
450.6936978211
 20
-152.7003023331
 10
450.8234053531
 20
-152.6953944805
 10
450.946802789
 20
-152.6792686793
 10
451.0645912505
 20
-152.6540282946
 10
451.1760696159
 20
-152.6175699613
 10
451.2777322762
 20
-152.5733992882
 10
451.3639702569
 20
-152.5236196408
 10
451.43548468
 20
-152.468231019
 10
451.4922755454
 20
-152.4072334228
 10
451.5357450967
 20
-152.3413279741
 10
451.5665944557
 20
-152.27331916
 10
451.5848236223
 20
-152.2018047369
 10
451.5911337185
 20
-152.1274858267
 10
451.5911337185
 20
-152.1274858267
 10
451.5883292313
 20
-152.0727983267
 10
451.5785135262
 20
-152.0195130703
 10
451.5630888467
 20
-151.9690323011
 10
451.5413540711
 20
-151.9192526536
 10
451.5133091993
 20
-151.8722774934
 10
451.4789542313
 20
-151.8267045767
 10
451.4382891672
 20
-151.7832350254
 10
451.3913140069
 20
-151.7418688395
 10
451.3401321159
 20
-151.7033071408
 10
451.2854446159
 20
-151.6703544164
 10
451.2272515069
 20
-151.6423095446
 10
451.165552789
 20
-151.6191725254
 10
451.1010495839
 20
-151.6016444805
 10
451.0330407698
 20
-151.5890242882
 10
450.9615263467
 20
-151.5813119485
 10
450.8872074364
 20
-151.5785074613
 10
450.8872074364
 20
-151.5785074613
 10
450.7680167313
 20
-151.5862198011
 10
450.6565383659
 20
-151.6093568203
 10
450.5541745839
 20
-151.6472173972
 10
450.4595231416
 20
-151.7012037754
 10
450.4153524685
 20
-151.7348576216
 10
450.3732851608
 20
-151.7734193203
 10
450.3326200967
 20
-151.8168888716
 10
450.294058398
 20
-151.866668519
 10
450.2561978211
 20
-151.921356019
 10
450.2211417313
 20
-151.9809513716
 10
450.1874878852
 20
-152.0461556985
 10
450.1552362826
 20
-152.1169689998
  0
LWPOLYLINE
  5
108
330
1F
100
AcDbEntity
  8
0
  6
Continuous
 62
     7
100
AcDbPolyline
 90
       20
 70
   128
 43
0.0
 10
455.65533638
 20
-151.2195331023
 10
455.7193388467
 20
-151.2195331023
 10
455.7193388467
 20
-151.2195331023
 10
455.7193388467
 20
-153.6426100254
 10
455.7193388467
 20
-153.6426100254
 10
456.1231850005
 20
-153.6426100254
 10
456.1231850005
 20
-153.6426100254
 10
456.1231850005
 20
-154.0015843844
 10
456.1231850005
 20
-154.0015843844
 10
455.7193388467
 20
-154.0015843844
 10
455.7193388467
 20
-154.0015843844
 10
455.7193388467
 20
-154.8092766921
 10
455.7193388467
 20
-154.8092766921
 10
455.4052362826
 20
-154.8092766921
 10
455.4052362826
 20
-154.8092766921
 10
455.4052362826
 20
-154.0015843844
 10
455.4052362826
 20
-154.0015843844
 10
453.7449798723
 20
-154.0015843844
 10
453.7449798723
 20
-154.0015843844
 10
455.6555367634
 20
-151.2195331023
  0
LWPOLYLINE
  5
109
330
1F
100
AcDbEntity
  8
0
  6
Continuous
 62
     7
100
AcDbPolyline
 90
        6
 70
   128
 43
0.0
 10
455.4052352905
 20
-153.6426100254
 10
455.4052362826
 20
-152.1225779741
 10
455.4052362826
 20
-152.1225779741
 10
454.3619670518
 20
-153.6426100254
 10
454.3619670518
 20
-153.6426100254
 10
455.4052362826
 20
-153.6426100254
  0
LWPOLYLINE
  5
10A
330
1F
100
AcDbEntity
  8
0
  6
Continuous
 62
     7
100
AcDbPolyline
 90
      132
 70
   128
 43
0.0
 10
459.9821567535
 20
-151.3092766921
 10
459.9821593595
 20
-151.6682510511
 10
459.9821593595
 20
-151.6682510511
 10
458.7916545518
 20
-151.6682510511
 10
458.7916545518
 20
-151.6682510511
 10
458.603052789
 20
-152.5888239677
 10
458.603052789
 20
-152.5888239677
 10
458.7145311544
 20
-152.5593768523
 10
458.8204005454
 20
-152.5376420767
 10
458.9206609621
 20
-152.5250218844
 10
459.0153124044
 20
-152.5208151536
 10
459.0153124044
 20
-152.5208151536
 10
459.1323997441
 20
-152.5257230062
 10
459.2445792313
 20
-152.5411476857
 10
459.3511497441
 20
-152.5663880703
 10
459.4528124044
 20
-152.60144416
 10
459.5488660903
 20
-152.6463159549
 10
459.6393108018
 20
-152.7017045767
 10
459.7248476608
 20
-152.7669089036
 10
459.8054766672
 20
-152.8426300575
 10
459.8783933339
 20
-152.9260635511
 10
459.9414942954
 20
-153.0144048972
 10
459.9954806736
 20
-153.1090563395
 10
460.0389502249
 20
-153.2086156344
 10
460.0733051928
 20
-153.3144850254
 10
460.0971433339
 20
-153.4259633908
 10
460.1118668916
 20
-153.5430507305
 10
460.1167747441
 20
-153.6657470446
 10
460.1167747441
 20
-153.6657470446
 10
460.1139702569
 20
-153.7512839036
 10
460.106959039
 20
-153.835418519
 10
460.0943388467
 20
-153.917449769
 10
460.0768108018
 20
-153.9980787754
 10
460.0543749044
 20
-154.0766044164
 10
460.0270311544
 20
-154.1530266921
 10
459.99407843
 20
-154.2280467241
 10
459.9569189749
 20
-154.3016645126
 10
459.915552789
 20
-154.3717766921
 10
459.8699798723
 20
-154.4376821408
 10
459.8216024685
 20
-154.4993808587
 10
459.7697194557
 20
-154.5568728459
 10
459.7136297121
 20
-154.6101581023
 10
459.6540343595
 20
-154.659236628
 10
459.5916345198
 20
-154.7041084228
 10
459.5250279493
 20
-154.7447734869
 10
459.4556168916
 20
-154.7812318203
 10
459.3834013467
 20
-154.8120811793
 10
459.3090824364
 20
-154.8387238075
 10
459.231959039
 20
-154.8604585831
 10
459.1520311544
 20
-154.8772855062
 10
459.0692987826
 20
-154.8892045767
 10
458.9837619236
 20
-154.8969169164
 10
458.8961216993
 20
-154.8990202818
 10
458.8961216993
 20
-154.8990202818
 10
458.7916545518
 20
-154.8948135511
 10
458.6913941352
 20
-154.8814922369
 10
458.5953404493
 20
-154.8604585831
 10
458.5034934941
 20
-154.8303103459
 10
458.4158532698
 20
-154.7917486472
 10
458.3324197762
 20
-154.7440723652
 10
458.2524918916
 20
-154.6886837434
 10
458.1774718595
 20
-154.6241805382
 10
458.1080608018
 20
-154.5526661152
 10
458.0463620839
 20
-154.4762438395
 10
457.9916745839
 20
-154.3949137113
 10
457.9439983018
 20
-154.3079746087
 10
457.9040343595
 20
-154.2168287754
 10
457.8717827569
 20
-154.1200739677
 10
457.8465423723
 20
-154.0184113075
 10
457.8283132057
 20
-153.9118407946
 10
457.8283132057
 20
-153.9118407946
 10
458.1424157698
 20
-153.9118407946
 10
458.1424157698
 20
-153.9118407946
 10
458.1676561544
 20
-154.0114000895
 10
458.1999077569
 20
-154.1004425575
 10
458.2398716993
 20
-154.1803704421
 10
458.2868468595
 20
-154.2504826216
 10
458.3422354813
 20
-154.3121813395
 10
458.4060375646
 20
-154.3675699613
 10
458.4782531095
 20
-154.4173496087
 10
458.5588821159
 20
-154.4601180382
 10
458.6444189749
 20
-154.495174128
 10
458.7327603211
 20
-154.5197133908
 10
458.8225039108
 20
-154.5351380703
 10
458.9143508659
 20
-154.5400459228
 10
458.9143508659
 20
-154.5400459228
 10
459.0040944557
 20
-154.5358391921
 10
459.0903324364
 20
-154.5239201216
 10
459.17376593
 20
-154.5042887113
 10
459.2536938146
 20
-154.4762438395
 10
459.3301160903
 20
-154.4411877498
 10
459.4037338787
 20
-154.3970170767
 10
459.4738460582
 20
-154.3458351857
 10
459.5411537505
 20
-154.2862398331
 10
459.6021513467
 20
-154.2210355062
 10
459.6554366031
 20
-154.1516244485
 10
459.700308398
 20
-154.07800666
 10
459.7374678531
 20
-154.0008832626
 10
459.7662138467
 20
-153.9195531344
 10
459.7865463787
 20
-153.8347173972
 10
459.7984654493
 20
-153.7456749293
 10
459.80267218
 20
-153.6524257305
 10
459.80267218
 20
-153.6524257305
 10
459.7991665711
 20
-153.5682911152
 10
459.7886497441
 20
-153.4883632305
 10
459.7704205775
 20
-153.4126420767
 10
459.7451801928
 20
-153.3411276536
 10
459.7129285903
 20
-153.2731188395
 10
459.6736657698
 20
-153.2093167562
 10
459.6266906095
 20
-153.1497214036
 10
459.5727042313
 20
-153.0943327818
 10
459.5131088787
 20
-153.0438520126
 10
459.4479045518
 20
-153.0003824613
 10
459.3784934941
 20
-152.963924128
 10
459.3041745839
 20
-152.933074769
 10
459.2249478211
 20
-152.9099377498
 10
459.1408132057
 20
-152.8931108267
 10
459.0524718595
 20
-152.8832951216
 10
458.958521539
 20
-152.8797895126
 10
458.958521539
 20
-152.8797895126
 10
458.8771914108
 20
-152.8825939998
 10
458.79095343
 20
-152.8910074613
 10
458.7012098403
 20
-152.9050298972
 10
458.606558398
 20
-152.9246613075
 10
458.5084013467
 20
-152.9499016921
 10
458.4053364428
 20
-152.9807510511
 10
458.29876593
 20
-153.0172093844
 10
458.1872875646
 20
-153.0592766921
 10
458.1872875646
 20
-153.0592766921
 10
458.5462619236
 20
-151.3092766921
 10
458.5462619236
 20
-151.3092766921
 10
459.9821593595
 20
-151.3092766921
  0
LWPOLYLINE
  5
10B
330
1F
100
AcDbEntity
  8
0
  6
Continuous
 62
     7
100
AcDbPolyline
 90
       65
 70
   128
 43
0.0
 10
463.4370803833
 20
-151.2195331023
 10
463.6791745839
 20
-151.4095371087
 10
463.6791745839
 20
-151.4095371087
 10
462.7543949364
 20
-152.823699769
 10
462.7543949364
 20
-152.823699769
 10
462.9394910903
 20
-152.7984593844
 10
463.1168749044
 20
-152.7900459228
 10
463.1168749044
 20
-152.7900459228
 10
463.2234454172
 20
-152.7949537754
 10
463.3258091993
 20
-152.8089762113
 10
463.4239662505
 20
-152.8321132305
 10
463.5179165711
 20
-152.8650659549
 10
463.6076601608
 20
-152.9071332626
 10
463.6938981416
 20
-152.9583151536
 10
463.7752282698
 20
-153.0193127498
 10
463.853052789
 20
-153.0894249293
 10
463.9238660903
 20
-153.1665483267
 10
463.9855648082
 20
-153.2478784549
 10
464.0374478211
 20
-153.3334153139
 10
464.0795151287
 20
-153.4231589036
 10
464.1124678531
 20
-153.5178103459
 10
464.1363059941
 20
-153.616668519
 10
464.15032843
 20
-153.7197334228
 10
464.1552362826
 20
-153.8270050575
 10
464.1552362826
 20
-153.8270050575
 10
464.1468228211
 20
-153.9735395126
 10
464.1201801928
 20
-154.1130627498
 10
464.0767106416
 20
-154.2448736472
 10
464.0150119236
 20
-154.3703744485
 10
463.9378885262
 20
-154.4853584228
 10
463.8453404493
 20
-154.5877222049
 10
463.7387699364
 20
-154.6781669164
 10
463.6167747441
 20
-154.7559914357
 10
463.4856649685
 20
-154.8183912754
 10
463.3489462185
 20
-154.8632630703
 10
463.2080207377
 20
-154.8899056985
 10
463.0614862826
 20
-154.8990202818
 10
463.0614862826
 20
-154.8990202818
 10
462.9205608018
 20
-154.8906068203
 10
462.7845431736
 20
-154.8646653139
 10
462.653433398
 20
-154.8211957626
 10
462.5279325967
 20
-154.7608992882
 10
462.4115463787
 20
-154.6844770126
 10
462.3084814749
 20
-154.5940323011
 10
462.2180367634
 20
-154.4895651536
 10
462.1416144877
 20
-154.3710755703
 10
462.0806168916
 20
-154.2427702818
 10
462.0364462185
 20
-154.1109593844
 10
462.0105047121
 20
-153.9742406344
 10
462.0013901287
 20
-153.8333151536
 10
462.0013901287
 20
-153.8333151536
 10
462.0069991031
 20
-153.7253423972
 10
462.0231249044
 20
-153.6138640318
 10
462.0497675326
 20
-153.5002823011
 10
462.0869269877
 20
-153.3838960831
 10
462.1107651287
 20
-153.3235996087
 10
462.1381088787
 20
-153.2597975254
 10
462.1703604813
 20
-153.1938920767
 10
462.2061176928
 20
-153.124481019
 10
462.2467827569
 20
-153.0515643523
 10
462.29095343
 20
-152.9765443203
 10
462.3400319557
 20
-152.8980186793
 10
462.3926160903
 20
-152.8166885511
 10
462.3926160903
 20
-152.8166885511
 10
463.4372875646
 20
-151.2195331023
  0
LWPOLYLINE
  5
10C
330
1F
100
AcDbEntity
  8
0
  6
Continuous
 62
     7
100
AcDbPolyline
 90
       68
 70
   128
 43
0.0
 10
463.0508422852
 20
-153.1490202818
 10
462.9710415711
 20
-153.1525258908
 10
462.8953204172
 20
-153.1616404741
 10
462.8231048723
 20
-153.1777662754
 10
462.7543949364
 20
-153.1995010511
 10
462.6898917313
 20
-153.2282470446
 10
462.6295952569
 20
-153.2633031344
 10
462.5728043916
 20
-153.3046693203
 10
462.5195191352
 20
-153.3523456023
 10
462.4718428531
 20
-153.4042286152
 10
462.4304766672
 20
-153.4596172369
 10
462.3954205775
 20
-153.5171092241
 10
462.3666745839
 20
-153.5774056985
 10
462.3442386864
 20
-153.64050666
 10
462.3281128852
 20
-153.7064121087
 10
462.3189983018
 20
-153.7744209228
 10
462.3154926928
 20
-153.8459353459
 10
462.3154926928
 20
-153.8459353459
 10
462.3189983018
 20
-153.9167486472
 10
462.3295151287
 20
-153.9840563395
 10
462.3470431736
 20
-154.0499617882
 10
462.3715824364
 20
-154.112361628
 10
462.4024317954
 20
-154.1726581023
 10
462.4409934941
 20
-154.2294489677
 10
462.485865289
 20
-154.2848375895
 10
462.5384494236
 20
-154.3367206023
 10
462.5959414108
 20
-154.3843968844
 10
462.6562378852
 20
-154.4257630703
 10
462.7193388467
 20
-154.46081916
 10
462.7852442954
 20
-154.4888640318
 10
462.8539542313
 20
-154.5112999293
 10
462.9261697762
 20
-154.5274257305
 10
463.0004886864
 20
-154.5365403139
 10
463.0783132057
 20
-154.5400459228
 10
463.0783132057
 20
-154.5400459228
 10
463.1561377249
 20
-154.5365403139
 10
463.2304566352
 20
-154.5274257305
 10
463.30267218
 20
-154.5112999293
 10
463.3713821159
 20
-154.4888640318
 10
463.4372875646
 20
-154.46081916
 10
463.5003885262
 20
-154.4257630703
 10
463.5599838787
 20
-154.3843968844
 10
463.6174758659
 20
-154.3367206023
 10
463.6700600005
 20
-154.2848375895
 10
463.7156329172
 20
-154.2294489677
 10
463.7534934941
 20
-154.1726581023
 10
463.7850439749
 20
-154.112361628
 10
463.8095832377
 20
-154.0499617882
 10
463.8271112826
 20
-153.9840563395
 10
463.8376281095
 20
-153.9167486472
 10
463.8411337185
 20
-153.8459353459
 10
463.8411337185
 20
-153.8459353459
 10
463.8376281095
 20
-153.7744209228
 10
463.8264101608
 20
-153.7064121087
 10
463.8088821159
 20
-153.64050666
 10
463.7836417313
 20
-153.5774056985
 10
463.7506890069
 20
-153.5171092241
 10
463.7107250646
 20
-153.4596172369
 10
463.6637499044
 20
-153.4042286152
 10
463.6097635262
 20
-153.3523456023
 10
463.5501681736
 20
-153.3046693203
 10
463.4877683339
 20
-153.2633031344
 10
463.4225640069
 20
-153.2282470446
 10
463.3545551928
 20
-153.1995010511
 10
463.2830407698
 20
-153.1777662754
 10
463.2087218595
 20
-153.1616404741
 10
463.1315984621
 20
-153.1525258908
 10
463.0509694557
 20
-153.1490202818
  0
LWPOLYLINE
  5
10D
330
1F
100
AcDbEntity
  8
0
  6
Continuous
 62
     7
100
AcDbPolyline
 90
       12
 70
   128
 43
0.0
 10
466.0847187042
 20
-151.3092766921
 10
468.2385696159
 20
-151.3092766921
 10
468.2385696159
 20
-151.3092766921
 10
466.3988260262
 20
-154.8990202818
 10
466.3988260262
 20
-154.8990202818
 10
466.1274918916
 20
-154.7496813395
 10
466.1274918916
 20
-154.7496813395
 10
467.7071192954
 20
-151.6682510511
 10
467.7071192954
 20
-151.6682510511
 10
466.0847234621
 20
-151.6682510511
 10
466.0847234621
 20
-151.6682510511
 10
466.0847234621
 20
-151.3092766921
  0
LWPOLYLINE
  5
10E
330
1F
100
AcDbEntity
  8
0
  6
Continuous
 62
     7
100
AcDbPolyline
 90
      113
 70
   128
 43
0.0
 10
471.6002941132
 20
-152.8594569805
 10
471.6859854813
 20
-152.9050298972
 10
471.7652122441
 20
-152.9520050575
 10
471.8381289108
 20
-153.0010835831
 10
471.9054366031
 20
-153.0508632305
 10
471.9671353211
 20
-153.1027462434
 10
472.0225239428
 20
-153.1567326216
 10
472.0716024685
 20
-153.2114201216
 10
472.1150720198
 20
-153.2682109869
 10
472.1529325967
 20
-153.3264040959
 10
472.1858853211
 20
-153.3867005703
 10
472.2139301928
 20
-153.44910041
 10
472.2363660903
 20
-153.5129024934
 10
472.2545952569
 20
-153.5795090639
 10
472.2672154493
 20
-153.647517878
 10
472.2742266672
 20
-153.7176300575
 10
472.2770311544
 20
-153.7898456023
 10
472.2770311544
 20
-153.7898456023
 10
472.2728244236
 20
-153.8908071408
 10
472.2602042313
 20
-153.9889641921
 10
472.2398716993
 20
-154.0843167562
 10
472.2111257057
 20
-154.1761637113
 10
472.1732651287
 20
-154.2659073011
 10
472.1276922121
 20
-154.35144416
 10
472.0744069557
 20
-154.4348776536
 10
472.0120071159
 20
-154.5148055382
 10
472.0120071159
 20
-154.5148055382
 10
471.9264702569
 20
-154.604549128
 10
471.8325199364
 20
-154.683074769
 10
471.7294550326
 20
-154.7489802177
 10
471.6172755454
 20
-154.8029665959
 10
471.4966825967
 20
-154.8450339036
 10
471.3676761864
 20
-154.8751821408
 10
471.2295551928
 20
-154.8927101857
 10
471.0830207377
 20
-154.8990202818
 10
471.0830207377
 20
-154.8990202818
 10
470.9420952569
 20
-154.8934113075
 10
470.8095832377
 20
-154.877986628
 10
470.68548468
 20
-154.8513439998
 10
470.5712018275
 20
-154.8148856664
 10
470.4646313146
 20
-154.7672093844
 10
470.3678765069
 20
-154.7090162754
 10
470.2795351608
 20
-154.6410074613
 10
470.1996072762
 20
-154.5617806985
 10
470.1287939749
 20
-154.4762438395
 10
470.0677963787
 20
-154.3886036152
 10
470.0166144877
 20
-154.2988600254
 10
469.9738460582
 20
-154.2070130703
 10
469.9408933339
 20
-154.1130627498
 10
469.9177563146
 20
-154.0170090639
 10
469.9037338787
 20
-153.9188520126
 10
469.8988260262
 20
-153.8185915959
 10
469.8988260262
 20
-153.8185915959
 10
469.9016305134
 20
-153.7449738075
 10
469.9093428531
 20
-153.6734593844
 10
469.9219630454
 20
-153.6040483267
 10
469.9394910903
 20
-153.5360395126
 10
469.9626281095
 20
-153.4701340639
 10
469.9906729813
 20
-153.4063319805
 10
470.0236257057
 20
-153.3439321408
 10
470.0614862826
 20
-153.2836356664
 10
470.1056569557
 20
-153.2247414357
 10
470.1554366031
 20
-153.1679505703
 10
470.2122274685
 20
-153.1125619485
 10
470.27532843
 20
-153.0585755703
 10
470.3440383659
 20
-153.0059914357
 10
470.4197595198
 20
-152.9555106664
 10
470.501089648
 20
-152.9064321408
 10
470.5894309941
 20
-152.8594569805
 10
470.5894309941
 20
-152.8594569805
 10
470.4695391672
 20
-152.7900459228
 10
470.3657731416
 20
-152.7122214036
 10
470.2781329172
 20
-152.6273856664
 10
470.2059173723
 20
-152.5341364677
 10
470.1498276287
 20
-152.4352782946
 10
470.1105648082
 20
-152.3329145126
 10
470.0860255454
 20
-152.2270451216
 10
470.0783132057
 20
-152.1176701216
 10
470.0783132057
 20
-152.1176701216
 10
470.0867266672
 20
-152.0061917562
 10
470.1119670518
 20
-151.8961156344
 10
470.1547354813
 20
-151.7867406344
 10
470.2136297121
 20
-151.6794689998
 10
470.2879486223
 20
-151.5778063395
 10
470.3748877249
 20
-151.4880627498
 10
470.4744470198
 20
-151.4095371087
 10
470.5873276287
 20
-151.3422294164
 10
470.7093228211
 20
-151.2882430382
 10
470.8362258659
 20
-151.2503824613
 10
470.9673356416
 20
-151.2272454421
 10
471.1040543916
 20
-151.2195331023
 10
471.1040543916
 20
-151.2195331023
 10
471.2372675326
 20
-151.2272454421
 10
471.3648716993
 20
-151.2503824613
 10
471.4875680134
 20
-151.2896452818
 10
471.6053564749
 20
-151.34363166
 10
471.7147314749
 20
-151.4109393523
 10
471.8107851608
 20
-151.4901661152
 10
471.8949197762
 20
-151.5799097049
 10
471.9664341993
 20
-151.6808712434
 10
472.0239261864
 20
-151.788142878
 10
472.0645912505
 20
-151.8989201216
 10
472.0891305134
 20
-152.0118007305
 10
472.0975439749
 20
-152.1274858267
 10
472.0975439749
 20
-152.1274858267
 10
472.0898316352
 20
-152.2410675575
 10
472.0666946159
 20
-152.3483391921
 10
472.0274317954
 20
-152.4493007305
 10
471.9734454172
 20
-152.5439521728
 10
471.9033332377
 20
-152.632293519
 10
471.8184975005
 20
-152.7136236472
 10
471.7168348403
 20
-152.7900459228
 10
471.6004486223
 20
-152.8594569805
  0
LWPOLYLINE
  5
10F
330
1F
100
AcDbEntity
  8
0
  6
Continuous
 62
     7
100
AcDbPolyline
 90
       64
 70
   128
 43
0.0
 10
471.0865020752
 20
-151.5785074613
 10
471.0129085582
 20
-151.5813119485
 10
470.9427963787
 20
-151.5883231664
 10
470.8761898082
 20
-151.6009433587
 10
470.8123877249
 20
-151.6184714036
 10
470.7513901287
 20
-151.6416084228
 10
470.6945992634
 20
-151.6689521728
 10
470.6406128852
 20
-151.7019048972
 10
470.5894309941
 20
-151.7397654741
 10
470.5431569557
 20
-151.78113166
 10
470.5031930134
 20
-151.8239000895
 10
470.4695391672
 20
-151.8687718844
 10
470.4414942954
 20
-151.9157470446
 10
470.4204606416
 20
-151.9648255703
 10
470.4050359621
 20
-152.0153063395
 10
470.3952202569
 20
-152.0678904741
 10
470.3924157698
 20
-152.1225779741
 10
470.3924157698
 20
-152.1225779741
 10
470.3959213787
 20
-152.1772654741
 10
470.4057370839
 20
-152.2298496087
 10
470.4218628852
 20
-152.2817326216
 10
470.4457010262
 20
-152.3322133908
 10
470.4751481416
 20
-152.3812919164
 10
470.5116064749
 20
-152.4296693203
 10
470.5543749044
 20
-152.4759433587
 10
470.6041545518
 20
-152.5215162754
 10
470.65814093
 20
-152.5635835831
 10
470.7149317954
 20
-152.6000419164
 10
470.7731249044
 20
-152.6301901536
 10
470.8341225005
 20
-152.6554305382
 10
470.8972234621
 20
-152.6750619485
 10
470.962427789
 20
-152.6890843844
 10
471.0297354813
 20
-152.6974978459
 10
471.099146539
 20
-152.7003023331
 10
471.099146539
 20
-152.7003023331
 10
471.1881890069
 20
-152.6953944805
 10
471.2751281095
 20
-152.6799698011
 10
471.3592627249
 20
-152.6547294164
 10
471.4412939749
 20
-152.6196733267
 10
471.5177162505
 20
-152.5755026536
 10
471.5850239428
 20
-152.5236196408
 10
471.6432170518
 20
-152.46472541
 10
471.6929966993
 20
-152.3981188395
 10
471.7322595198
 20
-152.3273055382
 10
471.7610055134
 20
-152.2571933587
 10
471.7778324364
 20
-152.1863800575
 10
471.7834414108
 20
-152.1155667562
 10
471.7834414108
 20
-152.1155667562
 10
471.7806369236
 20
-152.0657871087
 10
471.7722234621
 20
-152.0174097049
 10
471.7582010262
 20
-151.9704345446
 10
471.7385696159
 20
-151.9234593844
 10
471.7133292313
 20
-151.8778864677
 10
471.6831809941
 20
-151.8337157946
 10
471.6467226608
 20
-151.7902462434
 10
471.6046553531
 20
-151.7474778139
 10
471.5576801928
 20
-151.7082149934
 10
471.50579718
 20
-151.6738600254
 10
471.4483051928
 20
-151.64441291
 10
471.3859053531
 20
-151.620574769
 10
471.3185976608
 20
-151.6023456023
 10
471.2463821159
 20
-151.5890242882
 10
471.1692587185
 20
-151.5813119485
 10
471.0865263467
 20
-151.5785074613
  0
LWPOLYLINE
  5
110
330
1F
100
AcDbEntity
  8
0
  6
Continuous
 62
     7
100
AcDbPolyline
 90
       64
 70
   128
 43
0.0
 10
471.1067676544
 20
-153.0592766921
 10
471.01360968
 20
-153.0627823011
 10
470.9245672121
 20
-153.0740002498
 10
470.8390303531
 20
-153.0915282946
 10
470.7577002249
 20
-153.1167686793
 10
470.6798757057
 20
-153.1497214036
 10
470.6055567954
 20
-153.1896853459
 10
470.5354446159
 20
-153.2366605062
 10
470.4695391672
 20
-153.2906468844
 10
470.4092426928
 20
-153.3495411152
 10
470.35735968
 20
-153.4105387113
 10
470.3131890069
 20
-153.4743407946
 10
470.2774317954
 20
-153.5402462434
 10
470.2486858018
 20
-153.6089561793
 10
470.2290543916
 20
-153.6797694805
 10
470.2171353211
 20
-153.753387269
 10
470.2129285903
 20
-153.8291084228
 10
470.2129285903
 20
-153.8291084228
 10
470.2199398082
 20
-153.9230587434
 10
470.2402723403
 20
-154.0135034549
 10
470.2746273082
 20
-154.1025459228
 10
470.3223035903
 20
-154.1880827818
 10
470.3826000646
 20
-154.2680106664
 10
470.4541144877
 20
-154.3374217241
 10
470.5361457377
 20
-154.3984193203
 10
470.6293949364
 20
-154.4489000895
 10
470.7324598403
 20
-154.4888640318
 10
470.8425359621
 20
-154.5169089036
 10
470.9610255454
 20
-154.5344369485
 10
471.0865263467
 20
-154.5400459228
 10
471.0865263467
 20
-154.5400459228
 10
471.184683398
 20
-154.5365403139
 10
471.2772314749
 20
-154.5260234869
 10
471.3648716993
 20
-154.5084954421
 10
471.4469029493
 20
-154.4839561793
 10
471.5240263467
 20
-154.4531068203
 10
471.5962418916
 20
-154.4145451216
 10
471.6635495839
 20
-154.3696733267
 10
471.7252483018
 20
-154.3170891921
 10
471.7806369236
 20
-154.2602983267
 10
471.8290143275
 20
-154.2007029741
 10
471.8703805134
 20
-154.1390042562
 10
471.9033332377
 20
-154.0752021728
 10
471.9292747441
 20
-154.0092967241
 10
471.9482050326
 20
-153.9405867882
 10
471.9594229813
 20
-153.8697734869
 10
471.9629285903
 20
-153.7961556985
 10
471.9629285903
 20
-153.7961556985
 10
471.9587218595
 20
-153.7246412754
 10
471.9475039108
 20
-153.6559313395
 10
471.9278725005
 20
-153.5886236472
 10
471.9005287505
 20
-153.5234193203
 10
471.864771539
 20
-153.4603183587
 10
471.8220031095
 20
-153.3993207626
 10
471.7708212185
 20
-153.3404265318
 10
471.7119269877
 20
-153.2836356664
 10
471.6474237826
 20
-153.2310515318
 10
471.5801160903
 20
-153.1854786152
 10
471.509302789
 20
-153.1469169164
 10
471.4349838787
 20
-153.1153664357
 10
471.3578604813
 20
-153.0908271728
 10
471.2772314749
 20
-153.073299128
 10
471.1937979813
 20
-153.0627823011
 10
471.1068588787
 20
-153.0592766921
  0
LWPOLYLINE
  5
111
330
1F
100
AcDbEntity
  8
0
  6
Continuous
 62
     7
100
AcDbPolyline
 90
       65
 70
   128
 43
0.0
 10
474.6999740601
 20
-154.8990202818
 10
474.4491064749
 20
-154.7244409549
 10
474.4491064749
 20
-154.7244409549
 10
475.4222635262
 20
-153.3018648331
 10
475.4222635262
 20
-153.3018648331
 10
475.2357651287
 20
-153.3214962434
 10
475.0541745839
 20
-153.3285074613
 10
475.0541745839
 20
-153.3285074613
 10
474.9440984621
 20
-153.3235996087
 10
474.8389301928
 20
-153.3095771728
 10
474.7372675326
 20
-153.2864401536
 10
474.6405127249
 20
-153.2534874293
 10
474.5472635262
 20
-153.2114201216
 10
474.45892218
 20
-153.1602382305
 10
474.3740864428
 20
-153.0992406344
 10
474.2941585582
 20
-153.0291284549
 10
474.2212418916
 20
-152.9520050575
 10
474.1574398082
 20
-152.8706749293
 10
474.1041545518
 20
-152.7851380703
 10
474.0599838787
 20
-152.6946933587
 10
474.0263300326
 20
-152.6007430382
 10
474.0017907698
 20
-152.5018848652
 10
473.9870672121
 20
-152.3988199613
 10
473.9821593595
 20
-152.2915483267
 10
473.9821593595
 20
-152.2915483267
 10
473.9912739428
 20
-152.1450138716
 10
474.0179165711
 20
-152.0061917562
 10
474.0627883659
 20
-151.8743808587
 10
474.1251882057
 20
-151.7502823011
 10
474.2044149685
 20
-151.6352983267
 10
474.298365289
 20
-151.5329345446
 10
474.407740289
 20
-151.4424898331
 10
474.5318388467
 20
-151.3639641921
 10
474.6657531095
 20
-151.3008632305
 10
474.8045752249
 20
-151.2552903139
 10
474.9483051928
 20
-151.2286476857
 10
475.0962418916
 20
-151.2195331023
 10
475.0962418916
 20
-151.2195331023
 10
475.2413741031
 20
-151.2286476857
 10
475.3808973403
 20
-151.2545891921
 10
475.5148116031
 20
-151.2987598652
 10
475.6431168916
 20
-151.3604585831
 10
475.7623075967
 20
-151.4382831023
 10
475.8674758659
 20
-151.5294289357
 10
475.9593228211
 20
-151.6352983267
 10
476.0378484621
 20
-151.7551901536
 10
476.1002483018
 20
-151.8834954421
 10
476.1451200967
 20
-152.0167085831
 10
476.1717627249
 20
-152.1534273331
 10
476.1808773082
 20
-152.2950539357
 10
476.1808773082
 20
-152.2950539357
 10
476.1752683339
 20
-152.4051300575
 10
476.1591425326
 20
-152.5173095446
 10
476.1310976608
 20
-152.6329946408
 10
476.0925359621
 20
-152.7507831023
 10
476.0686978211
 20
-152.8117806985
 10
476.0399518275
 20
-152.8755827818
 10
476.0069991031
 20
-152.9428904741
 10
475.969839648
 20
-153.0123015318
 10
475.9284734621
 20
-153.0859193203
 10
475.8829005454
 20
-153.1616404741
 10
475.8324197762
 20
-153.2408672369
 10
475.7777322762
 20
-153.3228984869
 10
475.7777322762
 20
-153.3228984869
 10
474.7001080775
 20
-154.8990202818
  0
LWPOLYLINE
  5
112
330
1F
100
AcDbEntity
  8
0
  6
Continuous
 62
     7
100
AcDbPolyline
 90
       68
 70
   128
 43
0.0
 10
475.1121997833
 20
-152.9695331023
 10
475.1958011864
 20
-152.9660274934
 10
475.2743268275
 20
-152.95691291
 10
475.3493468595
 20
-152.9407871087
 10
475.419459039
 20
-152.9183512113
 10
475.4860656095
 20
-152.8903063395
 10
475.5484654493
 20
-152.8552502498
 10
475.6059574364
 20
-152.8138840639
 10
475.6599438146
 20
-152.7662077818
 10
475.7083212185
 20
-152.7136236472
 10
475.7503885262
 20
-152.6589361472
 10
475.7861457377
 20
-152.60144416
 10
475.8148917313
 20
-152.5411476857
 10
475.8380287505
 20
-152.4780467241
 10
475.8541545518
 20
-152.4128423972
 10
475.8632691352
 20
-152.3448335831
 10
475.8667747441
 20
-152.2740202818
 10
475.8667747441
 20
-152.2740202818
 10
475.8632691352
 20
-152.2032069805
 10
475.8527523082
 20
-152.1351981664
 10
475.8345231416
 20
-152.0699938395
 10
475.8092827569
 20
-152.006892878
 10
475.7770311544
 20
-151.9472975254
 10
475.7377683339
 20
-151.8898055382
 10
475.6907931736
 20
-151.8344169164
 10
475.6368067954
 20
-151.7825339036
 10
475.5779125646
 20
-151.7348576216
 10
475.5162138467
 20
-151.6934914357
 10
475.4510095198
 20
-151.6584353459
 10
475.3830007057
 20
-151.6296893523
 10
475.3121874044
 20
-151.6072534549
 10
475.2378684941
 20
-151.5911276536
 10
475.1607450967
 20
-151.5820130703
 10
475.0801160903
 20
-151.5785074613
 10
475.0801160903
 20
-151.5785074613
 10
475.0001882057
 20
-151.5820130703
 10
474.92376593
 20
-151.5911276536
 10
474.8501481416
 20
-151.6072534549
 10
474.7793348403
 20
-151.6296893523
 10
474.7113260262
 20
-151.6584353459
 10
474.6461216993
 20
-151.6934914357
 10
474.5844229813
 20
-151.7348576216
 10
474.5255287505
 20
-151.7825339036
 10
474.4715423723
 20
-151.8344169164
 10
474.4252683339
 20
-151.8898055382
 10
474.3860055134
 20
-151.9472975254
 10
474.3537539108
 20
-152.006892878
 10
474.3285135262
 20
-152.0699938395
 10
474.3102843595
 20
-152.1351981664
 10
474.2997675326
 20
-152.2032069805
 10
474.2962619236
 20
-152.2740202818
 10
474.2962619236
 20
-152.2740202818
 10
474.2997675326
 20
-152.3448335831
 10
474.3109854813
 20
-152.4128423972
 10
474.3299157698
 20
-152.4780467241
 10
474.3558572762
 20
-152.5411476857
 10
474.3895111223
 20
-152.60144416
 10
474.4308773082
 20
-152.6589361472
 10
474.4792547121
 20
-152.7136236472
 10
474.5353444557
 20
-152.7662077818
 10
474.5963420518
 20
-152.8138840639
 10
474.6608452569
 20
-152.8552502498
 10
474.7288540711
 20
-152.8903063395
 10
474.7989662505
 20
-152.9183512113
 10
474.872584039
 20
-152.9407871087
 10
474.9497074364
 20
-152.95691291
 10
475.0296353211
 20
-152.9660274934
 10
475.1123676928
 20
-152.9695331023
  0
LWPOLYLINE
  5
113
330
1F
100
AcDbEntity
  8
0
  6
Continuous
 62
     7
100
AcDbPolyline
 90
       12
 70
   128
 43
0.0
 10
478.7194728851
 20
-151.3092766921
 10
479.3667747441
 20
-151.3092766921
 10
479.3667747441
 20
-151.3092766921
 10
479.3667747441
 20
-154.8092766921
 10
479.3667747441
 20
-154.8092766921
 10
479.05267218
 20
-154.8092766921
 10
479.05267218
 20
-154.8092766921
 10
479.05267218
 20
-151.6682510511
 10
479.05267218
 20
-151.6682510511
 10
478.5142106416
 20
-151.6682510511
 10
478.5142106416
 20
-151.6682510511
 10
478.7196393275
 20
-151.3092766921
  0
LWPOLYLINE
  5
114
330
1F
100
AcDbEntity
  8
0
  6
Continuous
 62
     7
100
AcDbPolyline
 90
      100
 70
   128
 43
0.0
 10
480.6678295135
 20
-153.0606789357
 10
480.6701601608
 20
-152.8924097049
 10
480.6771713787
 20
-152.7339561793
 10
480.6890904493
 20
-152.5846172369
 10
480.7052162505
 20
-152.4457951216
 10
480.7255487826
 20
-152.3167887113
 10
480.751490289
 20
-152.1975980062
 10
480.7816385262
 20
-152.0882230062
 10
480.8159934941
 20
-151.9886637113
 10
480.8545551928
 20
-151.8968167562
 10
480.8973236223
 20
-151.8105787754
 10
480.9442987826
 20
-151.7306508908
 10
480.9947795518
 20
-151.6556308587
 10
481.04876593
 20
-151.5869209228
 10
481.1062579172
 20
-151.5238199613
 10
481.1679566352
 20
-151.4670290959
 10
481.2338620839
 20
-151.4151460831
 10
481.3025720198
 20
-151.3695731664
 10
481.3733853211
 20
-151.3296092241
 10
481.4456008659
 20
-151.295955378
 10
481.520620898
 20
-151.268611628
 10
481.5970431736
 20
-151.2468768523
 10
481.6755688146
 20
-151.2314521728
 10
481.7554966993
 20
-151.2223375895
 10
481.8382290711
 20
-151.2195331023
 10
481.8382290711
 20
-151.2195331023
 10
481.9216625646
 20
-151.2223375895
 10
482.0036938146
 20
-151.2314521728
 10
482.0829205775
 20
-151.2468768523
 10
482.1607450967
 20
-151.268611628
 10
482.2364662505
 20
-151.295955378
 10
482.310084039
 20
-151.3296092241
 10
482.3822995839
 20
-151.3695731664
 10
482.4517106416
 20
-151.4158472049
 10
482.5183172121
 20
-151.4677302177
 10
482.5821192954
 20
-151.5266244485
 10
482.641714648
 20
-151.5911276536
 10
482.6978043916
 20
-151.6612398331
 10
482.7503885262
 20
-151.7383632305
 10
482.7994670518
 20
-151.8210956023
 10
482.8443388467
 20
-151.9101380703
 10
482.8864061544
 20
-152.0054906344
 10
482.9235656095
 20
-152.1078544164
 10
482.9565183339
 20
-152.21863166
 10
482.9838620839
 20
-152.3378223652
 10
483.0062979813
 20
-152.4654265318
 10
483.0238260262
 20
-152.60144416
 10
483.0364462185
 20
-152.7465763716
 10
483.0434574364
 20
-152.8994209228
 10
483.0462619236
 20
-153.0606789357
 10
483.0462619236
 20
-153.0606789357
 10
483.0434574364
 20
-153.2212358267
 10
483.0364462185
 20
-153.3733792562
 10
483.0238260262
 20
-153.5178103459
 10
483.0069991031
 20
-153.6531268523
 10
482.9845632057
 20
-153.7800298972
 10
482.9572194557
 20
-153.8985194805
 10
482.9256689749
 20
-154.0092967241
 10
482.8885095198
 20
-154.1109593844
 10
482.8471433339
 20
-154.2056108267
 10
482.802271539
 20
-154.2939521728
 10
482.7538941352
 20
-154.3766845446
 10
482.7013100005
 20
-154.4538079421
 10
482.6452202569
 20
-154.5246212434
 10
482.5849237826
 20
-154.5891244485
 10
482.5211216993
 20
-154.6480186793
 10
482.4538140069
 20
-154.7006028139
 10
482.3837018275
 20
-154.7468768523
 10
482.3114862826
 20
-154.7875419164
 10
482.2371673723
 20
-154.8211957626
 10
482.1614462185
 20
-154.8492406344
 10
482.0836216993
 20
-154.87097541
 10
482.0036938146
 20
-154.8864000895
 10
481.9216625646
 20
-154.8962157946
 10
481.8382290711
 20
-154.8990202818
 10
481.8382290711
 20
-154.8990202818
 10
481.7554966993
 20
-154.8962157946
 10
481.6755688146
 20
-154.8871012113
 10
481.5970431736
 20
-154.8716765318
 10
481.5213220198
 20
-154.850642878
 10
481.4470031095
 20
-154.8240002498
 10
481.3747875646
 20
-154.7903464036
 10
481.3046753852
 20
-154.7510835831
 10
481.2366665711
 20
-154.7062117882
 10
481.1714622441
 20
-154.6550298972
 10
481.1097635262
 20
-154.5982390318
 10
481.052271539
 20
-154.5351380703
 10
480.9982851608
 20
-154.4657270126
 10
480.9478043916
 20
-154.3914081023
 10
480.9008292313
 20
-154.3107790959
 10
480.85735968
 20
-154.2238399934
 10
480.8180968595
 20
-154.1312919164
 10
480.7830407698
 20
-154.0310314998
 10
480.7521914108
 20
-153.920955378
 10
480.7269510262
 20
-153.8010635511
 10
480.7059173723
 20
-153.6720571408
 10
480.6890904493
 20
-153.5339361472
 10
480.6771713787
 20
-153.3852983267
 10
480.6701601608
 20
-153.2275459228
 10
480.6680567954
 20
-153.0606789357
  0
LWPOLYLINE
  5
115
330
1F
100
AcDbEntity
  8
0
  6
Continuous
 62
     7
100
AcDbPolyline
 90
       85
 70
   128
 43
0.0
 10
480.9820652008
 20
-153.0592766921
 10
480.9835616031
 20
-153.1995010511
 10
480.9891705775
 20
-153.3313119485
 10
480.997584039
 20
-153.4547093844
 10
481.0088019877
 20
-153.5682911152
 10
481.0242266672
 20
-153.6734593844
 10
481.0424558339
 20
-153.7702141921
 10
481.0641906095
 20
-153.8578544164
 10
481.0894309941
 20
-153.9363800575
 10
481.1181769877
 20
-154.0085956023
 10
481.1497274685
 20
-154.0759032946
 10
481.1840824364
 20
-154.1390042562
 10
481.2219430134
 20
-154.1971973652
 10
481.2633091993
 20
-154.2511837434
 10
481.3074798723
 20
-154.3009633908
 10
481.3551561544
 20
-154.3458351857
 10
481.4056369236
 20
-154.3865002498
 10
481.5122074364
 20
-154.4538079421
 10
481.6215824364
 20
-154.5014842241
 10
481.7337619236
 20
-154.5302302177
 10
481.848745898
 20
-154.5400459228
 10
481.848745898
 20
-154.5400459228
 10
481.9644309941
 20
-154.5309313395
 10
482.0766104813
 20
-154.5021853459
 10
482.1845832377
 20
-154.4559113075
 10
482.2890503852
 20
-154.3900058587
 10
482.3388300326
 20
-154.3500419164
 10
482.3851040711
 20
-154.3058712434
 10
482.4285736223
 20
-154.2560915959
 10
482.4692386864
 20
-154.2021052177
 10
482.5063981416
 20
-154.1439121087
 10
482.5407531095
 20
-154.0801100254
 10
482.5716024685
 20
-154.0121012113
 10
482.5996473403
 20
-153.9391845446
 10
482.5996473403
 20
-153.9391845446
 10
482.6304966993
 20
-153.8452342241
 10
482.6578404493
 20
-153.7470771728
 10
482.6802763467
 20
-153.644012269
 10
482.6992066352
 20
-153.5367406344
 10
482.7132290711
 20
-153.4245611472
 10
482.723745898
 20
-153.3074738075
 10
482.7300559941
 20
-153.1854786152
 10
482.7321593595
 20
-153.0592766921
 10
482.7321593595
 20
-153.0592766921
 10
482.7300559941
 20
-152.933074769
 10
482.7251481416
 20
-152.8124818203
 10
482.7153324364
 20
-152.6981989677
 10
482.7027122441
 20
-152.5895250895
 10
482.6858853211
 20
-152.4864601857
 10
482.6662539108
 20
-152.389705378
 10
482.641714648
 20
-152.2985595446
 10
482.614370898
 20
-152.2130226857
 10
482.583521539
 20
-152.1330948011
 10
482.5498676928
 20
-152.0594770126
 10
482.5134093595
 20
-151.9907670767
 10
482.474146539
 20
-151.9276661152
 10
482.4320792313
 20
-151.870174128
 10
482.3865063146
 20
-151.8182911152
 10
482.3388300326
 20
-151.7720170767
 10
482.2883492634
 20
-151.7313520126
 10
482.1824798723
 20
-151.6647454421
 10
482.0745071159
 20
-151.6163680382
 10
481.9630287505
 20
-151.5883231664
 10
481.848745898
 20
-151.5785074613
 10
481.848745898
 20
-151.5785074613
 10
481.7330608018
 20
-151.5883231664
 10
481.6201801928
 20
-151.6163680382
 10
481.5115063146
 20
-151.6647454421
 10
481.4056369236
 20
-151.7313520126
 10
481.3551561544
 20
-151.7713159549
 10
481.3081809941
 20
-151.8161877498
 10
481.2640103211
 20
-151.8659673972
 10
481.2233452569
 20
-151.9199537754
 10
481.18548468
 20
-151.9781468844
 10
481.1504285903
 20
-152.0412478459
 10
481.1188781095
 20
-152.1085555382
 10
481.0901321159
 20
-152.1807710831
 10
481.0648917313
 20
-152.2592967241
 10
481.0431569557
 20
-152.3469369485
 10
481.0242266672
 20
-152.4429906344
 10
481.0095031095
 20
-152.5488600254
 10
480.997584039
 20
-152.663142878
 10
480.9891705775
 20
-152.7858391921
 10
480.9835616031
 20
-152.9183512113
 10
480.9821593595
 20
-153.0592766921
  0
LWPOLYLINE
  5
116
330
1F
100
AcDbEntity
  8
0
  6
Continuous
 62
     7
100
AcDbPolyline
 90
       12
 70
   128
 43
0.0
 10
485.4502677917
 20
-151.3092766921
 10
486.0975439749
 20
-151.3092766921
 10
486.0975439749
 20
-151.3092766921
 10
486.0975439749
 20
-154.8092766921
 10
486.0975439749
 20
-154.8092766921
 10
485.7834414108
 20
-154.8092766921
 10
485.7834414108
 20
-154.8092766921
 10
485.7834414108
 20
-151.6682510511
 10
485.7834414108
 20
-151.6682510511
 10
485.2449798723
 20
-151.6682510511
 10
485.2449798723
 20
-151.6682510511
 10
485.4504085582
 20
-151.3092766921
  0
LWPOLYLINE
  5
117
330
1F
100
AcDbEntity
  8
0
  6
Continuous
 62
     7
100
AcDbPolyline
 90
       12
 70
   128
 43
0.0
 10
488.142490387
 20
-151.3092766921
 10
488.7898516672
 20
-151.3092766921
 10
488.7898516672
 20
-151.3092766921
 10
488.7898516672
 20
-154.8092766921
 10
488.7898516672
 20
-154.8092766921
 10
488.4757491031
 20
-154.8092766921
 10
488.4757491031
 20
-154.8092766921
 10
488.4757491031
 20
-151.6682510511
 10
488.4757491031
 20
-151.6682510511
 10
487.9372875646
 20
-151.6682510511
 10
487.9372875646
 20
-151.6682510511
 10
488.1427162505
 20
-151.3092766921
  0
LWPOLYLINE
  5
118
330
1F
100
AcDbEntity
  8
0
  6
Continuous
 62
     7
100
AcDbPolyline
 90
       12
 70
   128
 43
0.0
 10
492.1810626984
 20
-151.3092766921
 10
492.8283132057
 20
-151.3092766921
 10
492.8283132057
 20
-151.3092766921
 10
492.8283132057
 20
-154.8092766921
 10
492.8283132057
 20
-154.8092766921
 10
492.5142106416
 20
-154.8092766921
 10
492.5142106416
 20
-154.8092766921
 10
492.5142106416
 20
-151.6682510511
 10
492.5142106416
 20
-151.6682510511
 10
491.9757491031
 20
-151.6682510511
 10
491.9757491031
 20
-151.6682510511
 10
492.181177789
 20
-151.3092766921
  0
LWPOLYLINE
  5
119
330
1F
100
AcDbEntity
  8
0
  6
Continuous
 62
     7
100
AcDbPolyline
 90
      106
 70
   128
 43
0.0
 10
494.5781230927
 20
-152.386199769
 10
494.2642106416
 20
-152.386199769
 10
494.2642106416
 20
-152.386199769
 10
494.2726241031
 20
-152.2614000895
 10
494.2908532698
 20
-152.1422093844
 10
494.3181970198
 20
-152.0293287754
 10
494.3560575967
 20
-151.921356019
 10
494.4030327569
 20
-151.8196933587
 10
494.4598236223
 20
-151.7229385511
 10
494.5264301928
 20
-151.6324938395
 10
494.6028524685
 20
-151.5476581023
 10
494.6862859621
 20
-151.4705347049
 10
494.77532843
 20
-151.4039281344
 10
494.8685776287
 20
-151.3478383908
 10
494.9660335582
 20
-151.3015643523
 10
495.0690984621
 20
-151.2658071408
 10
495.1763700967
 20
-151.2398656344
 10
495.2885495839
 20
-151.2244409549
 10
495.4056369236
 20
-151.2195331023
 10
495.4056369236
 20
-151.2195331023
 10
495.520620898
 20
-151.2244409549
 10
495.6306970198
 20
-151.2391645126
 10
495.7344630454
 20
-151.2630026536
 10
495.8333212185
 20
-151.2966564998
 10
495.9258692954
 20
-151.3408271728
 10
496.012808398
 20
-151.3941124293
 10
496.094839648
 20
-151.456512269
 10
496.1705608018
 20
-151.5294289357
 10
496.2392707377
 20
-151.6086556985
 10
496.2981649685
 20
-151.6913880703
 10
496.3486457377
 20
-151.7776260511
 10
496.3900119236
 20
-151.866668519
 10
496.4215624044
 20
-151.9599177177
 10
496.4446994236
 20
-152.0566725254
 10
496.4580207377
 20
-152.1562318203
 10
496.4629285903
 20
-152.2599978459
 10
496.4629285903
 20
-152.2599978459
 10
496.4538140069
 20
-152.4058311793
 10
496.4264702569
 20
-152.54675666
 10
496.3815984621
 20
-152.6827742882
 10
496.3177963787
 20
-152.8145851857
 10
496.2771313146
 20
-152.881892878
 10
496.228052789
 20
-152.9555106664
 10
496.1705608018
 20
-153.0347374293
 10
496.1046553531
 20
-153.1188720446
 10
496.0296353211
 20
-153.210017878
 10
495.9469029493
 20
-153.3060715639
 10
495.8550559941
 20
-153.4077342241
 10
495.7547955775
 20
-153.5157069805
 10
495.7547955775
 20
-153.5157069805
 10
494.8790944557
 20
-154.4503023331
 10
494.8790944557
 20
-154.4503023331
 10
496.5078003852
 20
-154.4503023331
 10
496.5078003852
 20
-154.4503023331
 10
496.5078003852
 20
-154.8092766921
 10
496.5078003852
 20
-154.8092766921
 10
494.1295952569
 20
-154.8092766921
 10
494.1295952569
 20
-154.8092766921
 10
495.4869670518
 20
-153.3607590639
 10
495.4869670518
 20
-153.3607590639
 10
495.5858252249
 20
-153.2569930382
 10
495.6755688146
 20
-153.1602382305
 10
495.7561978211
 20
-153.0704946408
 10
495.8277122441
 20
-152.987762269
 10
495.8901120839
 20
-152.9113399934
 10
495.9440984621
 20
-152.8426300575
 10
495.9882691352
 20
-152.7802302177
 10
496.0240263467
 20
-152.7248415959
 10
496.0787138467
 20
-152.6196733267
 10
496.1179766672
 20
-152.5117005703
 10
496.1411136864
 20
-152.4016244485
 10
496.1488260262
 20
-152.2880427177
 10
496.1488260262
 20
-152.2880427177
 10
496.1453204172
 20
-152.2165282946
 10
496.1348035903
 20
-152.1478183587
 10
496.1179766672
 20
-152.08191291
 10
496.0941385262
 20
-152.0181108267
 10
496.0625880454
 20
-151.9564121087
 10
496.0247274685
 20
-151.8982189998
 10
495.9805567954
 20
-151.8421292562
 10
495.9286737826
 20
-151.788142878
 10
495.8718829172
 20
-151.7390643523
 10
495.8122875646
 20
-151.6962959228
 10
495.7498877249
 20
-151.6605387113
 10
495.6839822762
 20
-151.6310915959
 10
495.6145712185
 20
-151.6079545767
 10
495.5430567954
 20
-151.5918287754
 10
495.4680367634
 20
-151.5820130703
 10
495.3895111223
 20
-151.5785074613
 10
495.3895111223
 20
-151.5785074613
 10
495.3074798723
 20
-151.5820130703
 10
495.2289542313
 20
-151.5918287754
 10
495.1539341993
 20
-151.6086556985
 10
495.0824197762
 20
-151.6317927177
 10
495.0144109621
 20
-151.6612398331
 10
494.9499077569
 20
-151.6976981664
 10
494.8889101608
 20
-151.7411677177
 10
494.8314181736
 20
-151.7909473652
 10
494.778834039
 20
-151.8463359869
 10
494.7325600005
 20
-151.9073335831
 10
494.6918949364
 20
-151.9739401536
 10
494.6568388467
 20
-152.0454545767
 10
494.6280928531
 20
-152.1225779741
 10
494.6056569557
 20
-152.2053103459
 10
494.5888300326
 20
-152.2929505703
 10
494.5783132057
 20
-152.386199769
  0
LWPOLYLINE
  5
11A
330
1F
100
AcDbEntity
  8
0
  6
Continuous
 62
     7
100
AcDbPolyline
 90
      132
 70
   128
 43
0.0
 10
503.0589103699
 20
-151.3092766921
 10
503.0590824364
 20
-151.6682510511
 10
503.0590824364
 20
-151.6682510511
 10
501.8685776287
 20
-151.6682510511
 10
501.8685776287
 20
-151.6682510511
 10
501.6799758659
 20
-152.5888239677
 10
501.6799758659
 20
-152.5888239677
 10
501.7914542313
 20
-152.5593768523
 10
501.8973236223
 20
-152.5376420767
 10
501.997584039
 20
-152.5250218844
 10
502.0922354813
 20
-152.5208151536
 10
502.0922354813
 20
-152.5208151536
 10
502.2093228211
 20
-152.5257230062
 10
502.3215023082
 20
-152.5411476857
 10
502.4280728211
 20
-152.5663880703
 10
502.5297354813
 20
-152.60144416
 10
502.6257891672
 20
-152.6463159549
 10
502.7162338787
 20
-152.7017045767
 10
502.8017707377
 20
-152.7669089036
 10
502.8823997441
 20
-152.8426300575
 10
502.9553164108
 20
-152.9260635511
 10
503.0184173723
 20
-153.0144048972
 10
503.0724037505
 20
-153.1090563395
 10
503.1158733018
 20
-153.2086156344
 10
503.1502282698
 20
-153.3144850254
 10
503.1740664108
 20
-153.4259633908
 10
503.1887899685
 20
-153.5430507305
 10
503.1936978211
 20
-153.6657470446
 10
503.1936978211
 20
-153.6657470446
 10
503.1908933339
 20
-153.7512839036
 10
503.1838821159
 20
-153.835418519
 10
503.1712619236
 20
-153.917449769
 10
503.1537338787
 20
-153.9980787754
 10
503.1312979813
 20
-154.0766044164
 10
503.1039542313
 20
-154.1530266921
 10
503.0710015069
 20
-154.2280467241
 10
503.0338420518
 20
-154.3016645126
 10
502.9924758659
 20
-154.3717766921
 10
502.9469029493
 20
-154.4376821408
 10
502.8985255454
 20
-154.4993808587
 10
502.8466425326
 20
-154.5568728459
 10
502.790552789
 20
-154.6101581023
 10
502.7309574364
 20
-154.659236628
 10
502.6685575967
 20
-154.7041084228
 10
502.6019510262
 20
-154.7447734869
 10
502.5325399685
 20
-154.7812318203
 10
502.4603244236
 20
-154.8120811793
 10
502.3860055134
 20
-154.8387238075
 10
502.3088821159
 20
-154.8604585831
 10
502.2289542313
 20
-154.8772855062
 10
502.1462218595
 20
-154.8892045767
 10
502.0606850005
 20
-154.8969169164
 10
501.9730447762
 20
-154.8990202818
 10
501.9730447762
 20
-154.8990202818
 10
501.8685776287
 20
-154.8948135511
 10
501.7683172121
 20
-154.8814922369
 10
501.6722635262
 20
-154.8604585831
 10
501.5804165711
 20
-154.8303103459
 10
501.4927763467
 20
-154.7917486472
 10
501.4093428531
 20
-154.7440723652
 10
501.3294149685
 20
-154.6886837434
 10
501.2543949364
 20
-154.6241805382
 10
501.1849838787
 20
-154.5526661152
 10
501.1232851608
 20
-154.4762438395
 10
501.0685976608
 20
-154.3949137113
 10
501.0209213787
 20
-154.3079746087
 10
500.9809574364
 20
-154.2168287754
 10
500.9487058339
 20
-154.1200739677
 10
500.9234654493
 20
-154.0184113075
 10
500.9052362826
 20
-153.9118407946
 10
500.9052362826
 20
-153.9118407946
 10
501.2193388467
 20
-153.9118407946
 10
501.2193388467
 20
-153.9118407946
 10
501.2445792313
 20
-154.0114000895
 10
501.2768308339
 20
-154.1004425575
 10
501.3167947762
 20
-154.1803704421
 10
501.3637699364
 20
-154.2504826216
 10
501.4191585582
 20
-154.3121813395
 10
501.4829606416
 20
-154.3675699613
 10
501.5551761864
 20
-154.4173496087
 10
501.6358051928
 20
-154.4601180382
 10
501.7213420518
 20
-154.495174128
 10
501.809683398
 20
-154.5197133908
 10
501.8994269877
 20
-154.5351380703
 10
501.9912739428
 20
-154.5400459228
 10
501.9912739428
 20
-154.5400459228
 10
502.0810175326
 20
-154.5358391921
 10
502.1672555134
 20
-154.5239201216
 10
502.2506890069
 20
-154.5042887113
 10
502.3306168916
 20
-154.4762438395
 10
502.4070391672
 20
-154.4411877498
 10
502.4806569557
 20
-154.3970170767
 10
502.5507691352
 20
-154.3458351857
 10
502.6180768275
 20
-154.2862398331
 10
502.6790744236
 20
-154.2210355062
 10
502.73235968
 20
-154.1516244485
 10
502.7772314749
 20
-154.07800666
 10
502.81439093
 20
-154.0008832626
 10
502.8431369236
 20
-153.9195531344
 10
502.8634694557
 20
-153.8347173972
 10
502.8753885262
 20
-153.7456749293
 10
502.8795952569
 20
-153.6524257305
 10
502.8795952569
 20
-153.6524257305
 10
502.876089648
 20
-153.5682911152
 10
502.8655728211
 20
-153.4883632305
 10
502.8473436544
 20
-153.4126420767
 10
502.8221032698
 20
-153.3411276536
 10
502.7898516672
 20
-153.2731188395
 10
502.7505888467
 20
-153.2093167562
 10
502.7036136864
 20
-153.1497214036
 10
502.6496273082
 20
-153.0943327818
 10
502.5900319557
 20
-153.0438520126
 10
502.5248276287
 20
-153.0003824613
 10
502.4554165711
 20
-152.963924128
 10
502.3810976608
 20
-152.933074769
 10
502.301870898
 20
-152.9099377498
 10
502.2177362826
 20
-152.8931108267
 10
502.1293949364
 20
-152.8832951216
 10
502.0354446159
 20
-152.8797895126
 10
502.0354446159
 20
-152.8797895126
 10
501.9541144877
 20
-152.8825939998
 10
501.8678765069
 20
-152.8910074613
 10
501.7781329172
 20
-152.9050298972
 10
501.6834814749
 20
-152.9246613075
 10
501.5853244236
 20
-152.9499016921
 10
501.4822595198
 20
-152.9807510511
 10
501.3756890069
 20
-153.0172093844
 10
501.2642106416
 20
-153.0592766921
 10
501.2642106416
 20
-153.0592766921
 10
501.6231850005
 20
-151.3092766921
 10
501.6231850005
 20
-151.3092766921
 10
503.0590824364
 20
-151.3092766921
  0
LWPOLYLINE
  5
11B
330
1F
100
AcDbEntity
  8
0
  6
Continuous
 62
     7
100
AcDbPolyline
 90
      143
 70
   128
 43
0.0
 10
505.1231384277
 20
-152.2515843844
 10
505.4372875646
 20
-152.2515843844
 10
505.4372875646
 20
-152.2515843844
 10
505.4372875646
 20
-152.6960956023
 10
505.4372875646
 20
-152.6960956023
 10
505.5242266672
 20
-152.581111628
 10
505.6125680134
 20
-152.4829545767
 10
505.7016104813
 20
-152.4016244485
 10
505.7920551928
 20
-152.3364201216
 10
505.7920551928
 20
-152.3364201216
 10
505.9189582377
 20
-152.2796292562
 10
506.0493668916
 20
-152.2389641921
 10
506.1825800326
 20
-152.2151260511
 10
506.3192987826
 20
-152.2067125895
 10
506.3192987826
 20
-152.2067125895
 10
506.4118468595
 20
-152.2116204421
 10
506.5015904493
 20
-152.2249417562
 10
506.5892306736
 20
-152.2480787754
 10
506.6740664108
 20
-152.280330378
 10
506.7546954172
 20
-152.3202943203
 10
506.8269109621
 20
-152.3658672369
 10
506.892115289
 20
-152.4177502498
 10
506.9489061544
 20
-152.4759433587
 10
507.0000880454
 20
-152.5432510511
 10
507.0484654493
 20
-152.6238800575
 10
507.0926361223
 20
-152.7171292562
 10
507.1333011864
 20
-152.8244008908
 10
507.1333011864
 20
-152.8244008908
 10
507.1753684941
 20
-152.7507831023
 10
507.220240289
 20
-152.6820731664
 10
507.2679165711
 20
-152.6175699613
 10
507.3176962185
 20
-152.5579746087
 10
507.3702803531
 20
-152.5025859869
 10
507.4249678531
 20
-152.4521052177
 10
507.4824598403
 20
-152.4058311793
 10
507.5427563146
 20
-152.3644649934
 10
507.6675559941
 20
-152.2957550575
 10
507.797964648
 20
-152.24597541
 10
507.9318789108
 20
-152.2165282946
 10
508.071402148
 20
-152.2067125895
 10
508.071402148
 20
-152.2067125895
 10
508.1997074364
 20
-152.2151260511
 10
508.3203003852
 20
-152.2396653139
 10
508.4331809941
 20
-152.2817326216
 10
508.5383492634
 20
-152.3399257305
 10
508.6330007057
 20
-152.4128423972
 10
508.7150319557
 20
-152.499080378
 10
508.7837418916
 20
-152.5979385511
 10
508.8391305134
 20
-152.71081916
 10
508.8622675326
 20
-152.7739201216
 10
508.8818989428
 20
-152.8447334228
 10
508.8987258659
 20
-152.9225579421
 10
508.9127483018
 20
-153.0080948011
 10
508.9232651287
 20
-153.100642878
 10
508.9309774685
 20
-153.2009032946
 10
508.9358853211
 20
-153.3088760511
 10
508.9372875646
 20
-153.4238600254
 10
508.9372875646
 20
-153.4238600254
 10
508.9372875646
 20
-154.8092766921
 10
508.9372875646
 20
-154.8092766921
 10
508.6231850005
 20
-154.8092766921
 10
508.6231850005
 20
-154.8092766921
 10
508.6231850005
 20
-153.4224577818
 10
508.6231850005
 20
-153.4224577818
 10
508.6224838787
 20
-153.3243007305
 10
508.6196793916
 20
-153.233856019
 10
508.614771539
 20
-153.151824769
 10
508.6084614428
 20
-153.0775058587
 10
508.6000479813
 20
-153.01160041
 10
508.5895311544
 20
-152.9534073011
 10
508.5776120839
 20
-152.9029265318
 10
508.563589648
 20
-152.8608592241
 10
508.5285335582
 20
-152.7879425575
 10
508.4829606416
 20
-152.7220371087
 10
508.426870898
 20
-152.6645451216
 10
508.3602643275
 20
-152.6140643523
 10
508.2852442954
 20
-152.5733992882
 10
508.2025119236
 20
-152.5439521728
 10
508.1134694557
 20
-152.526424128
 10
508.016714648
 20
-152.5208151536
 10
508.016714648
 20
-152.5208151536
 10
507.8982250646
 20
-152.5292286152
 10
507.7853444557
 20
-152.5558712434
 10
507.6766705775
 20
-152.5993407946
 10
507.5736056736
 20
-152.6610395126
 10
507.4796553531
 20
-152.7367606664
 10
507.3997274685
 20
-152.8244008908
 10
507.333120898
 20
-152.9239601857
 10
507.2798356416
 20
-153.0347374293
 10
507.2581008659
 20
-153.0978383908
 10
507.2391705775
 20
-153.1707550575
 10
507.223745898
 20
-153.2534874293
 10
507.2104245839
 20
-153.3460355062
 10
507.2006088787
 20
-153.4483992882
 10
507.192896539
 20
-153.5605787754
 10
507.1886898082
 20
-153.6825739677
 10
507.1872875646
 20
-153.8143848652
 10
507.1872875646
 20
-153.8143848652
 10
507.1872875646
 20
-154.8092766921
 10
507.1872875646
 20
-154.8092766921
 10
506.8731850005
 20
-154.8092766921
 10
506.8731850005
 20
-154.8092766921
 10
506.8731850005
 20
-153.5086957626
 10
506.8731850005
 20
-153.5086957626
 10
506.8724838787
 20
-153.3986196408
 10
506.8696793916
 20
-153.2969569805
 10
506.864771539
 20
-153.2051100254
 10
506.8584614428
 20
-153.1223776536
 10
506.8500479813
 20
-153.0487598652
 10
506.8402322762
 20
-152.9849577818
 10
506.8283132057
 20
-152.92956916
 10
506.8142907698
 20
-152.8839962434
 10
506.7799358018
 20
-152.8054706023
 10
506.7343628852
 20
-152.7353584228
 10
506.6775720198
 20
-152.6736597049
 10
506.6102643275
 20
-152.6203744485
 10
506.5345431736
 20
-152.5769048972
 10
506.45110968
 20
-152.5453544164
 10
506.3613660903
 20
-152.5271252498
 10
506.2646112826
 20
-152.5208151536
 10
506.2646112826
 20
-152.5208151536
 10
506.1510295518
 20
-152.5292286152
 10
506.04095343
 20
-152.5551701216
 10
505.9343829172
 20
-152.5979385511
 10
505.8320191352
 20
-152.6575339036
 10
505.7380688146
 20
-152.7318528139
 10
505.6567386864
 20
-152.8180907946
 10
505.5887298723
 20
-152.9155467241
 10
505.5340423723
 20
-153.0256228459
 10
505.5116064749
 20
-153.0873215639
 10
505.4919750646
 20
-153.1560314998
 10
505.4751481416
 20
-153.2331548972
 10
505.4618268275
 20
-153.3179906344
 10
505.4506088787
 20
-153.4098375895
 10
505.4435976608
 20
-153.5100980062
 10
505.4386898082
 20
-153.6173696408
 10
505.4372875646
 20
-153.7330547369
 10
505.4372875646
 20
-153.7330547369
 10
505.4372875646
 20
-154.8092766921
 10
505.4372875646
 20
-154.8092766921
 10
505.1231850005
 20
-154.8092766921
 10
505.1231850005
 20
-154.8092766921
 10
505.1231850005
 20
-152.2515843844
  0
LWPOLYLINE
  5
11C
330
1F
100
AcDbEntity
  8
0
  6
Continuous
 62
     7
100
AcDbPolyline
 90
       36
 70
   128
 43
0.0
 10
509.765625
 20
-151.1746613075
 10
509.8242066352
 20
-151.17956916
 10
509.8781930134
 20
-151.1942927177
 10
509.9279726608
 20
-151.2195331023
 10
509.9728444557
 20
-151.2538880703
 10
510.0107050326
 20
-151.2952542562
 10
510.0373476608
 20
-151.3415282946
 10
510.0534734621
 20
-151.3913079421
 10
510.0590824364
 20
-151.4452943203
 10
510.0590824364
 20
-151.4452943203
 10
510.0534734621
 20
-151.4978784549
 10
510.0373476608
 20
-151.5469569805
 10
510.0107050326
 20
-151.5925298972
 10
509.9728444557
 20
-151.6338960831
 10
509.9279726608
 20
-151.6682510511
 10
509.8781930134
 20
-151.6934914357
 10
509.8242066352
 20
-151.7082149934
 10
509.7660135262
 20
-151.7131228459
 10
509.7660135262
 20
-151.7131228459
 10
509.708521539
 20
-151.7082149934
 10
509.6559374044
 20
-151.6934914357
 10
509.6061577569
 20
-151.6682510511
 10
509.5612859621
 20
-151.6338960831
 10
509.5241265069
 20
-151.5925298972
 10
509.4974838787
 20
-151.5469569805
 10
509.4813580775
 20
-151.4978784549
 10
509.4757491031
 20
-151.4452943203
 10
509.4757491031
 20
-151.4452943203
 10
509.4813580775
 20
-151.3913079421
 10
509.4974838787
 20
-151.3415282946
 10
509.5241265069
 20
-151.2952542562
 10
509.5612859621
 20
-151.2538880703
 10
509.6061577569
 20
-151.2195331023
 10
509.6559374044
 20
-151.1942927177
 10
509.708521539
 20
-151.17956916
 10
509.7660135262
 20
-151.1746613075
  0
LWPOLYLINE
  5
11D
330
1F
100
AcDbEntity
  8
0
  6
Continuous
 62
     7
100
AcDbPolyline
 90
        8
 70
   128
 43
0.0
 10
509.6101760864
 20
-152.2515843844
 10
509.9244670518
 20
-152.2515843844
 10
509.9244670518
 20
-152.2515843844
 10
509.9244670518
 20
-154.8092766921
 10
509.9244670518
 20
-154.8092766921
 10
509.6103644877
 20
-154.8092766921
 10
509.6103644877
 20
-154.8092766921
 10
509.6103644877
 20
-152.2515843844
  0
LWPOLYLINE
  5
11E
330
1F
100
AcDbEntity
  8
0
  6
Continuous
 62
     7
100
AcDbPolyline
 90
       86
 70
   128
 43
0.0
 10
510.6868743896
 20
-152.2515843844
 10
511.0013901287
 20
-152.2515843844
 10
511.0013901287
 20
-152.2515843844
 10
511.0013901287
 20
-152.7129225254
 10
511.0013901287
 20
-152.7129225254
 10
511.1044550326
 20
-152.5895250895
 10
511.212427789
 20
-152.4836556985
 10
511.3260095198
 20
-152.3967165959
 10
511.4452002249
 20
-152.3273055382
 10
511.5692987826
 20
-152.2747214036
 10
511.6990063146
 20
-152.2368608267
 10
511.8343228211
 20
-152.2144249293
 10
511.97454718
 20
-152.2067125895
 10
511.97454718
 20
-152.2067125895
 10
512.1161737826
 20
-152.2158271728
 10
512.2493869236
 20
-152.2424698011
 10
512.3741866031
 20
-152.2880427177
 10
512.4905728211
 20
-152.3511436793
 10
512.5957410903
 20
-152.4296693203
 10
512.6868869236
 20
-152.5208151536
 10
512.7626080775
 20
-152.6245811793
 10
512.8236056736
 20
-152.7409673972
 10
512.8488460582
 20
-152.8061717241
 10
512.8705808339
 20
-152.8804906344
 10
512.8888100005
 20
-152.9625218844
 10
512.90423468
 20
-153.0536677177
 10
512.9154526287
 20
-153.1532270126
 10
512.9238660903
 20
-153.261199769
 10
512.9294750646
 20
-153.3782871087
 10
512.9308773082
 20
-153.5030867882
 10
512.9308773082
 20
-153.5030867882
 10
512.9308773082
 20
-154.8092766921
 10
512.9308773082
 20
-154.8092766921
 10
512.6167747441
 20
-154.8092766921
 10
512.6167747441
 20
-154.8092766921
 10
512.6167747441
 20
-153.6061516921
 10
512.6167747441
 20
-153.6061516921
 10
512.6160736223
 20
-153.5016845446
 10
512.6146713787
 20
-153.4063319805
 10
512.6118668916
 20
-153.3200939998
 10
512.6076601608
 20
-153.2422694805
 10
512.6020511864
 20
-153.1742606664
 10
512.5957410903
 20
-153.1153664357
 10
512.5880287505
 20
-153.0648856664
 10
512.579615289
 20
-153.0242206023
 10
512.579615289
 20
-153.0242206023
 10
512.5438580775
 20
-152.9064321408
 10
512.49407843
 20
-152.8040683587
 10
512.4309774685
 20
-152.717830378
 10
512.3545551928
 20
-152.6470170767
 10
512.2648116031
 20
-152.5916284549
 10
512.1624478211
 20
-152.5523656344
 10
512.0474638467
 20
-152.5285274934
 10
511.91985968
 20
-152.5208151536
 10
511.91985968
 20
-152.5208151536
 10
511.8441385262
 20
-152.5236196408
 10
511.7705207377
 20
-152.5327342241
 10
511.6983051928
 20
-152.5481589036
 10
511.6288941352
 20
-152.5691925575
 10
511.5608853211
 20
-152.5972374293
 10
511.4949798723
 20
-152.6301901536
 10
511.431177789
 20
-152.6701540959
 10
511.3694790711
 20
-152.7157270126
 10
511.3112859621
 20
-152.7662077818
 10
511.2587018275
 20
-152.8187919164
 10
511.2110255454
 20
-152.87488166
 10
511.1682571159
 20
-152.9337758908
 10
511.1310976608
 20
-152.9954746087
 10
511.0988460582
 20
-153.0599778139
 10
511.0715023082
 20
-153.127986628
 10
511.0497675326
 20
-153.1980988075
 10
511.0497675326
 20
-153.1980988075
 10
511.0385495839
 20
-153.2499818203
 10
511.0287338787
 20
-153.3116805382
 10
511.0203204172
 20
-153.3824938395
 10
511.0133091993
 20
-153.4638239677
 10
511.0084013467
 20
-153.5542686793
 10
511.0041946159
 20
-153.6545290959
 10
511.0020912505
 20
-153.7646052177
 10
511.0013901287
 20
-153.8844970446
 10
511.0013901287
 20
-153.8844970446
 10
511.0013901287
 20
-154.8092766921
 10
511.0013901287
 20
-154.8092766921
 10
510.6872875646
 20
-154.8092766921
 10
510.6872875646
 20
-154.8092766921
 10
510.6872875646
 20
-152.2515843844
  0
LWPOLYLINE
  5
11F
330
1F
100
AcDbEntity
  8
0
  6
Continuous
 62
     7
100
AcDbPolyline
 90
       12
 70
   128
 43
0.0
 10
515.5143737793
 20
-151.3092766921
 10
516.161646539
 20
-151.3092766921
 10
516.161646539
 20
-151.3092766921
 10
516.161646539
 20
-154.8092766921
 10
516.161646539
 20
-154.8092766921
 10
515.8475439749
 20
-154.8092766921
 10
515.8475439749
 20
-154.8092766921
 10
515.8475439749
 20
-151.6682510511
 10
515.8475439749
 20
-151.6682510511
 10
515.3090824364
 20
-151.6682510511
 10
515.3090824364
 20
-151.6682510511
 10
515.5145111223
 20
-151.3092766921
  0
LWPOLYLINE
  5
120
330
1F
100
AcDbEntity
  8
0
  6
Continuous
 62
     7
100
AcDbPolyline
 90
      100
 70
   128
 43
0.0
 10
517.4627304077
 20
-153.0606789357
 10
517.4650319557
 20
-152.8924097049
 10
517.4720431736
 20
-152.7339561793
 10
517.4839622441
 20
-152.5846172369
 10
517.5000880454
 20
-152.4457951216
 10
517.5204205775
 20
-152.3167887113
 10
517.5463620839
 20
-152.1975980062
 10
517.5765103211
 20
-152.0882230062
 10
517.610865289
 20
-151.9886637113
 10
517.6494269877
 20
-151.8968167562
 10
517.6921954172
 20
-151.8105787754
 10
517.7391705775
 20
-151.7306508908
 10
517.7896513467
 20
-151.6556308587
 10
517.8436377249
 20
-151.5869209228
 10
517.9011297121
 20
-151.5238199613
 10
517.96282843
 20
-151.4670290959
 10
518.0287338787
 20
-151.4151460831
 10
518.0974438146
 20
-151.3695731664
 10
518.1682571159
 20
-151.3296092241
 10
518.2404726608
 20
-151.295955378
 10
518.3154926928
 20
-151.268611628
 10
518.3919149685
 20
-151.2468768523
 10
518.4704406095
 20
-151.2314521728
 10
518.5503684941
 20
-151.2223375895
 10
518.6331008659
 20
-151.2195331023
 10
518.6331008659
 20
-151.2195331023
 10
518.7165343595
 20
-151.2223375895
 10
518.7985656095
 20
-151.2314521728
 10
518.8777923723
 20
-151.2468768523
 10
518.9556168916
 20
-151.268611628
 10
519.0313380454
 20
-151.295955378
 10
519.1049558339
 20
-151.3296092241
 10
519.1771713787
 20
-151.3695731664
 10
519.2465824364
 20
-151.4158472049
 10
519.3131890069
 20
-151.4677302177
 10
519.3769910903
 20
-151.5266244485
 10
519.4365864428
 20
-151.5911276536
 10
519.4926761864
 20
-151.6612398331
 10
519.5452603211
 20
-151.7383632305
 10
519.5943388467
 20
-151.8210956023
 10
519.6392106416
 20
-151.9101380703
 10
519.6812779493
 20
-152.0054906344
 10
519.7184374044
 20
-152.1078544164
 10
519.7513901287
 20
-152.21863166
 10
519.7787338787
 20
-152.3378223652
 10
519.8011697762
 20
-152.4654265318
 10
519.8186978211
 20
-152.60144416
 10
519.8313180134
 20
-152.7465763716
 10
519.8383292313
 20
-152.8994209228
 10
519.8411337185
 20
-153.0606789357
 10
519.8411337185
 20
-153.0606789357
 10
519.8383292313
 20
-153.2212358267
 10
519.8313180134
 20
-153.3733792562
 10
519.8186978211
 20
-153.5178103459
 10
519.801870898
 20
-153.6531268523
 10
519.7794350005
 20
-153.7800298972
 10
519.7520912505
 20
-153.8985194805
 10
519.7205407698
 20
-154.0092967241
 10
519.6833813146
 20
-154.1109593844
 10
519.6420151287
 20
-154.2056108267
 10
519.5971433339
 20
-154.2939521728
 10
519.54876593
 20
-154.3766845446
 10
519.4961817954
 20
-154.4538079421
 10
519.4400920518
 20
-154.5246212434
 10
519.3797955775
 20
-154.5891244485
 10
519.3159934941
 20
-154.6480186793
 10
519.2486858018
 20
-154.7006028139
 10
519.1785736223
 20
-154.7468768523
 10
519.1063580775
 20
-154.7875419164
 10
519.0320391672
 20
-154.8211957626
 10
518.9563180134
 20
-154.8492406344
 10
518.8784934941
 20
-154.87097541
 10
518.7985656095
 20
-154.8864000895
 10
518.7165343595
 20
-154.8962157946
 10
518.6331008659
 20
-154.8990202818
 10
518.6331008659
 20
-154.8990202818
 10
518.5503684941
 20
-154.8962157946
 10
518.4704406095
 20
-154.8871012113
 10
518.3919149685
 20
-154.8716765318
 10
518.3161938146
 20
-154.850642878
 10
518.2418749044
 20
-154.8240002498
 10
518.1696593595
 20
-154.7903464036
 10
518.09954718
 20
-154.7510835831
 10
518.0315383659
 20
-154.7062117882
 10
517.966334039
 20
-154.6550298972
 10
517.9046353211
 20
-154.5982390318
 10
517.8471433339
 20
-154.5351380703
 10
517.7931569557
 20
-154.4657270126
 10
517.7426761864
 20
-154.3914081023
 10
517.6957010262
 20
-154.3107790959
 10
517.6522314749
 20
-154.2238399934
 10
517.6129686544
 20
-154.1312919164
 10
517.5779125646
 20
-154.0310314998
 10
517.5470632057
 20
-153.920955378
 10
517.5218228211
 20
-153.8010635511
 10
517.5007891672
 20
-153.6720571408
 10
517.4839622441
 20
-153.5339361472
 10
517.4720431736
 20
-153.3852983267
 10
517.4650319557
 20
-153.2275459228
 10
517.4629285903
 20
-153.0606789357
  0
LWPOLYLINE
  5
121
330
1F
100
AcDbEntity
  8
0
  6
Continuous
 62
     7
100
AcDbPolyline
 90
       85
 70
   128
 43
0.0
 10
517.776966095
 20
-153.0592766921
 10
517.778433398
 20
-153.1995010511
 10
517.7840423723
 20
-153.3313119485
 10
517.7924558339
 20
-153.4547093844
 10
517.8036737826
 20
-153.5682911152
 10
517.8190984621
 20
-153.6734593844
 10
517.8373276287
 20
-153.7702141921
 10
517.8590624044
 20
-153.8578544164
 10
517.884302789
 20
-153.9363800575
 10
517.9130487826
 20
-154.0085956023
 10
517.9445992634
 20
-154.0759032946
 10
517.9789542313
 20
-154.1390042562
 10
518.0168148082
 20
-154.1971973652
 10
518.0581809941
 20
-154.2511837434
 10
518.1023516672
 20
-154.3009633908
 10
518.1500279493
 20
-154.3458351857
 10
518.2005087185
 20
-154.3865002498
 10
518.3070792313
 20
-154.4538079421
 10
518.4164542313
 20
-154.5014842241
 10
518.5286337185
 20
-154.5302302177
 10
518.6436176928
 20
-154.5400459228
 10
518.6436176928
 20
-154.5400459228
 10
518.759302789
 20
-154.5309313395
 10
518.8714822762
 20
-154.5021853459
 10
518.9794550326
 20
-154.4559113075
 10
519.08392218
 20
-154.3900058587
 10
519.1337018275
 20
-154.3500419164
 10
519.1799758659
 20
-154.3058712434
 10
519.2234454172
 20
-154.2560915959
 10
519.2641104813
 20
-154.2021052177
 10
519.3012699364
 20
-154.1439121087
 10
519.3356249044
 20
-154.0801100254
 10
519.3664742634
 20
-154.0121012113
 10
519.3945191352
 20
-153.9391845446
 10
519.3945191352
 20
-153.9391845446
 10
519.4253684941
 20
-153.8452342241
 10
519.4527122441
 20
-153.7470771728
 10
519.4751481416
 20
-153.644012269
 10
519.49407843
 20
-153.5367406344
 10
519.5081008659
 20
-153.4245611472
 10
519.5186176928
 20
-153.3074738075
 10
519.524927789
 20
-153.1854786152
 10
519.5270311544
 20
-153.0592766921
 10
519.5270311544
 20
-153.0592766921
 10
519.524927789
 20
-152.933074769
 10
519.5200199364
 20
-152.8124818203
 10
519.5102042313
 20
-152.6981989677
 10
519.497584039
 20
-152.5895250895
 10
519.4807571159
 20
-152.4864601857
 10
519.4611257057
 20
-152.389705378
 10
519.4365864428
 20
-152.2985595446
 10
519.4092426928
 20
-152.2130226857
 10
519.3783933339
 20
-152.1330948011
 10
519.3447394877
 20
-152.0594770126
 10
519.3082811544
 20
-151.9907670767
 10
519.2690183339
 20
-151.9276661152
 10
519.2269510262
 20
-151.870174128
 10
519.1813781095
 20
-151.8182911152
 10
519.1337018275
 20
-151.7720170767
 10
519.0832210582
 20
-151.7313520126
 10
518.9773516672
 20
-151.6647454421
 10
518.8693789108
 20
-151.6163680382
 10
518.7579005454
 20
-151.5883231664
 10
518.6436176928
 20
-151.5785074613
 10
518.6436176928
 20
-151.5785074613
 10
518.5279325967
 20
-151.5883231664
 10
518.4150519877
 20
-151.6163680382
 10
518.3063781095
 20
-151.6647454421
 10
518.2005087185
 20
-151.7313520126
 10
518.1500279493
 20
-151.7713159549
 10
518.103052789
 20
-151.8161877498
 10
518.0588821159
 20
-151.8659673972
 10
518.0182170518
 20
-151.9199537754
 10
517.9803564749
 20
-151.9781468844
 10
517.9453003852
 20
-152.0412478459
 10
517.9137499044
 20
-152.1085555382
 10
517.8850039108
 20
-152.1807710831
 10
517.8597635262
 20
-152.2592967241
 10
517.8380287505
 20
-152.3469369485
 10
517.8190984621
 20
-152.4429906344
 10
517.8043749044
 20
-152.5488600254
 10
517.7924558339
 20
-152.663142878
 10
517.7840423723
 20
-152.7858391921
 10
517.778433398
 20
-152.9183512113
 10
517.7770311544
 20
-153.0592766921
  0
LWPOLYLINE
  5
122
330
1F
100
AcDbEntity
  8
0
  6
Continuous
 62
     7
100
AcDbPolyline
 90
      143
 70
   128
 43
0.0
 10
521.7256546021
 20
-152.2515843844
 10
522.0398516672
 20
-152.2515843844
 10
522.0398516672
 20
-152.2515843844
 10
522.0398516672
 20
-152.6960956023
 10
522.0398516672
 20
-152.6960956023
 10
522.1267907698
 20
-152.581111628
 10
522.2151321159
 20
-152.4829545767
 10
522.3041745839
 20
-152.4016244485
 10
522.3946192954
 20
-152.3364201216
 10
522.3946192954
 20
-152.3364201216
 10
522.5215223403
 20
-152.2796292562
 10
522.6519309941
 20
-152.2389641921
 10
522.7851441352
 20
-152.2151260511
 10
522.9218628852
 20
-152.2067125895
 10
522.9218628852
 20
-152.2067125895
 10
523.0144109621
 20
-152.2116204421
 10
523.1041545518
 20
-152.2249417562
 10
523.1917947762
 20
-152.2480787754
 10
523.2766305134
 20
-152.280330378
 10
523.3572595198
 20
-152.3202943203
 10
523.4294750646
 20
-152.3658672369
 10
523.4946793916
 20
-152.4177502498
 10
523.5514702569
 20
-152.4759433587
 10
523.602652148
 20
-152.5432510511
 10
523.6510295518
 20
-152.6238800575
 10
523.6952002249
 20
-152.7171292562
 10
523.735865289
 20
-152.8244008908
 10
523.735865289
 20
-152.8244008908
 10
523.7779325967
 20
-152.7507831023
 10
523.8228043916
 20
-152.6820731664
 10
523.8704806736
 20
-152.6175699613
 10
523.9202603211
 20
-152.5579746087
 10
523.9728444557
 20
-152.5025859869
 10
524.0275319557
 20
-152.4521052177
 10
524.0850239428
 20
-152.4058311793
 10
524.1453204172
 20
-152.3644649934
 10
524.2701200967
 20
-152.2957550575
 10
524.4005287505
 20
-152.24597541
 10
524.5344430134
 20
-152.2165282946
 10
524.6739662505
 20
-152.2067125895
 10
524.6739662505
 20
-152.2067125895
 10
524.802271539
 20
-152.2151260511
 10
524.9228644877
 20
-152.2396653139
 10
525.0357450967
 20
-152.2817326216
 10
525.1409133659
 20
-152.3399257305
 10
525.2355648082
 20
-152.4128423972
 10
525.3175960582
 20
-152.499080378
 10
525.3863059941
 20
-152.5979385511
 10
525.4416946159
 20
-152.71081916
 10
525.4648316352
 20
-152.7739201216
 10
525.4844630454
 20
-152.8447334228
 10
525.5012899685
 20
-152.9225579421
 10
525.5153124044
 20
-153.0080948011
 10
525.5258292313
 20
-153.100642878
 10
525.5335415711
 20
-153.2009032946
 10
525.5384494236
 20
-153.3088760511
 10
525.5398516672
 20
-153.4238600254
 10
525.5398516672
 20
-153.4238600254
 10
525.5398516672
 20
-154.8092766921
 10
525.5398516672
 20
-154.8092766921
 10
525.2257491031
 20
-154.8092766921
 10
525.2257491031
 20
-154.8092766921
 10
525.2257491031
 20
-153.4224577818
 10
525.2257491031
 20
-153.4224577818
 10
525.2250479813
 20
-153.3243007305
 10
525.2222434941
 20
-153.233856019
 10
525.2173356416
 20
-153.151824769
 10
525.2110255454
 20
-153.0775058587
 10
525.2026120839
 20
-153.01160041
 10
525.1920952569
 20
-152.9534073011
 10
525.1801761864
 20
-152.9029265318
 10
525.1661537505
 20
-152.8608592241
 10
525.1310976608
 20
-152.7879425575
 10
525.0855247441
 20
-152.7220371087
 10
525.0294350005
 20
-152.6645451216
 10
524.96282843
 20
-152.6140643523
 10
524.887808398
 20
-152.5733992882
 10
524.8050760262
 20
-152.5439521728
 10
524.7160335582
 20
-152.526424128
 10
524.6192787505
 20
-152.5208151536
 10
524.6192787505
 20
-152.5208151536
 10
524.5007891672
 20
-152.5292286152
 10
524.3879085582
 20
-152.5558712434
 10
524.27923468
 20
-152.5993407946
 10
524.1761697762
 20
-152.6610395126
 10
524.0822194557
 20
-152.7367606664
 10
524.0022915711
 20
-152.8244008908
 10
523.9356850005
 20
-152.9239601857
 10
523.8823997441
 20
-153.0347374293
 10
523.8606649685
 20
-153.0978383908
 10
523.84173468
 20
-153.1707550575
 10
523.8263100005
 20
-153.2534874293
 10
523.8129886864
 20
-153.3460355062
 10
523.8031729813
 20
-153.4483992882
 10
523.7954606416
 20
-153.5605787754
 10
523.7912539108
 20
-153.6825739677
 10
523.7898516672
 20
-153.8143848652
 10
523.7898516672
 20
-153.8143848652
 10
523.7898516672
 20
-154.8092766921
 10
523.7898516672
 20
-154.8092766921
 10
523.4757491031
 20
-154.8092766921
 10
523.4757491031
 20
-154.8092766921
 10
523.4757491031
 20
-153.5086957626
 10
523.4757491031
 20
-153.5086957626
 10
523.4750479813
 20
-153.3986196408
 10
523.4722434941
 20
-153.2969569805
 10
523.4673356416
 20
-153.2051100254
 10
523.4610255454
 20
-153.1223776536
 10
523.4526120839
 20
-153.0487598652
 10
523.4427963787
 20
-152.9849577818
 10
523.4308773082
 20
-152.92956916
 10
523.4168548723
 20
-152.8839962434
 10
523.3824999044
 20
-152.8054706023
 10
523.3369269877
 20
-152.7353584228
 10
523.2801361223
 20
-152.6736597049
 10
523.21282843
 20
-152.6203744485
 10
523.1371072762
 20
-152.5769048972
 10
523.0536737826
 20
-152.5453544164
 10
522.9639301928
 20
-152.5271252498
 10
522.8671753852
 20
-152.5208151536
 10
522.8671753852
 20
-152.5208151536
 10
522.7535936544
 20
-152.5292286152
 10
522.6435175326
 20
-152.5551701216
 10
522.5369470198
 20
-152.5979385511
 10
522.4345832377
 20
-152.6575339036
 10
522.3406329172
 20
-152.7318528139
 10
522.259302789
 20
-152.8180907946
 10
522.1912939749
 20
-152.9155467241
 10
522.1366064749
 20
-153.0256228459
 10
522.1141705775
 20
-153.0873215639
 10
522.0945391672
 20
-153.1560314998
 10
522.0777122441
 20
-153.2331548972
 10
522.06439093
 20
-153.3179906344
 10
522.0531729813
 20
-153.4098375895
 10
522.0461617634
 20
-153.5100980062
 10
522.0412539108
 20
-153.6173696408
 10
522.0398516672
 20
-153.7330547369
 10
522.0398516672
 20
-153.7330547369
 10
522.0398516672
 20
-154.8092766921
 10
522.0398516672
 20
-154.8092766921
 10
521.7257491031
 20
-154.8092766921
 10
521.7257491031
 20
-154.8092766921
 10
521.7257491031
 20
-152.2515843844
  0
LWPOLYLINE
  5
123
330
1F
100
AcDbEntity
  8
0
  6
Continuous
 62
     7
100
AcDbPolyline
 90
       36
 70
   128
 43
0.0
 10
526.3681411743
 20
-151.1746613075
 10
526.4267707377
 20
-151.17956916
 10
526.4807571159
 20
-151.1942927177
 10
526.5305367634
 20
-151.2195331023
 10
526.5754085582
 20
-151.2538880703
 10
526.6132691352
 20
-151.2952542562
 10
526.6399117634
 20
-151.3415282946
 10
526.6560375646
 20
-151.3913079421
 10
526.661646539
 20
-151.4452943203
 10
526.661646539
 20
-151.4452943203
 10
526.6560375646
 20
-151.4978784549
 10
526.6399117634
 20
-151.5469569805
 10
526.6132691352
 20
-151.5925298972
 10
526.5754085582
 20
-151.6338960831
 10
526.5305367634
 20
-151.6682510511
 10
526.4807571159
 20
-151.6934914357
 10
526.4267707377
 20
-151.7082149934
 10
526.3685776287
 20
-151.7131228459
 10
526.3685776287
 20
-151.7131228459
 10
526.3110856416
 20
-151.7082149934
 10
526.2585015069
 20
-151.6934914357
 10
526.2087218595
 20
-151.6682510511
 10
526.1638500646
 20
-151.6338960831
 10
526.1266906095
 20
-151.5925298972
 10
526.1000479813
 20
-151.5469569805
 10
526.08392218
 20
-151.4978784549
 10
526.0783132057
 20
-151.4452943203
 10
526.0783132057
 20
-151.4452943203
 10
526.08392218
 20
-151.3913079421
 10
526.1000479813
 20
-151.3415282946
 10
526.1266906095
 20
-151.2952542562
 10
526.1638500646
 20
-151.2538880703
 10
526.2087218595
 20
-151.2195331023
 10
526.2585015069
 20
-151.1942927177
 10
526.3110856416
 20
-151.17956916
 10
526.3685776287
 20
-151.1746613075
  0
LWPOLYLINE
  5
124
330
1F
100
AcDbEntity
  8
0
  6
Continuous
 62
     7
100
AcDbPolyline
 90
        8
 70
   128
 43
0.0
 10
526.2126922607
 20
-152.2515843844
 10
526.5270311544
 20
-152.2515843844
 10
526.5270311544
 20
-152.2515843844
 10
526.5270311544
 20
-154.8092766921
 10
526.5270311544
 20
-154.8092766921
 10
526.2129285903
 20
-154.8092766921
 10
526.2129285903
 20
-154.8092766921
 10
526.2129285903
 20
-152.2515843844
  0
LWPOLYLINE
  5
125
330
1F
100
AcDbEntity
  8
0
  6
Continuous
 62
     7
100
AcDbPolyline
 90
       86
 70
   128
 43
0.0
 10
527.289390564
 20
-152.2515843844
 10
527.6039542313
 20
-152.2515843844
 10
527.6039542313
 20
-152.2515843844
 10
527.6039542313
 20
-152.7129225254
 10
527.6039542313
 20
-152.7129225254
 10
527.7070191352
 20
-152.5895250895
 10
527.8149918916
 20
-152.4836556985
 10
527.9285736223
 20
-152.3967165959
 10
528.0477643275
 20
-152.3273055382
 10
528.1718628852
 20
-152.2747214036
 10
528.3015704172
 20
-152.2368608267
 10
528.4368869236
 20
-152.2144249293
 10
528.5771112826
 20
-152.2067125895
 10
528.5771112826
 20
-152.2067125895
 10
528.7187378852
 20
-152.2158271728
 10
528.8519510262
 20
-152.2424698011
 10
528.9767507057
 20
-152.2880427177
 10
529.0931369236
 20
-152.3511436793
 10
529.1983051928
 20
-152.4296693203
 10
529.2894510262
 20
-152.5208151536
 10
529.36517218
 20
-152.6245811793
 10
529.4261697762
 20
-152.7409673972
 10
529.4514101608
 20
-152.8061717241
 10
529.4731449364
 20
-152.8804906344
 10
529.4913741031
 20
-152.9625218844
 10
529.5067987826
 20
-153.0536677177
 10
529.5180167313
 20
-153.1532270126
 10
529.5264301928
 20
-153.261199769
 10
529.5320391672
 20
-153.3782871087
 10
529.5334414108
 20
-153.5030867882
 10
529.5334414108
 20
-153.5030867882
 10
529.5334414108
 20
-154.8092766921
 10
529.5334414108
 20
-154.8092766921
 10
529.2193388467
 20
-154.8092766921
 10
529.2193388467
 20
-154.8092766921
 10
529.2193388467
 20
-153.6061516921
 10
529.2193388467
 20
-153.6061516921
 10
529.2186377249
 20
-153.5016845446
 10
529.2172354813
 20
-153.4063319805
 10
529.2144309941
 20
-153.3200939998
 10
529.2102242634
 20
-153.2422694805
 10
529.204615289
 20
-153.1742606664
 10
529.1983051928
 20
-153.1153664357
 10
529.1905928531
 20
-153.0648856664
 10
529.1821793916
 20
-153.0242206023
 10
529.1821793916
 20
-153.0242206023
 10
529.14642218
 20
-152.9064321408
 10
529.0966425326
 20
-152.8040683587
 10
529.0335415711
 20
-152.717830378
 10
528.9571192954
 20
-152.6470170767
 10
528.8673757057
 20
-152.5916284549
 10
528.7650119236
 20
-152.5523656344
 10
528.6500279493
 20
-152.5285274934
 10
528.5224237826
 20
-152.5208151536
 10
528.5224237826
 20
-152.5208151536
 10
528.4467026287
 20
-152.5236196408
 10
528.3730848403
 20
-152.5327342241
 10
528.3008692954
 20
-152.5481589036
 10
528.2314582377
 20
-152.5691925575
 10
528.1634494236
 20
-152.5972374293
 10
528.0975439749
 20
-152.6301901536
 10
528.0337418916
 20
-152.6701540959
 10
527.9720431736
 20
-152.7157270126
 10
527.9138500646
 20
-152.7662077818
 10
527.86126593
 20
-152.8187919164
 10
527.813589648
 20
-152.87488166
 10
527.7708212185
 20
-152.9337758908
 10
527.7336617634
 20
-152.9954746087
 10
527.7014101608
 20
-153.0599778139
 10
527.6740664108
 20
-153.127986628
 10
527.6523316352
 20
-153.1980988075
 10
527.6523316352
 20
-153.1980988075
 10
527.6411136864
 20
-153.2499818203
 10
527.6312979813
 20
-153.3116805382
 10
527.6228845198
 20
-153.3824938395
 10
527.6158733018
 20
-153.4638239677
 10
527.6109654493
 20
-153.5542686793
 10
527.6067587185
 20
-153.6545290959
 10
527.6046553531
 20
-153.7646052177
 10
527.6039542313
 20
-153.8844970446
 10
527.6039542313
 20
-153.8844970446
 10
527.6039542313
 20
-154.8092766921
 10
527.6039542313
 20
-154.8092766921
 10
527.2898516672
 20
-154.8092766921
 10
527.2898516672
 20
-154.8092766921
 10
527.2898516672
 20
-152.2515843844
  0
LWPOLYLINE
  5
126
330
1F
100
AcDbEntity
  8
0
  6
Continuous
 62
     7
100
AcDbPolyline
 90
       12
 70
   128
 43
0.0
 10
532.1168899536
 20
-151.3092766921
 10
532.7642106416
 20
-151.3092766921
 10
532.7642106416
 20
-151.3092766921
 10
532.7642106416
 20
-154.8092766921
 10
532.7642106416
 20
-154.8092766921
 10
532.4501080775
 20
-154.8092766921
 10
532.4501080775
 20
-154.8092766921
 10
532.4501080775
 20
-151.6682510511
 10
532.4501080775
 20
-151.6682510511
 10
531.911646539
 20
-151.6682510511
 10
531.911646539
 20
-151.6682510511
 10
532.1170752249
 20
-151.3092766921
  0
LWPOLYLINE
  5
127
330
1F
100
AcDbEntity
  8
0
  6
Continuous
 62
     7
100
AcDbPolyline
 90
      132
 70
   128
 43
0.0
 10
536.2639427185
 20
-151.3092766921
 10
536.2642106416
 20
-151.6682510511
 10
536.2642106416
 20
-151.6682510511
 10
535.0737058339
 20
-151.6682510511
 10
535.0737058339
 20
-151.6682510511
 10
534.8851040711
 20
-152.5888239677
 10
534.8851040711
 20
-152.5888239677
 10
534.9965824364
 20
-152.5593768523
 10
535.1024518275
 20
-152.5376420767
 10
535.2027122441
 20
-152.5250218844
 10
535.2973636864
 20
-152.5208151536
 10
535.2973636864
 20
-152.5208151536
 10
535.4144510262
 20
-152.5257230062
 10
535.5266305134
 20
-152.5411476857
 10
535.6332010262
 20
-152.5663880703
 10
535.7348636864
 20
-152.60144416
 10
535.8309173723
 20
-152.6463159549
 10
535.9213620839
 20
-152.7017045767
 10
536.0068989428
 20
-152.7669089036
 10
536.0875279493
 20
-152.8426300575
 10
536.1604446159
 20
-152.9260635511
 10
536.2235455775
 20
-153.0144048972
 10
536.2775319557
 20
-153.1090563395
 10
536.3210015069
 20
-153.2086156344
 10
536.3553564749
 20
-153.3144850254
 10
536.3791946159
 20
-153.4259633908
 10
536.3939181736
 20
-153.5430507305
 10
536.3988260262
 20
-153.6657470446
 10
536.3988260262
 20
-153.6657470446
 10
536.396021539
 20
-153.7512839036
 10
536.3890103211
 20
-153.835418519
 10
536.3763901287
 20
-153.917449769
 10
536.3588620839
 20
-153.9980787754
 10
536.3364261864
 20
-154.0766044164
 10
536.3090824364
 20
-154.1530266921
 10
536.2761297121
 20
-154.2280467241
 10
536.2389702569
 20
-154.3016645126
 10
536.1976040711
 20
-154.3717766921
 10
536.1520311544
 20
-154.4376821408
 10
536.1036537505
 20
-154.4993808587
 10
536.0517707377
 20
-154.5568728459
 10
535.9956809941
 20
-154.6101581023
 10
535.9360856416
 20
-154.659236628
 10
535.8736858018
 20
-154.7041084228
 10
535.8070792313
 20
-154.7447734869
 10
535.7376681736
 20
-154.7812318203
 10
535.6654526287
 20
-154.8120811793
 10
535.5911337185
 20
-154.8387238075
 10
535.5140103211
 20
-154.8604585831
 10
535.4340824364
 20
-154.8772855062
 10
535.3513500646
 20
-154.8892045767
 10
535.2658132057
 20
-154.8969169164
 10
535.1781729813
 20
-154.8990202818
 10
535.1781729813
 20
-154.8990202818
 10
535.0737058339
 20
-154.8948135511
 10
534.9734454172
 20
-154.8814922369
 10
534.8773917313
 20
-154.8604585831
 10
534.7855447762
 20
-154.8303103459
 10
534.6979045518
 20
-154.7917486472
 10
534.6144710582
 20
-154.7440723652
 10
534.5345431736
 20
-154.6886837434
 10
534.4595231416
 20
-154.6241805382
 10
534.3901120839
 20
-154.5526661152
 10
534.3284133659
 20
-154.4762438395
 10
534.2737258659
 20
-154.3949137113
 10
534.2260495839
 20
-154.3079746087
 10
534.1860856416
 20
-154.2168287754
 10
534.153834039
 20
-154.1200739677
 10
534.1285936544
 20
-154.0184113075
 10
534.1103644877
 20
-153.9118407946
 10
534.1103644877
 20
-153.9118407946
 10
534.4244670518
 20
-153.9118407946
 10
534.4244670518
 20
-153.9118407946
 10
534.4497074364
 20
-154.0114000895
 10
534.481959039
 20
-154.1004425575
 10
534.5219229813
 20
-154.1803704421
 10
534.5688981416
 20
-154.2504826216
 10
534.6242867634
 20
-154.3121813395
 10
534.6880888467
 20
-154.3675699613
 10
534.7603043916
 20
-154.4173496087
 10
534.840933398
 20
-154.4601180382
 10
534.9264702569
 20
-154.495174128
 10
535.0148116031
 20
-154.5197133908
 10
535.1045551928
 20
-154.5351380703
 10
535.196402148
 20
-154.5400459228
 10
535.196402148
 20
-154.5400459228
 10
535.2861457377
 20
-154.5358391921
 10
535.3723837185
 20
-154.5239201216
 10
535.4558172121
 20
-154.5042887113
 10
535.5357450967
 20
-154.4762438395
 10
535.6121673723
 20
-154.4411877498
 10
535.6857851608
 20
-154.3970170767
 10
535.7558973403
 20
-154.3458351857
 10
535.8232050326
 20
-154.2862398331
 10
535.8842026287
 20
-154.2210355062
 10
535.9374878852
 20
-154.1516244485
 10
535.98235968
 20
-154.07800666
 10
536.0195191352
 20
-154.0008832626
 10
536.0482651287
 20
-153.9195531344
 10
536.0685976608
 20
-153.8347173972
 10
536.0805167313
 20
-153.7456749293
 10
536.0847234621
 20
-153.6524257305
 10
536.0847234621
 20
-153.6524257305
 10
536.0812178531
 20
-153.5682911152
 10
536.0707010262
 20
-153.4883632305
 10
536.0524718595
 20
-153.4126420767
 10
536.0272314749
 20
-153.3411276536
 10
535.9949798723
 20
-153.2731188395
 10
535.9557170518
 20
-153.2093167562
 10
535.9087418916
 20
-153.1497214036
 10
535.8547555134
 20
-153.0943327818
 10
535.7951601608
 20
-153.0438520126
 10
535.7299558339
 20
-153.0003824613
 10
535.6605447762
 20
-152.963924128
 10
535.5862258659
 20
-152.933074769
 10
535.5069991031
 20
-152.9099377498
 10
535.4228644877
 20
-152.8931108267
 10
535.3345231416
 20
-152.8832951216
 10
535.2405728211
 20
-152.8797895126
 10
535.2405728211
 20
-152.8797895126
 10
535.1592426928
 20
-152.8825939998
 10
535.0730047121
 20
-152.8910074613
 10
534.9832611223
 20
-152.9050298972
 10
534.88860968
 20
-152.9246613075
 10
534.7904526287
 20
-152.9499016921
 10
534.6873877249
 20
-152.9807510511
 10
534.5808172121
 20
-153.0172093844
 10
534.4693388467
 20
-153.0592766921
 10
534.4693388467
 20
-153.0592766921
 10
534.8283132057
 20
-151.3092766921
 10
534.8283132057
 20
-151.3092766921
 10
536.2642106416
 20
-151.3092766921
  0
LWPOLYLINE
  5
128
330
1F
100
AcDbEntity
  8
0
  6
Continuous
 62
     7
100
AcDbPolyline
 90
      143
 70
   128
 43
0.0
 10
538.3281707764
 20
-152.2515843844
 10
538.6424157698
 20
-152.2515843844
 10
538.6424157698
 20
-152.2515843844
 10
538.6424157698
 20
-152.6960956023
 10
538.6424157698
 20
-152.6960956023
 10
538.7293548723
 20
-152.581111628
 10
538.8176962185
 20
-152.4829545767
 10
538.9067386864
 20
-152.4016244485
 10
538.997183398
 20
-152.3364201216
 10
538.997183398
 20
-152.3364201216
 10
539.1240864428
 20
-152.2796292562
 10
539.2544950967
 20
-152.2389641921
 10
539.3877082377
 20
-152.2151260511
 10
539.5244269877
 20
-152.2067125895
 10
539.5244269877
 20
-152.2067125895
 10
539.6169750646
 20
-152.2116204421
 10
539.7067186544
 20
-152.2249417562
 10
539.7943588787
 20
-152.2480787754
 10
539.8791946159
 20
-152.280330378
 10
539.9598236223
 20
-152.3202943203
 10
540.0320391672
 20
-152.3658672369
 10
540.0972434941
 20
-152.4177502498
 10
540.1540343595
 20
-152.4759433587
 10
540.2052162505
 20
-152.5432510511
 10
540.2535936544
 20
-152.6238800575
 10
540.2977643275
 20
-152.7171292562
 10
540.3384293916
 20
-152.8244008908
 10
540.3384293916
 20
-152.8244008908
 10
540.3804966993
 20
-152.7507831023
 10
540.4253684941
 20
-152.6820731664
 10
540.4730447762
 20
-152.6175699613
 10
540.5228244236
 20
-152.5579746087
 10
540.5754085582
 20
-152.5025859869
 10
540.6300960582
 20
-152.4521052177
 10
540.6875880454
 20
-152.4058311793
 10
540.7478845198
 20
-152.3644649934
 10
540.8726841993
 20
-152.2957550575
 10
541.0030928531
 20
-152.24597541
 10
541.1370071159
 20
-152.2165282946
 10
541.2765303531
 20
-152.2067125895
 10
541.2765303531
 20
-152.2067125895
 10
541.4048356416
 20
-152.2151260511
 10
541.5254285903
 20
-152.2396653139
 10
541.6383091993
 20
-152.2817326216
 10
541.7434774685
 20
-152.3399257305
 10
541.8381289108
 20
-152.4128423972
 10
541.9201601608
 20
-152.499080378
 10
541.9888700967
 20
-152.5979385511
 10
542.0442587185
 20
-152.71081916
 10
542.0673957377
 20
-152.7739201216
 10
542.087027148
 20
-152.8447334228
 10
542.1038540711
 20
-152.9225579421
 10
542.1178765069
 20
-153.0080948011
 10
542.1283933339
 20
-153.100642878
 10
542.1361056736
 20
-153.2009032946
 10
542.1410135262
 20
-153.3088760511
 10
542.1424157698
 20
-153.4238600254
 10
542.1424157698
 20
-153.4238600254
 10
542.1424157698
 20
-154.8092766921
 10
542.1424157698
 20
-154.8092766921
 10
541.8283132057
 20
-154.8092766921
 10
541.8283132057
 20
-154.8092766921
 10
541.8283132057
 20
-153.4224577818
 10
541.8283132057
 20
-153.4224577818
 10
541.8276120839
 20
-153.3243007305
 10
541.8248075967
 20
-153.233856019
 10
541.8198997441
 20
-153.151824769
 10
541.813589648
 20
-153.0775058587
 10
541.8051761864
 20
-153.01160041
 10
541.7946593595
 20
-152.9534073011
 10
541.782740289
 20
-152.9029265318
 10
541.7687178531
 20
-152.8608592241
 10
541.7336617634
 20
-152.7879425575
 10
541.6880888467
 20
-152.7220371087
 10
541.6319991031
 20
-152.6645451216
 10
541.5653925326
 20
-152.6140643523
 10
541.4903725005
 20
-152.5733992882
 10
541.4076401287
 20
-152.5439521728
 10
541.3185976608
 20
-152.526424128
 10
541.2218428531
 20
-152.5208151536
 10
541.2218428531
 20
-152.5208151536
 10
541.1033532698
 20
-152.5292286152
 10
540.9904726608
 20
-152.5558712434
 10
540.8817987826
 20
-152.5993407946
 10
540.7787338787
 20
-152.6610395126
 10
540.6847835582
 20
-152.7367606664
 10
540.6048556736
 20
-152.8244008908
 10
540.5382491031
 20
-152.9239601857
 10
540.4849638467
 20
-153.0347374293
 10
540.4632290711
 20
-153.0978383908
 10
540.4442987826
 20
-153.1707550575
 10
540.4288741031
 20
-153.2534874293
 10
540.415552789
 20
-153.3460355062
 10
540.4057370839
 20
-153.4483992882
 10
540.3980247441
 20
-153.5605787754
 10
540.3938180134
 20
-153.6825739677
 10
540.3924157698
 20
-153.8143848652
 10
540.3924157698
 20
-153.8143848652
 10
540.3924157698
 20
-154.8092766921
 10
540.3924157698
 20
-154.8092766921
 10
540.0783132057
 20
-154.8092766921
 10
540.0783132057
 20
-154.8092766921
 10
540.0783132057
 20
-153.5086957626
 10
540.0783132057
 20
-153.5086957626
 10
540.0776120839
 20
-153.3986196408
 10
540.0748075967
 20
-153.2969569805
 10
540.0698997441
 20
-153.2051100254
 10
540.063589648
 20
-153.1223776536
 10
540.0551761864
 20
-153.0487598652
 10
540.0453604813
 20
-152.9849577818
 10
540.0334414108
 20
-152.92956916
 10
540.0194189749
 20
-152.8839962434
 10
539.9850640069
 20
-152.8054706023
 10
539.9394910903
 20
-152.7353584228
 10
539.8827002249
 20
-152.6736597049
 10
539.8153925326
 20
-152.6203744485
 10
539.7396713787
 20
-152.5769048972
 10
539.6562378852
 20
-152.5453544164
 10
539.5664942954
 20
-152.5271252498
 10
539.4697394877
 20
-152.5208151536
 10
539.4697394877
 20
-152.5208151536
 10
539.3561577569
 20
-152.5292286152
 10
539.2460816352
 20
-152.5551701216
 10
539.1395111223
 20
-152.5979385511
 10
539.0371473403
 20
-152.6575339036
 10
538.9431970198
 20
-152.7318528139
 10
538.8618668916
 20
-152.8180907946
 10
538.7938580775
 20
-152.9155467241
 10
538.7391705775
 20
-153.0256228459
 10
538.71673468
 20
-153.0873215639
 10
538.6971032698
 20
-153.1560314998
 10
538.6802763467
 20
-153.2331548972
 10
538.6669550326
 20
-153.3179906344
 10
538.6557370839
 20
-153.4098375895
 10
538.6487258659
 20
-153.5100980062
 10
538.6438180134
 20
-153.6173696408
 10
538.6424157698
 20
-153.7330547369
 10
538.6424157698
 20
-153.7330547369
 10
538.6424157698
 20
-154.8092766921
 10
538.6424157698
 20
-154.8092766921
 10
538.3283132057
 20
-154.8092766921
 10
538.3283132057
 20
-154.8092766921
 10
538.3283132057
 20
-152.2515843844
  0
LWPOLYLINE
  5
129
330
1F
100
AcDbEntity
  8
0
  6
Continuous
 62
     7
100
AcDbPolyline
 90
       36
 70
   128
 43
0.0
 10
542.9711341858
 20
-151.1746613075
 10
543.0293348403
 20
-151.17956916
 10
543.0833212185
 20
-151.1942927177
 10
543.1331008659
 20
-151.2195331023
 10
543.1779726608
 20
-151.2538880703
 10
543.2158332377
 20
-151.2952542562
 10
543.2424758659
 20
-151.3415282946
 10
543.2586016672
 20
-151.3913079421
 10
543.2642106416
 20
-151.4452943203
 10
543.2642106416
 20
-151.4452943203
 10
543.2586016672
 20
-151.4978784549
 10
543.2424758659
 20
-151.5469569805
 10
543.2158332377
 20
-151.5925298972
 10
543.1779726608
 20
-151.6338960831
 10
543.1331008659
 20
-151.6682510511
 10
543.0833212185
 20
-151.6934914357
 10
543.0293348403
 20
-151.7082149934
 10
542.9711417313
 20
-151.7131228459
 10
542.9711417313
 20
-151.7131228459
 10
542.9136497441
 20
-151.7082149934
 10
542.8610656095
 20
-151.6934914357
 10
542.8112859621
 20
-151.6682510511
 10
542.7664141672
 20
-151.6338960831
 10
542.7292547121
 20
-151.5925298972
 10
542.7026120839
 20
-151.5469569805
 10
542.6864862826
 20
-151.4978784549
 10
542.6808773082
 20
-151.4452943203
 10
542.6808773082
 20
-151.4452943203
 10
542.6864862826
 20
-151.3913079421
 10
542.7026120839
 20
-151.3415282946
 10
542.7292547121
 20
-151.2952542562
 10
542.7664141672
 20
-151.2538880703
 10
542.8112859621
 20
-151.2195331023
 10
542.8610656095
 20
-151.1942927177
 10
542.9136497441
 20
-151.17956916
 10
542.9711417313
 20
-151.1746613075
  0
LWPOLYLINE
  5
12A
330
1F
100
AcDbEntity
  8
0
  6
Continuous
 62
     7
100
AcDbPolyline
 90
        8
 70
   128
 43
0.0
 10
542.8152084351
 20
-152.2515843844
 10
543.1295952569
 20
-152.2515843844
 10
543.1295952569
 20
-152.2515843844
 10
543.1295952569
 20
-154.8092766921
 10
543.1295952569
 20
-154.8092766921
 10
542.8154926928
 20
-154.8092766921
 10
542.8154926928
 20
-154.8092766921
 10
542.8154926928
 20
-152.2515843844
  0
LWPOLYLINE
  5
12B
330
1F
100
AcDbEntity
  8
0
  6
Continuous
 62
     7
100
AcDbPolyline
 90
       86
 70
   128
 43
0.0
 10
543.8923835754
 20
-152.2515843844
 10
544.2065183339
 20
-152.2515843844
 10
544.2065183339
 20
-152.2515843844
 10
544.2065183339
 20
-152.7129225254
 10
544.2065183339
 20
-152.7129225254
 10
544.3095832377
 20
-152.5895250895
 10
544.4175559941
 20
-152.4836556985
 10
544.5311377249
 20
-152.3967165959
 10
544.65032843
 20
-152.3273055382
 10
544.7744269877
 20
-152.2747214036
 10
544.9041345198
 20
-152.2368608267
 10
545.0394510262
 20
-152.2144249293
 10
545.1796753852
 20
-152.2067125895
 10
545.1796753852
 20
-152.2067125895
 10
545.3213019877
 20
-152.2158271728
 10
545.4545151287
 20
-152.2424698011
 10
545.5793148082
 20
-152.2880427177
 10
545.6957010262
 20
-152.3511436793
 10
545.8008692954
 20
-152.4296693203
 10
545.8920151287
 20
-152.5208151536
 10
545.9677362826
 20
-152.6245811793
 10
546.0287338787
 20
-152.7409673972
 10
546.0539742634
 20
-152.8061717241
 10
546.075709039
 20
-152.8804906344
 10
546.0939382057
 20
-152.9625218844
 10
546.1093628852
 20
-153.0536677177
 10
546.1205808339
 20
-153.1532270126
 10
546.1289942954
 20
-153.261199769
 10
546.1346032698
 20
-153.3782871087
 10
546.1360055134
 20
-153.5030867882
 10
546.1360055134
 20
-153.5030867882
 10
546.1360055134
 20
-154.8092766921
 10
546.1360055134
 20
-154.8092766921
 10
545.8219029493
 20
-154.8092766921
 10
545.8219029493
 20
-154.8092766921
 10
545.8219029493
 20
-153.6061516921
 10
545.8219029493
 20
-153.6061516921
 10
545.8212018275
 20
-153.5016845446
 10
545.8197995839
 20
-153.4063319805
 10
545.8169950967
 20
-153.3200939998
 10
545.8127883659
 20
-153.2422694805
 10
545.8071793916
 20
-153.1742606664
 10
545.8008692954
 20
-153.1153664357
 10
545.7931569557
 20
-153.0648856664
 10
545.7847434941
 20
-153.0242206023
 10
545.7847434941
 20
-153.0242206023
 10
545.7489862826
 20
-152.9064321408
 10
545.6992066352
 20
-152.8040683587
 10
545.6361056736
 20
-152.717830378
 10
545.559683398
 20
-152.6470170767
 10
545.4699398082
 20
-152.5916284549
 10
545.3675760262
 20
-152.5523656344
 10
545.2525920518
 20
-152.5285274934
 10
545.1249878852
 20
-152.5208151536
 10
545.1249878852
 20
-152.5208151536
 10
545.0492667313
 20
-152.5236196408
 10
544.9756489428
 20
-152.5327342241
 10
544.903433398
 20
-152.5481589036
 10
544.8340223403
 20
-152.5691925575
 10
544.7660135262
 20
-152.5972374293
 10
544.7001080775
 20
-152.6301901536
 10
544.6363059941
 20
-152.6701540959
 10
544.5746072762
 20
-152.7157270126
 10
544.5164141672
 20
-152.7662077818
 10
544.4638300326
 20
-152.8187919164
 10
544.4161537505
 20
-152.87488166
 10
544.3733853211
 20
-152.9337758908
 10
544.3362258659
 20
-152.9954746087
 10
544.3039742634
 20
-153.0599778139
 10
544.2766305134
 20
-153.127986628
 10
544.2548957377
 20
-153.1980988075
 10
544.2548957377
 20
-153.1980988075
 10
544.243677789
 20
-153.2499818203
 10
544.2338620839
 20
-153.3116805382
 10
544.2254486223
 20
-153.3824938395
 10
544.2184374044
 20
-153.4638239677
 10
544.2135295518
 20
-153.5542686793
 10
544.2093228211
 20
-153.6545290959
 10
544.2072194557
 20
-153.7646052177
 10
544.2065183339
 20
-153.8844970446
 10
544.2065183339
 20
-153.8844970446
 10
544.2065183339
 20
-154.8092766921
 10
544.2065183339
 20
-154.8092766921
 10
543.8924157698
 20
-154.8092766921
 10
543.8924157698
 20
-154.8092766921
 10
543.8924157698
 20
-152.2515843844
  0
LWPOLYLINE
  5
12C
330
1F
100
AcDbEntity
  8
0
  6
Continuous
 62
     7
100
AcDbPolyline
 90
      106
 70
   128
 43
0.0
 10
548.424243927
 20
-152.386199769
 10
548.1103644877
 20
-152.386199769
 10
548.1103644877
 20
-152.386199769
 10
548.1187779493
 20
-152.2614000895
 10
548.1370071159
 20
-152.1422093844
 10
548.1643508659
 20
-152.0293287754
 10
548.2022114428
 20
-151.921356019
 10
548.2491866031
 20
-151.8196933587
 10
548.3059774685
 20
-151.7229385511
 10
548.372584039
 20
-151.6324938395
 10
548.4490063146
 20
-151.5476581023
 10
548.5324398082
 20
-151.4705347049
 10
548.6214822762
 20
-151.4039281344
 10
548.7147314749
 20
-151.3478383908
 10
548.8121874044
 20
-151.3015643523
 10
548.9152523082
 20
-151.2658071408
 10
549.0225239428
 20
-151.2398656344
 10
549.13470343
 20
-151.2244409549
 10
549.2517907698
 20
-151.2195331023
 10
549.2517907698
 20
-151.2195331023
 10
549.3667747441
 20
-151.2244409549
 10
549.4768508659
 20
-151.2391645126
 10
549.5806168916
 20
-151.2630026536
 10
549.6794750646
 20
-151.2966564998
 10
549.7720231416
 20
-151.3408271728
 10
549.8589622441
 20
-151.3941124293
 10
549.9409934941
 20
-151.456512269
 10
550.016714648
 20
-151.5294289357
 10
550.0854245839
 20
-151.6086556985
 10
550.1443188146
 20
-151.6913880703
 10
550.1947995839
 20
-151.7776260511
 10
550.2361657698
 20
-151.866668519
 10
550.2677162505
 20
-151.9599177177
 10
550.2908532698
 20
-152.0566725254
 10
550.3041745839
 20
-152.1562318203
 10
550.3090824364
 20
-152.2599978459
 10
550.3090824364
 20
-152.2599978459
 10
550.2999678531
 20
-152.4058311793
 10
550.2726241031
 20
-152.54675666
 10
550.2277523082
 20
-152.6827742882
 10
550.1639502249
 20
-152.8145851857
 10
550.1232851608
 20
-152.881892878
 10
550.0742066352
 20
-152.9555106664
 10
550.016714648
 20
-153.0347374293
 10
549.9508091993
 20
-153.1188720446
 10
549.8757891672
 20
-153.210017878
 10
549.7930567954
 20
-153.3060715639
 10
549.7012098403
 20
-153.4077342241
 10
549.6009494236
 20
-153.5157069805
 10
549.6009494236
 20
-153.5157069805
 10
548.7252483018
 20
-154.4503023331
 10
548.7252483018
 20
-154.4503023331
 10
550.3539542313
 20
-154.4503023331
 10
550.3539542313
 20
-154.4503023331
 10
550.3539542313
 20
-154.8092766921
 10
550.3539542313
 20
-154.8092766921
 10
547.9757491031
 20
-154.8092766921
 10
547.9757491031
 20
-154.8092766921
 10
549.333120898
 20
-153.3607590639
 10
549.333120898
 20
-153.3607590639
 10
549.4319790711
 20
-153.2569930382
 10
549.5217226608
 20
-153.1602382305
 10
549.6023516672
 20
-153.0704946408
 10
549.6738660903
 20
-152.987762269
 10
549.73626593
 20
-152.9113399934
 10
549.7902523082
 20
-152.8426300575
 10
549.8344229813
 20
-152.7802302177
 10
549.8701801928
 20
-152.7248415959
 10
549.9248676928
 20
-152.6196733267
 10
549.9641305134
 20
-152.5117005703
 10
549.9872675326
 20
-152.4016244485
 10
549.9949798723
 20
-152.2880427177
 10
549.9949798723
 20
-152.2880427177
 10
549.9914742634
 20
-152.2165282946
 10
549.9809574364
 20
-152.1478183587
 10
549.9641305134
 20
-152.08191291
 10
549.9402923723
 20
-152.0181108267
 10
549.9087418916
 20
-151.9564121087
 10
549.8708813146
 20
-151.8982189998
 10
549.8267106416
 20
-151.8421292562
 10
549.7748276287
 20
-151.788142878
 10
549.7180367634
 20
-151.7390643523
 10
549.6584414108
 20
-151.6962959228
 10
549.5960415711
 20
-151.6605387113
 10
549.5301361223
 20
-151.6310915959
 10
549.4607250646
 20
-151.6079545767
 10
549.3892106416
 20
-151.5918287754
 10
549.3141906095
 20
-151.5820130703
 10
549.2356649685
 20
-151.5785074613
 10
549.2356649685
 20
-151.5785074613
 10
549.1536337185
 20
-151.5820130703
 10
549.0751080775
 20
-151.5918287754
 10
549.0000880454
 20
-151.6086556985
 10
548.9285736223
 20
-151.6317927177
 10
548.8605648082
 20
-151.6612398331
 10
548.7960616031
 20
-151.6976981664
 10
548.7350640069
 20
-151.7411677177
 10
548.6775720198
 20
-151.7909473652
 10
548.6249878852
 20
-151.8463359869
 10
548.5787138467
 20
-151.9073335831
 10
548.5380487826
 20
-151.9739401536
 10
548.5029926928
 20
-152.0454545767
 10
548.4742466993
 20
-152.1225779741
 10
548.4518108018
 20
-152.2053103459
 10
548.4349838787
 20
-152.2929505703
 10
548.4244670518
 20
-152.386199769
  0
LWPOLYLINE
  5
12D
330
1F
100
AcDbEntity
  8
0
  6
Continuous
 62
     7
100
AcDbPolyline
 90
      100
 70
   128
 43
0.0
 10
550.6677627563
 20
-153.0606789357
 10
550.6701601608
 20
-152.8924097049
 10
550.6771713787
 20
-152.7339561793
 10
550.6890904493
 20
-152.5846172369
 10
550.7052162505
 20
-152.4457951216
 10
550.7255487826
 20
-152.3167887113
 10
550.751490289
 20
-152.1975980062
 10
550.7816385262
 20
-152.0882230062
 10
550.8159934941
 20
-151.9886637113
 10
550.8545551928
 20
-151.8968167562
 10
550.8973236223
 20
-151.8105787754
 10
550.9442987826
 20
-151.7306508908
 10
550.9947795518
 20
-151.6556308587
 10
551.04876593
 20
-151.5869209228
 10
551.1062579172
 20
-151.5238199613
 10
551.1679566352
 20
-151.4670290959
 10
551.2338620839
 20
-151.4151460831
 10
551.3025720198
 20
-151.3695731664
 10
551.3733853211
 20
-151.3296092241
 10
551.4456008659
 20
-151.295955378
 10
551.520620898
 20
-151.268611628
 10
551.5970431736
 20
-151.2468768523
 10
551.6755688146
 20
-151.2314521728
 10
551.7554966993
 20
-151.2223375895
 10
551.8382290711
 20
-151.2195331023
 10
551.8382290711
 20
-151.2195331023
 10
551.9216625646
 20
-151.2223375895
 10
552.0036938146
 20
-151.2314521728
 10
552.0829205775
 20
-151.2468768523
 10
552.1607450967
 20
-151.268611628
 10
552.2364662505
 20
-151.295955378
 10
552.310084039
 20
-151.3296092241
 10
552.3822995839
 20
-151.3695731664
 10
552.4517106416
 20
-151.4158472049
 10
552.5183172121
 20
-151.4677302177
 10
552.5821192954
 20
-151.5266244485
 10
552.641714648
 20
-151.5911276536
 10
552.6978043916
 20
-151.6612398331
 10
552.7503885262
 20
-151.7383632305
 10
552.7994670518
 20
-151.8210956023
 10
552.8443388467
 20
-151.9101380703
 10
552.8864061544
 20
-152.0054906344
 10
552.9235656095
 20
-152.1078544164
 10
552.9565183339
 20
-152.21863166
 10
552.9838620839
 20
-152.3378223652
 10
553.0062979813
 20
-152.4654265318
 10
553.0238260262
 20
-152.60144416
 10
553.0364462185
 20
-152.7465763716
 10
553.0434574364
 20
-152.8994209228
 10
553.0462619236
 20
-153.0606789357
 10
553.0462619236
 20
-153.0606789357
 10
553.0434574364
 20
-153.2212358267
 10
553.0364462185
 20
-153.3733792562
 10
553.0238260262
 20
-153.5178103459
 10
553.0069991031
 20
-153.6531268523
 10
552.9845632057
 20
-153.7800298972
 10
552.9572194557
 20
-153.8985194805
 10
552.9256689749
 20
-154.0092967241
 10
552.8885095198
 20
-154.1109593844
 10
552.8471433339
 20
-154.2056108267
 10
552.802271539
 20
-154.2939521728
 10
552.7538941352
 20
-154.3766845446
 10
552.7013100005
 20
-154.4538079421
 10
552.6452202569
 20
-154.5246212434
 10
552.5849237826
 20
-154.5891244485
 10
552.5211216993
 20
-154.6480186793
 10
552.4538140069
 20
-154.7006028139
 10
552.3837018275
 20
-154.7468768523
 10
552.3114862826
 20
-154.7875419164
 10
552.2371673723
 20
-154.8211957626
 10
552.1614462185
 20
-154.8492406344
 10
552.0836216993
 20
-154.87097541
 10
552.0036938146
 20
-154.8864000895
 10
551.9216625646
 20
-154.8962157946
 10
551.8382290711
 20
-154.8990202818
 10
551.8382290711
 20
-154.8990202818
 10
551.7554966993
 20
-154.8962157946
 10
551.6755688146
 20
-154.8871012113
 10
551.5970431736
 20
-154.8716765318
 10
551.5213220198
 20
-154.850642878
 10
551.4470031095
 20
-154.8240002498
 10
551.3747875646
 20
-154.7903464036
 10
551.3046753852
 20
-154.7510835831
 10
551.2366665711
 20
-154.7062117882
 10
551.1714622441
 20
-154.6550298972
 10
551.1097635262
 20
-154.5982390318
 10
551.052271539
 20
-154.5351380703
 10
550.9982851608
 20
-154.4657270126
 10
550.9478043916
 20
-154.3914081023
 10
550.9008292313
 20
-154.3107790959
 10
550.85735968
 20
-154.2238399934
 10
550.8180968595
 20
-154.1312919164
 10
550.7830407698
 20
-154.0310314998
 10
550.7521914108
 20
-153.920955378
 10
550.7269510262
 20
-153.8010635511
 10
550.7059173723
 20
-153.6720571408
 10
550.6890904493
 20
-153.5339361472
 10
550.6771713787
 20
-153.3852983267
 10
550.6701601608
 20
-153.2275459228
 10
550.6680567954
 20
-153.0606789357
  0
LWPOLYLINE
  5
12E
330
1F
100
AcDbEntity
  8
0
  6
Continuous
 62
     7
100
AcDbPolyline
 90
       85
 70
   128
 43
0.0
 10
550.9819984436
 20
-153.0592766921
 10
550.9835616031
 20
-153.1995010511
 10
550.9891705775
 20
-153.3313119485
 10
550.997584039
 20
-153.4547093844
 10
551.0088019877
 20
-153.5682911152
 10
551.0242266672
 20
-153.6734593844
 10
551.0424558339
 20
-153.7702141921
 10
551.0641906095
 20
-153.8578544164
 10
551.0894309941
 20
-153.9363800575
 10
551.1181769877
 20
-154.0085956023
 10
551.1497274685
 20
-154.0759032946
 10
551.1840824364
 20
-154.1390042562
 10
551.2219430134
 20
-154.1971973652
 10
551.2633091993
 20
-154.2511837434
 10
551.3074798723
 20
-154.3009633908
 10
551.3551561544
 20
-154.3458351857
 10
551.4056369236
 20
-154.3865002498
 10
551.5122074364
 20
-154.4538079421
 10
551.6215824364
 20
-154.5014842241
 10
551.7337619236
 20
-154.5302302177
 10
551.848745898
 20
-154.5400459228
 10
551.848745898
 20
-154.5400459228
 10
551.9644309941
 20
-154.5309313395
 10
552.0766104813
 20
-154.5021853459
 10
552.1845832377
 20
-154.4559113075
 10
552.2890503852
 20
-154.3900058587
 10
552.3388300326
 20
-154.3500419164
 10
552.3851040711
 20
-154.3058712434
 10
552.4285736223
 20
-154.2560915959
 10
552.4692386864
 20
-154.2021052177
 10
552.5063981416
 20
-154.1439121087
 10
552.5407531095
 20
-154.0801100254
 10
552.5716024685
 20
-154.0121012113
 10
552.5996473403
 20
-153.9391845446
 10
552.5996473403
 20
-153.9391845446
 10
552.6304966993
 20
-153.8452342241
 10
552.6578404493
 20
-153.7470771728
 10
552.6802763467
 20
-153.644012269
 10
552.6992066352
 20
-153.5367406344
 10
552.7132290711
 20
-153.4245611472
 10
552.723745898
 20
-153.3074738075
 10
552.7300559941
 20
-153.1854786152
 10
552.7321593595
 20
-153.0592766921
 10
552.7321593595
 20
-153.0592766921
 10
552.7300559941
 20
-152.933074769
 10
552.7251481416
 20
-152.8124818203
 10
552.7153324364
 20
-152.6981989677
 10
552.7027122441
 20
-152.5895250895
 10
552.6858853211
 20
-152.4864601857
 10
552.6662539108
 20
-152.389705378
 10
552.641714648
 20
-152.2985595446
 10
552.614370898
 20
-152.2130226857
 10
552.583521539
 20
-152.1330948011
 10
552.5498676928
 20
-152.0594770126
 10
552.5134093595
 20
-151.9907670767
 10
552.474146539
 20
-151.9276661152
 10
552.4320792313
 20
-151.870174128
 10
552.3865063146
 20
-151.8182911152
 10
552.3388300326
 20
-151.7720170767
 10
552.2883492634
 20
-151.7313520126
 10
552.1824798723
 20
-151.6647454421
 10
552.0745071159
 20
-151.6163680382
 10
551.9630287505
 20
-151.5883231664
 10
551.848745898
 20
-151.5785074613
 10
551.848745898
 20
-151.5785074613
 10
551.7330608018
 20
-151.5883231664
 10
551.6201801928
 20
-151.6163680382
 10
551.5115063146
 20
-151.6647454421
 10
551.4056369236
 20
-151.7313520126
 10
551.3551561544
 20
-151.7713159549
 10
551.3081809941
 20
-151.8161877498
 10
551.2640103211
 20
-151.8659673972
 10
551.2233452569
 20
-151.9199537754
 10
551.18548468
 20
-151.9781468844
 10
551.1504285903
 20
-152.0412478459
 10
551.1188781095
 20
-152.1085555382
 10
551.0901321159
 20
-152.1807710831
 10
551.0648917313
 20
-152.2592967241
 10
551.0431569557
 20
-152.3469369485
 10
551.0242266672
 20
-152.4429906344
 10
551.0095031095
 20
-152.5488600254
 10
550.997584039
 20
-152.663142878
 10
550.9891705775
 20
-152.7858391921
 10
550.9835616031
 20
-152.9183512113
 10
550.9821593595
 20
-153.0592766921
  0
LWPOLYLINE
  5
12F
330
1F
100
AcDbEntity
  8
0
  6
Continuous
 62
     7
100
AcDbPolyline
 90
      143
 70
   128
 43
0.0
 10
554.9306869507
 20
-152.2515843844
 10
555.2449798723
 20
-152.2515843844
 10
555.2449798723
 20
-152.2515843844
 10
555.2449798723
 20
-152.6960956023
 10
555.2449798723
 20
-152.6960956023
 10
555.3319189749
 20
-152.581111628
 10
555.4202603211
 20
-152.4829545767
 10
555.509302789
 20
-152.4016244485
 10
555.5997475005
 20
-152.3364201216
 10
555.5997475005
 20
-152.3364201216
 10
555.7266505454
 20
-152.2796292562
 10
555.8570591993
 20
-152.2389641921
 10
555.9902723403
 20
-152.2151260511
 10
556.1269910903
 20
-152.2067125895
 10
556.1269910903
 20
-152.2067125895
 10
556.2195391672
 20
-152.2116204421
 10
556.3092827569
 20
-152.2249417562
 10
556.3969229813
 20
-152.2480787754
 10
556.4817587185
 20
-152.280330378
 10
556.5623877249
 20
-152.3202943203
 10
556.6346032698
 20
-152.3658672369
 10
556.6998075967
 20
-152.4177502498
 10
556.7565984621
 20
-152.4759433587
 10
556.8077803531
 20
-152.5432510511
 10
556.8561577569
 20
-152.6238800575
 10
556.90032843
 20
-152.7171292562
 10
556.9409934941
 20
-152.8244008908
 10
556.9409934941
 20
-152.8244008908
 10
556.9830608018
 20
-152.7507831023
 10
557.0279325967
 20
-152.6820731664
 10
557.0756088787
 20
-152.6175699613
 10
557.1253885262
 20
-152.5579746087
 10
557.1779726608
 20
-152.5025859869
 10
557.2326601608
 20
-152.4521052177
 10
557.290152148
 20
-152.4058311793
 10
557.3504486223
 20
-152.3644649934
 10
557.4752483018
 20
-152.2957550575
 10
557.6056569557
 20
-152.24597541
 10
557.7395712185
 20
-152.2165282946
 10
557.8790944557
 20
-152.2067125895
 10
557.8790944557
 20
-152.2067125895
 10
558.0073997441
 20
-152.2151260511
 10
558.1279926928
 20
-152.2396653139
 10
558.2408733018
 20
-152.2817326216
 10
558.3460415711
 20
-152.3399257305
 10
558.4406930134
 20
-152.4128423972
 10
558.5227242634
 20
-152.499080378
 10
558.5914341993
 20
-152.5979385511
 10
558.6468228211
 20
-152.71081916
 10
558.6699598403
 20
-152.7739201216
 10
558.6895912505
 20
-152.8447334228
 10
558.7064181736
 20
-152.9225579421
 10
558.7204406095
 20
-153.0080948011
 10
558.7309574364
 20
-153.100642878
 10
558.7386697762
 20
-153.2009032946
 10
558.7435776287
 20
-153.3088760511
 10
558.7449798723
 20
-153.4238600254
 10
558.7449798723
 20
-153.4238600254
 10
558.7449798723
 20
-154.8092766921
 10
558.7449798723
 20
-154.8092766921
 10
558.4308773082
 20
-154.8092766921
 10
558.4308773082
 20
-154.8092766921
 10
558.4308773082
 20
-153.4224577818
 10
558.4308773082
 20
-153.4224577818
 10
558.4301761864
 20
-153.3243007305
 10
558.4273716993
 20
-153.233856019
 10
558.4224638467
 20
-153.151824769
 10
558.4161537505
 20
-153.0775058587
 10
558.407740289
 20
-153.01160041
 10
558.3972234621
 20
-152.9534073011
 10
558.3853043916
 20
-152.9029265318
 10
558.3712819557
 20
-152.8608592241
 10
558.3362258659
 20
-152.7879425575
 10
558.2906529493
 20
-152.7220371087
 10
558.2345632057
 20
-152.6645451216
 10
558.1679566352
 20
-152.6140643523
 10
558.0929366031
 20
-152.5733992882
 10
558.0102042313
 20
-152.5439521728
 10
557.9211617634
 20
-152.526424128
 10
557.8244069557
 20
-152.5208151536
 10
557.8244069557
 20
-152.5208151536
 10
557.7059173723
 20
-152.5292286152
 10
557.5930367634
 20
-152.5558712434
 10
557.4843628852
 20
-152.5993407946
 10
557.3812979813
 20
-152.6610395126
 10
557.2873476608
 20
-152.7367606664
 10
557.2074197762
 20
-152.8244008908
 10
557.1408132057
 20
-152.9239601857
 10
557.0875279493
 20
-153.0347374293
 10
557.0657931736
 20
-153.0978383908
 10
557.0468628852
 20
-153.1707550575
 10
557.0314382057
 20
-153.2534874293
 10
557.0181168916
 20
-153.3460355062
 10
557.0083011864
 20
-153.4483992882
 10
557.0005888467
 20
-153.5605787754
 10
556.9963821159
 20
-153.6825739677
 10
556.9949798723
 20
-153.8143848652
 10
556.9949798723
 20
-153.8143848652
 10
556.9949798723
 20
-154.8092766921
 10
556.9949798723
 20
-154.8092766921
 10
556.6808773082
 20
-154.8092766921
 10
556.6808773082
 20
-154.8092766921
 10
556.6808773082
 20
-153.5086957626
 10
556.6808773082
 20
-153.5086957626
 10
556.6801761864
 20
-153.3986196408
 10
556.6773716993
 20
-153.2969569805
 10
556.6724638467
 20
-153.2051100254
 10
556.6661537505
 20
-153.1223776536
 10
556.657740289
 20
-153.0487598652
 10
556.6479245839
 20
-152.9849577818
 10
556.6360055134
 20
-152.92956916
 10
556.6219830775
 20
-152.8839962434
 10
556.5876281095
 20
-152.8054706023
 10
556.5420551928
 20
-152.7353584228
 10
556.4852643275
 20
-152.6736597049
 10
556.4179566352
 20
-152.6203744485
 10
556.3422354813
 20
-152.5769048972
 10
556.2588019877
 20
-152.5453544164
 10
556.169058398
 20
-152.5271252498
 10
556.0723035903
 20
-152.5208151536
 10
556.0723035903
 20
-152.5208151536
 10
555.9587218595
 20
-152.5292286152
 10
555.8486457377
 20
-152.5551701216
 10
555.7420752249
 20
-152.5979385511
 10
555.6397114428
 20
-152.6575339036
 10
555.5457611223
 20
-152.7318528139
 10
555.4644309941
 20
-152.8180907946
 10
555.39642218
 20
-152.9155467241
 10
555.34173468
 20
-153.0256228459
 10
555.3192987826
 20
-153.0873215639
 10
555.2996673723
 20
-153.1560314998
 10
555.2828404493
 20
-153.2331548972
 10
555.2695191352
 20
-153.3179906344
 10
555.2583011864
 20
-153.4098375895
 10
555.2512899685
 20
-153.5100980062
 10
555.2463821159
 20
-153.6173696408
 10
555.2449798723
 20
-153.7330547369
 10
555.2449798723
 20
-153.7330547369
 10
555.2449798723
 20
-154.8092766921
 10
555.2449798723
 20
-154.8092766921
 10
554.9308773082
 20
-154.8092766921
 10
554.9308773082
 20
-154.8092766921
 10
554.9308773082
 20
-152.2515843844
  0
LWPOLYLINE
  5
130
330
1F
100
AcDbEntity
  8
0
  6
Continuous
 62
     7
100
AcDbPolyline
 90
       36
 70
   128
 43
0.0
 10
559.5736503601
 20
-151.1746613075
 10
559.6318989428
 20
-151.17956916
 10
559.6858853211
 20
-151.1942927177
 10
559.7356649685
 20
-151.2195331023
 10
559.7805367634
 20
-151.2538880703
 10
559.8183973403
 20
-151.2952542562
 10
559.8450399685
 20
-151.3415282946
 10
559.8611657698
 20
-151.3913079421
 10
559.8667747441
 20
-151.4452943203
 10
559.8667747441
 20
-151.4452943203
 10
559.8611657698
 20
-151.4978784549
 10
559.8450399685
 20
-151.5469569805
 10
559.8183973403
 20
-151.5925298972
 10
559.7805367634
 20
-151.6338960831
 10
559.7356649685
 20
-151.6682510511
 10
559.6858853211
 20
-151.6934914357
 10
559.6318989428
 20
-151.7082149934
 10
559.5737058339
 20
-151.7131228459
 10
559.5737058339
 20
-151.7131228459
 10
559.5162138467
 20
-151.7082149934
 10
559.4636297121
 20
-151.6934914357
 10
559.4138500646
 20
-151.6682510511
 10
559.3689782698
 20
-151.6338960831
 10
559.3318188146
 20
-151.5925298972
 10
559.3051761864
 20
-151.5469569805
 10
559.2890503852
 20
-151.4978784549
 10
559.2834414108
 20
-151.4452943203
 10
559.2834414108
 20
-151.4452943203
 10
559.2890503852
 20
-151.3913079421
 10
559.3051761864
 20
-151.3415282946
 10
559.3318188146
 20
-151.2952542562
 10
559.3689782698
 20
-151.2538880703
 10
559.4138500646
 20
-151.2195331023
 10
559.4636297121
 20
-151.1942927177
 10
559.5162138467
 20
-151.17956916
 10
559.5737058339
 20
-151.1746613075
  0
LWPOLYLINE
  5
131
330
1F
100
AcDbEntity
  8
0
  6
Continuous
 62
     7
100
AcDbPolyline
 90
        8
 70
   128
 43
0.0
 10
559.4177246094
 20
-152.2515843844
 10
559.7321593595
 20
-152.2515843844
 10
559.7321593595
 20
-152.2515843844
 10
559.7321593595
 20
-154.8092766921
 10
559.7321593595
 20
-154.8092766921
 10
559.4180567954
 20
-154.8092766921
 10
559.4180567954
 20
-154.8092766921
 10
559.4180567954
 20
-152.2515843844
  0
LWPOLYLINE
  5
132
330
1F
100
AcDbEntity
  8
0
  6
Continuous
 62
     7
100
AcDbPolyline
 90
       86
 70
   128
 43
0.0
 10
560.4948997498
 20
-152.2515843844
 10
560.8090824364
 20
-152.2515843844
 10
560.8090824364
 20
-152.2515843844
 10
560.8090824364
 20
-152.7129225254
 10
560.8090824364
 20
-152.7129225254
 10
560.9121473403
 20
-152.5895250895
 10
561.0201200967
 20
-152.4836556985
 10
561.1337018275
 20
-152.3967165959
 10
561.2528925326
 20
-152.3273055382
 10
561.3769910903
 20
-152.2747214036
 10
561.5066986223
 20
-152.2368608267
 10
561.6420151287
 20
-152.2144249293
 10
561.7822394877
 20
-152.2067125895
 10
561.7822394877
 20
-152.2067125895
 10
561.9238660903
 20
-152.2158271728
 10
562.0570792313
 20
-152.2424698011
 10
562.1818789108
 20
-152.2880427177
 10
562.2982651287
 20
-152.3511436793
 10
562.403433398
 20
-152.4296693203
 10
562.4945792313
 20
-152.5208151536
 10
562.5703003852
 20
-152.6245811793
 10
562.6312979813
 20
-152.7409673972
 10
562.6565383659
 20
-152.8061717241
 10
562.6782731416
 20
-152.8804906344
 10
562.6965023082
 20
-152.9625218844
 10
562.7119269877
 20
-153.0536677177
 10
562.7231449364
 20
-153.1532270126
 10
562.731558398
 20
-153.261199769
 10
562.7371673723
 20
-153.3782871087
 10
562.7385696159
 20
-153.5030867882
 10
562.7385696159
 20
-153.5030867882
 10
562.7385696159
 20
-154.8092766921
 10
562.7385696159
 20
-154.8092766921
 10
562.4244670518
 20
-154.8092766921
 10
562.4244670518
 20
-154.8092766921
 10
562.4244670518
 20
-153.6061516921
 10
562.4244670518
 20
-153.6061516921
 10
562.42376593
 20
-153.5016845446
 10
562.4223636864
 20
-153.4063319805
 10
562.4195591993
 20
-153.3200939998
 10
562.4153524685
 20
-153.2422694805
 10
562.4097434941
 20
-153.1742606664
 10
562.403433398
 20
-153.1153664357
 10
562.3957210582
 20
-153.0648856664
 10
562.3873075967
 20
-153.0242206023
 10
562.3873075967
 20
-153.0242206023
 10
562.3515503852
 20
-152.9064321408
 10
562.3017707377
 20
-152.8040683587
 10
562.2386697762
 20
-152.717830378
 10
562.1622475005
 20
-152.6470170767
 10
562.0725039108
 20
-152.5916284549
 10
561.9701401287
 20
-152.5523656344
 10
561.8551561544
 20
-152.5285274934
 10
561.7275519877
 20
-152.5208151536
 10
561.7275519877
 20
-152.5208151536
 10
561.6518308339
 20
-152.5236196408
 10
561.5782130454
 20
-152.5327342241
 10
561.5059975005
 20
-152.5481589036
 10
561.4365864428
 20
-152.5691925575
 10
561.3685776287
 20
-152.5972374293
 10
561.30267218
 20
-152.6301901536
 10
561.2388700967
 20
-152.6701540959
 10
561.1771713787
 20
-152.7157270126
 10
561.1189782698
 20
-152.7662077818
 10
561.0663941352
 20
-152.8187919164
 10
561.0187178531
 20
-152.87488166
 10
560.9759494236
 20
-152.9337758908
 10
560.9387899685
 20
-152.9954746087
 10
560.9065383659
 20
-153.0599778139
 10
560.8791946159
 20
-153.127986628
 10
560.8574598403
 20
-153.1980988075
 10
560.8574598403
 20
-153.1980988075
 10
560.8462418916
 20
-153.2499818203
 10
560.8364261864
 20
-153.3116805382
 10
560.8280127249
 20
-153.3824938395
 10
560.8210015069
 20
-153.4638239677
 10
560.8160936544
 20
-153.5542686793
 10
560.8118869236
 20
-153.6545290959
 10
560.8097835582
 20
-153.7646052177
 10
560.8090824364
 20
-153.8844970446
 10
560.8090824364
 20
-153.8844970446
 10
560.8090824364
 20
-154.8092766921
 10
560.8090824364
 20
-154.8092766921
 10
560.4949798723
 20
-154.8092766921
 10
560.4949798723
 20
-154.8092766921
 10
560.4949798723
 20
-152.2515843844
  0
LWPOLYLINE
  5
133
330
1F
100
AcDbEntity
  8
0
  6
Continuous
 62
     7
100
AcDbPolyline
 90
      184
 70
   128
 43
0.0
 10
565.0267601013
 20
-152.1169689998
 10
564.7129285903
 20
-152.1169689998
 10
564.7129285903
 20
-152.1169689998
 10
564.7402723403
 20
-152.0118007305
 10
564.7739261864
 20
-151.9136436793
 10
564.8124878852
 20
-151.8210956023
 10
564.85735968
 20
-151.7348576216
 10
564.9071393275
 20
-151.6549297369
 10
564.9632290711
 20
-151.5813119485
 10
565.024927789
 20
-151.5133031344
 10
565.0922354813
 20
-151.4523055382
 10
565.1637499044
 20
-151.3976180382
 10
565.2387699364
 20
-151.350642878
 10
565.3165944557
 20
-151.3106789357
 10
565.3979245839
 20
-151.2777262113
 10
565.4827603211
 20
-151.2524858267
 10
565.5704005454
 20
-151.23425666
 10
565.6608452569
 20
-151.2230387113
 10
565.7547955775
 20
-151.2195331023
 10
565.7547955775
 20
-151.2195331023
 10
565.8915143275
 20
-151.2272454421
 10
566.0233252249
 20
-151.2510835831
 10
566.1502282698
 20
-151.2903464036
 10
566.2729245839
 20
-151.3450339036
 10
566.3865063146
 20
-151.4130427177
 10
566.4860656095
 20
-151.4922694805
 10
566.5723035903
 20
-151.5827141921
 10
566.6452202569
 20
-151.6836757305
 10
566.7027122441
 20
-151.7916484869
 10
566.74407843
 20
-151.9017246087
 10
566.7686176928
 20
-152.0139040959
 10
566.7770311544
 20
-152.1288880703
 10
566.7770311544
 20
-152.1288880703
 10
566.7707210582
 20
-152.2396653139
 10
566.7517907698
 20
-152.3441324613
 10
566.7195391672
 20
-152.4429906344
 10
566.6746673723
 20
-152.5362398331
 10
566.6171753852
 20
-152.6231789357
 10
566.5470632057
 20
-152.7045090639
 10
566.4643308339
 20
-152.7795290959
 10
566.368277148
 20
-152.8489401536
 10
566.368277148
 20
-152.8489401536
 10
566.4783532698
 20
-152.905731019
 10
566.5786136864
 20
-152.9744409549
 10
566.6683572762
 20
-153.0550699613
 10
566.747584039
 20
-153.1476180382
 10
566.747584039
 20
-153.1476180382
 10
566.7966625646
 20
-153.2177302177
 10
566.8387298723
 20
-153.2906468844
 10
566.8751882057
 20
-153.3649657946
 10
566.9046353211
 20
-153.4420891921
 10
566.9270712185
 20
-153.5206148331
 10
566.9431970198
 20
-153.6012438395
 10
566.9530127249
 20
-153.6846773331
 10
566.9565183339
 20
-153.7695130703
 10
566.9565183339
 20
-153.7695130703
 10
566.9467026287
 20
-153.9160475254
 10
566.9165543916
 20
-154.0590763716
 10
566.8667747441
 20
-154.1993007305
 10
566.7966625646
 20
-154.3353183587
 10
566.7097234621
 20
-154.4622214036
 10
566.6087619236
 20
-154.573699769
 10
566.4923757057
 20
-154.6704545767
 10
566.3619670518
 20
-154.7517847049
 10
566.2203404493
 20
-154.81628791
 10
566.0703003852
 20
-154.8618608267
 10
565.9118468595
 20
-154.8899056985
 10
565.7456809941
 20
-154.8990202818
 10
565.7456809941
 20
-154.8990202818
 10
565.6335015069
 20
-154.8948135511
 10
565.5255287505
 20
-154.8828944805
 10
565.4224638467
 20
-154.8618608267
 10
565.3243067954
 20
-154.8331148331
 10
565.2310575967
 20
-154.7966564998
 10
565.1427162505
 20
-154.7517847049
 10
565.0585816352
 20
-154.6984994485
 10
564.9793548723
 20
-154.6368007305
 10
564.9057370839
 20
-154.5673896728
 10
564.8391305134
 20
-154.4902662754
 10
564.778834039
 20
-154.4054305382
 10
564.7255487826
 20
-154.3128824613
 10
564.6785736223
 20
-154.2133231664
 10
564.63860968
 20
-154.10535041
 10
564.6049558339
 20
-153.9903664357
 10
564.5783132057
 20
-153.8669689998
 10
564.5783132057
 20
-153.8669689998
 10
564.8924157698
 20
-153.8669689998
 10
564.8924157698
 20
-153.8669689998
 10
564.9176561544
 20
-153.9475980062
 10
564.9449999044
 20
-154.0226180382
 10
564.9758492634
 20
-154.0920290959
 10
565.0088019877
 20
-154.1551300575
 10
565.0438580775
 20
-154.2126220446
 10
565.0824197762
 20
-154.2645050575
 10
565.1230848403
 20
-154.3107790959
 10
565.1665543916
 20
-154.3507430382
 10
565.1665543916
 20
-154.3507430382
 10
565.2261497441
 20
-154.3949137113
 10
565.2892507057
 20
-154.43347541
 10
565.356558398
 20
-154.4664281344
 10
565.4273716993
 20
-154.4923696408
 10
565.5023917313
 20
-154.5134032946
 10
565.5816184941
 20
-154.5281268523
 10
565.6643508659
 20
-154.5372414357
 10
565.7512899685
 20
-154.5400459228
 10
565.7512899685
 20
-154.5400459228
 10
565.8494470198
 20
-154.5365403139
 10
565.9426962185
 20
-154.5260234869
 10
566.0310375646
 20
-154.5091965639
 10
566.1144710582
 20
-154.4846573011
 10
566.1922955775
 20
-154.4538079421
 10
566.2659133659
 20
-154.4152462434
 10
566.33392218
 20
-154.3703744485
 10
566.3977242634
 20
-154.3184914357
 10
566.4552162505
 20
-154.2617005703
 10
566.504995898
 20
-154.2028063395
 10
566.5470632057
 20
-154.1418087434
 10
566.5814181736
 20
-154.07800666
 10
566.6080608018
 20
-154.0121012113
 10
566.6269910903
 20
-153.9433912754
 10
566.6389101608
 20
-153.8725779741
 10
566.6424157698
 20
-153.7996613075
 10
566.6424157698
 20
-153.7996613075
 10
566.63470343
 20
-153.702205378
 10
566.6122675326
 20
-153.6075539357
 10
566.5744069557
 20
-153.5164081023
 10
566.5211216993
 20
-153.428767878
 10
566.4552162505
 20
-153.3474377498
 10
566.3794950967
 20
-153.2766244485
 10
566.2925559941
 20
-153.2170290959
 10
566.1958011864
 20
-153.1679505703
 10
566.1418148082
 20
-153.1469169164
 10
566.0801160903
 20
-153.127986628
 10
566.0121072762
 20
-153.1118608267
 10
565.9363861223
 20
-153.097137269
 10
565.8543548723
 20
-153.0845170767
 10
565.7653124044
 20
-153.0740002498
 10
565.6685575967
 20
-153.0655867882
 10
565.5654926928
 20
-153.0592766921
 10
565.5654926928
 20
-153.0592766921
 10
565.5654926928
 20
-152.7003023331
 10
565.5654926928
 20
-152.7003023331
 10
565.6952002249
 20
-152.6953944805
 10
565.8185976608
 20
-152.6792686793
 10
565.9363861223
 20
-152.6540282946
 10
566.0478644877
 20
-152.6175699613
 10
566.149527148
 20
-152.5733992882
 10
566.2357651287
 20
-152.5236196408
 10
566.3072795518
 20
-152.468231019
 10
566.3640704172
 20
-152.4072334228
 10
566.4075399685
 20
-152.3413279741
 10
566.4383893275
 20
-152.27331916
 10
566.4566184941
 20
-152.2018047369
 10
566.4629285903
 20
-152.1274858267
 10
566.4629285903
 20
-152.1274858267
 10
566.4601241031
 20
-152.0727983267
 10
566.450308398
 20
-152.0195130703
 10
566.4348837185
 20
-151.9690323011
 10
566.4131489428
 20
-151.9192526536
 10
566.3851040711
 20
-151.8722774934
 10
566.3507491031
 20
-151.8267045767
 10
566.310084039
 20
-151.7832350254
 10
566.2631088787
 20
-151.7418688395
 10
566.2119269877
 20
-151.7033071408
 10
566.1572394877
 20
-151.6703544164
 10
566.0990463787
 20
-151.6423095446
 10
566.0373476608
 20
-151.6191725254
 10
565.9728444557
 20
-151.6016444805
 10
565.9048356416
 20
-151.5890242882
 10
565.8333212185
 20
-151.5813119485
 10
565.7590023082
 20
-151.5785074613
 10
565.7590023082
 20
-151.5785074613
 10
565.6398116031
 20
-151.5862198011
 10
565.5283332377
 20
-151.6093568203
 10
565.4259694557
 20
-151.6472173972
 10
565.3313180134
 20
-151.7012037754
 10
565.2871473403
 20
-151.7348576216
 10
565.2450800326
 20
-151.7734193203
 10
565.2044149685
 20
-151.8168888716
 10
565.1658532698
 20
-151.866668519
 10
565.1279926928
 20
-151.921356019
 10
565.0929366031
 20
-151.9809513716
 10
565.0592827569
 20
-152.0461556985
 10
565.0270311544
 20
-152.1169689998
  0
LWPOLYLINE
  5
134
330
1F
100
AcDbEntity
  8
0
  6
Continuous
 62
     7
100
AcDbPolyline
 90
      100
 70
   128
 43
0.0
 10
567.2702789307
 20
-153.0606789357
 10
567.2727242634
 20
-152.8924097049
 10
567.2797354813
 20
-152.7339561793
 10
567.2916545518
 20
-152.5846172369
 10
567.3077803531
 20
-152.4457951216
 10
567.3281128852
 20
-152.3167887113
 10
567.3540543916
 20
-152.1975980062
 10
567.3842026287
 20
-152.0882230062
 10
567.4185575967
 20
-151.9886637113
 10
567.4571192954
 20
-151.8968167562
 10
567.4998877249
 20
-151.8105787754
 10
567.5468628852
 20
-151.7306508908
 10
567.5973436544
 20
-151.6556308587
 10
567.6513300326
 20
-151.5869209228
 10
567.7088220198
 20
-151.5238199613
 10
567.7705207377
 20
-151.4670290959
 10
567.8364261864
 20
-151.4151460831
 10
567.9051361223
 20
-151.3695731664
 10
567.9759494236
 20
-151.3296092241
 10
568.0481649685
 20
-151.295955378
 10
568.1231850005
 20
-151.268611628
 10
568.1996072762
 20
-151.2468768523
 10
568.2781329172
 20
-151.2314521728
 10
568.3580608018
 20
-151.2223375895
 10
568.4407931736
 20
-151.2195331023
 10
568.4407931736
 20
-151.2195331023
 10
568.5242266672
 20
-151.2223375895
 10
568.6062579172
 20
-151.2314521728
 10
568.68548468
 20
-151.2468768523
 10
568.7633091993
 20
-151.268611628
 10
568.8390303531
 20
-151.295955378
 10
568.9126481416
 20
-151.3296092241
 10
568.9848636864
 20
-151.3695731664
 10
569.0542747441
 20
-151.4158472049
 10
569.1208813146
 20
-151.4677302177
 10
569.184683398
 20
-151.5266244485
 10
569.2442787505
 20
-151.5911276536
 10
569.3003684941
 20
-151.6612398331
 10
569.3529526287
 20
-151.7383632305
 10
569.4020311544
 20
-151.8210956023
 10
569.4469029493
 20
-151.9101380703
 10
569.4889702569
 20
-152.0054906344
 10
569.5261297121
 20
-152.1078544164
 10
569.5590824364
 20
-152.21863166
 10
569.5864261864
 20
-152.3378223652
 10
569.6088620839
 20
-152.4654265318
 10
569.6263901287
 20
-152.60144416
 10
569.6390103211
 20
-152.7465763716
 10
569.646021539
 20
-152.8994209228
 10
569.6488260262
 20
-153.0606789357
 10
569.6488260262
 20
-153.0606789357
 10
569.646021539
 20
-153.2212358267
 10
569.6390103211
 20
-153.3733792562
 10
569.6263901287
 20
-153.5178103459
 10
569.6095632057
 20
-153.6531268523
 10
569.5871273082
 20
-153.7800298972
 10
569.5597835582
 20
-153.8985194805
 10
569.5282330775
 20
-154.0092967241
 10
569.4910736223
 20
-154.1109593844
 10
569.4497074364
 20
-154.2056108267
 10
569.4048356416
 20
-154.2939521728
 10
569.3564582377
 20
-154.3766845446
 10
569.3038741031
 20
-154.4538079421
 10
569.2477843595
 20
-154.5246212434
 10
569.1874878852
 20
-154.5891244485
 10
569.1236858018
 20
-154.6480186793
 10
569.0563781095
 20
-154.7006028139
 10
568.98626593
 20
-154.7468768523
 10
568.9140503852
 20
-154.7875419164
 10
568.8397314749
 20
-154.8211957626
 10
568.7640103211
 20
-154.8492406344
 10
568.6861858018
 20
-154.87097541
 10
568.6062579172
 20
-154.8864000895
 10
568.5242266672
 20
-154.8962157946
 10
568.4407931736
 20
-154.8990202818
 10
568.4407931736
 20
-154.8990202818
 10
568.3580608018
 20
-154.8962157946
 10
568.2781329172
 20
-154.8871012113
 10
568.1996072762
 20
-154.8716765318
 10
568.1238861223
 20
-154.850642878
 10
568.0495672121
 20
-154.8240002498
 10
567.9773516672
 20
-154.7903464036
 10
567.9072394877
 20
-154.7510835831
 10
567.8392306736
 20
-154.7062117882
 10
567.7740263467
 20
-154.6550298972
 10
567.7123276287
 20
-154.5982390318
 10
567.6548356416
 20
-154.5351380703
 10
567.6008492634
 20
-154.4657270126
 10
567.5503684941
 20
-154.3914081023
 10
567.5033933339
 20
-154.3107790959
 10
567.4599237826
 20
-154.2238399934
 10
567.4206609621
 20
-154.1312919164
 10
567.3856048723
 20
-154.0310314998
 10
567.3547555134
 20
-153.920955378
 10
567.3295151287
 20
-153.8010635511
 10
567.3084814749
 20
-153.6720571408
 10
567.2916545518
 20
-153.5339361472
 10
567.2797354813
 20
-153.3852983267
 10
567.2727242634
 20
-153.2275459228
 10
567.270620898
 20
-153.0606789357
  0
LWPOLYLINE
  5
135
330
1F
100
AcDbEntity
  8
0
  6
Continuous
 62
     7
100
AcDbPolyline
 90
       85
 70
   128
 43
0.0
 10
567.5845146179
 20
-153.0592766921
 10
567.5861257057
 20
-153.1995010511
 10
567.59173468
 20
-153.3313119485
 10
567.6001481416
 20
-153.4547093844
 10
567.6113660903
 20
-153.5682911152
 10
567.6267907698
 20
-153.6734593844
 10
567.6450199364
 20
-153.7702141921
 10
567.6667547121
 20
-153.8578544164
 10
567.6919950967
 20
-153.9363800575
 10
567.7207410903
 20
-154.0085956023
 10
567.7522915711
 20
-154.0759032946
 10
567.786646539
 20
-154.1390042562
 10
567.8245071159
 20
-154.1971973652
 10
567.8658733018
 20
-154.2511837434
 10
567.9100439749
 20
-154.3009633908
 10
567.9577202569
 20
-154.3458351857
 10
568.0082010262
 20
-154.3865002498
 10
568.114771539
 20
-154.4538079421
 10
568.224146539
 20
-154.5014842241
 10
568.3363260262
 20
-154.5302302177
 10
568.4513100005
 20
-154.5400459228
 10
568.4513100005
 20
-154.5400459228
 10
568.5669950967
 20
-154.5309313395
 10
568.6791745839
 20
-154.5021853459
 10
568.7871473403
 20
-154.4559113075
 10
568.8916144877
 20
-154.3900058587
 10
568.9413941352
 20
-154.3500419164
 10
568.9876681736
 20
-154.3058712434
 10
569.0311377249
 20
-154.2560915959
 10
569.071802789
 20
-154.2021052177
 10
569.1089622441
 20
-154.1439121087
 10
569.1433172121
 20
-154.0801100254
 10
569.1741665711
 20
-154.0121012113
 10
569.2022114428
 20
-153.9391845446
 10
569.2022114428
 20
-153.9391845446
 10
569.2330608018
 20
-153.8452342241
 10
569.2604045518
 20
-153.7470771728
 10
569.2828404493
 20
-153.644012269
 10
569.3017707377
 20
-153.5367406344
 10
569.3157931736
 20
-153.4245611472
 10
569.3263100005
 20
-153.3074738075
 10
569.3326200967
 20
-153.1854786152
 10
569.3347234621
 20
-153.0592766921
 10
569.3347234621
 20
-153.0592766921
 10
569.3326200967
 20
-152.933074769
 10
569.3277122441
 20
-152.8124818203
 10
569.317896539
 20
-152.6981989677
 10
569.3052763467
 20
-152.5895250895
 10
569.2884494236
 20
-152.4864601857
 10
569.2688180134
 20
-152.389705378
 10
569.2442787505
 20
-152.2985595446
 10
569.2169350005
 20
-152.2130226857
 10
569.1860856416
 20
-152.1330948011
 10
569.1524317954
 20
-152.0594770126
 10
569.1159734621
 20
-151.9907670767
 10
569.0767106416
 20
-151.9276661152
 10
569.0346433339
 20
-151.870174128
 10
568.9890704172
 20
-151.8182911152
 10
568.9413941352
 20
-151.7720170767
 10
568.8909133659
 20
-151.7313520126
 10
568.7850439749
 20
-151.6647454421
 10
568.6770712185
 20
-151.6163680382
 10
568.5655928531
 20
-151.5883231664
 10
568.4513100005
 20
-151.5785074613
 10
568.4513100005
 20
-151.5785074613
 10
568.3356249044
 20
-151.5883231664
 10
568.2227442954
 20
-151.6163680382
 10
568.1140704172
 20
-151.6647454421
 10
568.0082010262
 20
-151.7313520126
 10
567.9577202569
 20
-151.7713159549
 10
567.9107450967
 20
-151.8161877498
 10
567.8665744236
 20
-151.8659673972
 10
567.8259093595
 20
-151.9199537754
 10
567.7880487826
 20
-151.9781468844
 10
567.7529926928
 20
-152.0412478459
 10
567.7214422121
 20
-152.1085555382
 10
567.6926962185
 20
-152.1807710831
 10
567.6674558339
 20
-152.2592967241
 10
567.6457210582
 20
-152.3469369485
 10
567.6267907698
 20
-152.4429906344
 10
567.6120672121
 20
-152.5488600254
 10
567.6001481416
 20
-152.663142878
 10
567.59173468
 20
-152.7858391921
 10
567.5861257057
 20
-152.9183512113
 10
567.5847234621
 20
-153.0592766921
  0
LWPOLYLINE
  5
136
330
1F
100
AcDbEntity
  8
0
  6
Continuous
 62
     7
100
AcDbPolyline
 90
      143
 70
   128
 43
0.0
 10
571.533203125
 20
-152.2515843844
 10
571.8475439749
 20
-152.2515843844
 10
571.8475439749
 20
-152.2515843844
 10
571.8475439749
 20
-152.6960956023
 10
571.8475439749
 20
-152.6960956023
 10
571.9344830775
 20
-152.581111628
 10
572.0228244236
 20
-152.4829545767
 10
572.1118668916
 20
-152.4016244485
 10
572.2023116031
 20
-152.3364201216
 10
572.2023116031
 20
-152.3364201216
 10
572.329214648
 20
-152.2796292562
 10
572.4596233018
 20
-152.2389641921
 10
572.5928364428
 20
-152.2151260511
 10
572.7295551928
 20
-152.2067125895
 10
572.7295551928
 20
-152.2067125895
 10
572.8221032698
 20
-152.2116204421
 10
572.9118468595
 20
-152.2249417562
 10
572.9994870839
 20
-152.2480787754
 10
573.0843228211
 20
-152.280330378
 10
573.1649518275
 20
-152.3202943203
 10
573.2371673723
 20
-152.3658672369
 10
573.3023716993
 20
-152.4177502498
 10
573.3591625646
 20
-152.4759433587
 10
573.4103444557
 20
-152.5432510511
 10
573.4587218595
 20
-152.6238800575
 10
573.5028925326
 20
-152.7171292562
 10
573.5435575967
 20
-152.8244008908
 10
573.5435575967
 20
-152.8244008908
 10
573.5856249044
 20
-152.7507831023
 10
573.6304966993
 20
-152.6820731664
 10
573.6781729813
 20
-152.6175699613
 10
573.7279526287
 20
-152.5579746087
 10
573.7805367634
 20
-152.5025859869
 10
573.8352242634
 20
-152.4521052177
 10
573.8927162505
 20
-152.4058311793
 10
573.9530127249
 20
-152.3644649934
 10
574.0778124044
 20
-152.2957550575
 10
574.2082210582
 20
-152.24597541
 10
574.3421353211
 20
-152.2165282946
 10
574.4816585582
 20
-152.2067125895
 10
574.4816585582
 20
-152.2067125895
 10
574.6099638467
 20
-152.2151260511
 10
574.7305567954
 20
-152.2396653139
 10
574.8434374044
 20
-152.2817326216
 10
574.9486056736
 20
-152.3399257305
 10
575.0432571159
 20
-152.4128423972
 10
575.1252883659
 20
-152.499080378
 10
575.1939983018
 20
-152.5979385511
 10
575.2493869236
 20
-152.71081916
 10
575.2725239428
 20
-152.7739201216
 10
575.2921553531
 20
-152.8447334228
 10
575.3089822762
 20
-152.9225579421
 10
575.3230047121
 20
-153.0080948011
 10
575.333521539
 20
-153.100642878
 10
575.3412338787
 20
-153.2009032946
 10
575.3461417313
 20
-153.3088760511
 10
575.3475439749
 20
-153.4238600254
 10
575.3475439749
 20
-153.4238600254
 10
575.3475439749
 20
-154.8092766921
 10
575.3475439749
 20
-154.8092766921
 10
575.0334414108
 20
-154.8092766921
 10
575.0334414108
 20
-154.8092766921
 10
575.0334414108
 20
-153.4224577818
 10
575.0334414108
 20
-153.4224577818
 10
575.032740289
 20
-153.3243007305
 10
575.0299358018
 20
-153.233856019
 10
575.0250279493
 20
-153.151824769
 10
575.0187178531
 20
-153.0775058587
 10
575.0103043916
 20
-153.01160041
 10
574.9997875646
 20
-152.9534073011
 10
574.9878684941
 20
-152.9029265318
 10
574.9738460582
 20
-152.8608592241
 10
574.9387899685
 20
-152.7879425575
 10
574.8932170518
 20
-152.7220371087
 10
574.8371273082
 20
-152.6645451216
 10
574.7705207377
 20
-152.6140643523
 10
574.6955007057
 20
-152.5733992882
 10
574.6127683339
 20
-152.5439521728
 10
574.5237258659
 20
-152.526424128
 10
574.4269710582
 20
-152.5208151536
 10
574.4269710582
 20
-152.5208151536
 10
574.3084814749
 20
-152.5292286152
 10
574.1956008659
 20
-152.5558712434
 10
574.0869269877
 20
-152.5993407946
 10
573.9838620839
 20
-152.6610395126
 10
573.8899117634
 20
-152.7367606664
 10
573.8099838787
 20
-152.8244008908
 10
573.7433773082
 20
-152.9239601857
 10
573.6900920518
 20
-153.0347374293
 10
573.6683572762
 20
-153.0978383908
 10
573.6494269877
 20
-153.1707550575
 10
573.6340023082
 20
-153.2534874293
 10
573.6206809941
 20
-153.3460355062
 10
573.610865289
 20
-153.4483992882
 10
573.6031529493
 20
-153.5605787754
 10
573.5989462185
 20
-153.6825739677
 10
573.5975439749
 20
-153.8143848652
 10
573.5975439749
 20
-153.8143848652
 10
573.5975439749
 20
-154.8092766921
 10
573.5975439749
 20
-154.8092766921
 10
573.2834414108
 20
-154.8092766921
 10
573.2834414108
 20
-154.8092766921
 10
573.2834414108
 20
-153.5086957626
 10
573.2834414108
 20
-153.5086957626
 10
573.282740289
 20
-153.3986196408
 10
573.2799358018
 20
-153.2969569805
 10
573.2750279493
 20
-153.2051100254
 10
573.2687178531
 20
-153.1223776536
 10
573.2603043916
 20
-153.0487598652
 10
573.2504886864
 20
-152.9849577818
 10
573.2385696159
 20
-152.92956916
 10
573.22454718
 20
-152.8839962434
 10
573.1901922121
 20
-152.8054706023
 10
573.1446192954
 20
-152.7353584228
 10
573.08782843
 20
-152.6736597049
 10
573.0205207377
 20
-152.6203744485
 10
572.9447995839
 20
-152.5769048972
 10
572.8613660903
 20
-152.5453544164
 10
572.7716225005
 20
-152.5271252498
 10
572.6748676928
 20
-152.5208151536
 10
572.6748676928
 20
-152.5208151536
 10
572.5612859621
 20
-152.5292286152
 10
572.4512098403
 20
-152.5551701216
 10
572.3446393275
 20
-152.5979385511
 10
572.2422755454
 20
-152.6575339036
 10
572.1483252249
 20
-152.7318528139
 10
572.0669950967
 20
-152.8180907946
 10
571.9989862826
 20
-152.9155467241
 10
571.9442987826
 20
-153.0256228459
 10
571.9218628852
 20
-153.0873215639
 10
571.9022314749
 20
-153.1560314998
 10
571.8854045518
 20
-153.2331548972
 10
571.8720832377
 20
-153.3179906344
 10
571.860865289
 20
-153.4098375895
 10
571.8538540711
 20
-153.5100980062
 10
571.8489462185
 20
-153.6173696408
 10
571.8475439749
 20
-153.7330547369
 10
571.8475439749
 20
-153.7330547369
 10
571.8475439749
 20
-154.8092766921
 10
571.8475439749
 20
-154.8092766921
 10
571.5334414108
 20
-154.8092766921
 10
571.5334414108
 20
-154.8092766921
 10
571.5334414108
 20
-152.2515843844
  0
LWPOLYLINE
  5
137
330
1F
100
AcDbEntity
  8
0
  6
Continuous
 62
     7
100
AcDbPolyline
 90
       36
 70
   128
 43
0.0
 10
576.1761665344
 20
-151.1746613075
 10
576.2344630454
 20
-151.17956916
 10
576.2884494236
 20
-151.1942927177
 10
576.3382290711
 20
-151.2195331023
 10
576.3831008659
 20
-151.2538880703
 10
576.4209614428
 20
-151.2952542562
 10
576.4476040711
 20
-151.3415282946
 10
576.4637298723
 20
-151.3913079421
 10
576.4693388467
 20
-151.4452943203
 10
576.4693388467
 20
-151.4452943203
 10
576.4637298723
 20
-151.4978784549
 10
576.4476040711
 20
-151.5469569805
 10
576.4209614428
 20
-151.5925298972
 10
576.3831008659
 20
-151.6338960831
 10
576.3382290711
 20
-151.6682510511
 10
576.2884494236
 20
-151.6934914357
 10
576.2344630454
 20
-151.7082149934
 10
576.1762699364
 20
-151.7131228459
 10
576.1762699364
 20
-151.7131228459
 10
576.1187779493
 20
-151.7082149934
 10
576.0661938146
 20
-151.6934914357
 10
576.0164141672
 20
-151.6682510511
 10
575.9715423723
 20
-151.6338960831
 10
575.9343829172
 20
-151.5925298972
 10
575.907740289
 20
-151.5469569805
 10
575.8916144877
 20
-151.4978784549
 10
575.8860055134
 20
-151.4452943203
 10
575.8860055134
 20
-151.4452943203
 10
575.8916144877
 20
-151.3913079421
 10
575.907740289
 20
-151.3415282946
 10
575.9343829172
 20
-151.2952542562
 10
575.9715423723
 20
-151.2538880703
 10
576.0164141672
 20
-151.2195331023
 10
576.0661938146
 20
-151.1942927177
 10
576.1187779493
 20
-151.17956916
 10
576.1762699364
 20
-151.1746613075
  0
LWPOLYLINE
  5
138
330
1F
100
AcDbEntity
  8
0
  6
Continuous
 62
     7
100
AcDbPolyline
 90
        8
 70
   128
 43
0.0
 10
576.0202407837
 20
-152.2515843844
 10
576.3347234621
 20
-152.2515843844
 10
576.3347234621
 20
-152.2515843844
 10
576.3347234621
 20
-154.8092766921
 10
576.3347234621
 20
-154.8092766921
 10
576.020620898
 20
-154.8092766921
 10
576.020620898
 20
-154.8092766921
 10
576.020620898
 20
-152.2515843844
  0
LWPOLYLINE
  5
139
330
1F
100
AcDbEntity
  8
0
  6
Continuous
 62
     7
100
AcDbPolyline
 90
       86
 70
   128
 43
0.0
 10
577.0974159241
 20
-152.2515843844
 10
577.411646539
 20
-152.2515843844
 10
577.411646539
 20
-152.2515843844
 10
577.411646539
 20
-152.7129225254
 10
577.411646539
 20
-152.7129225254
 10
577.5147114428
 20
-152.5895250895
 10
577.6226841993
 20
-152.4836556985
 10
577.73626593
 20
-152.3967165959
 10
577.8554566352
 20
-152.3273055382
 10
577.9795551928
 20
-152.2747214036
 10
578.1092627249
 20
-152.2368608267
 10
578.2445792313
 20
-152.2144249293
 10
578.3848035903
 20
-152.2067125895
 10
578.3848035903
 20
-152.2067125895
 10
578.5264301928
 20
-152.2158271728
 10
578.6596433339
 20
-152.2424698011
 10
578.7844430134
 20
-152.2880427177
 10
578.9008292313
 20
-152.3511436793
 10
579.0059975005
 20
-152.4296693203
 10
579.0971433339
 20
-152.5208151536
 10
579.1728644877
 20
-152.6245811793
 10
579.2338620839
 20
-152.7409673972
 10
579.2591024685
 20
-152.8061717241
 10
579.2808372441
 20
-152.8804906344
 10
579.2990664108
 20
-152.9625218844
 10
579.3144910903
 20
-153.0536677177
 10
579.325709039
 20
-153.1532270126
 10
579.3341225005
 20
-153.261199769
 10
579.3397314749
 20
-153.3782871087
 10
579.3411337185
 20
-153.5030867882
 10
579.3411337185
 20
-153.5030867882
 10
579.3411337185
 20
-154.8092766921
 10
579.3411337185
 20
-154.8092766921
 10
579.0270311544
 20
-154.8092766921
 10
579.0270311544
 20
-154.8092766921
 10
579.0270311544
 20
-153.6061516921
 10
579.0270311544
 20
-153.6061516921
 10
579.0263300326
 20
-153.5016845446
 10
579.024927789
 20
-153.4063319805
 10
579.0221233018
 20
-153.3200939998
 10
579.0179165711
 20
-153.2422694805
 10
579.0123075967
 20
-153.1742606664
 10
579.0059975005
 20
-153.1153664357
 10
578.9982851608
 20
-153.0648856664
 10
578.9898716993
 20
-153.0242206023
 10
578.9898716993
 20
-153.0242206023
 10
578.9541144877
 20
-152.9064321408
 10
578.9043348403
 20
-152.8040683587
 10
578.8412338787
 20
-152.717830378
 10
578.7648116031
 20
-152.6470170767
 10
578.6750680134
 20
-152.5916284549
 10
578.5727042313
 20
-152.5523656344
 10
578.4577202569
 20
-152.5285274934
 10
578.3301160903
 20
-152.5208151536
 10
578.3301160903
 20
-152.5208151536
 10
578.2543949364
 20
-152.5236196408
 10
578.180777148
 20
-152.5327342241
 10
578.1085616031
 20
-152.5481589036
 10
578.0391505454
 20
-152.5691925575
 10
577.9711417313
 20
-152.5972374293
 10
577.9052362826
 20
-152.6301901536
 10
577.8414341993
 20
-152.6701540959
 10
577.7797354813
 20
-152.7157270126
 10
577.7215423723
 20
-152.7662077818
 10
577.6689582377
 20
-152.8187919164
 10
577.6212819557
 20
-152.87488166
 10
577.5785135262
 20
-152.9337758908
 10
577.5413540711
 20
-152.9954746087
 10
577.5091024685
 20
-153.0599778139
 10
577.4817587185
 20
-153.127986628
 10
577.4600239428
 20
-153.1980988075
 10
577.4600239428
 20
-153.1980988075
 10
577.4488059941
 20
-153.2499818203
 10
577.438990289
 20
-153.3116805382
 10
577.4305768275
 20
-153.3824938395
 10
577.4235656095
 20
-153.4638239677
 10
577.4186577569
 20
-153.5542686793
 10
577.4144510262
 20
-153.6545290959
 10
577.4123476608
 20
-153.7646052177
 10
577.411646539
 20
-153.8844970446
 10
577.411646539
 20
-153.8844970446
 10
577.411646539
 20
-154.8092766921
 10
577.411646539
 20
-154.8092766921
 10
577.0975439749
 20
-154.8092766921
 10
577.0975439749
 20
-154.8092766921
 10
577.0975439749
 20
-152.2515843844
  0
LWPOLYLINE
  5
13A
330
1F
100
AcDbEntity
  8
0
  6
Continuous
 62
     7
100
AcDbPolyline
 90
       65
 70
   128
 43
0.0
 10
582.7960968018
 20
-151.2195331023
 10
583.0381489428
 20
-151.4095371087
 10
583.0381489428
 20
-151.4095371087
 10
582.1133692954
 20
-152.823699769
 10
582.1133692954
 20
-152.823699769
 10
582.2984654493
 20
-152.7984593844
 10
582.4758492634
 20
-152.7900459228
 10
582.4758492634
 20
-152.7900459228
 10
582.5824197762
 20
-152.7949537754
 10
582.6847835582
 20
-152.8089762113
 10
582.7829406095
 20
-152.8321132305
 10
582.87689093
 20
-152.8650659549
 10
582.9666345198
 20
-152.9071332626
 10
583.0528725005
 20
-152.9583151536
 10
583.1342026287
 20
-153.0193127498
 10
583.212027148
 20
-153.0894249293
 10
583.2828404493
 20
-153.1665483267
 10
583.3445391672
 20
-153.2478784549
 10
583.39642218
 20
-153.3334153139
 10
583.4384894877
 20
-153.4231589036
 10
583.4714422121
 20
-153.5178103459
 10
583.4952803531
 20
-153.616668519
 10
583.509302789
 20
-153.7197334228
 10
583.5142106416
 20
-153.8270050575
 10
583.5142106416
 20
-153.8270050575
 10
583.50579718
 20
-153.9735395126
 10
583.4791545518
 20
-154.1130627498
 10
583.4356850005
 20
-154.2448736472
 10
583.3739862826
 20
-154.3703744485
 10
583.2968628852
 20
-154.4853584228
 10
583.2043148082
 20
-154.5877222049
 10
583.0977442954
 20
-154.6781669164
 10
582.9757491031
 20
-154.7559914357
 10
582.8446393275
 20
-154.8183912754
 10
582.7079205775
 20
-154.8632630703
 10
582.5669950967
 20
-154.8899056985
 10
582.4204606416
 20
-154.8990202818
 10
582.4204606416
 20
-154.8990202818
 10
582.2795351608
 20
-154.8906068203
 10
582.1435175326
 20
-154.8646653139
 10
582.0124077569
 20
-154.8211957626
 10
581.8869069557
 20
-154.7608992882
 10
581.7705207377
 20
-154.6844770126
 10
581.6674558339
 20
-154.5940323011
 10
581.5770111223
 20
-154.4895651536
 10
581.5005888467
 20
-154.3710755703
 10
581.4395912505
 20
-154.2427702818
 10
581.3954205775
 20
-154.1109593844
 10
581.3694790711
 20
-153.9742406344
 10
581.3603644877
 20
-153.8333151536
 10
581.3603644877
 20
-153.8333151536
 10
581.3659734621
 20
-153.7253423972
 10
581.3820992634
 20
-153.6138640318
 10
581.4087418916
 20
-153.5002823011
 10
581.4459013467
 20
-153.3838960831
 10
581.4697394877
 20
-153.3235996087
 10
581.4970832377
 20
-153.2597975254
 10
581.5293348403
 20
-153.1938920767
 10
581.5650920518
 20
-153.124481019
 10
581.6057571159
 20
-153.0515643523
 10
581.649927789
 20
-152.9765443203
 10
581.6990063146
 20
-152.8980186793
 10
581.7515904493
 20
-152.8166885511
 10
581.7515904493
 20
-152.8166885511
 10
582.7962619236
 20
-151.2195331023
  0
LWPOLYLINE
  5
13B
330
1F
100
AcDbEntity
  8
0
  6
Continuous
 62
     7
100
AcDbPolyline
 90
       68
 70
   128
 43
0.0
 10
582.4098587036
 20
-153.1490202818
 10
582.33001593
 20
-153.1525258908
 10
582.2542947762
 20
-153.1616404741
 10
582.1820792313
 20
-153.1777662754
 10
582.1133692954
 20
-153.1995010511
 10
582.0488660903
 20
-153.2282470446
 10
581.9885696159
 20
-153.2633031344
 10
581.9317787505
 20
-153.3046693203
 10
581.8784934941
 20
-153.3523456023
 10
581.8308172121
 20
-153.4042286152
 10
581.7894510262
 20
-153.4596172369
 10
581.7543949364
 20
-153.5171092241
 10
581.7256489428
 20
-153.5774056985
 10
581.7032130454
 20
-153.64050666
 10
581.6870872441
 20
-153.7064121087
 10
581.6779726608
 20
-153.7744209228
 10
581.6744670518
 20
-153.8459353459
 10
581.6744670518
 20
-153.8459353459
 10
581.6779726608
 20
-153.9167486472
 10
581.6884894877
 20
-153.9840563395
 10
581.7060175326
 20
-154.0499617882
 10
581.7305567954
 20
-154.112361628
 10
581.7614061544
 20
-154.1726581023
 10
581.7999678531
 20
-154.2294489677
 10
581.844839648
 20
-154.2848375895
 10
581.8974237826
 20
-154.3367206023
 10
581.9549157698
 20
-154.3843968844
 10
582.0152122441
 20
-154.4257630703
 10
582.0783132057
 20
-154.46081916
 10
582.1442186544
 20
-154.4888640318
 10
582.2129285903
 20
-154.5112999293
 10
582.2851441352
 20
-154.5274257305
 10
582.3594630454
 20
-154.5365403139
 10
582.4372875646
 20
-154.5400459228
 10
582.4372875646
 20
-154.5400459228
 10
582.5151120839
 20
-154.5365403139
 10
582.5894309941
 20
-154.5274257305
 10
582.661646539
 20
-154.5112999293
 10
582.7303564749
 20
-154.4888640318
 10
582.7962619236
 20
-154.46081916
 10
582.8593628852
 20
-154.4257630703
 10
582.9189582377
 20
-154.3843968844
 10
582.9764502249
 20
-154.3367206023
 10
583.0290343595
 20
-154.2848375895
 10
583.0746072762
 20
-154.2294489677
 10
583.1124678531
 20
-154.1726581023
 10
583.1440183339
 20
-154.112361628
 10
583.1685575967
 20
-154.0499617882
 10
583.1860856416
 20
-153.9840563395
 10
583.1966024685
 20
-153.9167486472
 10
583.2001080775
 20
-153.8459353459
 10
583.2001080775
 20
-153.8459353459
 10
583.1966024685
 20
-153.7744209228
 10
583.1853845198
 20
-153.7064121087
 10
583.1678564749
 20
-153.64050666
 10
583.1426160903
 20
-153.5774056985
 10
583.1096633659
 20
-153.5171092241
 10
583.0696994236
 20
-153.4596172369
 10
583.0227242634
 20
-153.4042286152
 10
582.9687378852
 20
-153.3523456023
 10
582.9091425326
 20
-153.3046693203
 10
582.8467426928
 20
-153.2633031344
 10
582.7815383659
 20
-153.2282470446
 10
582.7135295518
 20
-153.1995010511
 10
582.6420151287
 20
-153.1777662754
 10
582.5676962185
 20
-153.1616404741
 10
582.4905728211
 20
-153.1525258908
 10
582.4099438146
 20
-153.1490202818
  0
LWPOLYLINE
  5
13C
330
1F
100
AcDbEntity
  8
0
  6
Continuous
 62
     7
100
AcDbPolyline
 90
      100
 70
   128
 43
0.0
 10
583.872795105
 20
-153.0606789357
 10
583.8752883659
 20
-152.8924097049
 10
583.8822995839
 20
-152.7339561793
 10
583.8942186544
 20
-152.5846172369
 10
583.9103444557
 20
-152.4457951216
 10
583.9306769877
 20
-152.3167887113
 10
583.9566184941
 20
-152.1975980062
 10
583.9867667313
 20
-152.0882230062
 10
584.0211216993
 20
-151.9886637113
 10
584.059683398
 20
-151.8968167562
 10
584.1024518275
 20
-151.8105787754
 10
584.1494269877
 20
-151.7306508908
 10
584.1999077569
 20
-151.6556308587
 10
584.2538941352
 20
-151.5869209228
 10
584.3113861223
 20
-151.5238199613
 10
584.3730848403
 20
-151.4670290959
 10
584.438990289
 20
-151.4151460831
 10
584.5077002249
 20
-151.3695731664
 10
584.5785135262
 20
-151.3296092241
 10
584.6507290711
 20
-151.295955378
 10
584.7257491031
 20
-151.268611628
 10
584.8021713787
 20
-151.2468768523
 10
584.8806970198
 20
-151.2314521728
 10
584.9606249044
 20
-151.2223375895
 10
585.0433572762
 20
-151.2195331023
 10
585.0433572762
 20
-151.2195331023
 10
585.1267907698
 20
-151.2223375895
 10
585.2088220198
 20
-151.2314521728
 10
585.2880487826
 20
-151.2468768523
 10
585.3658733018
 20
-151.268611628
 10
585.4415944557
 20
-151.295955378
 10
585.5152122441
 20
-151.3296092241
 10
585.587427789
 20
-151.3695731664
 10
585.6568388467
 20
-151.4158472049
 10
585.7234454172
 20
-151.4677302177
 10
585.7872475005
 20
-151.5266244485
 10
585.8468428531
 20
-151.5911276536
 10
585.9029325967
 20
-151.6612398331
 10
585.9555167313
 20
-151.7383632305
 10
586.0045952569
 20
-151.8210956023
 10
586.0494670518
 20
-151.9101380703
 10
586.0915343595
 20
-152.0054906344
 10
586.1286938146
 20
-152.1078544164
 10
586.161646539
 20
-152.21863166
 10
586.188990289
 20
-152.3378223652
 10
586.2114261864
 20
-152.4654265318
 10
586.2289542313
 20
-152.60144416
 10
586.2415744236
 20
-152.7465763716
 10
586.2485856416
 20
-152.8994209228
 10
586.2513901287
 20
-153.0606789357
 10
586.2513901287
 20
-153.0606789357
 10
586.2485856416
 20
-153.2212358267
 10
586.2415744236
 20
-153.3733792562
 10
586.2289542313
 20
-153.5178103459
 10
586.2121273082
 20
-153.6531268523
 10
586.1896914108
 20
-153.7800298972
 10
586.1623476608
 20
-153.8985194805
 10
586.13079718
 20
-154.0092967241
 10
586.0936377249
 20
-154.1109593844
 10
586.052271539
 20
-154.2056108267
 10
586.0073997441
 20
-154.2939521728
 10
585.9590223403
 20
-154.3766845446
 10
585.9064382057
 20
-154.4538079421
 10
585.8503484621
 20
-154.5246212434
 10
585.7900519877
 20
-154.5891244485
 10
585.7262499044
 20
-154.6480186793
 10
585.6589422121
 20
-154.7006028139
 10
585.5888300326
 20
-154.7468768523
 10
585.5166144877
 20
-154.7875419164
 10
585.4422955775
 20
-154.8211957626
 10
585.3665744236
 20
-154.8492406344
 10
585.2887499044
 20
-154.87097541
 10
585.2088220198
 20
-154.8864000895
 10
585.1267907698
 20
-154.8962157946
 10
585.0433572762
 20
-154.8990202818
 10
585.0433572762
 20
-154.8990202818
 10
584.9606249044
 20
-154.8962157946
 10
584.8806970198
 20
-154.8871012113
 10
584.8021713787
 20
-154.8716765318
 10
584.7264502249
 20
-154.850642878
 10
584.6521313146
 20
-154.8240002498
 10
584.5799157698
 20
-154.7903464036
 10
584.5098035903
 20
-154.7510835831
 10
584.4417947762
 20
-154.7062117882
 10
584.3765904493
 20
-154.6550298972
 10
584.3148917313
 20
-154.5982390318
 10
584.2573997441
 20
-154.5351380703
 10
584.2034133659
 20
-154.4657270126
 10
584.1529325967
 20
-154.3914081023
 10
584.1059574364
 20
-154.3107790959
 10
584.0624878852
 20
-154.2238399934
 10
584.0232250646
 20
-154.1312919164
 10
583.9881689749
 20
-154.0310314998
 10
583.9573196159
 20
-153.920955378
 10
583.9320792313
 20
-153.8010635511
 10
583.9110455775
 20
-153.6720571408
 10
583.8942186544
 20
-153.5339361472
 10
583.8822995839
 20
-153.3852983267
 10
583.8752883659
 20
-153.2275459228
 10
583.8731850005
 20
-153.0606789357
  0
LWPOLYLINE
  5
13D
330
1F
100
AcDbEntity
  8
0
  6
Continuous
 62
     7
100
AcDbPolyline
 90
       85
 70
   128
 43
0.0
 10
584.1870307922
 20
-153.0592766921
 10
584.1886898082
 20
-153.1995010511
 10
584.1942987826
 20
-153.3313119485
 10
584.2027122441
 20
-153.4547093844
 10
584.2139301928
 20
-153.5682911152
 10
584.2293548723
 20
-153.6734593844
 10
584.247584039
 20
-153.7702141921
 10
584.2693188146
 20
-153.8578544164
 10
584.2945591993
 20
-153.9363800575
 10
584.3233051928
 20
-154.0085956023
 10
584.3548556736
 20
-154.0759032946
 10
584.3892106416
 20
-154.1390042562
 10
584.4270712185
 20
-154.1971973652
 10
584.4684374044
 20
-154.2511837434
 10
584.5126080775
 20
-154.3009633908
 10
584.5602843595
 20
-154.3458351857
 10
584.6107651287
 20
-154.3865002498
 10
584.7173356416
 20
-154.4538079421
 10
584.8267106416
 20
-154.5014842241
 10
584.9388901287
 20
-154.5302302177
 10
585.0538741031
 20
-154.5400459228
 10
585.0538741031
 20
-154.5400459228
 10
585.1695591993
 20
-154.5309313395
 10
585.2817386864
 20
-154.5021853459
 10
585.3897114428
 20
-154.4559113075
 10
585.4941785903
 20
-154.3900058587
 10
585.5439582377
 20
-154.3500419164
 10
585.5902322762
 20
-154.3058712434
 10
585.6337018275
 20
-154.2560915959
 10
585.6743668916
 20
-154.2021052177
 10
585.7115263467
 20
-154.1439121087
 10
585.7458813146
 20
-154.0801100254
 10
585.7767306736
 20
-154.0121012113
 10
585.8047755454
 20
-153.9391845446
 10
585.8047755454
 20
-153.9391845446
 10
585.8356249044
 20
-153.8452342241
 10
585.8629686544
 20
-153.7470771728
 10
585.8854045518
 20
-153.644012269
 10
585.9043348403
 20
-153.5367406344
 10
585.9183572762
 20
-153.4245611472
 10
585.9288741031
 20
-153.3074738075
 10
585.9351841993
 20
-153.1854786152
 10
585.9372875646
 20
-153.0592766921
 10
585.9372875646
 20
-153.0592766921
 10
585.9351841993
 20
-152.933074769
 10
585.9302763467
 20
-152.8124818203
 10
585.9204606416
 20
-152.6981989677
 10
585.9078404493
 20
-152.5895250895
 10
585.8910135262
 20
-152.4864601857
 10
585.8713821159
 20
-152.389705378
 10
585.8468428531
 20
-152.2985595446
 10
585.8194991031
 20
-152.2130226857
 10
585.7886497441
 20
-152.1330948011
 10
585.754995898
 20
-152.0594770126
 10
585.7185375646
 20
-151.9907670767
 10
585.6792747441
 20
-151.9276661152
 10
585.6372074364
 20
-151.870174128
 10
585.5916345198
 20
-151.8182911152
 10
585.5439582377
 20
-151.7720170767
 10
585.4934774685
 20
-151.7313520126
 10
585.3876080775
 20
-151.6647454421
 10
585.2796353211
 20
-151.6163680382
 10
585.1681569557
 20
-151.5883231664
 10
585.0538741031
 20
-151.5785074613
 10
585.0538741031
 20
-151.5785074613
 10
584.9381890069
 20
-151.5883231664
 10
584.825308398
 20
-151.6163680382
 10
584.7166345198
 20
-151.6647454421
 10
584.6107651287
 20
-151.7313520126
 10
584.5602843595
 20
-151.7713159549
 10
584.5133091993
 20
-151.8161877498
 10
584.4691385262
 20
-151.8659673972
 10
584.4284734621
 20
-151.9199537754
 10
584.3906128852
 20
-151.9781468844
 10
584.3555567954
 20
-152.0412478459
 10
584.3240063146
 20
-152.1085555382
 10
584.2952603211
 20
-152.1807710831
 10
584.2700199364
 20
-152.2592967241
 10
584.2482851608
 20
-152.3469369485
 10
584.2293548723
 20
-152.4429906344
 10
584.2146313146
 20
-152.5488600254
 10
584.2027122441
 20
-152.663142878
 10
584.1942987826
 20
-152.7858391921
 10
584.1886898082
 20
-152.9183512113
 10
584.1872875646
 20
-153.0592766921
  0
LWPOLYLINE
  5
13E
330
1F
100
AcDbEntity
  8
0
  6
Continuous
 62
     7
100
AcDbPolyline
 90
      143
 70
   128
 43
0.0
 10
588.1357192993
 20
-152.2515843844
 10
588.4501080775
 20
-152.2515843844
 10
588.4501080775
 20
-152.2515843844
 10
588.4501080775
 20
-152.6960956023
 10
588.4501080775
 20
-152.6960956023
 10
588.53704718
 20
-152.581111628
 10
588.6253885262
 20
-152.4829545767
 10
588.7144309941
 20
-152.4016244485
 10
588.8048757057
 20
-152.3364201216
 10
588.8048757057
 20
-152.3364201216
 10
588.9317787505
 20
-152.2796292562
 10
589.0621874044
 20
-152.2389641921
 10
589.1954005454
 20
-152.2151260511
 10
589.3321192954
 20
-152.2067125895
 10
589.3321192954
 20
-152.2067125895
 10
589.4246673723
 20
-152.2116204421
 10
589.5144109621
 20
-152.2249417562
 10
589.6020511864
 20
-152.2480787754
 10
589.6868869236
 20
-152.280330378
 10
589.76751593
 20
-152.3202943203
 10
589.8397314749
 20
-152.3658672369
 10
589.9049358018
 20
-152.4177502498
 10
589.9617266672
 20
-152.4759433587
 10
590.0129085582
 20
-152.5432510511
 10
590.0612859621
 20
-152.6238800575
 10
590.1054566352
 20
-152.7171292562
 10
590.1461216993
 20
-152.8244008908
 10
590.1461216993
 20
-152.8244008908
 10
590.1881890069
 20
-152.7507831023
 10
590.2330608018
 20
-152.6820731664
 10
590.2807370839
 20
-152.6175699613
 10
590.3305167313
 20
-152.5579746087
 10
590.3831008659
 20
-152.5025859869
 10
590.4377883659
 20
-152.4521052177
 10
590.4952803531
 20
-152.4058311793
 10
590.5555768275
 20
-152.3644649934
 10
590.6803765069
 20
-152.2957550575
 10
590.8107851608
 20
-152.24597541
 10
590.9446994236
 20
-152.2165282946
 10
591.0842226608
 20
-152.2067125895
 10
591.0842226608
 20
-152.2067125895
 10
591.2125279493
 20
-152.2151260511
 10
591.333120898
 20
-152.2396653139
 10
591.4460015069
 20
-152.2817326216
 10
591.5511697762
 20
-152.3399257305
 10
591.6458212185
 20
-152.4128423972
 10
591.7278524685
 20
-152.499080378
 10
591.7965624044
 20
-152.5979385511
 10
591.8519510262
 20
-152.71081916
 10
591.8750880454
 20
-152.7739201216
 10
591.8947194557
 20
-152.8447334228
 10
591.9115463787
 20
-152.9225579421
 10
591.9255688146
 20
-153.0080948011
 10
591.9360856416
 20
-153.100642878
 10
591.9437979813
 20
-153.2009032946
 10
591.9487058339
 20
-153.3088760511
 10
591.9501080775
 20
-153.4238600254
 10
591.9501080775
 20
-153.4238600254
 10
591.9501080775
 20
-154.8092766921
 10
591.9501080775
 20
-154.8092766921
 10
591.6360055134
 20
-154.8092766921
 10
591.6360055134
 20
-154.8092766921
 10
591.6360055134
 20
-153.4224577818
 10
591.6360055134
 20
-153.4224577818
 10
591.6353043916
 20
-153.3243007305
 10
591.6324999044
 20
-153.233856019
 10
591.6275920518
 20
-153.151824769
 10
591.6212819557
 20
-153.0775058587
 10
591.6128684941
 20
-153.01160041
 10
591.6023516672
 20
-152.9534073011
 10
591.5904325967
 20
-152.9029265318
 10
591.5764101608
 20
-152.8608592241
 10
591.5413540711
 20
-152.7879425575
 10
591.4957811544
 20
-152.7220371087
 10
591.4396914108
 20
-152.6645451216
 10
591.3730848403
 20
-152.6140643523
 10
591.2980648082
 20
-152.5733992882
 10
591.2153324364
 20
-152.5439521728
 10
591.1262899685
 20
-152.526424128
 10
591.0295351608
 20
-152.5208151536
 10
591.0295351608
 20
-152.5208151536
 10
590.9110455775
 20
-152.5292286152
 10
590.7981649685
 20
-152.5558712434
 10
590.6894910903
 20
-152.5993407946
 10
590.5864261864
 20
-152.6610395126
 10
590.4924758659
 20
-152.7367606664
 10
590.4125479813
 20
-152.8244008908
 10
590.3459414108
 20
-152.9239601857
 10
590.2926561544
 20
-153.0347374293
 10
590.2709213787
 20
-153.0978383908
 10
590.2519910903
 20
-153.1707550575
 10
590.2365664108
 20
-153.2534874293
 10
590.2232450967
 20
-153.3460355062
 10
590.2134293916
 20
-153.4483992882
 10
590.2057170518
 20
-153.5605787754
 10
590.2015103211
 20
-153.6825739677
 10
590.2001080775
 20
-153.8143848652
 10
590.2001080775
 20
-153.8143848652
 10
590.2001080775
 20
-154.8092766921
 10
590.2001080775
 20
-154.8092766921
 10
589.8860055134
 20
-154.8092766921
 10
589.8860055134
 20
-154.8092766921
 10
589.8860055134
 20
-153.5086957626
 10
589.8860055134
 20
-153.5086957626
 10
589.8853043916
 20
-153.3986196408
 10
589.8824999044
 20
-153.2969569805
 10
589.8775920518
 20
-153.2051100254
 10
589.8712819557
 20
-153.1223776536
 10
589.8628684941
 20
-153.0487598652
 10
589.853052789
 20
-152.9849577818
 10
589.8411337185
 20
-152.92956916
 10
589.8271112826
 20
-152.8839962434
 10
589.7927563146
 20
-152.8054706023
 10
589.747183398
 20
-152.7353584228
 10
589.6903925326
 20
-152.6736597049
 10
589.6230848403
 20
-152.6203744485
 10
589.5473636864
 20
-152.5769048972
 10
589.4639301928
 20
-152.5453544164
 10
589.3741866031
 20
-152.5271252498
 10
589.2774317954
 20
-152.5208151536
 10
589.2774317954
 20
-152.5208151536
 10
589.1638500646
 20
-152.5292286152
 10
589.0537739428
 20
-152.5551701216
 10
588.94720343
 20
-152.5979385511
 10
588.844839648
 20
-152.6575339036
 10
588.7508893275
 20
-152.7318528139
 10
588.6695591993
 20
-152.8180907946
 10
588.6015503852
 20
-152.9155467241
 10
588.5468628852
 20
-153.0256228459
 10
588.5244269877
 20
-153.0873215639
 10
588.5047955775
 20
-153.1560314998
 10
588.4879686544
 20
-153.2331548972
 10
588.4746473403
 20
-153.3179906344
 10
588.4634293916
 20
-153.4098375895
 10
588.4564181736
 20
-153.5100980062
 10
588.4515103211
 20
-153.6173696408
 10
588.4501080775
 20
-153.7330547369
 10
588.4501080775
 20
-153.7330547369
 10
588.4501080775
 20
-154.8092766921
 10
588.4501080775
 20
-154.8092766921
 10
588.1360055134
 20
-154.8092766921
 10
588.1360055134
 20
-154.8092766921
 10
588.1360055134
 20
-152.2515843844
  0
LWPOLYLINE
  5
13F
330
1F
100
AcDbEntity
  8
0
  6
Continuous
 62
     7
100
AcDbPolyline
 90
       36
 70
   128
 43
0.0
 10
592.7786827087
 20
-151.1746613075
 10
592.837027148
 20
-151.17956916
 10
592.8910135262
 20
-151.1942927177
 10
592.9407931736
 20
-151.2195331023
 10
592.9856649685
 20
-151.2538880703
 10
593.0235255454
 20
-151.2952542562
 10
593.0501681736
 20
-151.3415282946
 10
593.0662939749
 20
-151.3913079421
 10
593.0719029493
 20
-151.4452943203
 10
593.0719029493
 20
-151.4452943203
 10
593.0662939749
 20
-151.4978784549
 10
593.0501681736
 20
-151.5469569805
 10
593.0235255454
 20
-151.5925298972
 10
592.9856649685
 20
-151.6338960831
 10
592.9407931736
 20
-151.6682510511
 10
592.8910135262
 20
-151.6934914357
 10
592.837027148
 20
-151.7082149934
 10
592.778834039
 20
-151.7131228459
 10
592.778834039
 20
-151.7131228459
 10
592.7213420518
 20
-151.7082149934
 10
592.6687579172
 20
-151.6934914357
 10
592.6189782698
 20
-151.6682510511
 10
592.5741064749
 20
-151.6338960831
 10
592.5369470198
 20
-151.5925298972
 10
592.5103043916
 20
-151.5469569805
 10
592.4941785903
 20
-151.4978784549
 10
592.4885696159
 20
-151.4452943203
 10
592.4885696159
 20
-151.4452943203
 10
592.4941785903
 20
-151.3913079421
 10
592.5103043916
 20
-151.3415282946
 10
592.5369470198
 20
-151.2952542562
 10
592.5741064749
 20
-151.2538880703
 10
592.6189782698
 20
-151.2195331023
 10
592.6687579172
 20
-151.1942927177
 10
592.7213420518
 20
-151.17956916
 10
592.778834039
 20
-151.1746613075
  0
LWPOLYLINE
  5
140
330
1F
100
AcDbEntity
  8
0
  6
Continuous
 62
     7
100
AcDbPolyline
 90
        8
 70
   128
 43
0.0
 10
592.622756958
 20
-152.2515843844
 10
592.9372875646
 20
-152.2515843844
 10
592.9372875646
 20
-152.2515843844
 10
592.9372875646
 20
-154.8092766921
 10
592.9372875646
 20
-154.8092766921
 10
592.6231850005
 20
-154.8092766921
 10
592.6231850005
 20
-154.8092766921
 10
592.6231850005
 20
-152.2515843844
  0
LWPOLYLINE
  5
141
330
1F
100
AcDbEntity
  8
0
  6
Continuous
 62
     7
100
AcDbPolyline
 90
       86
 70
   128
 43
0.0
 10
593.6999320984
 20
-152.2515843844
 10
594.0142106416
 20
-152.2515843844
 10
594.0142106416
 20
-152.2515843844
 10
594.0142106416
 20
-152.7129225254
 10
594.0142106416
 20
-152.7129225254
 10
594.1172755454
 20
-152.5895250895
 10
594.2252483018
 20
-152.4836556985
 10
594.3388300326
 20
-152.3967165959
 10
594.4580207377
 20
-152.3273055382
 10
594.5821192954
 20
-152.2747214036
 10
594.7118268275
 20
-152.2368608267
 10
594.8471433339
 20
-152.2144249293
 10
594.9873676928
 20
-152.2067125895
 10
594.9873676928
 20
-152.2067125895
 10
595.1289942954
 20
-152.2158271728
 10
595.2622074364
 20
-152.2424698011
 10
595.3870071159
 20
-152.2880427177
 10
595.5033933339
 20
-152.3511436793
 10
595.6085616031
 20
-152.4296693203
 10
595.6997074364
 20
-152.5208151536
 10
595.7754285903
 20
-152.6245811793
 10
595.8364261864
 20
-152.7409673972
 10
595.8616665711
 20
-152.8061717241
 10
595.8834013467
 20
-152.8804906344
 10
595.9016305134
 20
-152.9625218844
 10
595.9170551928
 20
-153.0536677177
 10
595.9282731416
 20
-153.1532270126
 10
595.9366866031
 20
-153.261199769
 10
595.9422955775
 20
-153.3782871087
 10
595.9436978211
 20
-153.5030867882
 10
595.9436978211
 20
-153.5030867882
 10
595.9436978211
 20
-154.8092766921
 10
595.9436978211
 20
-154.8092766921
 10
595.6295952569
 20
-154.8092766921
 10
595.6295952569
 20
-154.8092766921
 10
595.6295952569
 20
-153.6061516921
 10
595.6295952569
 20
-153.6061516921
 10
595.6288941352
 20
-153.5016845446
 10
595.6274918916
 20
-153.4063319805
 10
595.6246874044
 20
-153.3200939998
 10
595.6204806736
 20
-153.2422694805
 10
595.6148716993
 20
-153.1742606664
 10
595.6085616031
 20
-153.1153664357
 10
595.6008492634
 20
-153.0648856664
 10
595.5924358018
 20
-153.0242206023
 10
595.5924358018
 20
-153.0242206023
 10
595.5566785903
 20
-152.9064321408
 10
595.5068989428
 20
-152.8040683587
 10
595.4437979813
 20
-152.717830378
 10
595.3673757057
 20
-152.6470170767
 10
595.2776321159
 20
-152.5916284549
 10
595.1752683339
 20
-152.5523656344
 10
595.0602843595
 20
-152.5285274934
 10
594.9326801928
 20
-152.5208151536
 10
594.9326801928
 20
-152.5208151536
 10
594.856959039
 20
-152.5236196408
 10
594.7833412505
 20
-152.5327342241
 10
594.7111257057
 20
-152.5481589036
 10
594.641714648
 20
-152.5691925575
 10
594.5737058339
 20
-152.5972374293
 10
594.5078003852
 20
-152.6301901536
 10
594.4439983018
 20
-152.6701540959
 10
594.3822995839
 20
-152.7157270126
 10
594.3241064749
 20
-152.7662077818
 10
594.2715223403
 20
-152.8187919164
 10
594.2238460582
 20
-152.87488166
 10
594.1810776287
 20
-152.9337758908
 10
594.1439181736
 20
-152.9954746087
 10
594.1116665711
 20
-153.0599778139
 10
594.0843228211
 20
-153.127986628
 10
594.0625880454
 20
-153.1980988075
 10
594.0625880454
 20
-153.1980988075
 10
594.0513700967
 20
-153.2499818203
 10
594.0415543916
 20
-153.3116805382
 10
594.03314093
 20
-153.3824938395
 10
594.0261297121
 20
-153.4638239677
 10
594.0212218595
 20
-153.5542686793
 10
594.0170151287
 20
-153.6545290959
 10
594.0149117634
 20
-153.7646052177
 10
594.0142106416
 20
-153.8844970446
 10
594.0142106416
 20
-153.8844970446
 10
594.0142106416
 20
-154.8092766921
 10
594.0142106416
 20
-154.8092766921
 10
593.7001080775
 20
-154.8092766921
 10
593.7001080775
 20
-154.8092766921
 10
593.7001080775
 20
-152.2515843844
  0
POINT
  5
142
330
1F
100
AcDbEntity
  8
0
  6
Continuous
 62
     7
100
AcDbPoint
 10
1089.9244614159
 20
0.0
 30
0.0
  0
POINT
  5
143
330
1F
100
AcDbEntity
  8
0
  6
Continuous
 62
     7
100
AcDbPoint
 10
1089.9244614159
 20
0.0
 30
0.0
  0
POINT
  5
144
330
1F
100
AcDbEntity
  8
0
  6
Continuous
 62
     7
100
AcDbPoint
 10
720.0
 20
0.0
 30
0.0
  0
POINT
  5
145
330
1F
100
AcDbEntity
  8
0
  6
Continuous
 62
     7
100
AcDbPoint
 10
540.0
 20
0.0
 30
0.0
  0
MTEXT
  5
147
330
1F
100
AcDbEntity
  8
0
  6
Continuous
 62
     7
100
AcDbMText
 10
-60.0
 20
-200.9892946798
 30
0.0
 40
4.83362
 41
0.0
 71
     1
 72
     1
  1
Produto educacional do SOLIDWORKS.
  7
SLDTEXTSTYLE0
 73
     1
 44
1.0
  0
MTEXT
  5
148
330
1F
100
AcDbEntity
  8
0
  6
Continuous
 62
     7
100
AcDbMText
 10
-60.0
 20
-208.2397246798
 30
0.0
 40
4.83362
 41
0.0
 71
     1
 72
     1
  1
Somente para fins de instrução.
  7
SLDTEXTSTYLE0
 73
     1
 44
1.0
  0
ENDSEC
  0
SECTION
  2
OBJECTS
  0
DICTIONARY
  5
C
330
0
100
AcDbDictionary
281
     1
  3
ACAD_GROUP
350
D
  3
ACAD_LAYOUT
350
1A
  3
ACAD_MLINESTYLE
350
17
  3
ACAD_PLOTSETTINGS
350
19
  3
ACAD_PLOTSTYLENAME
350
E
  3
ACAD_SCALELIST
350
47
  0
DICTIONARY
  5
D
102
{ACAD_REACTORS
330
C
102
}
330
C
100
AcDbDictionary
281
     1
  0
DICTIONARY
  5
1A
102
{ACAD_REACTORS
330
C
102
}
330
C
100
AcDbDictionary
281
     1
  3
Layout1
350
1E
  3
Layout2
350
26
  3
Model
350
22
  0
DICTIONARY
  5
17
102
{ACAD_REACTORS
330
C
102
}
330
C
100
AcDbDictionary
281
     1
  3
Standard
350
18
  0
DICTIONARY
  5
19
102
{ACAD_REACTORS
330
C
102
}
330
C
100
AcDbDictionary
281
     1
  0
ACDBDICTIONARYWDFLT
  5
E
102
{ACAD_REACTORS
330
C
102
}
330
C
100
AcDbDictionary
281
     1
  3
Normal
350
F
100
AcDbDictionaryWithDefault
340
F
  0
DICTIONARY
  5
47
102
{ACAD_REACTORS
330
C
102
}
330
C
100
AcDbDictionary
281
     1
  3
A0
350
48
  3
A1
350
49
  3
A2
350
4A
  3
A3
350
4B
  3
A4
350
4C
  3
A5
350
4D
  3
A6
350
4E
  3
A7
350
4F
  3
A8
350
50
  3
A9
350
51
  3
B0
350
52
  3
B1
350
53
  3
B2
350
54
  3
B3
350
55
  3
B4
350
56
  3
B5
350
57
  3
B6
350
58
  3
B7
350
59
  3
B8
350
5A
  3
B9
350
5B
  3
C0
350
5C
  3
C1
350
5D
  3
C2
350
5E
  3
C3
350
5F
  3
C4
350
60
  3
C5
350
61
  3
C6
350
62
  3
C7
350
63
  3
C8
350
64
  3
C9
350
65
  3
D0
350
66
  3
D1
350
67
  3
D2
350
68
  0
LAYOUT
  5
1E
102
{ACAD_REACTORS
330
1A
102
}
330
1A
100
AcDbPlotSettings
  1

  2
none_device
  4

  6

 40
0.0
 41
0.0
 42
0.0
 43
0.0
 44
0.0
 45
0.0
 46
0.0
 47
0.0
 48
0.0
 49
0.0
140
0.0
141
0.0
142
1.0
143
1.0
 70
   688
 72
     1
 73
     0
 74
     5
  7

 75
    16
147
1.0
148
0.0
149
0.0
100
AcDbLayout
  1
Layout1
 70
     1
 71
     1
 10
0.0
 20
0.0
 11
420.0
 21
297.0
 12
0.0
 22
0.0
 32
0.0
 14
1.0000000000E+20
 24
1.0000000000E+20
 34
1.0000000000E+20
 15
-1.0000000000E+20
 25
-1.0000000000E+20
 35
-1.0000000000E+20
146
0.0
 13
0.0
 23
0.0
 33
0.0
 16
1.0
 26
0.0
 36
0.0
 17
0.0
 27
1.0
 37
0.0
 76
     0
330
1B
  0
LAYOUT
  5
26
102
{ACAD_REACTORS
330
1A
102
}
330
1A
100
AcDbPlotSettings
  1

  2
none_device
  4

  6

 40
0.0
 41
0.0
 42
0.0
 43
0.0
 44
0.0
 45
0.0
 46
0.0
 47
0.0
 48
0.0
 49
0.0
140
0.0
141
0.0
142
1.0
143
1.0
 70
   688
 72
     1
 73
     0
 74
     5
  7

 75
    16
147
1.0
148
0.0
149
0.0
100
AcDbLayout
  1
Layout2
 70
     1
 71
     2
 10
0.0
 20
0.0
 11
0.0
 21
0.0
 12
0.0
 22
0.0
 32
0.0
 14
0.0
 24
0.0
 34
0.0
 15
0.0
 25
0.0
 35
0.0
146
0.0
 13
0.0
 23
0.0
 33
0.0
 16
1.0
 26
0.0
 36
0.0
 17
0.0
 27
1.0
 37
0.0
 76
     0
330
23
  0
LAYOUT
  5
22
102
{ACAD_REACTORS
330
1A
102
}
330
1A
100
AcDbPlotSettings
  1

  2
none_device
  4
ANSI_A_(11.00_x_8.50_Inches)
  6

 40
6.35
 41
19.05
 42
6.35000508
 43
19.05000254
 44
279.4
 45
215.9
 46
8.59588192
 47
103.0100021432
 48
0.0
 49
0.0
140
0.0
141
0.0
142
0.0088903441
143
1.0
 70
  1696
 72
     0
 73
     0
 74
     0
  7

 75
     0
147
0.0179189148
148
-1300.4909072572
149
0.0
100
AcDbLayout
  1
Model
 70
     1
 71
     0
 10
0.0
 20
0.0
 11
420.0
 21
297.0
 12
0.0
 22
0.0
 32
0.0
 14
-60.0
 24
-199.9697282881
 34
0.0
 15
1164.9244614159
 25
75.0
 35
0.0
146
0.0
 13
0.0
 23
0.0
 33
0.0
 16
1.0
 26
0.0
 36
0.0
 17
0.0
 27
1.0
 37
0.0
 76
     0
330
1F
331
29
  0
MLINESTYLE
  5
18
102
{ACAD_REACTORS
330
17
102
}
330
17
100
AcDbMlineStyle
  2
Standard
 70
     0
  3

 62
   256
 51
90.0
 52
90.0
 71
     2
 49
0.5
 62
   256
  6
BYLAYER
 49
-0.5
 62
   256
  6
BYLAYER
  0
ACDBPLACEHOLDER
  5
F
102
{ACAD_REACTORS
330
E
102
}
330
E
  0
SCALE
  5
48
102
{ACAD_REACTORS
330
47
102
}
330
47
100
AcDbScale
 70
     0
300
1:1
140
1.0
141
1.0
290
     1
  0
SCALE
  5
49
102
{ACAD_REACTORS
330
47
102
}
330
47
100
AcDbScale
 70
     0
300
1:2
140
1.0
141
2.0
290
     0
  0
SCALE
  5
4A
102
{ACAD_REACTORS
330
47
102
}
330
47
100
AcDbScale
 70
     0
300
1:4
140
1.0
141
4.0
290
     0
  0
SCALE
  5
4B
102
{ACAD_REACTORS
330
47
102
}
330
47
100
AcDbScale
 70
     0
300
1:5
140
1.0
141
5.0
290
     0
  0
SCALE
  5
4C
102
{ACAD_REACTORS
330
47
102
}
330
47
100
AcDbScale
 70
     0
300
1:8
140
1.0
141
8.0
290
     0
  0
SCALE
  5
4D
102
{ACAD_REACTORS
330
47
102
}
330
47
100
AcDbScale
 70
     0
300
1:10
140
1.0
141
10.0
290
     0
  0
SCALE
  5
4E
102
{ACAD_REACTORS
330
47
102
}
330
47
100
AcDbScale
 70
     0
300
1:16
140
1.0
141
16.0
290
     0
  0
SCALE
  5
4F
102
{ACAD_REACTORS
330
47
102
}
330
47
100
AcDbScale
 70
     0
300
1:20
140
1.0
141
20.0
290
     0
  0
SCALE
  5
50
102
{ACAD_REACTORS
330
47
102
}
330
47
100
AcDbScale
 70
     0
300
1:30
140
1.0
141
30.0
290
     0
  0
SCALE
  5
51
102
{ACAD_REACTORS
330
47
102
}
330
47
100
AcDbScale
 70
     0
300
1:40
140
1.0
141
40.0
290
     0
  0
SCALE
  5
52
102
{ACAD_REACTORS
330
47
102
}
330
47
100
AcDbScale
 70
     0
300
1:50
140
1.0
141
50.0
290
     0
  0
SCALE
  5
53
102
{ACAD_REACTORS
330
47
102
}
330
47
100
AcDbScale
 70
     0
300
1:100
140
1.0
141
100.0
290
     0
  0
SCALE
  5
54
102
{ACAD_REACTORS
330
47
102
}
330
47
100
AcDbScale
 70
     0
300
2:1
140
2.0
141
1.0
290
     0
  0
SCALE
  5
55
102
{ACAD_REACTORS
330
47
102
}
330
47
100
AcDbScale
 70
     0
300
4:1
140
4.0
141
1.0
290
     0
  0
SCALE
  5
56
102
{ACAD_REACTORS
330
47
102
}
330
47
100
AcDbScale
 70
     0
300
8:1
140
8.0
141
1.0
290
     0
  0
SCALE
  5
57
102
{ACAD_REACTORS
330
47
102
}
330
47
100
AcDbScale
 70
     0
300
10:1
140
10.0
141
1.0
290
     0
  0
SCALE
  5
58
102
{ACAD_REACTORS
330
47
102
}
330
47
100
AcDbScale
 70
     0
300
100:1
140
100.0
141
1.0
290
     0
  0
SCALE
  5
59
102
{ACAD_REACTORS
330
47
102
}
330
47
100
AcDbScale
 70
     0
300
1/128" = 1'-0"
140
0.0078125
141
12.0
290
     0
  0
SCALE
  5
5A
102
{ACAD_REACTORS
330
47
102
}
330
47
100
AcDbScale
 70
     0
300
1/64" = 1'-0"
140
0.015625
141
12.0
290
     0
  0
SCALE
  5
5B
102
{ACAD_REACTORS
330
47
102
}
330
47
100
AcDbScale
 70
     0
300
1/32" = 1'-0"
140
0.03125
141
12.0
290
     0
  0
SCALE
  5
5C
102
{ACAD_REACTORS
330
47
102
}
330
47
100
AcDbScale
 70
     0
300
1/16" = 1'-0"
140
0.0625
141
12.0
290
     0
  0
SCALE
  5
5D
102
{ACAD_REACTORS
330
47
102
}
330
47
100
AcDbScale
 70
     0
300
3/32" = 1'-0"
140
0.09375
141
12.0
290
     0
  0
SCALE
  5
5E
102
{ACAD_REACTORS
330
47
102
}
330
47
100
AcDbScale
 70
     0
300
1/8" = 1'-0"
140
0.125
141
12.0
290
     0
  0
SCALE
  5
5F
102
{ACAD_REACTORS
330
47
102
}
330
47
100
AcDbScale
 70
     0
300
3/16" = 1'-0"
140
0.1875
141
12.0
290
     0
  0
SCALE
  5
60
102
{ACAD_REACTORS
330
47
102
}
330
47
100
AcDbScale
 70
     0
300
1/4" = 1'-0"
140
0.25
141
12.0
290
     0
  0
SCALE
  5
61
102
{ACAD_REACTORS
330
47
102
}
330
47
100
AcDbScale
 70
     0
300
3/8" = 1'-0"
140
0.375
141
12.0
290
     0
  0
SCALE
  5
62
102
{ACAD_REACTORS
330
47
102
}
330
47
100
AcDbScale
 70
     0
300
1/2" = 1'-0"
140
0.5
141
12.0
290
     0
  0
SCALE
  5
63
102
{ACAD_REACTORS
330
47
102
}
330
47
100
AcDbScale
 70
     0
300
3/4" = 1'-0"
140
0.75
141
12.0
290
     0
  0
SCALE
  5
64
102
{ACAD_REACTORS
330
47
102
}
330
47
100
AcDbScale
 70
     0
300
1" = 1'-0"
140
1.0
141
12.0
290
     0
  0
SCALE
  5
65
102
{ACAD_REACTORS
330
47
102
}
330
47
100
AcDbScale
 70
     0
300
1-1/2" = 1'-0"
140
1.5
141
12.0
290
     0
  0
SCALE
  5
66
102
{ACAD_REACTORS
330
47
102
}
330
47
100
AcDbScale
 70
     0
300
3" = 1'-0"
140
3.0
141
12.0
290
     0
  0
SCALE
  5
67
102
{ACAD_REACTORS
330
47
102
}
330
47
100
AcDbScale
 70
     0
300
6" = 1'-0"
140
6.0
141
12.0
290
     0
  0
SCALE
  5
68
102
{ACAD_REACTORS
330
47
102
}
330
47
100
AcDbScale
 70
     0
300
1'-0" = 1'-0"
140
12.0
141
12.0
290
     0
  0
ENDSEC
  0
EOF
