999
DXF created by Inkscape
  0
SECTION
  2
HEADER
  9
$ACADVER
  1
AC1014
  9
$HANDSEED
  5
FFFF
  9
$MEASUREMENT
 70
     1
  0
ENDSEC
  0
SECTION
  2
TABLES
  0
TABLE
  2
VPORT
  5
8
330
0
100
AcDbSymbolTable
 70
     4
  0
VPORT
  5
2E
330
8
100
AcDbSymbolTableRecord
100
AcDbViewportTableRecord
  2
*ACTIVE
 70
     0
 10
0.0
 20
0.0
 11
1.0
 21
1.0
 12
210.0
 22
148.5
 13
0.0
 23
0.0
 14
10.0
 24
10.0
 15
10.0
 25
10.0
 16
0.0
 26
0.0
 36
1.0
 17
0.0
 27
0.0
 37
0.0
 40
341.0
 41
1.24
 42
50.0
 43
0.0
 44
0.0
 50
0.0
 51
0.0
 71
     0
 72
   100
 73
     1
 74
     3
 75
     0
 76
     0
 77
     0
 78
     0
  0
ENDTAB
  0
TABLE
  2
LTYPE
  5
5
330
0
100
AcDbSymbolTable
 70
     1
  0
LTYPE
  5
14
330
5
100
AcDbSymbolTableRecord
100
AcDbLinetypeTableRecord
  2
BYBLOCK
 70
     0
  3

 72
    65
 73
     0
 40
0.0
  0
LTYPE
  5
15
330
5
100
AcDbSymbolTableRecord
100
AcDbLinetypeTableRecord
  2
BYLAYER
 70
     0
  3

 72
    65
 73
     0
 40
0.0
  0
LTYPE
  5
16
330
5
100
AcDbSymbolTableRecord
100
AcDbLinetypeTableRecord
  2
CONTINUOUS
 70
     0
  3
Solid line
 72
    65
 73
     0
 40
0.0
  0
ENDTAB
  0
TABLE
  2
LAYER
  5
2
100
AcDbSymbolTable
 70
2
  0
LAYER
  5
50
100
AcDbSymbolTableRecord
100
AcDbLayerTableRecord
  2
0
 70
0
  6
CONTINUOUS
  0
LAYER
  5
51
100
AcDbSymbolTableRecord
100
AcDbLayerTableRecord
  2
Layer_1
 70
0
  6
CONTINUOUS
  0
ENDTAB
  0
TABLE
  2
STYLE
  5
3
330
0
100
AcDbSymbolTable
 70
     1
  0
STYLE
  5
11
330
3
100
AcDbSymbolTableRecord
100
AcDbTextStyleTableRecord
  2
STANDARD
 70
     0
 40
0.0
 41
1.0
 50
0.0
 71
     0
 42
2.5
  3
txt
  4

  0
ENDTAB
  0
TABLE
  2
VIEW
  5
6
330
0
100
AcDbSymbolTable
 70
     0
  0
ENDTAB
  0
TABLE
  2
UCS
  5
7
330
0
100
AcDbSymbolTable
 70
     0
  0
ENDTAB
  0
TABLE
  2
APPID
  5
9
330
0
100
AcDbSymbolTable
 70
     2
  0
APPID
  5
12
330
9
100
AcDbSymbolTableRecord
100
AcDbRegAppTableRecord
  2
ACAD
 70
     0
  0
ENDTAB
  0
TABLE
  2
DIMSTYLE
  5
A
330
0
100
AcDbSymbolTable
 70
     1
  0
DIMSTYLE
105
27
330
A
100
AcDbSymbolTableRecord
100
AcDbDimStyleTableRecord
  2
ISO-25
 70
     0
  3

  4

  5

  6

  7

 40
1.0
 41
2.5
 42
0.625
 43
3.75
 44
1.25
 45
0.0
 46
0.0
 47
0.0
 48
0.0
140
2.5
141
2.5
142
0.0
143
0.03937007874016
144
1.0
145
0.0
146
1.0
147
0.625
 71
     0
 72
     0
 73
     0
 74
     0
 75
     0
 76
     0
 77
     1
 78
     8
170
     0
171
     3
172
     1
173
     0
174
     0
175
     0
176
     0
177
     0
178
     0
270
     2
271
     2
272
     2
273
     2
274
     3
340
11
275
     0
280
     0
281
     0
282
     0
283
     0
284
     8
285
     0
286
     0
287
     3
288
     0
  0
ENDTAB
  0
TABLE
  2
BLOCK_RECORD
  5
1
330
0
100
AcDbSymbolTable
 70
     1
  0
BLOCK_RECORD
  5
1F
330
1
100
AcDbSymbolTableRecord
100
AcDbBlockTableRecord
  2
*MODEL_SPACE
  0
BLOCK_RECORD
  5
1B
330
1
100
AcDbSymbolTableRecord
100
AcDbBlockTableRecord
  2
*PAPER_SPACE
  0
ENDTAB
  0
ENDSEC
  0
SECTION
  2
BLOCKS
  0
BLOCK
  5
20
330
1F
100
AcDbEntity
  8
0
100
AcDbBlockBegin
  2
*MODEL_SPACE
 70
     0
 10
0.0
 20
0.0
 30
0.0
  3
*MODEL_SPACE
  1

  0
ENDBLK
  5
21
330
1F
100
AcDbEntity
  8
0
100
AcDbBlockEnd
  0
BLOCK
  5
1C
330
1B
100
AcDbEntity
 67
     1
  8
0
100
AcDbBlockBegin
  2
*PAPER_SPACE
  1

  0
ENDBLK
  5
1D
330
1B
100
AcDbEntity
 67
     1
  8
0
100
AcDbBlockEnd
  0
ENDSEC
  0
SECTION
  2
ENTITIES
  0
SPLINE
  5
100
100
AcDbEntity
  8
Layer_1
 62
1
100
AcDbSpline
 70
8
 71
3
 72
8
 73
4
 74
0
 40
0
 40
0
 40
0
 40
0
 40
1
 40
1
 40
1
 40
1
 10
18.961160
 20
273.536297
 30
0.0
 10
18.961160
 20
272.155585
 30
0.0
 10
17.841856
 20
271.036298
 30
0.0
 10
16.461124
 20
271.036298
 30
0.0
  0
SPLINE
  5
101
100
AcDbEntity
  8
Layer_1
 62
1
100
AcDbSpline
 70
8
 71
3
 72
8
 73
4
 74
0
 40
0
 40
0
 40
0
 40
0
 40
1
 40
1
 40
1
 40
1
 10
16.461124
 20
271.036298
 30
0.0
 10
15.080392
 20
271.036298
 30
0.0
 10
13.961087
 20
272.155585
 30
0.0
 10
13.961087
 20
273.536297
 30
0.0
  0
SPLINE
  5
102
100
AcDbEntity
  8
Layer_1
 62
1
100
AcDbSpline
 70
8
 71
3
 72
8
 73
4
 74
0
 40
0
 40
0
 40
0
 40
0
 40
1
 40
1
 40
1
 40
1
 10
13.961087
 20
273.536297
 30
0.0
 10
13.961087
 20
274.917008
 30
0.0
 10
15.080392
 20
276.036296
 30
0.0
 10
16.461124
 20
276.036296
 30
0.0
  0
SPLINE
  5
103
100
AcDbEntity
  8
Layer_1
 62
1
100
AcDbSpline
 70
8
 71
3
 72
8
 73
4
 74
0
 40
0
 40
0
 40
0
 40
0
 40
1
 40
1
 40
1
 40
1
 10
16.461124
 20
276.036296
 30
0.0
 10
17.841856
 20
276.036296
 30
0.0
 10
18.961160
 20
274.917008
 30
0.0
 10
18.961160
 20
273.536297
 30
0.0
  0
LWPOLYLINE
  5
104
100
AcDbEntity
  8
Layer_1
 62
1
100
AcDbPolyline
 90
5
 70
0
 10
10.802570
 20
278.649476
 30
0.0
 10
201.284276
 20
278.649476
 30
0.0
 10
201.284276
 20
148.830225
 30
0.0
 10
10.802570
 20
148.830225
 30
0.0
 10
10.802570
 20
278.649476
 30
0.0
  0
SPLINE
  5
105
100
AcDbEntity
  8
Layer_1
 62
1
100
AcDbSpline
 70
8
 71
3
 72
8
 73
4
 74
0
 40
0
 40
0
 40
0
 40
0
 40
1
 40
1
 40
1
 40
1
 10
198.421500
 20
273.324463
 30
0.0
 10
198.421500
 20
271.943752
 30
0.0
 10
197.302196
 20
270.824464
 30
0.0
 10
195.921464
 20
270.824464
 30
0.0
  0
SPLINE
  5
106
100
AcDbEntity
  8
Layer_1
 62
1
100
AcDbSpline
 70
8
 71
3
 72
8
 73
4
 74
0
 40
0
 40
0
 40
0
 40
0
 40
1
 40
1
 40
1
 40
1
 10
195.921464
 20
270.824464
 30
0.0
 10
194.540732
 20
270.824464
 30
0.0
 10
193.421428
 20
271.943752
 30
0.0
 10
193.421428
 20
273.324463
 30
0.0
  0
SPLINE
  5
107
100
AcDbEntity
  8
Layer_1
 62
1
100
AcDbSpline
 70
8
 71
3
 72
8
 73
4
 74
0
 40
0
 40
0
 40
0
 40
0
 40
1
 40
1
 40
1
 40
1
 10
193.421428
 20
273.324463
 30
0.0
 10
193.421428
 20
274.705175
 30
0.0
 10
194.540732
 20
275.824463
 30
0.0
 10
195.921464
 20
275.824463
 30
0.0
  0
SPLINE
  5
108
100
AcDbEntity
  8
Layer_1
 62
1
100
AcDbSpline
 70
8
 71
3
 72
8
 73
4
 74
0
 40
0
 40
0
 40
0
 40
0
 40
1
 40
1
 40
1
 40
1
 10
195.921464
 20
275.824463
 30
0.0
 10
197.302196
 20
275.824463
 30
0.0
 10
198.421500
 20
274.705175
 30
0.0
 10
198.421500
 20
273.324463
 30
0.0
  0
LWPOLYLINE
  5
109
100
AcDbEntity
  8
Layer_1
 62
1
100
AcDbPolyline
 90
2
 70
0
 10
18.961160
 20
273.536297
 30
0.0
 10
18.961160
 20
273.536297
 30
0.0
  0
SPLINE
  5
10a
100
AcDbEntity
  8
Layer_1
 62
1
100
AcDbSpline
 70
8
 71
3
 72
8
 73
4
 74
0
 40
0
 40
0
 40
0
 40
0
 40
1
 40
1
 40
1
 40
1
 10
18.965488
 20
154.002624
 30
0.0
 10
18.965488
 20
152.621912
 30
0.0
 10
17.846184
 20
151.502624
 30
0.0
 10
16.465452
 20
151.502624
 30
0.0
  0
SPLINE
  5
10b
100
AcDbEntity
  8
Layer_1
 62
1
100
AcDbSpline
 70
8
 71
3
 72
8
 73
4
 74
0
 40
0
 40
0
 40
0
 40
0
 40
1
 40
1
 40
1
 40
1
 10
16.465452
 20
151.502624
 30
0.0
 10
15.084720
 20
151.502624
 30
0.0
 10
13.965416
 20
152.621912
 30
0.0
 10
13.965416
 20
154.002624
 30
0.0
  0
SPLINE
  5
10c
100
AcDbEntity
  8
Layer_1
 62
1
100
AcDbSpline
 70
8
 71
3
 72
8
 73
4
 74
0
 40
0
 40
0
 40
0
 40
0
 40
1
 40
1
 40
1
 40
1
 10
13.965416
 20
154.002624
 30
0.0
 10
13.965416
 20
155.383335
 30
0.0
 10
15.084720
 20
156.502623
 30
0.0
 10
16.465452
 20
156.502623
 30
0.0
  0
SPLINE
  5
10d
100
AcDbEntity
  8
Layer_1
 62
1
100
AcDbSpline
 70
8
 71
3
 72
8
 73
4
 74
0
 40
0
 40
0
 40
0
 40
0
 40
1
 40
1
 40
1
 40
1
 10
16.465452
 20
156.502623
 30
0.0
 10
17.846184
 20
156.502623
 30
0.0
 10
18.965488
 20
155.383335
 30
0.0
 10
18.965488
 20
154.002624
 30
0.0
  0
LWPOLYLINE
  5
10e
100
AcDbEntity
  8
Layer_1
 62
1
100
AcDbPolyline
 90
2
 70
0
 10
198.421500
 20
273.324463
 30
0.0
 10
198.421500
 20
273.324463
 30
0.0
  0
SPLINE
  5
10f
100
AcDbEntity
  8
Layer_1
 62
1
100
AcDbSpline
 70
8
 71
3
 72
8
 73
4
 74
0
 40
0
 40
0
 40
0
 40
0
 40
1
 40
1
 40
1
 40
1
 10
198.425827
 20
153.790791
 30
0.0
 10
198.425827
 20
152.410079
 30
0.0
 10
197.306522
 20
151.290791
 30
0.0
 10
195.925790
 20
151.290791
 30
0.0
  0
SPLINE
  5
110
100
AcDbEntity
  8
Layer_1
 62
1
100
AcDbSpline
 70
8
 71
3
 72
8
 73
4
 74
0
 40
0
 40
0
 40
0
 40
0
 40
1
 40
1
 40
1
 40
1
 10
195.925790
 20
151.290791
 30
0.0
 10
194.545059
 20
151.290791
 30
0.0
 10
193.425754
 20
152.410079
 30
0.0
 10
193.425754
 20
153.790791
 30
0.0
  0
SPLINE
  5
111
100
AcDbEntity
  8
Layer_1
 62
1
100
AcDbSpline
 70
8
 71
3
 72
8
 73
4
 74
0
 40
0
 40
0
 40
0
 40
0
 40
1
 40
1
 40
1
 40
1
 10
193.425754
 20
153.790791
 30
0.0
 10
193.425754
 20
155.171502
 30
0.0
 10
194.545059
 20
156.290790
 30
0.0
 10
195.925790
 20
156.290790
 30
0.0
  0
SPLINE
  5
112
100
AcDbEntity
  8
Layer_1
 62
1
100
AcDbSpline
 70
8
 71
3
 72
8
 73
4
 74
0
 40
0
 40
0
 40
0
 40
0
 40
1
 40
1
 40
1
 40
1
 10
195.925790
 20
156.290790
 30
0.0
 10
197.306522
 20
156.290790
 30
0.0
 10
198.425827
 20
155.171502
 30
0.0
 10
198.425827
 20
153.790791
 30
0.0
  0
LWPOLYLINE
  5
113
100
AcDbEntity
  8
Layer_1
 62
1
100
AcDbPolyline
 90
2
 70
0
 10
18.965488
 20
154.002624
 30
0.0
 10
18.965488
 20
154.002624
 30
0.0
  0
LWPOLYLINE
  5
114
100
AcDbEntity
  8
Layer_1
 62
1
100
AcDbPolyline
 90
2
 70
0
 10
198.425827
 20
153.790791
 30
0.0
 10
198.425827
 20
153.790791
 30
0.0
  0
SPLINE
  5
115
100
AcDbEntity
  8
Layer_1
 62
1
100
AcDbSpline
 70
8
 71
3
 72
8
 73
4
 74
0
 40
0
 40
0
 40
0
 40
0
 40
1
 40
1
 40
1
 40
1
 10
18.672497
 20
133.266091
 30
0.0
 10
18.672497
 20
131.885379
 30
0.0
 10
17.553193
 20
130.766092
 30
0.0
 10
16.172461
 20
130.766092
 30
0.0
  0
SPLINE
  5
116
100
AcDbEntity
  8
Layer_1
 62
1
100
AcDbSpline
 70
8
 71
3
 72
8
 73
4
 74
0
 40
0
 40
0
 40
0
 40
0
 40
1
 40
1
 40
1
 40
1
 10
16.172461
 20
130.766092
 30
0.0
 10
14.791729
 20
130.766092
 30
0.0
 10
13.672425
 20
131.885379
 30
0.0
 10
13.672425
 20
133.266091
 30
0.0
  0
SPLINE
  5
117
100
AcDbEntity
  8
Layer_1
 62
1
100
AcDbSpline
 70
8
 71
3
 72
8
 73
4
 74
0
 40
0
 40
0
 40
0
 40
0
 40
1
 40
1
 40
1
 40
1
 10
13.672425
 20
133.266091
 30
0.0
 10
13.672425
 20
134.646802
 30
0.0
 10
14.791729
 20
135.766090
 30
0.0
 10
16.172461
 20
135.766090
 30
0.0
  0
SPLINE
  5
118
100
AcDbEntity
  8
Layer_1
 62
1
100
AcDbSpline
 70
8
 71
3
 72
8
 73
4
 74
0
 40
0
 40
0
 40
0
 40
0
 40
1
 40
1
 40
1
 40
1
 10
16.172461
 20
135.766090
 30
0.0
 10
17.553193
 20
135.766090
 30
0.0
 10
18.672497
 20
134.646802
 30
0.0
 10
18.672497
 20
133.266091
 30
0.0
  0
LWPOLYLINE
  5
119
100
AcDbEntity
  8
Layer_1
 62
1
100
AcDbPolyline
 90
5
 70
0
 10
10.513907
 20
138.379270
 30
0.0
 10
200.995613
 20
138.379270
 30
0.0
 10
200.995613
 20
8.560019
 30
0.0
 10
10.513907
 20
8.560019
 30
0.0
 10
10.513907
 20
138.379270
 30
0.0
  0
SPLINE
  5
11a
100
AcDbEntity
  8
Layer_1
 62
1
100
AcDbSpline
 70
8
 71
3
 72
8
 73
4
 74
0
 40
0
 40
0
 40
0
 40
0
 40
1
 40
1
 40
1
 40
1
 10
198.132838
 20
133.054257
 30
0.0
 10
198.132838
 20
131.673546
 30
0.0
 10
197.013533
 20
130.554258
 30
0.0
 10
195.632801
 20
130.554258
 30
0.0
  0
SPLINE
  5
11b
100
AcDbEntity
  8
Layer_1
 62
1
100
AcDbSpline
 70
8
 71
3
 72
8
 73
4
 74
0
 40
0
 40
0
 40
0
 40
0
 40
1
 40
1
 40
1
 40
1
 10
195.632801
 20
130.554258
 30
0.0
 10
194.252070
 20
130.554258
 30
0.0
 10
193.132765
 20
131.673546
 30
0.0
 10
193.132765
 20
133.054257
 30
0.0
  0
SPLINE
  5
11c
100
AcDbEntity
  8
Layer_1
 62
1
100
AcDbSpline
 70
8
 71
3
 72
8
 73
4
 74
0
 40
0
 40
0
 40
0
 40
0
 40
1
 40
1
 40
1
 40
1
 10
193.132765
 20
133.054257
 30
0.0
 10
193.132765
 20
134.434969
 30
0.0
 10
194.252070
 20
135.554257
 30
0.0
 10
195.632801
 20
135.554257
 30
0.0
  0
SPLINE
  5
11d
100
AcDbEntity
  8
Layer_1
 62
1
100
AcDbSpline
 70
8
 71
3
 72
8
 73
4
 74
0
 40
0
 40
0
 40
0
 40
0
 40
1
 40
1
 40
1
 40
1
 10
195.632801
 20
135.554257
 30
0.0
 10
197.013533
 20
135.554257
 30
0.0
 10
198.132838
 20
134.434969
 30
0.0
 10
198.132838
 20
133.054257
 30
0.0
  0
LWPOLYLINE
  5
11e
100
AcDbEntity
  8
Layer_1
 62
1
100
AcDbPolyline
 90
2
 70
0
 10
18.672497
 20
133.266091
 30
0.0
 10
18.672497
 20
133.266091
 30
0.0
  0
SPLINE
  5
11f
100
AcDbEntity
  8
Layer_1
 62
1
100
AcDbSpline
 70
8
 71
3
 72
8
 73
4
 74
0
 40
0
 40
0
 40
0
 40
0
 40
1
 40
1
 40
1
 40
1
 10
18.676825
 20
13.732418
 30
0.0
 10
18.676825
 20
12.351706
 30
0.0
 10
17.557521
 20
11.232418
 30
0.0
 10
16.176789
 20
11.232418
 30
0.0
  0
SPLINE
  5
120
100
AcDbEntity
  8
Layer_1
 62
1
100
AcDbSpline
 70
8
 71
3
 72
8
 73
4
 74
0
 40
0
 40
0
 40
0
 40
0
 40
1
 40
1
 40
1
 40
1
 10
16.176789
 20
11.232418
 30
0.0
 10
14.796057
 20
11.232418
 30
0.0
 10
13.676753
 20
12.351706
 30
0.0
 10
13.676753
 20
13.732418
 30
0.0
  0
SPLINE
  5
121
100
AcDbEntity
  8
Layer_1
 62
1
100
AcDbSpline
 70
8
 71
3
 72
8
 73
4
 74
0
 40
0
 40
0
 40
0
 40
0
 40
1
 40
1
 40
1
 40
1
 10
13.676753
 20
13.732418
 30
0.0
 10
13.676753
 20
15.113129
 30
0.0
 10
14.796057
 20
16.232417
 30
0.0
 10
16.176789
 20
16.232417
 30
0.0
  0
SPLINE
  5
122
100
AcDbEntity
  8
Layer_1
 62
1
100
AcDbSpline
 70
8
 71
3
 72
8
 73
4
 74
0
 40
0
 40
0
 40
0
 40
0
 40
1
 40
1
 40
1
 40
1
 10
16.176789
 20
16.232417
 30
0.0
 10
17.557521
 20
16.232417
 30
0.0
 10
18.676825
 20
15.113129
 30
0.0
 10
18.676825
 20
13.732418
 30
0.0
  0
LWPOLYLINE
  5
123
100
AcDbEntity
  8
Layer_1
 62
1
100
AcDbPolyline
 90
2
 70
0
 10
198.132838
 20
133.054257
 30
0.0
 10
198.132838
 20
133.054257
 30
0.0
  0
SPLINE
  5
124
100
AcDbEntity
  8
Layer_1
 62
1
100
AcDbSpline
 70
8
 71
3
 72
8
 73
4
 74
0
 40
0
 40
0
 40
0
 40
0
 40
1
 40
1
 40
1
 40
1
 10
198.137164
 20
13.520585
 30
0.0
 10
198.137164
 20
12.139873
 30
0.0
 10
197.017860
 20
11.020585
 30
0.0
 10
195.637128
 20
11.020585
 30
0.0
  0
SPLINE
  5
125
100
AcDbEntity
  8
Layer_1
 62
1
100
AcDbSpline
 70
8
 71
3
 72
8
 73
4
 74
0
 40
0
 40
0
 40
0
 40
0
 40
1
 40
1
 40
1
 40
1
 10
195.637128
 20
11.020585
 30
0.0
 10
194.256396
 20
11.020585
 30
0.0
 10
193.137092
 20
12.139873
 30
0.0
 10
193.137092
 20
13.520585
 30
0.0
  0
SPLINE
  5
126
100
AcDbEntity
  8
Layer_1
 62
1
100
AcDbSpline
 70
8
 71
3
 72
8
 73
4
 74
0
 40
0
 40
0
 40
0
 40
0
 40
1
 40
1
 40
1
 40
1
 10
193.137092
 20
13.520585
 30
0.0
 10
193.137092
 20
14.901296
 30
0.0
 10
194.256396
 20
16.020584
 30
0.0
 10
195.637128
 20
16.020584
 30
0.0
  0
SPLINE
  5
127
100
AcDbEntity
  8
Layer_1
 62
1
100
AcDbSpline
 70
8
 71
3
 72
8
 73
4
 74
0
 40
0
 40
0
 40
0
 40
0
 40
1
 40
1
 40
1
 40
1
 10
195.637128
 20
16.020584
 30
0.0
 10
197.017860
 20
16.020584
 30
0.0
 10
198.137164
 20
14.901296
 30
0.0
 10
198.137164
 20
13.520585
 30
0.0
  0
LWPOLYLINE
  5
128
100
AcDbEntity
  8
Layer_1
 62
1
100
AcDbPolyline
 90
2
 70
0
 10
18.676825
 20
13.732418
 30
0.0
 10
18.676825
 20
13.732418
 30
0.0
  0
SPLINE
  5
129
100
AcDbEntity
  8
Layer_1
 62
7
100
AcDbSpline
 70
8
 71
3
 72
8
 73
4
 74
0
 40
0
 40
0
 40
0
 40
0
 40
1
 40
1
 40
1
 40
1
 10
191.947791
 20
259.101309
 30
0.0
 10
191.947791
 20
255.304283
 30
0.0
 10
189.922102
 20
251.795687
 30
0.0
 10
186.633782
 20
249.897174
 30
0.0
  0
SPLINE
  5
12a
100
AcDbEntity
  8
Layer_1
 62
7
100
AcDbSpline
 70
8
 71
3
 72
8
 73
4
 74
0
 40
0
 40
0
 40
0
 40
0
 40
1
 40
1
 40
1
 40
1
 10
186.633782
 20
249.897174
 30
0.0
 10
183.345461
 20
247.998661
 30
0.0
 10
179.294084
 20
247.998661
 30
0.0
 10
176.005763
 20
249.897174
 30
0.0
  0
SPLINE
  5
12b
100
AcDbEntity
  8
Layer_1
 62
7
100
AcDbSpline
 70
8
 71
3
 72
8
 73
4
 74
0
 40
0
 40
0
 40
0
 40
0
 40
1
 40
1
 40
1
 40
1
 10
176.005763
 20
249.897174
 30
0.0
 10
172.717443
 20
251.795687
 30
0.0
 10
170.691754
 20
255.304283
 30
0.0
 10
170.691754
 20
259.101309
 30
0.0
  0
SPLINE
  5
12c
100
AcDbEntity
  8
Layer_1
 62
7
100
AcDbSpline
 70
8
 71
3
 72
8
 73
4
 74
0
 40
0
 40
0
 40
0
 40
0
 40
1
 40
1
 40
1
 40
1
 10
170.691754
 20
259.101309
 30
0.0
 10
170.691754
 20
262.898334
 30
0.0
 10
172.717443
 20
266.406931
 30
0.0
 10
176.005764
 20
268.305444
 30
0.0
  0
SPLINE
  5
12d
100
AcDbEntity
  8
Layer_1
 62
7
100
AcDbSpline
 70
8
 71
3
 72
8
 73
4
 74
0
 40
0
 40
0
 40
0
 40
0
 40
1
 40
1
 40
1
 40
1
 10
176.005764
 20
268.305444
 30
0.0
 10
179.294084
 20
270.203956
 30
0.0
 10
183.345462
 20
270.203956
 30
0.0
 10
186.633782
 20
268.305444
 30
0.0
  0
SPLINE
  5
12e
100
AcDbEntity
  8
Layer_1
 62
7
100
AcDbSpline
 70
8
 71
3
 72
8
 73
4
 74
0
 40
0
 40
0
 40
0
 40
0
 40
1
 40
1
 40
1
 40
1
 10
186.633782
 20
268.305444
 30
0.0
 10
189.922103
 20
266.406931
 30
0.0
 10
191.947792
 20
262.898334
 30
0.0
 10
191.947792
 20
259.101309
 30
0.0
  0
LWPOLYLINE
  5
12f
100
AcDbEntity
  8
Layer_1
 62
1
100
AcDbPolyline
 90
2
 70
0
 10
198.137164
 20
13.520585
 30
0.0
 10
198.137164
 20
13.520585
 30
0.0
  0
SPLINE
  5
130
100
AcDbEntity
  8
Layer_1
 62
7
100
AcDbSpline
 70
8
 71
3
 72
8
 73
4
 74
0
 40
0
 40
0
 40
0
 40
0
 40
1
 40
1
 40
1
 40
1
 10
141.994447
 20
208.865753
 30
0.0
 10
141.994447
 20
205.068728
 30
0.0
 10
139.968758
 20
201.560131
 30
0.0
 10
136.680437
 20
199.661619
 30
0.0
  0
SPLINE
  5
131
100
AcDbEntity
  8
Layer_1
 62
7
100
AcDbSpline
 70
8
 71
3
 72
8
 73
4
 74
0
 40
0
 40
0
 40
0
 40
0
 40
1
 40
1
 40
1
 40
1
 10
136.680437
 20
199.661619
 30
0.0
 10
133.392117
 20
197.763106
 30
0.0
 10
129.340739
 20
197.763106
 30
0.0
 10
126.052418
 20
199.661619
 30
0.0
  0
SPLINE
  5
132
100
AcDbEntity
  8
Layer_1
 62
7
100
AcDbSpline
 70
8
 71
3
 72
8
 73
4
 74
0
 40
0
 40
0
 40
0
 40
0
 40
1
 40
1
 40
1
 40
1
 10
126.052418
 20
199.661619
 30
0.0
 10
122.764098
 20
201.560131
 30
0.0
 10
120.738409
 20
205.068728
 30
0.0
 10
120.738410
 20
208.865753
 30
0.0
  0
SPLINE
  5
133
100
AcDbEntity
  8
Layer_1
 62
7
100
AcDbSpline
 70
8
 71
3
 72
8
 73
4
 74
0
 40
0
 40
0
 40
0
 40
0
 40
1
 40
1
 40
1
 40
1
 10
120.738410
 20
208.865753
 30
0.0
 10
120.738410
 20
212.662779
 30
0.0
 10
122.764099
 20
216.171375
 30
0.0
 10
126.052419
 20
218.069888
 30
0.0
  0
SPLINE
  5
134
100
AcDbEntity
  8
Layer_1
 62
7
100
AcDbSpline
 70
8
 71
3
 72
8
 73
4
 74
0
 40
0
 40
0
 40
0
 40
0
 40
1
 40
1
 40
1
 40
1
 10
126.052419
 20
218.069888
 30
0.0
 10
129.340740
 20
219.968401
 30
0.0
 10
133.392117
 20
219.968401
 30
0.0
 10
136.680438
 20
218.069888
 30
0.0
  0
SPLINE
  5
135
100
AcDbEntity
  8
Layer_1
 62
7
100
AcDbSpline
 70
8
 71
3
 72
8
 73
4
 74
0
 40
0
 40
0
 40
0
 40
0
 40
1
 40
1
 40
1
 40
1
 10
136.680438
 20
218.069888
 30
0.0
 10
139.968758
 20
216.171375
 30
0.0
 10
141.994447
 20
212.662779
 30
0.0
 10
141.994447
 20
208.865753
 30
0.0
  0
LWPOLYLINE
  5
136
100
AcDbEntity
  8
Layer_1
 62
7
100
AcDbPolyline
 90
2
 70
0
 10
191.947792
 20
259.101309
 30
0.0
 10
191.947792
 20
259.101309
 30
0.0
  0
SPLINE
  5
137
100
AcDbEntity
  8
Layer_1
 62
7
100
AcDbSpline
 70
8
 71
3
 72
8
 73
4
 74
0
 40
0
 40
0
 40
0
 40
0
 40
1
 40
1
 40
1
 40
1
 10
71.721127
 20
169.072420
 30
0.0
 10
71.721127
 20
165.275394
 30
0.0
 10
69.695438
 20
161.766798
 30
0.0
 10
66.407118
 20
159.868285
 30
0.0
  0
SPLINE
  5
138
100
AcDbEntity
  8
Layer_1
 62
7
100
AcDbSpline
 70
8
 71
3
 72
8
 73
4
 74
0
 40
0
 40
0
 40
0
 40
0
 40
1
 40
1
 40
1
 40
1
 10
66.407118
 20
159.868285
 30
0.0
 10
63.118798
 20
157.969772
 30
0.0
 10
59.067420
 20
157.969772
 30
0.0
 10
55.779099
 20
159.868285
 30
0.0
  0
SPLINE
  5
139
100
AcDbEntity
  8
Layer_1
 62
7
100
AcDbSpline
 70
8
 71
3
 72
8
 73
4
 74
0
 40
0
 40
0
 40
0
 40
0
 40
1
 40
1
 40
1
 40
1
 10
55.779099
 20
159.868285
 30
0.0
 10
52.490779
 20
161.766798
 30
0.0
 10
50.465090
 20
165.275394
 30
0.0
 10
50.465090
 20
169.072420
 30
0.0
  0
SPLINE
  5
13a
100
AcDbEntity
  8
Layer_1
 62
7
100
AcDbSpline
 70
8
 71
3
 72
8
 73
4
 74
0
 40
0
 40
0
 40
0
 40
0
 40
1
 40
1
 40
1
 40
1
 10
50.465090
 20
169.072420
 30
0.0
 10
50.465090
 20
172.869446
 30
0.0
 10
52.490779
 20
176.378042
 30
0.0
 10
55.779100
 20
178.276555
 30
0.0
  0
SPLINE
  5
13b
100
AcDbEntity
  8
Layer_1
 62
7
100
AcDbSpline
 70
8
 71
3
 72
8
 73
4
 74
0
 40
0
 40
0
 40
0
 40
0
 40
1
 40
1
 40
1
 40
1
 10
55.779100
 20
178.276555
 30
0.0
 10
59.067420
 20
180.175067
 30
0.0
 10
63.118798
 20
180.175067
 30
0.0
 10
66.407119
 20
178.276555
 30
0.0
  0
SPLINE
  5
13c
100
AcDbEntity
  8
Layer_1
 62
7
100
AcDbSpline
 70
8
 71
3
 72
8
 73
4
 74
0
 40
0
 40
0
 40
0
 40
0
 40
1
 40
1
 40
1
 40
1
 10
66.407119
 20
178.276555
 30
0.0
 10
69.695439
 20
176.378042
 30
0.0
 10
71.721128
 20
172.869446
 30
0.0
 10
71.721128
 20
169.072420
 30
0.0
  0
LWPOLYLINE
  5
13d
100
AcDbEntity
  8
Layer_1
 62
7
100
AcDbPolyline
 90
2
 70
0
 10
141.994447
 20
208.865753
 30
0.0
 10
141.994448
 20
208.865753
 30
0.0
  0
SPLINE
  5
13e
100
AcDbEntity
  8
Layer_1
 62
7
100
AcDbSpline
 70
8
 71
3
 72
8
 73
4
 74
0
 40
0
 40
0
 40
0
 40
0
 40
1
 40
1
 40
1
 40
1
 10
101.354458
 20
117.707976
 30
0.0
 10
101.354458
 20
113.910950
 30
0.0
 10
99.328769
 20
110.402354
 30
0.0
 10
96.040449
 20
108.503841
 30
0.0
  0
SPLINE
  5
13f
100
AcDbEntity
  8
Layer_1
 62
7
100
AcDbSpline
 70
8
 71
3
 72
8
 73
4
 74
0
 40
0
 40
0
 40
0
 40
0
 40
1
 40
1
 40
1
 40
1
 10
96.040449
 20
108.503841
 30
0.0
 10
92.752128
 20
106.605328
 30
0.0
 10
88.700750
 20
106.605328
 30
0.0
 10
85.412430
 20
108.503841
 30
0.0
  0
SPLINE
  5
140
100
AcDbEntity
  8
Layer_1
 62
7
100
AcDbSpline
 70
8
 71
3
 72
8
 73
4
 74
0
 40
0
 40
0
 40
0
 40
0
 40
1
 40
1
 40
1
 40
1
 10
85.412430
 20
108.503841
 30
0.0
 10
82.124109
 20
110.402354
 30
0.0
 10
80.098420
 20
113.910950
 30
0.0
 10
80.098421
 20
117.707976
 30
0.0
  0
SPLINE
  5
141
100
AcDbEntity
  8
Layer_1
 62
7
100
AcDbSpline
 70
8
 71
3
 72
8
 73
4
 74
0
 40
0
 40
0
 40
0
 40
0
 40
1
 40
1
 40
1
 40
1
 10
80.098421
 20
117.707976
 30
0.0
 10
80.098421
 20
121.505001
 30
0.0
 10
82.124110
 20
125.013597
 30
0.0
 10
85.412430
 20
126.912110
 30
0.0
  0
SPLINE
  5
142
100
AcDbEntity
  8
Layer_1
 62
7
100
AcDbSpline
 70
8
 71
3
 72
8
 73
4
 74
0
 40
0
 40
0
 40
0
 40
0
 40
1
 40
1
 40
1
 40
1
 10
85.412430
 20
126.912110
 30
0.0
 10
88.700751
 20
128.810623
 30
0.0
 10
92.752129
 20
128.810623
 30
0.0
 10
96.040449
 20
126.912110
 30
0.0
  0
SPLINE
  5
143
100
AcDbEntity
  8
Layer_1
 62
7
100
AcDbSpline
 70
8
 71
3
 72
8
 73
4
 74
0
 40
0
 40
0
 40
0
 40
0
 40
1
 40
1
 40
1
 40
1
 10
96.040449
 20
126.912110
 30
0.0
 10
99.328770
 20
125.013597
 30
0.0
 10
101.354459
 20
121.505001
 30
0.0
 10
101.354459
 20
117.707976
 30
0.0
  0
LWPOLYLINE
  5
144
100
AcDbEntity
  8
Layer_1
 62
7
100
AcDbPolyline
 90
2
 70
0
 10
71.721128
 20
169.072420
 30
0.0
 10
71.721129
 20
169.072420
 30
0.0
  0
SPLINE
  5
145
100
AcDbEntity
  8
Layer_1
 62
7
100
AcDbSpline
 70
8
 71
3
 72
8
 73
4
 74
0
 40
0
 40
0
 40
0
 40
0
 40
1
 40
1
 40
1
 40
1
 10
101.354458
 20
78.196864
 30
0.0
 10
101.354458
 20
74.399839
 30
0.0
 10
99.328769
 20
70.891242
 30
0.0
 10
96.040449
 20
68.992730
 30
0.0
  0
SPLINE
  5
146
100
AcDbEntity
  8
Layer_1
 62
7
100
AcDbSpline
 70
8
 71
3
 72
8
 73
4
 74
0
 40
0
 40
0
 40
0
 40
0
 40
1
 40
1
 40
1
 40
1
 10
96.040449
 20
68.992730
 30
0.0
 10
92.752128
 20
67.094217
 30
0.0
 10
88.700750
 20
67.094217
 30
0.0
 10
85.412430
 20
68.992730
 30
0.0
  0
SPLINE
  5
147
100
AcDbEntity
  8
Layer_1
 62
7
100
AcDbSpline
 70
8
 71
3
 72
8
 73
4
 74
0
 40
0
 40
0
 40
0
 40
0
 40
1
 40
1
 40
1
 40
1
 10
85.412430
 20
68.992730
 30
0.0
 10
82.124109
 20
70.891242
 30
0.0
 10
80.098420
 20
74.399839
 30
0.0
 10
80.098421
 20
78.196864
 30
0.0
  0
SPLINE
  5
148
100
AcDbEntity
  8
Layer_1
 62
7
100
AcDbSpline
 70
8
 71
3
 72
8
 73
4
 74
0
 40
0
 40
0
 40
0
 40
0
 40
1
 40
1
 40
1
 40
1
 10
80.098421
 20
78.196864
 30
0.0
 10
80.098421
 20
81.993890
 30
0.0
 10
82.124110
 20
85.502486
 30
0.0
 10
85.412430
 20
87.400999
 30
0.0
  0
SPLINE
  5
149
100
AcDbEntity
  8
Layer_1
 62
7
100
AcDbSpline
 70
8
 71
3
 72
8
 73
4
 74
0
 40
0
 40
0
 40
0
 40
0
 40
1
 40
1
 40
1
 40
1
 10
85.412430
 20
87.400999
 30
0.0
 10
88.700751
 20
89.299512
 30
0.0
 10
92.752129
 20
89.299512
 30
0.0
 10
96.040449
 20
87.400999
 30
0.0
  0
SPLINE
  5
14a
100
AcDbEntity
  8
Layer_1
 62
7
100
AcDbSpline
 70
8
 71
3
 72
8
 73
4
 74
0
 40
0
 40
0
 40
0
 40
0
 40
1
 40
1
 40
1
 40
1
 10
96.040449
 20
87.400999
 30
0.0
 10
99.328770
 20
85.502486
 30
0.0
 10
101.354459
 20
81.993890
 30
0.0
 10
101.354459
 20
78.196864
 30
0.0
  0
LWPOLYLINE
  5
14b
100
AcDbEntity
  8
Layer_1
 62
7
100
AcDbPolyline
 90
2
 70
0
 10
101.354459
 20
117.707976
 30
0.0
 10
101.354459
 20
117.707976
 30
0.0
  0
LWPOLYLINE
  5
14c
100
AcDbEntity
  8
Layer_1
 62
7
100
AcDbPolyline
 90
2
 70
0
 10
101.354459
 20
78.196864
 30
0.0
 10
101.354459
 20
78.196864
 30
0.0
  0
LWPOLYLINE
  5
14d
100
AcDbEntity
  8
Layer_1
 62
7
100
AcDbPolyline
 90
5
 70
0
 10
110.441667
 20
128.230835
 30
0.0
 10
160.636907
 20
128.230835
 30
0.0
 10
160.636907
 20
88.518138
 30
0.0
 10
110.441667
 20
88.518138
 30
0.0
 10
110.441667
 20
128.230835
 30
0.0
  0
ENDSEC
  0
SECTION
  2
OBJECTS
  0
DICTIONARY
  5
C
330
0
100
AcDbDictionary
  3
ACAD_GROUP
350
D
  3
ACAD_MLINESTYLE
350
17
  0
DICTIONARY
  5
D
330
C
100
AcDbDictionary
  0
DICTIONARY
  5
1A
330
C
100
AcDbDictionary
  0
DICTIONARY
  5
17
330
C
100
AcDbDictionary
  3
STANDARD
350
18
  0
DICTIONARY
  5
19
330
C
100
AcDbDictionary
  0
ENDSEC
  0
EOF
