  0
SECTION
  2
HEADER
  9
$ACADVER
  1
AC1009
  0
ENDSEC
  0
SECTION
  2
ENTITIES
  0
POLYLINE
  5
90
  8
Layer_0
  62
0
  66
1
  10
0
  20
0
  30
0
  0
VERTEX
  5
90
  8
Layer_0
  10
385.94467
  20
161.92087
  0
VERTEX
  5
91
  8
Layer_0
  10
385.94467
  20
223.55652
  0
VERTEX
  5
92
  8
Layer_0
  10
272.66833
  20
223.55653
  0
VERTEX
  5
93
  8
Layer_0
  10
272.6683
  20
161.92087
  0
VERTEX
  5
94
  8
Layer_0
  10
385.94467
  20
161.92087
  0
SEQEND
  0
POLYLINE
  5
96
  8
Layer_0
  62
0
  66
1
  10
0
  20
0
  30
0
  0
VERTEX
  5
96
  8
Layer_0
  10
385.94467
  20
124.16209
  0
VERTEX
  5
97
  8
Layer_0
  10
385.94467
  20
161.92088
  0
VERTEX
  5
98
  8
Layer_0
  10
272.6683
  20
161.92088
  0
VERTEX
  5
99
  8
Layer_0
  10
272.6683
  20
124.16209
  0
VERTEX
  5
9a
  8
Layer_0
  10
385.94467
  20
124.16209
  0
SEQEND
  0
POLYLINE
  5
9c
  8
Layer_0
  62
0
  66
1
  10
0
  20
0
  30
0
  0
VERTEX
  5
9c
  8
Layer_0
  10
202.45229
  20
246.91833
  42
-0.41421356
  0
VERTEX
  5
9d
  8
Layer_0
  10
201.34174
  20
245.80779
  0
VERTEX
  5
9e
  8
Layer_0
  10
194.67841
  20
245.80779
  42
-0.41421356
  0
VERTEX
  5
9f
  8
Layer_0
  10
193.56786
  20
246.91833
  0
VERTEX
  5
a0
  8
Layer_0
  10
193.56786
  20
253.58167
  42
-0.41421356
  0
VERTEX
  5
a1
  8
Layer_0
  10
194.67841
  20
254.69221
  0
VERTEX
  5
a2
  8
Layer_0
  10
201.34174
  20
254.69221
  42
-0.41421356
  0
VERTEX
  5
a3
  8
Layer_0
  10
202.45229
  20
253.58167
  0
VERTEX
  5
a4
  8
Layer_0
  10
202.45229
  20
246.91833
  0
SEQEND
  0
POLYLINE
  5
a6
  8
Layer_0
  62
0
  66
1
  10
0
  20
0
  30
0
  0
VERTEX
  5
a6
  8
Layer_0
  10
222.44228
  20
246.91833
  42
-0.41421356
  0
VERTEX
  5
a7
  8
Layer_0
  10
221.33173
  20
245.80779
  0
VERTEX
  5
a8
  8
Layer_0
  10
214.6684
  20
245.80779
  42
-0.41421356
  0
VERTEX
  5
a9
  8
Layer_0
  10
213.55785
  20
246.91833
  0
VERTEX
  5
aa
  8
Layer_0
  10
213.55785
  20
253.58167
  42
-0.41421356
  0
VERTEX
  5
ab
  8
Layer_0
  10
214.6684
  20
254.69221
  0
VERTEX
  5
ac
  8
Layer_0
  10
221.33173
  20
254.69221
  42
-0.41421356
  0
VERTEX
  5
ad
  8
Layer_0
  10
222.44228
  20
253.58167
  0
VERTEX
  5
ae
  8
Layer_0
  10
222.44228
  20
246.91833
  0
SEQEND
  0
POLYLINE
  5
b0
  8
Layer_0
  62
0
  66
1
  10
0
  20
0
  30
0
  0
VERTEX
  5
b0
  8
Layer_0
  10
242.43214
  20
246.91833
  42
-0.41421356
  0
VERTEX
  5
b1
  8
Layer_0
  10
241.32159
  20
245.80779
  0
VERTEX
  5
b2
  8
Layer_0
  10
234.65826
  20
245.80779
  42
-0.41421356
  0
VERTEX
  5
b3
  8
Layer_0
  10
233.54771
  20
246.91833
  0
VERTEX
  5
b4
  8
Layer_0
  10
233.54771
  20
253.58167
  42
-0.41421356
  0
VERTEX
  5
b5
  8
Layer_0
  10
234.65826
  20
254.69221
  0
VERTEX
  5
b6
  8
Layer_0
  10
241.32159
  20
254.69221
  42
-0.41421356
  0
VERTEX
  5
b7
  8
Layer_0
  10
242.43214
  20
253.58167
  0
VERTEX
  5
b8
  8
Layer_0
  10
242.43214
  20
246.91833
  0
SEQEND
  0
POLYLINE
  5
ba
  8
Layer_0
  62
0
  66
1
  10
0
  20
0
  30
0
  0
VERTEX
  5
ba
  8
Layer_0
  10
252.16768
  20
267.4234
  42
-0.41421356
  0
VERTEX
  5
bb
  8
Layer_0
  10
248.83603
  20
264.09174
  0
VERTEX
  5
bc
  8
Layer_0
  10
135.55966
  20
264.09174
  42
-0.41421356
  0
VERTEX
  5
bd
  8
Layer_0
  10
132.22801
  20
267.4234
  0
VERTEX
  5
be
  8
Layer_0
  10
132.22801
  20
272.78418
  42
-0.41421356
  0
VERTEX
  5
bf
  8
Layer_0
  10
135.55966
  20
276.11584
  0
VERTEX
  5
c0
  8
Layer_0
  10
248.83603
  20
276.11584
  42
-0.41421356
  0
VERTEX
  5
c1
  8
Layer_0
  10
252.16768
  20
272.78418
  0
VERTEX
  5
c2
  8
Layer_0
  10
252.16768
  20
267.4234
  0
SEQEND
  0
POLYLINE
  5
c4
  8
Layer_0
  62
0
  66
1
  10
0
  20
0
  30
0
  0
VERTEX
  5
c4
  8
Layer_0
  10
252.16768
  20
279.44751
  42
-0.41421356
  0
VERTEX
  5
c5
  8
Layer_0
  10
248.83603
  20
276.11584
  0
VERTEX
  5
c6
  8
Layer_0
  10
135.55966
  20
276.11584
  42
-0.41421356
  0
VERTEX
  5
c7
  8
Layer_0
  10
132.22801
  20
279.44751
  0
VERTEX
  5
c8
  8
Layer_0
  10
132.22801
  20
284.80829
  42
-0.41421356
  0
VERTEX
  5
c9
  8
Layer_0
  10
135.55966
  20
288.13995
  0
VERTEX
  5
ca
  8
Layer_0
  10
248.83603
  20
288.13995
  42
-0.41421356
  0
VERTEX
  5
cb
  8
Layer_0
  10
252.16768
  20
284.80829
  0
VERTEX
  5
cc
  8
Layer_0
  10
252.16768
  20
279.44751
  0
SEQEND
  0
POLYLINE
  5
ce
  8
Layer_0
  62
0
  66
1
  10
0
  20
0
  30
0
  0
VERTEX
  5
ce
  8
Layer_0
  10
139.49112
  20
231.2121
  0
VERTEX
  5
cf
  8
Layer_0
  10
35.502361
  20
183.91534
  0
VERTEX
  5
d0
  8
Layer_0
  10
7.0000534
  20
246.58182
  0
VERTEX
  5
d1
  8
Layer_0
  10
110.98882
  20
293.87857
  0
VERTEX
  5
d2
  8
Layer_0
  10
139.49112
  20
231.2121
  0
SEQEND
  0
POLYLINE
  5
d4
  8
Layer_0
  62
0
  66
1
  10
0
  20
0
  30
0
  0
VERTEX
  5
d4
  8
Layer_0
  10
117.42581
  20
279.72592
  0
VERTEX
  5
d5
  8
Layer_0
  10
13.437035
  20
232.42917
  0
VERTEX
  5
d6
  8
Layer_0
  10
32.359146
  20
190.82616
  0
VERTEX
  5
d7
  8
Layer_0
  10
136.34793
  20
238.12291
  0
VERTEX
  5
d8
  8
Layer_0
  10
117.42581
  20
279.72592
  0
SEQEND
  0
POLYLINE
  5
da
  8
Layer_0
  62
0
  66
1
  10
0
  20
0
  30
0
  0
VERTEX
  5
da
  8
Layer_0
  10
51.653458
  20
219.31035
  42
-0.41421356
  0
VERTEX
  5
db
  8
Layer_0
  10
50.000099
  20
214.89828
  0
VERTEX
  5
dc
  8
Layer_0
  10
41.912872
  20
211.22
  42
-0.41421373
  0
VERTEX
  5
dd
  8
Layer_0
  10
37.500809
  20
212.87335
  0
VERTEX
  5
de
  8
Layer_0
  10
33.362747
  20
221.97148
  42
-0.41421356
  0
VERTEX
  5
df
  8
Layer_0
  10
35.016106
  20
226.38354
  0
VERTEX
  5
e0
  8
Layer_0
  10
43.103333
  20
230.06183
  42
-0.41421356
  0
VERTEX
  5
e1
  8
Layer_0
  10
47.515396
  20
228.40848
  0
VERTEX
  5
e2
  8
Layer_0
  10
51.653458
  20
219.31035
  0
SEQEND
  0
POLYLINE
  5
e4
  8
Layer_0
  62
0
  66
1
  10
0
  20
0
  30
0
  0
VERTEX
  5
e4
  8
Layer_0
  10
116.38673
  20
248.65857
  42
-0.41421356
  0
VERTEX
  5
e5
  8
Layer_0
  10
114.73338
  20
244.24651
  0
VERTEX
  5
e6
  8
Layer_0
  10
106.64615
  20
240.56822
  42
-0.41421356
  0
VERTEX
  5
e7
  8
Layer_0
  10
102.23409
  20
242.22157
  0
VERTEX
  5
e8
  8
Layer_0
  10
98.096024
  20
251.3197
  42
-0.41421356
  0
VERTEX
  5
e9
  8
Layer_0
  10
99.749382
  20
255.73177
  0
VERTEX
  5
ea
  8
Layer_0
  10
107.83661
  20
259.41003
  42
-0.41421356
  0
VERTEX
  5
eb
  8
Layer_0
  10
112.24867
  20
257.75668
  0
VERTEX
  5
ec
  8
Layer_0
  10
116.38673
  20
248.65857
  0
SEQEND
  0
POLYLINE
  5
ee
  8
Layer_0
  62
0
  66
1
  10
0
  20
0
  30
0
  0
VERTEX
  5
ee
  8
Layer_0
  10
15.020134
  20
59.750015
  0
VERTEX
  5
ef
  8
Layer_0
  10
272.66833
  20
59.750015
  0
VERTEX
  5
f0
  8
Layer_0
  10
272.66833
  20
126.35561
  42
0.17928641
  0
VERTEX
  5
f1
  8
Layer_0
  10
271.32797
  20
129.9735
  0
VERTEX
  5
f2
  8
Layer_0
  10
229.33652
  20
178.86534
  42
0.21868077
  0
VERTEX
  5
f3
  8
Layer_0
  10
225.12411
  20
180.80025
  0
VERTEX
  5
f4
  8
Layer_0
  10
186.07071
  20
180.80025
  0
VERTEX
  5
f5
  8
Layer_0
  10
172.6095
  20
239.61906
  42
0.22617348
  0
VERTEX
  5
f6
  8
Layer_0
  10
170.82919
  20
241.86693
  42
0.22617239
  0
VERTEX
  5
f7
  8
Layer_0
  10
167.96188
  20
241.89906
  0
VERTEX
  5
f8
  8
Layer_0
  10
36.011642
  20
180.80025
  0
VERTEX
  5
f9
  8
Layer_0
  10
15.430641
  20
130.29063
  42
0.097036452
  0
VERTEX
  5
fa
  8
Layer_0
  10
15.020134
  20
128.19536
  0
VERTEX
  5
fb
  8
Layer_0
  10
15.020134
  20
59.750015
  0
SEQEND
  0
CIRCLE
  5
fd
  8
Layer_0
  62
0
  10
72.768875
  20
81.961075
  30
0
  40
3.3316576
  0
POLYLINE
  5
fd
  8
Layer_0
  62
0
  66
1
  10
0
  20
0
  30
0
  0
VERTEX
  5
fd
  8
Layer_0
  10
126.07539
  20
97.508812
  42
-0.41421356
  0
VERTEX
  5
fe
  8
Layer_0
  10
124.96484
  20
96.398262
  0
VERTEX
  5
ff
  8
Layer_0
  10
118.30152
  20
96.398262
  42
-0.41421356
  0
VERTEX
  5
100
  8
Layer_0
  10
117.19097
  20
97.508812
  0
VERTEX
  5
101
  8
Layer_0
  10
117.19097
  20
104.17213
  42
-0.41421356
  0
VERTEX
  5
102
  8
Layer_0
  10
118.30152
  20
105.28268
  0
VERTEX
  5
103
  8
Layer_0
  10
124.96484
  20
105.28268
  42
-0.41421356
  0
VERTEX
  5
104
  8
Layer_0
  10
126.07539
  20
104.17213
  0
VERTEX
  5
105
  8
Layer_0
  10
126.07539
  20
97.508812
  0
SEQEND
  0
POLYLINE
  5
107
  8
Layer_0
  62
0
  66
1
  10
0
  20
0
  30
0
  0
VERTEX
  5
107
  8
Layer_0
  10
146.06534
  20
97.508812
  42
-0.41421356
  0
VERTEX
  5
108
  8
Layer_0
  10
144.95479
  20
96.398262
  0
VERTEX
  5
109
  8
Layer_0
  10
138.29146
  20
96.398262
  42
-0.41421356
  0
VERTEX
  5
10a
  8
Layer_0
  10
137.18091
  20
97.508812
  0
VERTEX
  5
10b
  8
Layer_0
  10
137.18091
  20
104.17213
  42
-0.41421356
  0
VERTEX
  5
10c
  8
Layer_0
  10
138.29146
  20
105.28268
  0
VERTEX
  5
10d
  8
Layer_0
  10
144.95479
  20
105.28268
  42
-0.41421356
  0
VERTEX
  5
10e
  8
Layer_0
  10
146.06534
  20
104.17213
  0
VERTEX
  5
10f
  8
Layer_0
  10
146.06534
  20
97.508812
  0
SEQEND
  0
POLYLINE
  5
111
  8
Layer_0
  62
0
  66
1
  10
0
  20
0
  30
0
  0
VERTEX
  5
111
  8
Layer_0
  10
166.05528
  20
97.508812
  42
-0.41421356
  0
VERTEX
  5
112
  8
Layer_0
  10
164.94473
  20
96.398262
  0
VERTEX
  5
113
  8
Layer_0
  10
158.2814
  20
96.398262
  42
-0.41421356
  0
VERTEX
  5
114
  8
Layer_0
  10
157.17085
  20
97.508812
  0
VERTEX
  5
115
  8
Layer_0
  10
157.17085
  20
104.17213
  42
-0.41421356
  0
VERTEX
  5
116
  8
Layer_0
  10
158.2814
  20
105.28268
  0
VERTEX
  5
117
  8
Layer_0
  10
164.94473
  20
105.28268
  42
-0.41421356
  0
VERTEX
  5
118
  8
Layer_0
  10
166.05528
  20
104.17213
  0
VERTEX
  5
119
  8
Layer_0
  10
166.05528
  20
97.508812
  0
SEQEND
  0
POLYLINE
  5
11b
  8
Layer_0
  62
0
  66
1
  10
0
  20
0
  30
0
  0
VERTEX
  5
11b
  8
Layer_0
  10
36.011642
  20
180.80025
  0
VERTEX
  5
11c
  8
Layer_0
  10
186.07071
  20
180.80025
  0
SEQEND
  0
POLYLINE
  5
11e
  8
Layer_0
  62
0
  66
1
  10
0
  20
0
  30
0
  0
VERTEX
  5
11e
  8
Layer_0
  10
73.021835
  20
59.751648
  0
VERTEX
  5
11f
  8
Layer_0
  10
73.426361
  20
59.761414
  0
VERTEX
  5
120
  8
Layer_0
  10
73.729752
  20
59.774429
  0
VERTEX
  5
121
  8
Layer_0
  10
74.070297
  20
59.791779
  0
VERTEX
  5
122
  8
Layer_0
  10
74.474014
  20
59.816727
  0
VERTEX
  5
123
  8
Layer_0
  10
74.877457
  20
59.850342
  0
VERTEX
  5
124
  8
Layer_0
  10
75.28009
  20
59.892639
  0
VERTEX
  5
125
  8
Layer_0
  10
75.681351
  20
59.943344
  0
VERTEX
  5
126
  8
Layer_0
  10
75.954926
  20
59.982925
  0
VERTEX
  5
127
  8
Layer_0
  10
76.285706
  20
60.033356
  0
VERTEX
  5
128
  8
Layer_0
  10
76.685089
  20
60.098694
  0
VERTEX
  5
129
  8
Layer_0
  10
77.083099
  20
60.17244
  0
VERTEX
  5
12a
  8
Layer_0
  10
77.479233
  20
60.254868
  0
VERTEX
  5
12b
  8
Layer_0
  10
77.873718
  20
60.345703
  0
VERTEX
  5
12c
  8
Layer_0
  10
78.128586
  20
60.409134
  0
VERTEX
  5
12d
  8
Layer_0
  10
78.447983
  20
60.491028
  0
VERTEX
  5
12e
  8
Layer_0
  10
78.838943
  20
60.595673
  0
VERTEX
  5
12f
  8
Layer_0
  10
79.227478
  20
60.70874
  0
VERTEX
  5
130
  8
Layer_0
  10
79.613571
  20
60.8302
  0
VERTEX
  5
131
  8
Layer_0
  10
79.996948
  20
60.959808
  0
VERTEX
  5
132
  8
Layer_0
  10
80.259399
  20
61.053894
  0
VERTEX
  5
133
  8
Layer_0
  10
80.565506
  20
61.166138
  0
VERTEX
  5
134
  8
Layer_0
  10
80.944016
  20
61.30957
  0
VERTEX
  5
135
  8
Layer_0
  10
81.31926
  20
61.460861
  0
VERTEX
  5
136
  8
Layer_0
  10
81.691254
  20
61.62056
  0
VERTEX
  5
137
  8
Layer_0
  10
82.059708
  20
61.787842
  0
VERTEX
  5
138
  8
Layer_0
  10
82.254395
  20
61.880295
  0
VERTEX
  5
139
  8
Layer_0
  10
82.545578
  20
62.020477
  0
VERTEX
  5
13a
  8
Layer_0
  10
82.908356
  20
62.199966
  0
VERTEX
  5
13b
  8
Layer_0
  10
83.267334
  20
62.387039
  0
VERTEX
  5
13c
  8
Layer_0
  10
83.621979
  20
62.581985
  0
VERTEX
  5
13d
  8
Layer_0
  10
83.972549
  20
62.784241
  0
VERTEX
  5
13e
  8
Layer_0
  10
84.166138
  20
62.900558
  0
VERTEX
  5
13f
  8
Layer_0
  10
84.440781
  20
63.067581
  0
VERTEX
  5
140
  8
Layer_0
  10
84.784317
  20
63.281509
  0
VERTEX
  5
141
  8
Layer_0
  10
85.12323
  20
63.502747
  0
VERTEX
  5
142
  8
Layer_0
  10
85.45726
  20
63.731308
  0
VERTEX
  5
143
  8
Layer_0
  10
85.93364
  20
64.075912
  0
VERTEX
  5
144
  8
Layer_0
  10
86.190125
  20
64.267609
  0
VERTEX
  5
145
  8
Layer_0
  10
86.511688
  20
64.513245
  0
VERTEX
  5
146
  8
Layer_0
  10
86.82782
  20
64.765945
  0
VERTEX
  5
147
  8
Layer_0
  10
87.138535
  20
65.025146
  0
VERTEX
  5
148
  8
Layer_0
  10
87.582108
  20
65.415573
  0
VERTEX
  5
149
  8
Layer_0
  10
87.818802
  20
65.630585
  0
VERTEX
  5
14a
  8
Layer_0
  10
88.115433
  20
65.905777
  0
VERTEX
  5
14b
  8
Layer_0
  10
88.406082
  20
66.187485
  0
VERTEX
  5
14c
  8
Layer_0
  10
88.690765
  20
66.475159
  0
VERTEX
  5
14d
  8
Layer_0
  10
89.099365
  20
66.911133
  0
VERTEX
  5
14e
  8
Layer_0
  10
89.314362
  20
67.147827
  0
VERTEX
  5
14f
  8
Layer_0
  10
89.583328
  20
67.450409
  0
VERTEX
  5
150
  8
Layer_0
  10
89.845779
  20
67.758423
  0
VERTEX
  5
151
  8
Layer_0
  10
90.101456
  20
68.072113
  0
VERTEX
  5
152
  8
Layer_0
  10
90.462341
  20
68.53981
  0
VERTEX
  5
153
  8
Layer_0
  10
90.654022
  20
68.79631
  0
VERTEX
  5
154
  8
Layer_0
  10
90.892899
  20
69.123016
  0
VERTEX
  5
155
  8
Layer_0
  10
91.12471
  20
69.45488
  0
VERTEX
  5
156
  8
Layer_0
  10
91.349197
  20
69.791626
  0
VERTEX
  5
157
  8
Layer_0
  10
91.662369
  20
70.289154
  0
VERTEX
  5
158
  8
Layer_0
  10
91.829376
  20
70.563812
  0
VERTEX
  5
159
  8
Layer_0
  10
92.03598
  20
70.911942
  0
VERTEX
  5
15a
  8
Layer_0
  10
92.234985
  20
71.264145
  0
VERTEX
  5
15b
  8
Layer_0
  10
92.426682
  20
71.620956
  0
VERTEX
  5
15c
  8
Layer_0
  10
92.610229
  20
71.981552
  0
VERTEX
  5
15d
  8
Layer_0
  10
92.709473
  20
72.184357
  0
VERTEX
  5
15e
  8
Layer_0
  10
92.84964
  20
72.475555
  0
VERTEX
  5
15f
  8
Layer_0
  10
93.021271
  20
72.842117
  0
VERTEX
  5
160
  8
Layer_0
  10
93.185028
  20
73.212219
  0
VERTEX
  5
161
  8
Layer_0
  10
93.340668
  20
73.585571
  0
VERTEX
  5
162
  8
Layer_0
  10
93.488434
  20
73.962433
  0
VERTEX
  5
163
  8
Layer_0
  10
93.563797
  20
74.164429
  0
VERTEX
  5
164
  8
Layer_0
  10
93.676056
  20
74.470535
  0
VERTEX
  5
165
  8
Layer_0
  10
93.81134
  20
74.85202
  0
VERTEX
  5
166
  8
Layer_0
  10
93.938507
  20
75.236206
  0
VERTEX
  5
167
  8
Layer_0
  10
94.057266
  20
75.623108
  0
VERTEX
  5
168
  8
Layer_0
  10
94.167618
  20
76.012451
  0
VERTEX
  5
169
  8
Layer_0
  10
94.238922
  20
76.281967
  0
VERTEX
  5
16a
  8
Layer_0
  10
94.320801
  20
76.601349
  0
VERTEX
  5
16b
  8
Layer_0
  10
94.417053
  20
76.994492
  0
VERTEX
  5
16c
  8
Layer_0
  10
94.504898
  20
77.389526
  0
VERTEX
  5
16d
  8
Layer_0
  10
94.584335
  20
77.786469
  0
VERTEX
  5
16e
  8
Layer_0
  10
94.655106
  20
78.184753
  0
VERTEX
  5
16f
  8
Layer_0
  10
94.694153
  20
78.429321
  0
VERTEX
  5
170
  8
Layer_0
  10
94.744843
  20
78.760101
  0
VERTEX
  5
171
  8
Layer_0
  10
94.801788
  20
79.160828
  0
VERTEX
  5
172
  8
Layer_0
  10
94.850327
  20
79.562653
  0
VERTEX
  5
173
  8
Layer_0
  10
94.890182
  20
79.965271
  0
VERTEX
  5
174
  8
Layer_0
  10
94.921356
  20
80.368988
  0
VERTEX
  5
175
  8
Layer_0
  10
94.939255
  20
80.67482
  0
VERTEX
  5
176
  8
Layer_0
  10
94.956329
  20
81.015366
  0
VERTEX
  5
177
  8
Layer_0
  10
94.972061
  20
81.419617
  0
VERTEX
  5
178
  8
Layer_0
  10
94.979385
  20
81.824417
  0
VERTEX
  5
179
  8
Layer_0
  10
94.978027
  20
82.228943
  0
VERTEX
  5
17a
  8
Layer_0
  10
94.967987
  20
82.633743
  0
VERTEX
  5
17b
  8
Layer_0
  10
94.956329
  20
82.906784
  0
VERTEX
  5
17c
  8
Layer_0
  10
94.939255
  20
83.247314
  0
VERTEX
  5
17d
  8
Layer_0
  10
94.914581
  20
83.651306
  0
VERTEX
  5
17e
  8
Layer_0
  10
94.881226
  20
84.054749
  0
VERTEX
  5
17f
  8
Layer_0
  10
94.839478
  20
84.457382
  0
VERTEX
  5
180
  8
Layer_0
  10
94.788773
  20
84.858917
  0
VERTEX
  5
181
  8
Layer_0
  10
94.744843
  20
85.162048
  0
VERTEX
  5
182
  8
Layer_0
  10
94.694153
  20
85.492828
  0
VERTEX
  5
183
  8
Layer_0
  10
94.62854
  20
85.892197
  0
VERTEX
  5
184
  8
Layer_0
  10
94.55452
  20
86.289948
  0
VERTEX
  5
185
  8
Layer_0
  10
94.471817
  20
86.68634
  0
VERTEX
  5
186
  8
Layer_0
  10
94.380722
  20
87.080566
  0
VERTEX
  5
187
  8
Layer_0
  10
94.320801
  20
87.320786
  0
VERTEX
  5
188
  8
Layer_0
  10
94.238922
  20
87.640182
  0
VERTEX
  5
189
  8
Layer_0
  10
94.134262
  20
88.031158
  0
VERTEX
  5
18a
  8
Layer_0
  10
94.021194
  20
88.419678
  0
VERTEX
  5
18b
  8
Layer_0
  10
93.899734
  20
88.805771
  0
VERTEX
  5
18c
  8
Layer_0
  10
93.770126
  20
89.189148
  0
VERTEX
  5
18d
  8
Layer_0
  10
93.676056
  20
89.451614
  0
VERTEX
  5
18e
  8
Layer_0
  10
93.563797
  20
89.757721
  0
VERTEX
  5
18f
  8
Layer_0
  10
93.42038
  20
90.136215
  0
VERTEX
  5
190
  8
Layer_0
  10
93.269089
  20
90.511459
  0
VERTEX
  5
191
  8
Layer_0
  10
93.10939
  20
90.883453
  0
VERTEX
  5
192
  8
Layer_0
  10
92.942093
  20
91.251923
  0
VERTEX
  5
193
  8
Layer_0
  10
92.84964
  20
91.446594
  0
VERTEX
  5
194
  8
Layer_0
  10
92.709473
  20
91.737778
  0
VERTEX
  5
195
  8
Layer_0
  10
92.529984
  20
92.100555
  0
VERTEX
  5
196
  8
Layer_0
  10
92.342896
  20
92.459534
  0
VERTEX
  5
197
  8
Layer_0
  10
92.147964
  20
92.814178
  0
VERTEX
  5
198
  8
Layer_0
  10
91.945694
  20
93.164749
  0
VERTEX
  5
199
  8
Layer_0
  10
91.829376
  20
93.358337
  0
VERTEX
  5
19a
  8
Layer_0
  10
91.662369
  20
93.632996
  0
VERTEX
  5
19b
  8
Layer_0
  10
91.448441
  20
93.976517
  0
VERTEX
  5
19c
  8
Layer_0
  10
91.227203
  20
94.315414
  0
VERTEX
  5
19d
  8
Layer_0
  10
90.998627
  20
94.64946
  0
VERTEX
  5
19e
  8
Layer_0
  10
90.654022
  20
95.125839
  0
VERTEX
  5
19f
  8
Layer_0
  10
90.462341
  20
95.382339
  0
VERTEX
  5
1a0
  8
Layer_0
  10
90.21669
  20
95.703903
  0
VERTEX
  5
1a1
  8
Layer_0
  10
89.963989
  20
96.020035
  0
VERTEX
  5
1a2
  8
Layer_0
  10
89.704788
  20
96.330734
  0
VERTEX
  5
1a3
  8
Layer_0
  10
89.314362
  20
96.774307
  0
VERTEX
  5
1a4
  8
Layer_0
  10
89.099365
  20
97.011002
  0
VERTEX
  5
1a5
  8
Layer_0
  10
88.824158
  20
97.307632
  0
VERTEX
  5
1a6
  8
Layer_0
  10
88.54245
  20
97.598282
  0
VERTEX
  5
1a7
  8
Layer_0
  10
88.254791
  20
97.88298
  0
VERTEX
  5
1a8
  8
Layer_0
  10
87.818802
  20
98.29155
  0
VERTEX
  5
1a9
  8
Layer_0
  10
87.582108
  20
98.506577
  0
VERTEX
  5
1aa
  8
Layer_0
  10
87.279526
  20
98.775528
  0
VERTEX
  5
1ab
  8
Layer_0
  10
86.971527
  20
99.037979
  0
VERTEX
  5
1ac
  8
Layer_0
  10
86.657822
  20
99.293655
  0
VERTEX
  5
1ad
  8
Layer_0
  10
86.190125
  20
99.654526
  0
VERTEX
  5
1ae
  8
Layer_0
  10
85.93364
  20
99.846237
  0
VERTEX
  5
1af
  8
Layer_0
  10
85.606918
  20
100.0851
  0
VERTEX
  5
1b0
  8
Layer_0
  10
85.275055
  20
100.31691
  0
VERTEX
  5
1b1
  8
Layer_0
  10
84.938309
  20
100.5414
  0
VERTEX
  5
1b2
  8
Layer_0
  10
84.440781
  20
100.85457
  0
VERTEX
  5
1b3
  8
Layer_0
  10
84.166138
  20
101.02159
  0
VERTEX
  5
1b4
  8
Layer_0
  10
83.817993
  20
101.2282
  0
VERTEX
  5
1b5
  8
Layer_0
  10
83.465805
  20
101.4272
  0
VERTEX
  5
1b6
  8
Layer_0
  10
83.108994
  20
101.61888
  0
VERTEX
  5
1b7
  8
Layer_0
  10
82.748383
  20
101.80244
  0
VERTEX
  5
1b8
  8
Layer_0
  10
82.545578
  20
101.90166
  0
VERTEX
  5
1b9
  8
Layer_0
  10
82.254395
  20
102.04185
  0
VERTEX
  5
1ba
  8
Layer_0
  10
81.887817
  20
102.21349
  0
VERTEX
  5
1bb
  8
Layer_0
  10
81.517731
  20
102.37724
  0
VERTEX
  5
1bc
  8
Layer_0
  10
81.144379
  20
102.53285
  0
VERTEX
  5
1bd
  8
Layer_0
  10
80.767502
  20
102.68062
  0
VERTEX
  5
1be
  8
Layer_0
  10
80.565506
  20
102.756
  0
VERTEX
  5
1bf
  8
Layer_0
  10
80.259399
  20
102.86824
  0
VERTEX
  5
1c0
  8
Layer_0
  10
79.87793
  20
103.00356
  0
VERTEX
  5
1c1
  8
Layer_0
  10
79.493729
  20
103.13072
  0
VERTEX
  5
1c2
  8
Layer_0
  10
79.106827
  20
103.24947
  0
VERTEX
  5
1c3
  8
Layer_0
  10
78.717484
  20
103.35982
  0
VERTEX
  5
1c4
  8
Layer_0
  10
78.447983
  20
103.43114
  0
VERTEX
  5
1c5
  8
Layer_0
  10
78.128586
  20
103.51302
  0
VERTEX
  5
1c6
  8
Layer_0
  10
77.735443
  20
103.60927
  0
VERTEX
  5
1c7
  8
Layer_0
  10
77.340408
  20
103.6971
  0
VERTEX
  5
1c8
  8
Layer_0
  10
76.943466
  20
103.77654
  0
VERTEX
  5
1c9
  8
Layer_0
  10
76.545181
  20
103.84731
  0
VERTEX
  5
1ca
  8
Layer_0
  10
76.300629
  20
103.88634
  0
VERTEX
  5
1cb
  8
Layer_0
  10
75.969849
  20
103.93706
  0
VERTEX
  5
1cc
  8
Layer_0
  10
75.569107
  20
103.994
  0
VERTEX
  5
1cd
  8
Layer_0
  10
75.167297
  20
104.04253
  0
VERTEX
  5
1ce
  8
Layer_0
  10
74.764664
  20
104.08238
  0
VERTEX
  5
1cf
  8
Layer_0
  10
74.360947
  20
104.11357
  0
VERTEX
  5
1d0
  8
Layer_0
  10
74.055115
  20
104.13145
  0
VERTEX
  5
1d1
  8
Layer_0
  10
73.714569
  20
104.14854
  0
VERTEX
  5
1d2
  8
Layer_0
  10
73.310318
  20
104.16426
  0
VERTEX
  5
1d3
  8
Layer_0
  10
72.905518
  20
104.17159
  0
VERTEX
  5
1d4
  8
Layer_0
  10
72.500992
  20
104.17021
  0
VERTEX
  5
1d5
  8
Layer_0
  10
72.096191
  20
104.1602
  0
VERTEX
  5
1d6
  8
Layer_0
  10
71.823166
  20
104.14854
  0
VERTEX
  5
1d7
  8
Layer_0
  10
71.48262
  20
104.13145
  0
VERTEX
  5
1d8
  8
Layer_0
  10
71.078644
  20
104.10677
  0
VERTEX
  5
1d9
  8
Layer_0
  10
70.675201
  20
104.07344
  0
VERTEX
  5
1da
  8
Layer_0
  10
70.272568
  20
104.03166
  0
VERTEX
  5
1db
  8
Layer_0
  10
69.871017
  20
103.98097
  0
VERTEX
  5
1dc
  8
Layer_0
  10
69.567902
  20
103.93706
  0
VERTEX
  5
1dd
  8
Layer_0
  10
69.237122
  20
103.88634
  0
VERTEX
  5
1de
  8
Layer_0
  10
68.837738
  20
103.82072
  0
VERTEX
  5
1df
  8
Layer_0
  10
68.439987
  20
103.74672
  0
VERTEX
  5
1e0
  8
Layer_0
  10
68.043594
  20
103.66402
  0
VERTEX
  5
1e1
  8
Layer_0
  10
67.649368
  20
103.57292
  0
VERTEX
  5
1e2
  8
Layer_0
  10
67.409149
  20
103.51302
  0
VERTEX
  5
1e3
  8
Layer_0
  10
67.089752
  20
103.43114
  0
VERTEX
  5
1e4
  8
Layer_0
  10
66.698792
  20
103.32646
  0
VERTEX
  5
1e5
  8
Layer_0
  10
66.310257
  20
103.21339
  0
VERTEX
  5
1e6
  8
Layer_0
  10
65.924164
  20
103.09193
  0
VERTEX
  5
1e7
  8
Layer_0
  10
65.540787
  20
102.96233
  0
VERTEX
  5
1e8
  8
Layer_0
  10
65.278336
  20
102.86824
  0
VERTEX
  5
1e9
  8
Layer_0
  10
64.972229
  20
102.756
  0
VERTEX
  5
1ea
  8
Layer_0
  10
64.593735
  20
102.61256
  0
VERTEX
  5
1eb
  8
Layer_0
  10
64.218475
  20
102.46129
  0
VERTEX
  5
1ec
  8
Layer_0
  10
63.846497
  20
102.30159
  0
VERTEX
  5
1ed
  8
Layer_0
  10
63.478027
  20
102.13429
  0
VERTEX
  5
1ee
  8
Layer_0
  10
63.283356
  20
102.04185
  0
VERTEX
  5
1ef
  8
Layer_0
  10
62.992157
  20
101.90166
  0
VERTEX
  5
1f0
  8
Layer_0
  10
62.629379
  20
101.72218
  0
VERTEX
  5
1f1
  8
Layer_0
  10
62.270401
  20
101.53511
  0
VERTEX
  5
1f2
  8
Layer_0
  10
61.915771
  20
101.34016
  0
VERTEX
  5
1f3
  8
Layer_0
  10
61.565201
  20
101.13789
  0
VERTEX
  5
1f4
  8
Layer_0
  10
61.371613
  20
101.02159
  0
VERTEX
  5
1f5
  8
Layer_0
  10
61.096954
  20
100.85457
  0
VERTEX
  5
1f6
  8
Layer_0
  10
60.753433
  20
100.64064
  0
VERTEX
  5
1f7
  8
Layer_0
  10
60.41452
  20
100.41939
  0
VERTEX
  5
1f8
  8
Layer_0
  10
60.080475
  20
100.19084
  0
VERTEX
  5
1f9
  8
Layer_0
  10
59.604111
  20
99.846237
  0
VERTEX
  5
1fa
  8
Layer_0
  10
59.34761
  20
99.654526
  0
VERTEX
  5
1fb
  8
Layer_0
  10
59.026047
  20
99.40889
  0
VERTEX
  5
1fc
  8
Layer_0
  10
58.709915
  20
99.156204
  0
VERTEX
  5
1fd
  8
Layer_0
  10
58.3992
  20
98.896988
  0
VERTEX
  5
1fe
  8
Layer_0
  10
57.955627
  20
98.506577
  0
VERTEX
  5
1ff
  8
Layer_0
  10
57.718933
  20
98.29155
  0
VERTEX
  5
200
  8
Layer_0
  10
57.422318
  20
98.016373
  0
VERTEX
  5
201
  8
Layer_0
  10
57.131653
  20
97.734665
  0
VERTEX
  5
202
  8
Layer_0
  10
56.84697
  20
97.446976
  0
VERTEX
  5
203
  8
Layer_0
  10
56.438385
  20
97.011002
  0
VERTEX
  5
204
  8
Layer_0
  10
56.223373
  20
96.774307
  0
VERTEX
  5
205
  8
Layer_0
  10
55.954407
  20
96.471725
  0
VERTEX
  5
206
  8
Layer_0
  10
55.691956
  20
96.163712
  0
VERTEX
  5
207
  8
Layer_0
  10
55.436279
  20
95.850021
  0
VERTEX
  5
208
  8
Layer_0
  10
55.075409
  20
95.382339
  0
VERTEX
  5
209
  8
Layer_0
  10
54.883713
  20
95.125839
  0
VERTEX
  5
20a
  8
Layer_0
  10
54.644852
  20
94.799118
  0
VERTEX
  5
20b
  8
Layer_0
  10
54.413025
  20
94.46727
  0
VERTEX
  5
20c
  8
Layer_0
  10
54.188538
  20
94.130508
  0
VERTEX
  5
20d
  8
Layer_0
  10
53.875381
  20
93.632996
  0
VERTEX
  5
20e
  8
Layer_0
  10
53.708359
  20
93.358337
  0
VERTEX
  5
20f
  8
Layer_0
  10
53.501755
  20
93.010208
  0
VERTEX
  5
210
  8
Layer_0
  10
53.30275
  20
92.658005
  0
VERTEX
  5
211
  8
Layer_0
  10
53.111053
  20
92.301193
  0
VERTEX
  5
212
  8
Layer_0
  10
52.927505
  20
91.940598
  0
VERTEX
  5
213
  8
Layer_0
  10
52.828262
  20
91.737778
  0
VERTEX
  5
214
  8
Layer_0
  10
52.688095
  20
91.446594
  0
VERTEX
  5
215
  8
Layer_0
  10
52.516464
  20
91.080017
  0
VERTEX
  5
216
  8
Layer_0
  10
52.352707
  20
90.70993
  0
VERTEX
  5
217
  8
Layer_0
  10
52.197083
  20
90.336578
  0
VERTEX
  5
218
  8
Layer_0
  10
52.049316
  20
89.959702
  0
VERTEX
  5
219
  8
Layer_0
  10
51.973938
  20
89.757721
  0
VERTEX
  5
21a
  8
Layer_0
  10
51.861694
  20
89.451614
  0
VERTEX
  5
21b
  8
Layer_0
  10
51.726395
  20
89.070129
  0
VERTEX
  5
21c
  8
Layer_0
  10
51.599228
  20
88.685928
  0
VERTEX
  5
21d
  8
Layer_0
  10
51.480484
  20
88.299026
  0
VERTEX
  5
21e
  8
Layer_0
  10
51.370132
  20
87.909683
  0
VERTEX
  5
21f
  8
Layer_0
  10
51.298813
  20
87.640182
  0
VERTEX
  5
220
  8
Layer_0
  10
51.216934
  20
87.320786
  0
VERTEX
  5
221
  8
Layer_0
  10
51.120682
  20
86.927643
  0
VERTEX
  5
222
  8
Layer_0
  10
51.032837
  20
86.532608
  0
VERTEX
  5
223
  8
Layer_0
  10
50.9534
  20
86.135681
  0
VERTEX
  5
224
  8
Layer_0
  10
50.882629
  20
85.737381
  0
VERTEX
  5
225
  8
Layer_0
  10
50.841156
  20
85.477905
  0
VERTEX
  5
226
  8
Layer_0
  10
50.790726
  20
85.147125
  0
VERTEX
  5
227
  8
Layer_0
  10
50.734055
  20
84.746399
  0
VERTEX
  5
228
  8
Layer_0
  10
50.686066
  20
84.344589
  0
VERTEX
  5
229
  8
Layer_0
  10
50.646484
  20
83.941681
  0
VERTEX
  5
22a
  8
Layer_0
  10
50.615845
  20
83.538239
  0
VERTEX
  5
22b
  8
Layer_0
  10
50.599579
  20
83.262497
  0
VERTEX
  5
22c
  8
Layer_0
  10
50.582214
  20
82.921967
  0
VERTEX
  5
22d
  8
Layer_0
  10
50.565948
  20
82.517426
  0
VERTEX
  5
22e
  8
Layer_0
  10
50.558365
  20
82.1129
  0
VERTEX
  5
22f
  8
Layer_0
  10
50.559448
  20
81.708099
  0
VERTEX
  5
230
  8
Layer_0
  10
50.569199
  20
81.303574
  0
VERTEX
  5
231
  8
Layer_0
  10
50.582214
  20
81.000183
  0
VERTEX
  5
232
  8
Layer_0
  10
50.599579
  20
80.659637
  0
VERTEX
  5
233
  8
Layer_0
  10
50.624512
  20
80.255936
  0
VERTEX
  5
234
  8
Layer_0
  10
50.658142
  20
79.852493
  0
VERTEX
  5
235
  8
Layer_0
  10
50.700439
  20
79.44986
  0
VERTEX
  5
236
  8
Layer_0
  10
50.751129
  20
79.048584
  0
VERTEX
  5
237
  8
Layer_0
  10
50.790726
  20
78.775009
  0
VERTEX
  5
238
  8
Layer_0
  10
50.841156
  20
78.444229
  0
VERTEX
  5
239
  8
Layer_0
  10
50.906494
  20
78.044861
  0
VERTEX
  5
23a
  8
Layer_0
  10
50.98024
  20
77.646835
  0
VERTEX
  5
23b
  8
Layer_0
  10
51.062668
  20
77.250717
  0
VERTEX
  5
23c
  8
Layer_0
  10
51.153488
  20
76.856216
  0
VERTEX
  5
23d
  8
Layer_0
  10
51.216934
  20
76.601349
  0
VERTEX
  5
23e
  8
Layer_0
  10
51.298813
  20
76.281967
  0
VERTEX
  5
23f
  8
Layer_0
  10
51.403473
  20
75.890991
  0
VERTEX
  5
240
  8
Layer_0
  10
51.516541
  20
75.502457
  0
VERTEX
  5
241
  8
Layer_0
  10
51.638
  20
75.116364
  0
VERTEX
  5
242
  8
Layer_0
  10
51.767609
  20
74.732986
  0
VERTEX
  5
243
  8
Layer_0
  10
51.861694
  20
74.470535
  0
VERTEX
  5
244
  8
Layer_0
  10
51.973938
  20
74.164429
  0
VERTEX
  5
245
  8
Layer_0
  10
52.117371
  20
73.785934
  0
VERTEX
  5
246
  8
Layer_0
  10
52.268661
  20
73.41069
  0
VERTEX
  5
247
  8
Layer_0
  10
52.428345
  20
73.038696
  0
VERTEX
  5
248
  8
Layer_0
  10
52.595642
  20
72.670227
  0
VERTEX
  5
249
  8
Layer_0
  10
52.688095
  20
72.475555
  0
VERTEX
  5
24a
  8
Layer_0
  10
52.828262
  20
72.184357
  0
VERTEX
  5
24b
  8
Layer_0
  10
53.007751
  20
71.821579
  0
VERTEX
  5
24c
  8
Layer_0
  10
53.194839
  20
71.462616
  0
VERTEX
  5
24d
  8
Layer_0
  10
53.389786
  20
71.107971
  0
VERTEX
  5
24e
  8
Layer_0
  10
53.592041
  20
70.757401
  0
VERTEX
  5
24f
  8
Layer_0
  10
53.708359
  20
70.563812
  0
VERTEX
  5
250
  8
Layer_0
  10
53.875381
  20
70.289154
  0
VERTEX
  5
251
  8
Layer_0
  10
54.089294
  20
69.945633
  0
VERTEX
  5
252
  8
Layer_0
  10
54.310547
  20
69.60672
  0
VERTEX
  5
253
  8
Layer_0
  10
54.539108
  20
69.27269
  0
VERTEX
  5
254
  8
Layer_0
  10
54.883713
  20
68.79631
  0
VERTEX
  5
255
  8
Layer_0
  10
55.075409
  20
68.53981
  0
VERTEX
  5
256
  8
Layer_0
  10
55.321045
  20
68.218262
  0
VERTEX
  5
257
  8
Layer_0
  10
55.573746
  20
67.902115
  0
VERTEX
  5
258
  8
Layer_0
  10
55.832947
  20
67.5914
  0
VERTEX
  5
259
  8
Layer_0
  10
56.223373
  20
67.147827
  0
VERTEX
  5
25a
  8
Layer_0
  10
56.438385
  20
66.911133
  0
VERTEX
  5
25b
  8
Layer_0
  10
56.713577
  20
66.614517
  0
VERTEX
  5
25c
  8
Layer_0
  10
56.995285
  20
66.323868
  0
VERTEX
  5
25d
  8
Layer_0
  10
57.282944
  20
66.039169
  0
VERTEX
  5
25e
  8
Layer_0
  10
57.718933
  20
65.630585
  0
VERTEX
  5
25f
  8
Layer_0
  10
57.955627
  20
65.415573
  0
VERTEX
  5
260
  8
Layer_0
  10
58.258209
  20
65.146606
  0
VERTEX
  5
261
  8
Layer_0
  10
58.566208
  20
64.884155
  0
VERTEX
  5
262
  8
Layer_0
  10
58.879913
  20
64.628479
  0
VERTEX
  5
263
  8
Layer_0
  10
59.34761
  20
64.267609
  0
VERTEX
  5
264
  8
Layer_0
  10
59.604111
  20
64.075912
  0
VERTEX
  5
265
  8
Layer_0
  10
59.930817
  20
63.837051
  0
VERTEX
  5
266
  8
Layer_0
  10
60.26268
  20
63.60524
  0
VERTEX
  5
267
  8
Layer_0
  10
60.599426
  20
63.380737
  0
VERTEX
  5
268
  8
Layer_0
  10
61.096954
  20
63.067581
  0
VERTEX
  5
269
  8
Layer_0
  10
61.371613
  20
62.900558
  0
VERTEX
  5
26a
  8
Layer_0
  10
61.719742
  20
62.693954
  0
VERTEX
  5
26b
  8
Layer_0
  10
62.071945
  20
62.494949
  0
VERTEX
  5
26c
  8
Layer_0
  10
62.428741
  20
62.303268
  0
VERTEX
  5
26d
  8
Layer_0
  10
62.789352
  20
62.119705
  0
VERTEX
  5
26e
  8
Layer_0
  10
62.992157
  20
62.020477
  0
VERTEX
  5
26f
  8
Layer_0
  10
63.283356
  20
61.880295
  0
VERTEX
  5
270
  8
Layer_0
  10
63.649918
  20
61.708664
  0
VERTEX
  5
271
  8
Layer_0
  10
64.02002
  20
61.544907
  0
VERTEX
  5
272
  8
Layer_0
  10
64.393356
  20
61.389282
  0
VERTEX
  5
273
  8
Layer_0
  10
64.770233
  20
61.241516
  0
VERTEX
  5
274
  8
Layer_0
  10
64.972229
  20
61.166138
  0
VERTEX
  5
275
  8
Layer_0
  10
65.278336
  20
61.053894
  0
VERTEX
  5
276
  8
Layer_0
  10
65.659821
  20
60.918594
  0
VERTEX
  5
277
  8
Layer_0
  10
66.044006
  20
60.791428
  0
VERTEX
  5
278
  8
Layer_0
  10
66.430908
  20
60.672684
  0
VERTEX
  5
279
  8
Layer_0
  10
66.820251
  20
60.562332
  0
VERTEX
  5
27a
  8
Layer_0
  10
67.089752
  20
60.491028
  0
VERTEX
  5
27b
  8
Layer_0
  10
67.409149
  20
60.409134
  0
VERTEX
  5
27c
  8
Layer_0
  10
67.802292
  20
60.312881
  0
VERTEX
  5
27d
  8
Layer_0
  10
68.197327
  20
60.225037
  0
VERTEX
  5
27e
  8
Layer_0
  10
68.594269
  20
60.145599
  0
VERTEX
  5
27f
  8
Layer_0
  10
68.992554
  20
60.074829
  0
VERTEX
  5
280
  8
Layer_0
  10
69.252029
  20
60.033356
  0
VERTEX
  5
281
  8
Layer_0
  10
69.582809
  20
59.982925
  0
VERTEX
  5
282
  8
Layer_0
  10
69.983536
  20
59.926254
  0
VERTEX
  5
283
  8
Layer_0
  10
70.385361
  20
59.878265
  0
VERTEX
  5
284
  8
Layer_0
  10
70.788254
  20
59.838684
  0
VERTEX
  5
285
  8
Layer_0
  10
71.191696
  20
59.808044
  0
VERTEX
  5
286
  8
Layer_0
  10
71.467438
  20
59.791779
  0
VERTEX
  5
287
  8
Layer_0
  10
71.807983
  20
59.774429
  0
VERTEX
  5
288
  8
Layer_0
  10
72.212509
  20
59.758148
  0
VERTEX
  5
289
  8
Layer_0
  10
72.617035
  20
59.750565
  0
VERTEX
  5
28a
  8
Layer_0
  10
73.021835
  20
59.751648
  0
SEQEND
  0
POLYLINE
  5
28c
  8
Layer_0
  62
0
  66
1
  10
0
  20
0
  30
0
  0
VERTEX
  5
28c
  8
Layer_0
  10
72.901184
  20
68.969009
  0
VERTEX
  5
28d
  8
Layer_0
  10
73.112656
  20
68.974167
  0
VERTEX
  5
28e
  8
Layer_0
  10
73.304077
  20
68.9823
  0
VERTEX
  5
28f
  8
Layer_0
  10
73.559219
  20
68.995316
  0
VERTEX
  5
290
  8
Layer_0
  10
73.811096
  20
69.010773
  0
VERTEX
  5
291
  8
Layer_0
  10
74.004959
  20
69.027039
  0
VERTEX
  5
292
  8
Layer_0
  10
74.218872
  20
69.049545
  0
VERTEX
  5
293
  8
Layer_0
  10
74.454483
  20
69.079361
  0
VERTEX
  5
294
  8
Layer_0
  10
74.604156
  20
69.101059
  0
VERTEX
  5
295
  8
Layer_0
  10
74.830276
  20
69.135498
  0
VERTEX
  5
296
  8
Layer_0
  10
75.10141
  20
69.179688
  0
VERTEX
  5
297
  8
Layer_0
  10
75.304764
  20
69.217377
  0
VERTEX
  5
298
  8
Layer_0
  10
75.508102
  20
69.259674
  0
VERTEX
  5
299
  8
Layer_0
  10
75.705215
  20
69.305222
  0
VERTEX
  5
29a
  8
Layer_0
  10
76.122223
  20
69.41069
  0
VERTEX
  5
29b
  8
Layer_0
  10
76.362167
  20
69.474945
  0
VERTEX
  5
29c
  8
Layer_0
  10
76.554672
  20
69.530807
  0
VERTEX
  5
29d
  8
Layer_0
  10
76.763718
  20
69.59668
  0
VERTEX
  5
29e
  8
Layer_0
  10
76.939682
  20
69.656342
  0
VERTEX
  5
29f
  8
Layer_0
  10
77.361557
  20
69.80925
  0
VERTEX
  5
2a0
  8
Layer_0
  10
77.586868
  20
69.894653
  0
VERTEX
  5
2a1
  8
Layer_0
  10
77.775848
  20
69.97084
  0
VERTEX
  5
2a2
  8
Layer_0
  10
77.96727
  20
70.052994
  0
VERTEX
  5
2a3
  8
Layer_0
  10
78.170334
  20
70.145187
  0
VERTEX
  5
2a4
  8
Layer_0
  10
78.506821
  20
70.306229
  0
VERTEX
  5
2a5
  8
Layer_0
  10
78.734024
  20
70.418747
  0
VERTEX
  5
2a6
  8
Layer_0
  10
78.916763
  20
70.513916
  0
VERTEX
  5
2a7
  8
Layer_0
  10
79.095444
  20
70.612076
  0
VERTEX
  5
2a8
  8
Layer_0
  10
79.287949
  20
70.723236
  0
VERTEX
  5
2a9
  8
Layer_0
  10
79.606796
  20
70.916275
  0
VERTEX
  5
2aa
  8
Layer_0
  10
79.829117
  20
71.05455
  0
VERTEX
  5
2ab
  8
Layer_0
  10
80.005905
  20
71.169785
  0
VERTEX
  5
2ac
  8
Layer_0
  10
80.150681
  20
71.269028
  0
VERTEX
  5
2ad
  8
Layer_0
  10
80.470352
  20
71.50029
  0
VERTEX
  5
2ae
  8
Layer_0
  10
80.631393
  20
71.620682
  0
VERTEX
  5
2af
  8
Layer_0
  10
80.833389
  20
71.774948
  0
VERTEX
  5
2b0
  8
Layer_0
  10
80.997696
  20
71.906174
  0
VERTEX
  5
2b1
  8
Layer_0
  10
81.145187
  20
72.029266
  0
VERTEX
  5
2b2
  8
Layer_0
  10
81.428253
  20
72.278442
  0
VERTEX
  5
2b3
  8
Layer_0
  10
81.593918
  20
72.428925
  0
VERTEX
  5
2b4
  8
Layer_0
  10
81.771225
  20
72.593491
  0
VERTEX
  5
2b5
  8
Layer_0
  10
81.921432
  20
72.73909
  0
VERTEX
  5
2b6
  8
Layer_0
  10
82.047791
  20
72.866791
  0
VERTEX
  5
2b7
  8
Layer_0
  10
82.323792
  20
73.16124
  0
VERTEX
  5
2b8
  8
Layer_0
  10
82.461807
  20
73.31308
  0
VERTEX
  5
2b9
  8
Layer_0
  10
82.624481
  20
73.496094
  0
VERTEX
  5
2ba
  8
Layer_0
  10
82.768723
  20
73.665283
  0
VERTEX
  5
2bb
  8
Layer_0
  10
82.878265
  20
73.799759
  0
VERTEX
  5
2bc
  8
Layer_0
  10
83.120651
  20
74.113724
  0
VERTEX
  5
2bd
  8
Layer_0
  10
83.243469
  20
74.27803
  0
VERTEX
  5
2be
  8
Layer_0
  10
83.389618
  20
74.477859
  0
VERTEX
  5
2bf
  8
Layer_0
  10
83.512436
  20
74.653824
  0
VERTEX
  5
2c0
  8
Layer_0
  10
83.610855
  20
74.801315
  0
VERTEX
  5
2c1
  8
Layer_0
  10
83.823151
  20
75.138336
  0
VERTEX
  5
2c2
  8
Layer_0
  10
83.93486
  20
75.322433
  0
VERTEX
  5
2c3
  8
Layer_0
  10
84.057678
  20
75.529297
  0
VERTEX
  5
2c4
  8
Layer_0
  10
84.158813
  20
75.707977
  0
VERTEX
  5
2c5
  8
Layer_0
  10
84.256958
  20
75.890991
  0
VERTEX
  5
2c6
  8
Layer_0
  10
84.357819
  20
76.089188
  0
VERTEX
  5
2c7
  8
Layer_0
  10
84.529984
  20
76.444366
  0
VERTEX
  5
2c8
  8
Layer_0
  10
84.626785
  20
76.650696
  0
VERTEX
  5
2c9
  8
Layer_0
  10
84.712738
  20
76.844833
  0
VERTEX
  5
2ca
  8
Layer_0
  10
84.796509
  20
77.045731
  0
VERTEX
  5
2cb
  8
Layer_0
  10
84.872971
  20
77.240952
  0
VERTEX
  5
2cc
  8
Layer_0
  10
85.011795
  20
77.616745
  0
VERTEX
  5
2cd
  8
Layer_0
  10
85.090424
  20
77.838531
  0
VERTEX
  5
2ce
  8
Layer_0
  10
85.156845
  20
78.038895
  0
VERTEX
  5
2cf
  8
Layer_0
  10
85.217575
  20
78.236816
  0
VERTEX
  5
2d0
  8
Layer_0
  10
85.274521
  20
78.437729
  0
VERTEX
  5
2d1
  8
Layer_0
  10
85.317902
  20
78.602036
  0
VERTEX
  5
2d2
  8
Layer_0
  10
85.377823
  20
78.835205
  0
VERTEX
  5
2d3
  8
Layer_0
  10
85.442352
  20
79.099289
  0
VERTEX
  5
2d4
  8
Layer_0
  10
85.484634
  20
79.289352
  0
VERTEX
  5
2d5
  8
Layer_0
  10
85.526123
  20
79.496765
  0
VERTEX
  5
2d6
  8
Layer_0
  10
85.562454
  20
79.700653
  0
VERTEX
  5
2d7
  8
Layer_0
  10
85.628342
  20
80.123886
  0
VERTEX
  5
2d8
  8
Layer_0
  10
85.661697
  20
80.357605
  0
VERTEX
  5
2d9
  8
Layer_0
  10
85.688797
  20
80.581833
  0
VERTEX
  5
2da
  8
Layer_0
  10
85.70697
  20
80.766739
  0
VERTEX
  5
2db
  8
Layer_0
  10
85.724319
  20
80.991501
  0
VERTEX
  5
2dc
  8
Layer_0
  10
85.735703
  20
81.187271
  0
VERTEX
  5
2dd
  8
Layer_0
  10
85.747635
  20
81.425583
  0
VERTEX
  5
2de
  8
Layer_0
  10
85.757675
  20
81.683701
  0
VERTEX
  5
2df
  8
Layer_0
  10
85.761459
  20
81.884338
  0
VERTEX
  5
2e0
  8
Layer_0
  10
85.760651
  20
82.108841
  0
VERTEX
  5
2e1
  8
Layer_0
  10
85.755508
  20
82.31517
  0
VERTEX
  5
2e2
  8
Layer_0
  10
85.748184
  20
82.488419
  0
VERTEX
  5
2e3
  8
Layer_0
  10
85.736526
  20
82.719696
  0
VERTEX
  5
2e4
  8
Layer_0
  10
85.719711
  20
82.995438
  0
VERTEX
  5
2e5
  8
Layer_0
  10
85.702637
  20
83.202316
  0
VERTEX
  5
2e6
  8
Layer_0
  10
85.682297
  20
83.39888
  0
VERTEX
  5
2e7
  8
Layer_0
  10
85.653549
  20
83.627716
  0
VERTEX
  5
2e8
  8
Layer_0
  10
85.628876
  20
83.797989
  0
VERTEX
  5
2e9
  8
Layer_0
  10
85.591202
  20
84.043365
  0
VERTEX
  5
2ea
  8
Layer_0
  10
85.549164
  20
84.299301
  0
VERTEX
  5
2eb
  8
Layer_0
  10
85.510132
  20
84.509155
  0
VERTEX
  5
2ec
  8
Layer_0
  10
85.469452
  20
84.703568
  0
VERTEX
  5
2ed
  8
Layer_0
  10
85.421204
  20
84.912872
  0
VERTEX
  5
2ee
  8
Layer_0
  10
85.32196
  20
85.304123
  0
VERTEX
  5
2ef
  8
Layer_0
  10
85.25499
  20
85.554367
  0
VERTEX
  5
2f0
  8
Layer_0
  10
85.201859
  20
85.737381
  0
VERTEX
  5
2f1
  8
Layer_0
  10
85.133255
  20
85.955917
  0
VERTEX
  5
2f2
  8
Layer_0
  10
85.073608
  20
86.131882
  0
VERTEX
  5
2f3
  8
Layer_0
  10
84.923126
  20
86.547256
  0
VERTEX
  5
2f4
  8
Layer_0
  10
84.835281
  20
86.779068
  0
VERTEX
  5
2f5
  8
Layer_0
  10
84.758011
  20
86.97049
  0
VERTEX
  5
2f6
  8
Layer_0
  10
84.676666
  20
87.160278
  0
VERTEX
  5
2f7
  8
Layer_0
  10
84.584763
  20
87.362549
  0
VERTEX
  5
2f8
  8
Layer_0
  10
84.423706
  20
87.69902
  0
VERTEX
  5
2f9
  8
Layer_0
  10
84.314163
  20
87.920532
  0
VERTEX
  5
2fa
  8
Layer_0
  10
84.216019
  20
88.108963
  0
VERTEX
  5
2fb
  8
Layer_0
  10
84.117874
  20
88.287643
  0
VERTEX
  5
2fc
  8
Layer_0
  10
84.009415
  20
88.47554
  0
VERTEX
  5
2fd
  8
Layer_0
  10
83.81366
  20
88.798996
  0
VERTEX
  5
2fe
  8
Layer_0
  10
83.677826
  20
89.017532
  0
VERTEX
  5
2ff
  8
Layer_0
  10
83.56015
  20
89.198105
  0
VERTEX
  5
300
  8
Layer_0
  10
83.460922
  20
89.34288
  0
VERTEX
  5
301
  8
Layer_0
  10
83.229645
  20
89.662552
  0
VERTEX
  5
302
  8
Layer_0
  10
83.109268
  20
89.823593
  0
VERTEX
  5
303
  8
Layer_0
  10
82.954987
  20
90.025589
  0
VERTEX
  5
304
  8
Layer_0
  10
82.823761
  20
90.189896
  0
VERTEX
  5
305
  8
Layer_0
  10
82.701218
  20
90.336578
  0
VERTEX
  5
306
  8
Layer_0
  10
82.451492
  20
90.620453
  0
VERTEX
  5
307
  8
Layer_0
  10
82.301025
  20
90.786118
  0
VERTEX
  5
308
  8
Layer_0
  10
82.136719
  20
90.963165
  0
VERTEX
  5
309
  8
Layer_0
  10
81.988953
  20
91.11554
  0
VERTEX
  5
30a
  8
Layer_0
  10
81.863144
  20
91.23999
  0
VERTEX
  5
30b
  8
Layer_0
  10
81.568695
  20
91.516006
  0
VERTEX
  5
30c
  8
Layer_0
  10
81.41687
  20
91.654007
  0
VERTEX
  5
30d
  8
Layer_0
  10
81.231415
  20
91.818848
  0
VERTEX
  5
30e
  8
Layer_0
  10
81.064667
  20
91.960922
  0
VERTEX
  5
30f
  8
Layer_0
  10
80.929092
  20
92.071274
  0
VERTEX
  5
310
  8
Layer_0
  10
80.616211
  20
92.312851
  0
VERTEX
  5
311
  8
Layer_0
  10
80.451904
  20
92.435669
  0
VERTEX
  5
312
  8
Layer_0
  10
80.249649
  20
92.583435
  0
VERTEX
  5
313
  8
Layer_0
  10
80.076126
  20
92.704636
  0
VERTEX
  5
314
  8
Layer_0
  10
79.928619
  20
92.803055
  0
VERTEX
  5
315
  8
Layer_0
  10
79.591614
  20
93.01535
  0
VERTEX
  5
316
  8
Layer_0
  10
79.407516
  20
93.12706
  0
VERTEX
  5
317
  8
Layer_0
  10
79.198196
  20
93.251236
  0
VERTEX
  5
318
  8
Layer_0
  10
79.021957
  20
93.351013
  0
VERTEX
  5
319
  8
Layer_0
  10
78.83786
  20
93.449707
  0
VERTEX
  5
31a
  8
Layer_0
  10
78.640747
  20
93.550018
  0
VERTEX
  5
31b
  8
Layer_0
  10
78.285568
  20
93.722183
  0
VERTEX
  5
31c
  8
Layer_0
  10
78.075714
  20
93.820602
  0
VERTEX
  5
31d
  8
Layer_0
  10
77.885117
  20
93.904922
  0
VERTEX
  5
31e
  8
Layer_0
  10
77.684204
  20
93.988724
  0
VERTEX
  5
31f
  8
Layer_0
  10
77.488983
  20
94.06517
  0
VERTEX
  5
320
  8
Layer_0
  10
77.113205
  20
94.203995
  0
VERTEX
  5
321
  8
Layer_0
  10
76.891418
  20
94.282608
  0
VERTEX
  5
322
  8
Layer_0
  10
76.691055
  20
94.349045
  0
VERTEX
  5
323
  8
Layer_0
  10
76.493118
  20
94.409775
  0
VERTEX
  5
324
  8
Layer_0
  10
76.292221
  20
94.466721
  0
VERTEX
  5
325
  8
Layer_0
  10
76.127914
  20
94.510086
  0
VERTEX
  5
326
  8
Layer_0
  10
75.894745
  20
94.570023
  0
VERTEX
  5
327
  8
Layer_0
  10
75.630661
  20
94.634537
  0
VERTEX
  5
328
  8
Layer_0
  10
75.440598
  20
94.676834
  0
VERTEX
  5
329
  8
Layer_0
  10
75.233185
  20
94.718338
  0
VERTEX
  5
32a
  8
Layer_0
  10
75.029282
  20
94.754654
  0
VERTEX
  5
32b
  8
Layer_0
  10
74.606049
  20
94.820541
  0
VERTEX
  5
32c
  8
Layer_0
  10
74.372345
  20
94.853897
  0
VERTEX
  5
32d
  8
Layer_0
  10
74.148117
  20
94.880997
  0
VERTEX
  5
32e
  8
Layer_0
  10
73.963196
  20
94.899185
  0
VERTEX
  5
32f
  8
Layer_0
  10
73.738434
  20
94.916519
  0
VERTEX
  5
330
  8
Layer_0
  10
73.542679
  20
94.927902
  0
VERTEX
  5
331
  8
Layer_0
  10
73.304352
  20
94.939835
  0
VERTEX
  5
332
  8
Layer_0
  10
73.046234
  20
94.949875
  0
VERTEX
  5
333
  8
Layer_0
  10
72.845596
  20
94.953659
  0
VERTEX
  5
334
  8
Layer_0
  10
72.621109
  20
94.952866
  0
VERTEX
  5
335
  8
Layer_0
  10
72.41478
  20
94.947708
  0
VERTEX
  5
336
  8
Layer_0
  10
72.241516
  20
94.940384
  0
VERTEX
  5
337
  8
Layer_0
  10
72.007263
  20
94.928726
  0
VERTEX
  5
338
  8
Layer_0
  10
71.731522
  20
94.911911
  0
VERTEX
  5
339
  8
Layer_0
  10
71.527634
  20
94.894821
  0
VERTEX
  5
33a
  8
Layer_0
  10
71.331055
  20
94.874496
  0
VERTEX
  5
33b
  8
Layer_0
  10
71.102234
  20
94.845749
  0
VERTEX
  5
33c
  8
Layer_0
  10
70.931961
  20
94.821091
  0
VERTEX
  5
33d
  8
Layer_0
  10
70.686584
  20
94.783401
  0
VERTEX
  5
33e
  8
Layer_0
  10
70.430634
  20
94.741379
  0
VERTEX
  5
33f
  8
Layer_0
  10
70.220779
  20
94.702316
  0
VERTEX
  5
340
  8
Layer_0
  10
70.026382
  20
94.661667
  0
VERTEX
  5
341
  8
Layer_0
  10
69.817062
  20
94.613388
  0
VERTEX
  5
342
  8
Layer_0
  10
69.425827
  20
94.514175
  0
VERTEX
  5
343
  8
Layer_0
  10
69.175568
  20
94.447189
  0
VERTEX
  5
344
  8
Layer_0
  10
68.983063
  20
94.391342
  0
VERTEX
  5
345
  8
Layer_0
  10
68.774033
  20
94.325455
  0
VERTEX
  5
346
  8
Layer_0
  10
68.598068
  20
94.265823
  0
VERTEX
  5
347
  8
Layer_0
  10
68.176178
  20
94.1129
  0
VERTEX
  5
348
  8
Layer_0
  10
67.950867
  20
94.027481
  0
VERTEX
  5
349
  8
Layer_0
  10
67.75946
  20
93.950211
  0
VERTEX
  5
34a
  8
Layer_0
  10
67.569656
  20
93.868881
  0
VERTEX
  5
34b
  8
Layer_0
  10
67.367401
  20
93.776962
  0
VERTEX
  5
34c
  8
Layer_0
  10
67.03093
  20
93.615906
  0
VERTEX
  5
34d
  8
Layer_0
  10
66.803711
  20
93.503387
  0
VERTEX
  5
34e
  8
Layer_0
  10
66.620438
  20
93.407959
  0
VERTEX
  5
34f
  8
Layer_0
  10
66.442291
  20
93.310074
  0
VERTEX
  5
350
  8
Layer_0
  10
66.249802
  20
93.198914
  0
VERTEX
  5
351
  8
Layer_0
  10
65.930939
  20
93.005859
  0
VERTEX
  5
352
  8
Layer_0
  10
65.708618
  20
92.867584
  0
VERTEX
  5
353
  8
Layer_0
  10
65.531845
  20
92.75235
  0
VERTEX
  5
354
  8
Layer_0
  10
65.387054
  20
92.653122
  0
VERTEX
  5
355
  8
Layer_0
  10
65.067398
  20
92.421844
  0
VERTEX
  5
356
  8
Layer_0
  10
64.906067
  20
92.301193
  0
VERTEX
  5
357
  8
Layer_0
  10
64.704346
  20
92.147186
  0
VERTEX
  5
358
  8
Layer_0
  10
64.540039
  20
92.015961
  0
VERTEX
  5
359
  8
Layer_0
  10
64.392548
  20
91.892868
  0
VERTEX
  5
35a
  8
Layer_0
  10
64.109482
  20
91.643707
  0
VERTEX
  5
35b
  8
Layer_0
  10
63.943832
  20
91.493225
  0
VERTEX
  5
35c
  8
Layer_0
  10
63.76651
  20
91.328644
  0
VERTEX
  5
35d
  8
Layer_0
  10
63.614395
  20
91.181152
  0
VERTEX
  5
35e
  8
Layer_0
  10
63.48996
  20
91.055344
  0
VERTEX
  5
35f
  8
Layer_0
  10
63.213943
  20
90.760895
  0
VERTEX
  5
360
  8
Layer_0
  10
63.075943
  20
90.60907
  0
VERTEX
  5
361
  8
Layer_0
  10
62.911087
  20
90.423615
  0
VERTEX
  5
362
  8
Layer_0
  10
62.769012
  20
90.256866
  0
VERTEX
  5
363
  8
Layer_0
  10
62.653778
  20
90.115341
  0
VERTEX
  5
364
  8
Layer_0
  10
62.417084
  20
89.808411
  0
VERTEX
  5
365
  8
Layer_0
  10
62.294266
  20
89.644104
  0
VERTEX
  5
366
  8
Layer_0
  10
62.143524
  20
89.437775
  0
VERTEX
  5
367
  8
Layer_0
  10
62.025299
  20
89.268326
  0
VERTEX
  5
368
  8
Layer_0
  10
61.92688
  20
89.120834
  0
VERTEX
  5
369
  8
Layer_0
  10
61.714584
  20
88.783813
  0
VERTEX
  5
36a
  8
Layer_0
  10
61.602875
  20
88.599716
  0
VERTEX
  5
36b
  8
Layer_0
  10
61.478699
  20
88.390396
  0
VERTEX
  5
36c
  8
Layer_0
  10
61.375397
  20
88.207657
  0
VERTEX
  5
36d
  8
Layer_0
  10
61.280243
  20
88.030075
  0
VERTEX
  5
36e
  8
Layer_0
  10
61.179916
  20
87.832962
  0
VERTEX
  5
36f
  8
Layer_0
  10
61.007751
  20
87.477768
  0
VERTEX
  5
370
  8
Layer_0
  10
60.907974
  20
87.264938
  0
VERTEX
  5
371
  8
Layer_0
  10
60.823105
  20
87.072983
  0
VERTEX
  5
372
  8
Layer_0
  10
60.740692
  20
86.87532
  0
VERTEX
  5
373
  8
Layer_0
  10
60.664764
  20
86.681198
  0
VERTEX
  5
374
  8
Layer_0
  10
60.525955
  20
86.305405
  0
VERTEX
  5
375
  8
Layer_0
  10
60.447327
  20
86.083618
  0
VERTEX
  5
376
  8
Layer_0
  10
60.38089
  20
85.883255
  0
VERTEX
  5
377
  8
Layer_0
  10
60.32016
  20
85.685333
  0
VERTEX
  5
378
  8
Layer_0
  10
60.263229
  20
85.484421
  0
VERTEX
  5
379
  8
Layer_0
  10
60.219849
  20
85.320114
  0
VERTEX
  5
37a
  8
Layer_0
  10
60.159927
  20
85.086945
  0
VERTEX
  5
37b
  8
Layer_0
  10
60.093765
  20
84.816345
  0
VERTEX
  5
37c
  8
Layer_0
  10
60.053101
  20
84.632797
  0
VERTEX
  5
37d
  8
Layer_0
  10
60.011612
  20
84.425385
  0
VERTEX
  5
37e
  8
Layer_0
  10
59.974747
  20
84.217697
  0
VERTEX
  5
37f
  8
Layer_0
  10
59.908585
  20
83.793106
  0
VERTEX
  5
380
  8
Layer_0
  10
59.874969
  20
83.555054
  0
VERTEX
  5
381
  8
Layer_0
  10
59.850021
  20
83.346558
  0
VERTEX
  5
382
  8
Layer_0
  10
59.829407
  20
83.138321
  0
VERTEX
  5
383
  8
Layer_0
  10
59.813141
  20
82.921967
  0
VERTEX
  5
384
  8
Layer_0
  10
59.803391
  20
82.758194
  0
VERTEX
  5
385
  8
Layer_0
  10
59.789551
  20
82.487335
  0
VERTEX
  5
386
  8
Layer_0
  10
59.780334
  20
82.252533
  0
VERTEX
  5
387
  8
Layer_0
  10
59.776276
  20
82.040512
  0
VERTEX
  5
388
  8
Layer_0
  10
59.77681
  20
81.824417
  0
VERTEX
  5
389
  8
Layer_0
  10
59.781967
  20
81.617279
  0
VERTEX
  5
38a
  8
Layer_0
  10
59.790375
  20
81.419617
  0
VERTEX
  5
38b
  8
Layer_0
  10
59.803116
  20
81.170731
  0
VERTEX
  5
38c
  8
Layer_0
  10
59.818573
  20
80.918839
  0
VERTEX
  5
38d
  8
Layer_0
  10
59.834839
  20
80.724991
  0
VERTEX
  5
38e
  8
Layer_0
  10
59.857346
  20
80.511063
  0
VERTEX
  5
38f
  8
Layer_0
  10
59.887161
  20
80.275452
  0
VERTEX
  5
390
  8
Layer_0
  10
59.908859
  20
80.125793
  0
VERTEX
  5
391
  8
Layer_0
  10
59.943283
  20
79.899658
  0
VERTEX
  5
392
  8
Layer_0
  10
59.987488
  20
79.628525
  0
VERTEX
  5
393
  8
Layer_0
  10
60.025177
  20
79.425186
  0
VERTEX
  5
394
  8
Layer_0
  10
60.067459
  20
79.221832
  0
VERTEX
  5
395
  8
Layer_0
  10
60.113022
  20
79.024719
  0
VERTEX
  5
396
  8
Layer_0
  10
60.218491
  20
78.607727
  0
VERTEX
  5
397
  8
Layer_0
  10
60.282745
  20
78.367767
  0
VERTEX
  5
398
  8
Layer_0
  10
60.338593
  20
78.175262
  0
VERTEX
  5
399
  8
Layer_0
  10
60.40448
  20
77.966232
  0
VERTEX
  5
39a
  8
Layer_0
  10
60.464127
  20
77.790268
  0
VERTEX
  5
39b
  8
Layer_0
  10
60.61705
  20
77.368378
  0
VERTEX
  5
39c
  8
Layer_0
  10
60.702454
  20
77.143082
  0
VERTEX
  5
39d
  8
Layer_0
  10
60.780273
  20
76.950302
  0
VERTEX
  5
39e
  8
Layer_0
  10
60.862427
  20
76.758881
  0
VERTEX
  5
39f
  8
Layer_0
  10
60.952988
  20
76.559601
  0
VERTEX
  5
3a0
  8
Layer_0
  10
61.114029
  20
76.223129
  0
VERTEX
  5
3a1
  8
Layer_0
  10
61.226547
  20
75.995926
  0
VERTEX
  5
3a2
  8
Layer_0
  10
61.321716
  20
75.813171
  0
VERTEX
  5
3a3
  8
Layer_0
  10
61.419861
  20
75.634506
  0
VERTEX
  5
3a4
  8
Layer_0
  10
61.531036
  20
75.442001
  0
VERTEX
  5
3a5
  8
Layer_0
  10
61.728149
  20
75.116364
  0
VERTEX
  5
3a6
  8
Layer_0
  10
61.86235
  20
74.900818
  0
VERTEX
  5
3a7
  8
Layer_0
  10
61.981384
  20
74.718628
  0
VERTEX
  5
3a8
  8
Layer_0
  10
62.076813
  20
74.579254
  0
VERTEX
  5
3a9
  8
Layer_0
  10
62.30809
  20
74.259598
  0
VERTEX
  5
3aa
  8
Layer_0
  10
62.428482
  20
74.098541
  0
VERTEX
  5
3ab
  8
Layer_0
  10
62.583557
  20
73.895462
  0
VERTEX
  5
3ac
  8
Layer_0
  10
62.713974
  20
73.732239
  0
VERTEX
  5
3ad
  8
Layer_0
  10
62.837067
  20
73.584747
  0
VERTEX
  5
3ae
  8
Layer_0
  10
63.086243
  20
73.301697
  0
VERTEX
  5
3af
  8
Layer_0
  10
63.23671
  20
73.136032
  0
VERTEX
  5
3b0
  8
Layer_0
  10
63.401291
  20
72.95871
  0
VERTEX
  5
3b1
  8
Layer_0
  10
63.549057
  20
72.806335
  0
VERTEX
  5
3b2
  8
Layer_0
  10
63.674591
  20
72.682159
  0
VERTEX
  5
3b3
  8
Layer_0
  10
63.96904
  20
72.406143
  0
VERTEX
  5
3b4
  8
Layer_0
  10
64.12088
  20
72.268143
  0
VERTEX
  5
3b5
  8
Layer_0
  10
64.306335
  20
72.103287
  0
VERTEX
  5
3b6
  8
Layer_0
  10
64.473068
  20
71.961212
  0
VERTEX
  5
3b7
  8
Layer_0
  10
64.608643
  20
71.850876
  0
VERTEX
  5
3b8
  8
Layer_0
  10
64.921524
  20
71.609283
  0
VERTEX
  5
3b9
  8
Layer_0
  10
65.085831
  20
71.486465
  0
VERTEX
  5
3ba
  8
Layer_0
  10
65.288361
  20
71.338425
  0
VERTEX
  5
3bb
  8
Layer_0
  10
65.462708
  20
71.21669
  0
VERTEX
  5
3bc
  8
Layer_0
  10
65.609116
  20
71.11908
  0
VERTEX
  5
3bd
  8
Layer_0
  10
65.946121
  20
70.906784
  0
VERTEX
  5
3be
  8
Layer_0
  10
66.130234
  20
70.79509
  0
VERTEX
  5
3bf
  8
Layer_0
  10
66.340347
  20
70.670364
  0
VERTEX
  5
3c0
  8
Layer_0
  10
66.515778
  20
70.571136
  0
VERTEX
  5
3c1
  8
Layer_0
  10
66.699875
  20
70.472443
  0
VERTEX
  5
3c2
  8
Layer_0
  10
66.896988
  20
70.372116
  0
VERTEX
  5
3c3
  8
Layer_0
  10
67.252167
  20
70.199951
  0
VERTEX
  5
3c4
  8
Layer_0
  10
67.465012
  20
70.100174
  0
VERTEX
  5
3c5
  8
Layer_0
  10
67.652634
  20
70.017212
  0
VERTEX
  5
3c6
  8
Layer_0
  10
67.853531
  20
69.933426
  0
VERTEX
  5
3c7
  8
Layer_0
  10
68.048752
  20
69.856964
  0
VERTEX
  5
3c8
  8
Layer_0
  10
68.42453
  20
69.718155
  0
VERTEX
  5
3c9
  8
Layer_0
  10
68.646317
  20
69.639526
  0
VERTEX
  5
3ca
  8
Layer_0
  10
68.846695
  20
69.57309
  0
VERTEX
  5
3cb
  8
Layer_0
  10
69.044617
  20
69.51236
  0
VERTEX
  5
3cc
  8
Layer_0
  10
69.245529
  20
69.455429
  0
VERTEX
  5
3cd
  8
Layer_0
  10
69.409821
  20
69.412048
  0
VERTEX
  5
3ce
  8
Layer_0
  10
69.643005
  20
69.352127
  0
VERTEX
  5
3cf
  8
Layer_0
  10
69.907074
  20
69.287598
  0
VERTEX
  5
3d0
  8
Layer_0
  10
70.097137
  20
69.2453
  0
VERTEX
  5
3d1
  8
Layer_0
  10
70.304565
  20
69.203812
  0
VERTEX
  5
3d2
  8
Layer_0
  10
70.512253
  20
69.166946
  0
VERTEX
  5
3d3
  8
Layer_0
  10
70.936844
  20
69.100784
  0
VERTEX
  5
3d4
  8
Layer_0
  10
71.174896
  20
69.067169
  0
VERTEX
  5
3d5
  8
Layer_0
  10
71.383392
  20
69.042221
  0
VERTEX
  5
3d6
  8
Layer_0
  10
71.591614
  20
69.021622
  0
VERTEX
  5
3d7
  8
Layer_0
  10
71.805542
  20
69.005615
  0
VERTEX
  5
3d8
  8
Layer_0
  10
71.971741
  20
68.99559
  0
VERTEX
  5
3d9
  8
Layer_0
  10
72.242599
  20
68.981766
  0
VERTEX
  5
3da
  8
Layer_0
  10
72.477402
  20
68.972534
  0
VERTEX
  5
3db
  8
Layer_0
  10
72.689423
  20
68.968475
  0
VERTEX
  5
3dc
  8
Layer_0
  10
72.901184
  20
68.969009
  0
SEQEND
  0
CIRCLE
  5
3de
  8
Layer_0
  62
0
  10
207.14572
  20
81.961075
  30
0
  40
3.3316576
  0
POLYLINE
  5
3de
  8
Layer_0
  62
0
  66
1
  10
0
  20
0
  30
0
  0
VERTEX
  5
3de
  8
Layer_0
  10
207.27805
  20
68.969009
  0
VERTEX
  5
3df
  8
Layer_0
  10
207.48953
  20
68.974167
  0
VERTEX
  5
3e0
  8
Layer_0
  10
207.68094
  20
68.9823
  0
VERTEX
  5
3e1
  8
Layer_0
  10
207.93607
  20
68.995316
  0
VERTEX
  5
3e2
  8
Layer_0
  10
208.18796
  20
69.010773
  0
VERTEX
  5
3e3
  8
Layer_0
  10
208.38181
  20
69.027039
  0
VERTEX
  5
3e4
  8
Layer_0
  10
208.59573
  20
69.049545
  0
VERTEX
  5
3e5
  8
Layer_0
  10
208.81155
  20
69.07692
  0
VERTEX
  5
3e6
  8
Layer_0
  10
209.23315
  20
69.139557
  0
VERTEX
  5
3e7
  8
Layer_0
  10
209.47339
  20
69.178879
  0
VERTEX
  5
3e8
  8
Layer_0
  10
209.68704
  20
69.21846
  0
VERTEX
  5
3e9
  8
Layer_0
  10
209.87683
  20
69.257767
  0
VERTEX
  5
3ea
  8
Layer_0
  10
210.08588
  20
69.30603
  0
VERTEX
  5
3eb
  8
Layer_0
  10
210.4931
  20
69.409058
  0
VERTEX
  5
3ec
  8
Layer_0
  10
210.73849
  20
69.474945
  0
VERTEX
  5
3ed
  8
Layer_0
  10
210.944
  20
69.534866
  0
VERTEX
  5
3ee
  8
Layer_0
  10
211.13596
  20
69.595062
  0
VERTEX
  5
3ef
  8
Layer_0
  10
211.32574
  20
69.659317
  0
VERTEX
  5
3f0
  8
Layer_0
  10
211.72757
  20
69.805191
  0
VERTEX
  5
3f1
  8
Layer_0
  10
211.96371
  20
69.894653
  0
VERTEX
  5
3f2
  8
Layer_0
  10
212.15271
  20
69.97084
  0
VERTEX
  5
3f3
  8
Layer_0
  10
212.34412
  20
70.052994
  0
VERTEX
  5
3f4
  8
Layer_0
  10
212.54721
  20
70.145187
  0
VERTEX
  5
3f5
  8
Layer_0
  10
212.88367
  20
70.306229
  0
VERTEX
  5
3f6
  8
Layer_0
  10
213.11087
  20
70.418747
  0
VERTEX
  5
3f7
  8
Layer_0
  10
213.29361
  20
70.513916
  0
VERTEX
  5
3f8
  8
Layer_0
  10
213.47229
  20
70.612076
  0
VERTEX
  5
3f9
  8
Layer_0
  10
213.65747
  20
70.718903
  0
VERTEX
  5
3fa
  8
Layer_0
  10
213.98529
  20
70.917099
  0
VERTEX
  5
3fb
  8
Layer_0
  10
214.19946
  20
71.050217
  0
VERTEX
  5
3fc
  8
Layer_0
  10
214.37759
  20
71.166534
  0
VERTEX
  5
3fd
  8
Layer_0
  10
214.52484
  20
71.266846
  0
VERTEX
  5
3fe
  8
Layer_0
  10
214.84775
  20
71.500839
  0
VERTEX
  5
3ff
  8
Layer_0
  10
215.02454
  20
71.633148
  0
VERTEX
  5
400
  8
Layer_0
  10
215.2135
  20
71.77739
  0
VERTEX
  5
401
  8
Layer_0
  10
215.38568
  20
71.915131
  0
VERTEX
  5
402
  8
Layer_0
  10
215.51852
  20
72.026016
  0
VERTEX
  5
403
  8
Layer_0
  10
215.80566
  20
72.278992
  0
VERTEX
  5
404
  8
Layer_0
  10
215.97076
  20
72.428925
  0
VERTEX
  5
405
  8
Layer_0
  10
216.1481
  20
72.593491
  0
VERTEX
  5
406
  8
Layer_0
  10
216.29831
  20
72.73909
  0
VERTEX
  5
407
  8
Layer_0
  10
216.42465
  20
72.866791
  0
VERTEX
  5
408
  8
Layer_0
  10
216.70065
  20
73.16124
  0
VERTEX
  5
409
  8
Layer_0
  10
216.83865
  20
73.31308
  0
VERTEX
  5
40a
  8
Layer_0
  10
217.00134
  20
73.496094
  0
VERTEX
  5
40b
  8
Layer_0
  10
217.14557
  20
73.665283
  0
VERTEX
  5
40c
  8
Layer_0
  10
217.25513
  20
73.799759
  0
VERTEX
  5
40d
  8
Layer_0
  10
217.4975
  20
74.113724
  0
VERTEX
  5
40e
  8
Layer_0
  10
217.62033
  20
74.27803
  0
VERTEX
  5
40f
  8
Layer_0
  10
217.76648
  20
74.477859
  0
VERTEX
  5
410
  8
Layer_0
  10
217.88928
  20
74.653824
  0
VERTEX
  5
411
  8
Layer_0
  10
217.9877
  20
74.801315
  0
VERTEX
  5
412
  8
Layer_0
  10
218.20001
  20
75.138336
  0
VERTEX
  5
413
  8
Layer_0
  10
218.31171
  20
75.322433
  0
VERTEX
  5
414
  8
Layer_0
  10
218.43454
  20
75.529297
  0
VERTEX
  5
415
  8
Layer_0
  10
218.53568
  20
75.707977
  0
VERTEX
  5
416
  8
Layer_0
  10
218.63382
  20
75.890991
  0
VERTEX
  5
417
  8
Layer_0
  10
218.73468
  20
76.089188
  0
VERTEX
  5
418
  8
Layer_0
  10
218.90686
  20
76.444366
  0
VERTEX
  5
419
  8
Layer_0
  10
219.00363
  20
76.650696
  0
VERTEX
  5
41a
  8
Layer_0
  10
219.0896
  20
76.844833
  0
VERTEX
  5
41b
  8
Layer_0
  10
219.17337
  20
77.045731
  0
VERTEX
  5
41c
  8
Layer_0
  10
219.24982
  20
77.240952
  0
VERTEX
  5
41d
  8
Layer_0
  10
219.38864
  20
77.616745
  0
VERTEX
  5
41e
  8
Layer_0
  10
219.46729
  20
77.838531
  0
VERTEX
  5
41f
  8
Layer_0
  10
219.53369
  20
78.038895
  0
VERTEX
  5
420
  8
Layer_0
  10
219.59442
  20
78.236816
  0
VERTEX
  5
421
  8
Layer_0
  10
219.65137
  20
78.437729
  0
VERTEX
  5
422
  8
Layer_0
  10
219.69476
  20
78.602036
  0
VERTEX
  5
423
  8
Layer_0
  10
219.75467
  20
78.835205
  0
VERTEX
  5
424
  8
Layer_0
  10
219.81921
  20
79.099289
  0
VERTEX
  5
425
  8
Layer_0
  10
219.86151
  20
79.289352
  0
VERTEX
  5
426
  8
Layer_0
  10
219.90298
  20
79.496765
  0
VERTEX
  5
427
  8
Layer_0
  10
219.9393
  20
79.700653
  0
VERTEX
  5
428
  8
Layer_0
  10
220.00519
  20
80.123886
  0
VERTEX
  5
429
  8
Layer_0
  10
220.03854
  20
80.357605
  0
VERTEX
  5
42a
  8
Layer_0
  10
220.06567
  20
80.581833
  0
VERTEX
  5
42b
  8
Layer_0
  10
220.08383
  20
80.766739
  0
VERTEX
  5
42c
  8
Layer_0
  10
220.10117
  20
80.991501
  0
VERTEX
  5
42d
  8
Layer_0
  10
220.11258
  20
81.187271
  0
VERTEX
  5
42e
  8
Layer_0
  10
220.12451
  20
81.425583
  0
VERTEX
  5
42f
  8
Layer_0
  10
220.13452
  20
81.683701
  0
VERTEX
  5
430
  8
Layer_0
  10
220.13834
  20
81.884338
  0
VERTEX
  5
431
  8
Layer_0
  10
220.13751
  20
82.108841
  0
VERTEX
  5
432
  8
Layer_0
  10
220.13235
  20
82.31517
  0
VERTEX
  5
433
  8
Layer_0
  10
220.12503
  20
82.488419
  0
VERTEX
  5
434
  8
Layer_0
  10
220.11337
  20
82.719696
  0
VERTEX
  5
435
  8
Layer_0
  10
220.09656
  20
82.995438
  0
VERTEX
  5
436
  8
Layer_0
  10
220.0795
  20
83.202316
  0
VERTEX
  5
437
  8
Layer_0
  10
220.05914
  20
83.39888
  0
VERTEX
  5
438
  8
Layer_0
  10
220.03043
  20
83.627716
  0
VERTEX
  5
439
  8
Layer_0
  10
220.00574
  20
83.797989
  0
VERTEX
  5
43a
  8
Layer_0
  10
219.96805
  20
84.043365
  0
VERTEX
  5
43b
  8
Layer_0
  10
219.92603
  20
84.299301
  0
VERTEX
  5
43c
  8
Layer_0
  10
219.88699
  20
84.509155
  0
VERTEX
  5
43d
  8
Layer_0
  10
219.84631
  20
84.703568
  0
VERTEX
  5
43e
  8
Layer_0
  10
219.79807
  20
84.912872
  0
VERTEX
  5
43f
  8
Layer_0
  10
219.69882
  20
85.304123
  0
VERTEX
  5
440
  8
Layer_0
  10
219.63187
  20
85.554367
  0
VERTEX
  5
441
  8
Layer_0
  10
219.5787
  20
85.737381
  0
VERTEX
  5
442
  8
Layer_0
  10
219.5101
  20
85.955917
  0
VERTEX
  5
443
  8
Layer_0
  10
219.45047
  20
86.131882
  0
VERTEX
  5
444
  8
Layer_0
  10
219.29999
  20
86.547256
  0
VERTEX
  5
445
  8
Layer_0
  10
219.21213
  20
86.779068
  0
VERTEX
  5
446
  8
Layer_0
  10
219.13486
  20
86.97049
  0
VERTEX
  5
447
  8
Layer_0
  10
219.05353
  20
87.160278
  0
VERTEX
  5
448
  8
Layer_0
  10
218.96161
  20
87.362549
  0
VERTEX
  5
449
  8
Layer_0
  10
218.80057
  20
87.69902
  0
VERTEX
  5
44a
  8
Layer_0
  10
218.69104
  20
87.920532
  0
VERTEX
  5
44b
  8
Layer_0
  10
218.59286
  20
88.108963
  0
VERTEX
  5
44c
  8
Layer_0
  10
218.49472
  20
88.287643
  0
VERTEX
  5
44d
  8
Layer_0
  10
218.38629
  20
88.47554
  0
VERTEX
  5
44e
  8
Layer_0
  10
218.19052
  20
88.798996
  0
VERTEX
  5
44f
  8
Layer_0
  10
218.05469
  20
89.017532
  0
VERTEX
  5
450
  8
Layer_0
  10
217.93701
  20
89.198105
  0
VERTEX
  5
451
  8
Layer_0
  10
217.83777
  20
89.34288
  0
VERTEX
  5
452
  8
Layer_0
  10
217.60651
  20
89.662552
  0
VERTEX
  5
453
  8
Layer_0
  10
217.48611
  20
89.823593
  0
VERTEX
  5
454
  8
Layer_0
  10
217.33185
  20
90.025589
  0
VERTEX
  5
455
  8
Layer_0
  10
217.20062
  20
90.189896
  0
VERTEX
  5
456
  8
Layer_0
  10
217.07806
  20
90.336578
  0
VERTEX
  5
457
  8
Layer_0
  10
216.82837
  20
90.620453
  0
VERTEX
  5
458
  8
Layer_0
  10
216.67789
  20
90.786118
  0
VERTEX
  5
459
  8
Layer_0
  10
216.51358
  20
90.963165
  0
VERTEX
  5
45a
  8
Layer_0
  10
216.36581
  20
91.11554
  0
VERTEX
  5
45b
  8
Layer_0
  10
216.23999
  20
91.23999
  0
VERTEX
  5
45c
  8
Layer_0
  10
215.94556
  20
91.516006
  0
VERTEX
  5
45d
  8
Layer_0
  10
215.79373
  20
91.654007
  0
VERTEX
  5
45e
  8
Layer_0
  10
215.60828
  20
91.818848
  0
VERTEX
  5
45f
  8
Layer_0
  10
215.44153
  20
91.960922
  0
VERTEX
  5
460
  8
Layer_0
  10
215.30298
  20
92.07399
  0
VERTEX
  5
461
  8
Layer_0
  10
215.00851
  20
92.301193
  0
VERTEX
  5
462
  8
Layer_0
  10
214.82742
  20
92.436768
  0
VERTEX
  5
463
  8
Layer_0
  10
214.62405
  20
92.585342
  0
VERTEX
  5
464
  8
Layer_0
  10
214.46408
  20
92.697311
  0
VERTEX
  5
465
  8
Layer_0
  10
214.30875
  20
92.801163
  0
VERTEX
  5
466
  8
Layer_0
  10
213.96359
  20
93.018341
  0
VERTEX
  5
467
  8
Layer_0
  10
213.77676
  20
93.131943
  0
VERTEX
  5
468
  8
Layer_0
  10
213.57858
  20
93.249344
  0
VERTEX
  5
469
  8
Layer_0
  10
213.38934
  20
93.356171
  0
VERTEX
  5
46a
  8
Layer_0
  10
213.21121
  20
93.451599
  0
VERTEX
  5
46b
  8
Layer_0
  10
213.01978
  20
93.54921
  0
VERTEX
  5
46c
  8
Layer_0
  10
212.65213
  20
93.727066
  0
VERTEX
  5
46d
  8
Layer_0
  10
212.45258
  20
93.820602
  0
VERTEX
  5
46e
  8
Layer_0
  10
212.26196
  20
93.904922
  0
VERTEX
  5
46f
  8
Layer_0
  10
212.06107
  20
93.988724
  0
VERTEX
  5
470
  8
Layer_0
  10
211.86584
  20
94.06517
  0
VERTEX
  5
471
  8
Layer_0
  10
211.49005
  20
94.203995
  0
VERTEX
  5
472
  8
Layer_0
  10
211.26828
  20
94.282608
  0
VERTEX
  5
473
  8
Layer_0
  10
211.0679
  20
94.349045
  0
VERTEX
  5
474
  8
Layer_0
  10
210.87
  20
94.409775
  0
VERTEX
  5
475
  8
Layer_0
  10
210.68045
  20
94.463455
  0
VERTEX
  5
476
  8
Layer_0
  10
210.25046
  20
94.575455
  0
VERTEX
  5
477
  8
Layer_0
  10
210.01889
  20
94.632095
  0
VERTEX
  5
478
  8
Layer_0
  10
209.82153
  20
94.676041
  0
VERTEX
  5
479
  8
Layer_0
  10
209.61032
  20
94.718338
  0
VERTEX
  5
47a
  8
Layer_0
  10
209.39938
  20
94.756027
  0
VERTEX
  5
47b
  8
Layer_0
  10
208.99051
  20
94.819473
  0
VERTEX
  5
47c
  8
Layer_0
  10
208.74078
  20
94.85524
  0
VERTEX
  5
47d
  8
Layer_0
  10
208.54611
  20
94.878555
  0
VERTEX
  5
47e
  8
Layer_0
  10
208.32324
  20
94.900803
  0
VERTEX
  5
47f
  8
Layer_0
  10
208.12073
  20
94.916245
  0
VERTEX
  5
480
  8
Layer_0
  10
207.92386
  20
94.927902
  0
VERTEX
  5
481
  8
Layer_0
  10
207.68121
  20
94.939835
  0
VERTEX
  5
482
  8
Layer_0
  10
207.4231
  20
94.949875
  0
VERTEX
  5
483
  8
Layer_0
  10
207.22244
  20
94.953659
  0
VERTEX
  5
484
  8
Layer_0
  10
206.99796
  20
94.952866
  0
VERTEX
  5
485
  8
Layer_0
  10
206.79163
  20
94.947708
  0
VERTEX
  5
486
  8
Layer_0
  10
206.61838
  20
94.940384
  0
VERTEX
  5
487
  8
Layer_0
  10
206.38412
  20
94.928726
  0
VERTEX
  5
488
  8
Layer_0
  10
206.10837
  20
94.911911
  0
VERTEX
  5
489
  8
Layer_0
  10
205.90448
  20
94.894821
  0
VERTEX
  5
48a
  8
Layer_0
  10
205.70792
  20
94.874496
  0
VERTEX
  5
48b
  8
Layer_0
  10
205.4791
  20
94.845749
  0
VERTEX
  5
48c
  8
Layer_0
  10
205.30881
  20
94.821091
  0
VERTEX
  5
48d
  8
Layer_0
  10
205.06345
  20
94.783401
  0
VERTEX
  5
48e
  8
Layer_0
  10
204.8075
  20
94.741379
  0
VERTEX
  5
48f
  8
Layer_0
  10
204.59763
  20
94.702316
  0
VERTEX
  5
490
  8
Layer_0
  10
204.40323
  20
94.661667
  0
VERTEX
  5
491
  8
Layer_0
  10
204.19394
  20
94.613388
  0
VERTEX
  5
492
  8
Layer_0
  10
203.80267
  20
94.514175
  0
VERTEX
  5
493
  8
Layer_0
  10
203.55243
  20
94.447189
  0
VERTEX
  5
494
  8
Layer_0
  10
203.35992
  20
94.391342
  0
VERTEX
  5
495
  8
Layer_0
  10
203.15088
  20
94.325455
  0
VERTEX
  5
496
  8
Layer_0
  10
202.97491
  20
94.265823
  0
VERTEX
  5
497
  8
Layer_0
  10
202.55304
  20
94.1129
  0
VERTEX
  5
498
  8
Layer_0
  10
202.32773
  20
94.027481
  0
VERTEX
  5
499
  8
Layer_0
  10
202.13632
  20
93.950211
  0
VERTEX
  5
49a
  8
Layer_0
  10
201.94653
  20
93.868881
  0
VERTEX
  5
49b
  8
Layer_0
  10
201.74426
  20
93.776962
  0
VERTEX
  5
49c
  8
Layer_0
  10
201.40778
  20
93.615906
  0
VERTEX
  5
49d
  8
Layer_0
  10
201.18057
  20
93.503387
  0
VERTEX
  5
49e
  8
Layer_0
  10
200.99728
  20
93.407959
  0
VERTEX
  5
49f
  8
Layer_0
  10
200.81915
  20
93.310074
  0
VERTEX
  5
4a0
  8
Layer_0
  10
200.62665
  20
93.198914
  0
VERTEX
  5
4a1
  8
Layer_0
  10
200.3078
  20
93.005859
  0
VERTEX
  5
4a2
  8
Layer_0
  10
200.08548
  20
92.867584
  0
VERTEX
  5
4a3
  8
Layer_0
  10
199.90869
  20
92.75235
  0
VERTEX
  5
4a4
  8
Layer_0
  10
199.76392
  20
92.653122
  0
VERTEX
  5
4a5
  8
Layer_0
  10
199.44424
  20
92.421844
  0
VERTEX
  5
4a6
  8
Layer_0
  10
199.28293
  20
92.301193
  0
VERTEX
  5
4a7
  8
Layer_0
  10
199.08121
  20
92.147186
  0
VERTEX
  5
4a8
  8
Layer_0
  10
198.9169
  20
92.015961
  0
VERTEX
  5
4a9
  8
Layer_0
  10
198.76941
  20
91.892868
  0
VERTEX
  5
4aa
  8
Layer_0
  10
198.48636
  20
91.643707
  0
VERTEX
  5
4ab
  8
Layer_0
  10
198.32068
  20
91.493225
  0
VERTEX
  5
4ac
  8
Layer_0
  10
198.14337
  20
91.328644
  0
VERTEX
  5
4ad
  8
Layer_0
  10
197.99127
  20
91.181152
  0
VERTEX
  5
4ae
  8
Layer_0
  10
197.86682
  20
91.055344
  0
VERTEX
  5
4af
  8
Layer_0
  10
197.59079
  20
90.760895
  0
VERTEX
  5
4b0
  8
Layer_0
  10
197.45279
  20
90.60907
  0
VERTEX
  5
4b1
  8
Layer_0
  10
197.28793
  20
90.423615
  0
VERTEX
  5
4b2
  8
Layer_0
  10
197.14587
  20
90.256866
  0
VERTEX
  5
4b3
  8
Layer_0
  10
197.03064
  20
90.115341
  0
VERTEX
  5
4b4
  8
Layer_0
  10
196.79395
  20
89.808411
  0
VERTEX
  5
4b5
  8
Layer_0
  10
196.67111
  20
89.644104
  0
VERTEX
  5
4b6
  8
Layer_0
  10
196.52039
  20
89.437775
  0
VERTEX
  5
4b7
  8
Layer_0
  10
196.40216
  20
89.268326
  0
VERTEX
  5
4b8
  8
Layer_0
  10
196.30374
  20
89.120834
  0
VERTEX
  5
4b9
  8
Layer_0
  10
196.09143
  20
88.783813
  0
VERTEX
  5
4ba
  8
Layer_0
  10
195.97974
  20
88.599716
  0
VERTEX
  5
4bb
  8
Layer_0
  10
195.85556
  20
88.390396
  0
VERTEX
  5
4bc
  8
Layer_0
  10
195.75226
  20
88.207657
  0
VERTEX
  5
4bd
  8
Layer_0
  10
195.6571
  20
88.030075
  0
VERTEX
  5
4be
  8
Layer_0
  10
195.55676
  20
87.832962
  0
VERTEX
  5
4bf
  8
Layer_0
  10
195.38461
  20
87.477768
  0
VERTEX
  5
4c0
  8
Layer_0
  10
195.28482
  20
87.264938
  0
VERTEX
  5
4c1
  8
Layer_0
  10
195.19998
  20
87.072983
  0
VERTEX
  5
4c2
  8
Layer_0
  10
195.11755
  20
86.87532
  0
VERTEX
  5
4c3
  8
Layer_0
  10
195.03864
  20
86.673599
  0
VERTEX
  5
4c4
  8
Layer_0
  10
194.90851
  20
86.320862
  0
VERTEX
  5
4c5
  8
Layer_0
  10
194.82254
  20
86.078201
  0
VERTEX
  5
4c6
  8
Layer_0
  10
194.7572
  20
85.879456
  0
VERTEX
  5
4c7
  8
Layer_0
  10
194.69458
  20
85.675568
  0
VERTEX
  5
4c8
  8
Layer_0
  10
194.64145
  20
85.486862
  0
VERTEX
  5
4c9
  8
Layer_0
  10
194.53082
  20
85.062805
  0
VERTEX
  5
4ca
  8
Layer_0
  10
194.47577
  20
84.838043
  0
VERTEX
  5
4cb
  8
Layer_0
  10
194.43051
  20
84.635513
  0
VERTEX
  5
4cc
  8
Layer_0
  10
194.38928
  20
84.430527
  0
VERTEX
  5
4cd
  8
Layer_0
  10
194.35242
  20
84.224197
  0
VERTEX
  5
4ce
  8
Layer_0
  10
194.31961
  20
84.019501
  0
VERTEX
  5
4cf
  8
Layer_0
  10
194.28925
  20
83.819946
  0
VERTEX
  5
4d0
  8
Layer_0
  10
194.25183
  20
83.555054
  0
VERTEX
  5
4d1
  8
Layer_0
  10
194.22687
  20
83.346558
  0
VERTEX
  5
4d2
  8
Layer_0
  10
194.20627
  20
83.138321
  0
VERTEX
  5
4d3
  8
Layer_0
  10
194.19
  20
82.921967
  0
VERTEX
  5
4d4
  8
Layer_0
  10
194.18024
  20
82.758194
  0
VERTEX
  5
4d5
  8
Layer_0
  10
194.16641
  20
82.487335
  0
VERTEX
  5
4d6
  8
Layer_0
  10
194.1572
  20
82.252533
  0
VERTEX
  5
4d7
  8
Layer_0
  10
194.15314
  20
82.040512
  0
VERTEX
  5
4d8
  8
Layer_0
  10
194.15369
  20
81.824417
  0
VERTEX
  5
4d9
  8
Layer_0
  10
194.15881
  20
81.617279
  0
VERTEX
  5
4da
  8
Layer_0
  10
194.16724
  20
81.419617
  0
VERTEX
  5
4db
  8
Layer_0
  10
194.17996
  20
81.170731
  0
VERTEX
  5
4dc
  8
Layer_0
  10
194.19543
  20
80.918839
  0
VERTEX
  5
4dd
  8
Layer_0
  10
194.2117
  20
80.724991
  0
VERTEX
  5
4de
  8
Layer_0
  10
194.23419
  20
80.511063
  0
VERTEX
  5
4df
  8
Layer_0
  10
194.26404
  20
80.275452
  0
VERTEX
  5
4e0
  8
Layer_0
  10
194.28571
  20
80.125793
  0
VERTEX
  5
4e1
  8
Layer_0
  10
194.32016
  20
79.899658
  0
VERTEX
  5
4e2
  8
Layer_0
  10
194.36435
  20
79.628525
  0
VERTEX
  5
4e3
  8
Layer_0
  10
194.40204
  20
79.425186
  0
VERTEX
  5
4e4
  8
Layer_0
  10
194.44434
  20
79.221832
  0
VERTEX
  5
4e5
  8
Layer_0
  10
194.48987
  20
79.024994
  0
VERTEX
  5
4e6
  8
Layer_0
  10
194.60049
  20
78.588745
  0
VERTEX
  5
4e7
  8
Layer_0
  10
194.65799
  20
78.374283
  0
VERTEX
  5
4e8
  8
Layer_0
  10
194.71951
  20
78.163605
  0
VERTEX
  5
4e9
  8
Layer_0
  10
194.78485
  20
77.956192
  0
VERTEX
  5
4ea
  8
Layer_0
  10
194.84586
  20
77.776169
  0
VERTEX
  5
4eb
  8
Layer_0
  10
194.9931
  20
77.370285
  0
VERTEX
  5
4ec
  8
Layer_0
  10
195.07443
  20
77.155548
  0
VERTEX
  5
4ed
  8
Layer_0
  10
195.15714
  20
76.950302
  0
VERTEX
  5
4ee
  8
Layer_0
  10
195.23929
  20
76.758881
  0
VERTEX
  5
4ef
  8
Layer_0
  10
195.32388
  20
76.572067
  0
VERTEX
  5
4f0
  8
Layer_0
  10
195.49252
  20
76.220139
  0
VERTEX
  5
4f1
  8
Layer_0
  10
195.60342
  20
75.995926
  0
VERTEX
  5
4f2
  8
Layer_0
  10
195.69858
  20
75.813171
  0
VERTEX
  5
4f3
  8
Layer_0
  10
195.79672
  20
75.634506
  0
VERTEX
  5
4f4
  8
Layer_0
  10
195.9079
  20
75.442001
  0
VERTEX
  5
4f5
  8
Layer_0
  10
196.10501
  20
75.116364
  0
VERTEX
  5
4f6
  8
Layer_0
  10
196.23923
  20
74.900818
  0
VERTEX
  5
4f7
  8
Layer_0
  10
196.35825
  20
74.718628
  0
VERTEX
  5
4f8
  8
Layer_0
  10
196.45367
  20
74.579254
  0
VERTEX
  5
4f9
  8
Layer_0
  10
196.68494
  20
74.259598
  0
VERTEX
  5
4fa
  8
Layer_0
  10
196.80533
  20
74.098541
  0
VERTEX
  5
4fb
  8
Layer_0
  10
196.96042
  20
73.895462
  0
VERTEX
  5
4fc
  8
Layer_0
  10
197.09082
  20
73.732239
  0
VERTEX
  5
4fd
  8
Layer_0
  10
197.21393
  20
73.584747
  0
VERTEX
  5
4fe
  8
Layer_0
  10
197.4631
  20
73.301697
  0
VERTEX
  5
4ff
  8
Layer_0
  10
197.61359
  20
73.136032
  0
VERTEX
  5
500
  8
Layer_0
  10
197.77814
  20
72.95871
  0
VERTEX
  5
501
  8
Layer_0
  10
197.9259
  20
72.806335
  0
VERTEX
  5
502
  8
Layer_0
  10
198.05145
  20
72.682159
  0
VERTEX
  5
503
  8
Layer_0
  10
198.34589
  20
72.406143
  0
VERTEX
  5
504
  8
Layer_0
  10
198.49774
  20
72.268143
  0
VERTEX
  5
505
  8
Layer_0
  10
198.6832
  20
72.103287
  0
VERTEX
  5
506
  8
Layer_0
  10
198.84995
  20
71.961212
  0
VERTEX
  5
507
  8
Layer_0
  10
198.9855
  20
71.850876
  0
VERTEX
  5
508
  8
Layer_0
  10
199.29837
  20
71.609283
  0
VERTEX
  5
509
  8
Layer_0
  10
199.46268
  20
71.486465
  0
VERTEX
  5
50a
  8
Layer_0
  10
199.66522
  20
71.338425
  0
VERTEX
  5
50b
  8
Layer_0
  10
199.83957
  20
71.21669
  0
VERTEX
  5
50c
  8
Layer_0
  10
199.98596
  20
71.11908
  0
VERTEX
  5
50d
  8
Layer_0
  10
200.323
  20
70.906784
  0
VERTEX
  5
50e
  8
Layer_0
  10
200.50708
  20
70.79509
  0
VERTEX
  5
50f
  8
Layer_0
  10
200.71722
  20
70.670364
  0
VERTEX
  5
510
  8
Layer_0
  10
200.89264
  20
70.571136
  0
VERTEX
  5
511
  8
Layer_0
  10
201.07672
  20
70.472443
  0
VERTEX
  5
512
  8
Layer_0
  10
201.27383
  20
70.372116
  0
VERTEX
  5
513
  8
Layer_0
  10
201.62903
  20
70.199951
  0
VERTEX
  5
514
  8
Layer_0
  10
201.84186
  20
70.100174
  0
VERTEX
  5
515
  8
Layer_0
  10
202.02948
  20
70.017212
  0
VERTEX
  5
516
  8
Layer_0
  10
202.23041
  20
69.933426
  0
VERTEX
  5
517
  8
Layer_0
  10
202.4256
  20
69.856964
  0
VERTEX
  5
518
  8
Layer_0
  10
202.80139
  20
69.718155
  0
VERTEX
  5
519
  8
Layer_0
  10
203.02319
  20
69.639526
  0
VERTEX
  5
51a
  8
Layer_0
  10
203.22354
  20
69.57309
  0
VERTEX
  5
51b
  8
Layer_0
  10
203.42148
  20
69.51236
  0
VERTEX
  5
51c
  8
Layer_0
  10
203.62238
  20
69.455429
  0
VERTEX
  5
51d
  8
Layer_0
  10
203.78668
  20
69.412048
  0
VERTEX
  5
51e
  8
Layer_0
  10
204.01987
  20
69.352127
  0
VERTEX
  5
51f
  8
Layer_0
  10
204.28394
  20
69.287598
  0
VERTEX
  5
520
  8
Layer_0
  10
204.474
  20
69.2453
  0
VERTEX
  5
521
  8
Layer_0
  10
204.68143
  20
69.203812
  0
VERTEX
  5
522
  8
Layer_0
  10
204.8891
  20
69.166946
  0
VERTEX
  5
523
  8
Layer_0
  10
205.31369
  20
69.100784
  0
VERTEX
  5
524
  8
Layer_0
  10
205.55176
  20
69.067169
  0
VERTEX
  5
525
  8
Layer_0
  10
205.76025
  20
69.042221
  0
VERTEX
  5
526
  8
Layer_0
  10
205.96848
  20
69.021622
  0
VERTEX
  5
527
  8
Layer_0
  10
206.1824
  20
69.005615
  0
VERTEX
  5
528
  8
Layer_0
  10
206.3486
  20
68.99559
  0
VERTEX
  5
529
  8
Layer_0
  10
206.61948
  20
68.981766
  0
VERTEX
  5
52a
  8
Layer_0
  10
206.85425
  20
68.972534
  0
VERTEX
  5
52b
  8
Layer_0
  10
207.06628
  20
68.968475
  0
VERTEX
  5
52c
  8
Layer_0
  10
207.27805
  20
68.969009
  0
SEQEND
  0
POLYLINE
  5
52e
  8
Layer_0
  62
0
  66
1
  10
0
  20
0
  30
0
  0
VERTEX
  5
52e
  8
Layer_0
  10
207.39868
  20
59.751648
  0
VERTEX
  5
52f
  8
Layer_0
  10
207.80322
  20
59.761414
  0
VERTEX
  5
530
  8
Layer_0
  10
208.10663
  20
59.774429
  0
VERTEX
  5
531
  8
Layer_0
  10
208.44714
  20
59.791779
  0
VERTEX
  5
532
  8
Layer_0
  10
208.85086
  20
59.816727
  0
VERTEX
  5
533
  8
Layer_0
  10
209.2543
  20
59.850342
  0
VERTEX
  5
534
  8
Layer_0
  10
209.65695
  20
59.892639
  0
VERTEX
  5
535
  8
Layer_0
  10
210.05823
  20
59.943344
  0
VERTEX
  5
536
  8
Layer_0
  10
210.32935
  20
59.982651
  0
VERTEX
  5
537
  8
Layer_0
  10
210.6604
  20
60.033081
  0
VERTEX
  5
538
  8
Layer_0
  10
211.06006
  20
60.098419
  0
VERTEX
  5
539
  8
Layer_0
  10
211.45779
  20
60.172165
  0
VERTEX
  5
53a
  8
Layer_0
  10
211.85419
  20
60.254318
  0
VERTEX
  5
53b
  8
Layer_0
  10
212.24841
  20
60.345154
  0
VERTEX
  5
53c
  8
Layer_0
  10
212.50952
  20
60.410233
  0
VERTEX
  5
53d
  8
Layer_0
  10
212.82864
  20
60.492111
  0
VERTEX
  5
53e
  8
Layer_0
  10
213.2196
  20
60.596756
  0
VERTEX
  5
53f
  8
Layer_0
  10
213.60812
  20
60.710098
  0
VERTEX
  5
540
  8
Layer_0
  10
213.99423
  20
60.831299
  0
VERTEX
  5
541
  8
Layer_0
  10
214.37759
  20
60.961166
  0
VERTEX
  5
542
  8
Layer_0
  10
214.63626
  20
61.053894
  0
VERTEX
  5
543
  8
Layer_0
  10
214.94238
  20
61.166138
  0
VERTEX
  5
544
  8
Layer_0
  10
215.32086
  20
61.30957
  0
VERTEX
  5
545
  8
Layer_0
  10
215.69611
  20
61.460861
  0
VERTEX
  5
546
  8
Layer_0
  10
216.06812
  20
61.62056
  0
VERTEX
  5
547
  8
Layer_0
  10
216.43658
  20
61.787842
  0
VERTEX
  5
548
  8
Layer_0
  10
216.63126
  20
61.880295
  0
VERTEX
  5
549
  8
Layer_0
  10
216.92245
  20
62.020477
  0
VERTEX
  5
54a
  8
Layer_0
  10
217.28522
  20
62.199966
  0
VERTEX
  5
54b
  8
Layer_0
  10
217.6442
  20
62.387039
  0
VERTEX
  5
54c
  8
Layer_0
  10
217.99884
  20
62.581985
  0
VERTEX
  5
54d
  8
Layer_0
  10
218.3494
  20
62.784241
  0
VERTEX
  5
54e
  8
Layer_0
  10
218.53595
  20
62.896225
  0
VERTEX
  5
54f
  8
Layer_0
  10
218.81088
  20
63.063248
  0
VERTEX
  5
550
  8
Layer_0
  10
219.15439
  20
63.276886
  0
VERTEX
  5
551
  8
Layer_0
  10
219.49332
  20
63.498138
  0
VERTEX
  5
552
  8
Layer_0
  10
219.82761
  20
63.726425
  0
VERTEX
  5
553
  8
Layer_0
  10
220.31836
  20
64.081604
  0
VERTEX
  5
554
  8
Layer_0
  10
220.57458
  20
64.2733
  0
VERTEX
  5
555
  8
Layer_0
  10
220.89615
  20
64.519211
  0
VERTEX
  5
556
  8
Layer_0
  10
221.21228
  20
64.771912
  0
VERTEX
  5
557
  8
Layer_0
  10
221.52271
  20
65.031387
  0
VERTEX
  5
558
  8
Layer_0
  10
221.95898
  20
65.415573
  0
VERTEX
  5
559
  8
Layer_0
  10
222.19568
  20
65.630585
  0
VERTEX
  5
55a
  8
Layer_0
  10
222.49228
  20
65.905777
  0
VERTEX
  5
55b
  8
Layer_0
  10
222.78293
  20
66.187485
  0
VERTEX
  5
55c
  8
Layer_0
  10
223.06763
  20
66.475159
  0
VERTEX
  5
55d
  8
Layer_0
  10
223.47623
  20
66.911133
  0
VERTEX
  5
55e
  8
Layer_0
  10
223.69122
  20
67.147827
  0
VERTEX
  5
55f
  8
Layer_0
  10
223.96017
  20
67.450409
  0
VERTEX
  5
560
  8
Layer_0
  10
224.22266
  20
67.758423
  0
VERTEX
  5
561
  8
Layer_0
  10
224.47833
  20
68.072113
  0
VERTEX
  5
562
  8
Layer_0
  10
224.8392
  20
68.53981
  0
VERTEX
  5
563
  8
Layer_0
  10
225.03088
  20
68.79631
  0
VERTEX
  5
564
  8
Layer_0
  10
225.26974
  20
69.123016
  0
VERTEX
  5
565
  8
Layer_0
  10
225.50156
  20
69.45488
  0
VERTEX
  5
566
  8
Layer_0
  10
225.72607
  20
69.791626
  0
VERTEX
  5
567
  8
Layer_0
  10
226.03922
  20
70.289154
  0
VERTEX
  5
568
  8
Layer_0
  10
226.20624
  20
70.563812
  0
VERTEX
  5
569
  8
Layer_0
  10
226.41284
  20
70.911942
  0
VERTEX
  5
56a
  8
Layer_0
  10
226.61185
  20
71.264145
  0
VERTEX
  5
56b
  8
Layer_0
  10
226.80353
  20
71.620956
  0
VERTEX
  5
56c
  8
Layer_0
  10
226.98709
  20
71.981552
  0
VERTEX
  5
56d
  8
Layer_0
  10
227.08633
  20
72.184357
  0
VERTEX
  5
56e
  8
Layer_0
  10
227.2265
  20
72.475555
  0
VERTEX
  5
56f
  8
Layer_0
  10
227.39813
  20
72.842117
  0
VERTEX
  5
570
  8
Layer_0
  10
227.56189
  20
73.212219
  0
VERTEX
  5
571
  8
Layer_0
  10
227.71753
  20
73.585571
  0
VERTEX
  5
572
  8
Layer_0
  10
227.8653
  20
73.962433
  0
VERTEX
  5
573
  8
Layer_0
  10
227.94067
  20
74.164429
  0
VERTEX
  5
574
  8
Layer_0
  10
228.05292
  20
74.470535
  0
VERTEX
  5
575
  8
Layer_0
  10
228.1882
  20
74.85202
  0
VERTEX
  5
576
  8
Layer_0
  10
228.31537
  20
75.236206
  0
VERTEX
  5
577
  8
Layer_0
  10
228.43411
  20
75.623108
  0
VERTEX
  5
578
  8
Layer_0
  10
228.54446
  20
76.012451
  0
VERTEX
  5
579
  8
Layer_0
  10
228.61578
  20
76.281967
  0
VERTEX
  5
57a
  8
Layer_0
  10
228.69766
  20
76.601349
  0
VERTEX
  5
57b
  8
Layer_0
  10
228.79391
  20
76.994492
  0
VERTEX
  5
57c
  8
Layer_0
  10
228.88174
  20
77.389526
  0
VERTEX
  5
57d
  8
Layer_0
  10
228.96121
  20
77.786469
  0
VERTEX
  5
57e
  8
Layer_0
  10
229.03195
  20
78.184753
  0
VERTEX
  5
57f
  8
Layer_0
  10
229.07101
  20
78.429321
  0
VERTEX
  5
580
  8
Layer_0
  10
229.1217
  20
78.760101
  0
VERTEX
  5
581
  8
Layer_0
  10
229.17865
  20
79.160828
  0
VERTEX
  5
582
  8
Layer_0
  10
229.22717
  20
79.562653
  0
VERTEX
  5
583
  8
Layer_0
  10
229.26703
  20
79.965271
  0
VERTEX
  5
584
  8
Layer_0
  10
229.29822
  20
80.368988
  0
VERTEX
  5
585
  8
Layer_0
  10
229.3161
  20
80.67482
  0
VERTEX
  5
586
  8
Layer_0
  10
229.33319
  20
81.015366
  0
VERTEX
  5
587
  8
Layer_0
  10
229.34891
  20
81.419617
  0
VERTEX
  5
588
  8
Layer_0
  10
229.35623
  20
81.824417
  0
VERTEX
  5
589
  8
Layer_0
  10
229.35489
  20
82.228943
  0
VERTEX
  5
58a
  8
Layer_0
  10
229.34485
  20
82.633743
  0
VERTEX
  5
58b
  8
Layer_0
  10
229.33319
  20
82.906784
  0
VERTEX
  5
58c
  8
Layer_0
  10
229.3161
  20
83.247314
  0
VERTEX
  5
58d
  8
Layer_0
  10
229.29144
  20
83.651306
  0
VERTEX
  5
58e
  8
Layer_0
  10
229.25809
  20
84.054749
  0
VERTEX
  5
58f
  8
Layer_0
  10
229.21634
  20
84.457382
  0
VERTEX
  5
590
  8
Layer_0
  10
229.16562
  20
84.858917
  0
VERTEX
  5
591
  8
Layer_0
  10
229.1217
  20
85.162048
  0
VERTEX
  5
592
  8
Layer_0
  10
229.07101
  20
85.492828
  0
VERTEX
  5
593
  8
Layer_0
  10
229.0054
  20
85.892197
  0
VERTEX
  5
594
  8
Layer_0
  10
228.93137
  20
86.289948
  0
VERTEX
  5
595
  8
Layer_0
  10
228.84869
  20
86.68634
  0
VERTEX
  5
596
  8
Layer_0
  10
228.75757
  20
87.080566
  0
VERTEX
  5
597
  8
Layer_0
  10
228.69766
  20
87.320786
  0
VERTEX
  5
598
  8
Layer_0
  10
228.61578
  20
87.640182
  0
VERTEX
  5
599
  8
Layer_0
  10
228.51111
  20
88.031158
  0
VERTEX
  5
59a
  8
Layer_0
  10
228.39807
  20
88.419678
  0
VERTEX
  5
59b
  8
Layer_0
  10
228.27658
  20
88.805771
  0
VERTEX
  5
59c
  8
Layer_0
  10
228.147
  20
89.189148
  0
VERTEX
  5
59d
  8
Layer_0
  10
228.05292
  20
89.451614
  0
VERTEX
  5
59e
  8
Layer_0
  10
227.94067
  20
89.757721
  0
VERTEX
  5
59f
  8
Layer_0
  10
227.79724
  20
90.136215
  0
VERTEX
  5
5a0
  8
Layer_0
  10
227.64594
  20
90.511459
  0
VERTEX
  5
5a1
  8
Layer_0
  10
227.48624
  20
90.883453
  0
VERTEX
  5
5a2
  8
Layer_0
  10
227.31897
  20
91.251923
  0
VERTEX
  5
5a3
  8
Layer_0
  10
227.2265
  20
91.446594
  0
VERTEX
  5
5a4
  8
Layer_0
  10
227.08633
  20
91.737778
  0
VERTEX
  5
5a5
  8
Layer_0
  10
226.90683
  20
92.100555
  0
VERTEX
  5
5a6
  8
Layer_0
  10
226.71976
  20
92.459534
  0
VERTEX
  5
5a7
  8
Layer_0
  10
226.52481
  20
92.814178
  0
VERTEX
  5
5a8
  8
Layer_0
  10
226.32254
  20
93.164749
  0
VERTEX
  5
5a9
  8
Layer_0
  10
226.20624
  20
93.358337
  0
VERTEX
  5
5aa
  8
Layer_0
  10
226.03922
  20
93.632996
  0
VERTEX
  5
5ab
  8
Layer_0
  10
225.82529
  20
93.976517
  0
VERTEX
  5
5ac
  8
Layer_0
  10
225.60406
  20
94.315414
  0
VERTEX
  5
5ad
  8
Layer_0
  10
225.37549
  20
94.64946
  0
VERTEX
  5
5ae
  8
Layer_0
  10
225.03088
  20
95.125839
  0
VERTEX
  5
5af
  8
Layer_0
  10
224.8392
  20
95.382339
  0
VERTEX
  5
5b0
  8
Layer_0
  10
224.59354
  20
95.703903
  0
VERTEX
  5
5b1
  8
Layer_0
  10
224.34085
  20
96.020035
  0
VERTEX
  5
5b2
  8
Layer_0
  10
224.08167
  20
96.330734
  0
VERTEX
  5
5b3
  8
Layer_0
  10
223.69122
  20
96.774307
  0
VERTEX
  5
5b4
  8
Layer_0
  10
223.47623
  20
97.011002
  0
VERTEX
  5
5b5
  8
Layer_0
  10
223.20102
  20
97.307632
  0
VERTEX
  5
5b6
  8
Layer_0
  10
222.91931
  20
97.598282
  0
VERTEX
  5
5b7
  8
Layer_0
  10
222.63165
  20
97.88298
  0
VERTEX
  5
5b8
  8
Layer_0
  10
222.19568
  20
98.29155
  0
VERTEX
  5
5b9
  8
Layer_0
  10
221.95898
  20
98.506577
  0
VERTEX
  5
5ba
  8
Layer_0
  10
221.65637
  20
98.775528
  0
VERTEX
  5
5bb
  8
Layer_0
  10
221.34839
  20
99.037979
  0
VERTEX
  5
5bc
  8
Layer_0
  10
221.0347
  20
99.293655
  0
VERTEX
  5
5bd
  8
Layer_0
  10
220.57458
  20
99.648849
  0
VERTEX
  5
5be
  8
Layer_0
  10
220.31836
  20
99.84053
  0
VERTEX
  5
5bf
  8
Layer_0
  10
219.99164
  20
100.07939
  0
VERTEX
  5
5c0
  8
Layer_0
  10
219.66006
  20
100.31148
  0
VERTEX
  5
5c1
  8
Layer_0
  10
219.32358
  20
100.53627
  0
VERTEX
  5
5c2
  8
Layer_0
  10
218.81088
  20
100.8589
  0
VERTEX
  5
5c3
  8
Layer_0
  10
218.53595
  20
101.02592
  0
VERTEX
  5
5c4
  8
Layer_0
  10
218.18781
  20
101.23253
  0
VERTEX
  5
5c5
  8
Layer_0
  10
217.83533
  20
101.43126
  0
VERTEX
  5
5c6
  8
Layer_0
  10
217.47852
  20
101.62267
  0
VERTEX
  5
5c7
  8
Layer_0
  10
217.11792
  20
101.80623
  0
VERTEX
  5
5c8
  8
Layer_0
  10
216.92245
  20
101.90166
  0
VERTEX
  5
5c9
  8
Layer_0
  10
216.63126
  20
102.04185
  0
VERTEX
  5
5ca
  8
Layer_0
  10
216.26468
  20
102.21349
  0
VERTEX
  5
5cb
  8
Layer_0
  10
215.89459
  20
102.37724
  0
VERTEX
  5
5cc
  8
Layer_0
  10
215.52124
  20
102.53285
  0
VERTEX
  5
5cd
  8
Layer_0
  10
215.14435
  20
102.68062
  0
VERTEX
  5
5ce
  8
Layer_0
  10
214.94238
  20
102.756
  0
VERTEX
  5
5cf
  8
Layer_0
  10
214.63626
  20
102.86824
  0
VERTEX
  5
5d0
  8
Layer_0
  10
214.25479
  20
103.00356
  0
VERTEX
  5
5d1
  8
Layer_0
  10
213.87057
  20
103.13072
  0
VERTEX
  5
5d2
  8
Layer_0
  10
213.48367
  20
103.24947
  0
VERTEX
  5
5d3
  8
Layer_0
  10
213.09433
  20
103.35982
  0
VERTEX
  5
5d4
  8
Layer_0
  10
212.82864
  20
103.43004
  0
VERTEX
  5
5d5
  8
Layer_0
  10
212.50952
  20
103.51192
  0
VERTEX
  5
5d6
  8
Layer_0
  10
212.11636
  20
103.60844
  0
VERTEX
  5
5d7
  8
Layer_0
  10
211.72134
  20
103.69627
  0
VERTEX
  5
5d8
  8
Layer_0
  10
211.3244
  20
103.77574
  0
VERTEX
  5
5d9
  8
Layer_0
  10
210.92612
  20
103.84676
  0
VERTEX
  5
5da
  8
Layer_0
  10
210.67532
  20
103.88661
  0
VERTEX
  5
5db
  8
Layer_0
  10
210.34427
  20
103.93733
  0
VERTEX
  5
5dc
  8
Layer_0
  10
209.94379
  20
103.99452
  0
VERTEX
  5
5dd
  8
Layer_0
  10
209.54199
  20
104.0428
  0
VERTEX
  5
5de
  8
Layer_0
  10
209.13907
  20
104.08266
  0
VERTEX
  5
5df
  8
Layer_0
  10
208.73563
  20
104.11357
  0
VERTEX
  5
5e0
  8
Layer_0
  10
208.43198
  20
104.13145
  0
VERTEX
  5
5e1
  8
Layer_0
  10
208.09143
  20
104.14854
  0
VERTEX
  5
5e2
  8
Layer_0
  10
207.68716
  20
104.16426
  0
VERTEX
  5
5e3
  8
Layer_0
  10
207.28238
  20
104.17159
  0
VERTEX
  5
5e4
  8
Layer_0
  10
206.87784
  20
104.17021
  0
VERTEX
  5
5e5
  8
Layer_0
  10
206.47305
  20
104.1602
  0
VERTEX
  5
5e6
  8
Layer_0
  10
206.20001
  20
104.14854
  0
VERTEX
  5
5e7
  8
Layer_0
  10
205.8595
  20
104.13145
  0
VERTEX
  5
5e8
  8
Layer_0
  10
205.45551
  20
104.10677
  0
VERTEX
  5
5e9
  8
Layer_0
  10
205.05206
  20
104.07344
  0
VERTEX
  5
5ea
  8
Layer_0
  10
204.64941
  20
104.03166
  0
VERTEX
  5
5eb
  8
Layer_0
  10
204.24789
  20
103.98097
  0
VERTEX
  5
5ec
  8
Layer_0
  10
203.94476
  20
103.93706
  0
VERTEX
  5
5ed
  8
Layer_0
  10
203.61398
  20
103.88634
  0
VERTEX
  5
5ee
  8
Layer_0
  10
203.2146
  20
103.82072
  0
VERTEX
  5
5ef
  8
Layer_0
  10
202.81686
  20
103.74672
  0
VERTEX
  5
5f0
  8
Layer_0
  10
202.42047
  20
103.66402
  0
VERTEX
  5
5f1
  8
Layer_0
  10
202.02625
  20
103.57292
  0
VERTEX
  5
5f2
  8
Layer_0
  10
201.78601
  20
103.51302
  0
VERTEX
  5
5f3
  8
Layer_0
  10
201.46661
  20
103.43114
  0
VERTEX
  5
5f4
  8
Layer_0
  10
201.07565
  20
103.32646
  0
VERTEX
  5
5f5
  8
Layer_0
  10
200.6871
  20
103.21339
  0
VERTEX
  5
5f6
  8
Layer_0
  10
200.30103
  20
103.09193
  0
VERTEX
  5
5f7
  8
Layer_0
  10
199.91763
  20
102.96233
  0
VERTEX
  5
5f8
  8
Layer_0
  10
199.65518
  20
102.86824
  0
VERTEX
  5
5f9
  8
Layer_0
  10
199.34909
  20
102.756
  0
VERTEX
  5
5fa
  8
Layer_0
  10
198.97058
  20
102.61256
  0
VERTEX
  5
5fb
  8
Layer_0
  10
198.59534
  20
102.46129
  0
VERTEX
  5
5fc
  8
Layer_0
  10
198.22336
  20
102.30159
  0
VERTEX
  5
5fd
  8
Layer_0
  10
197.85489
  20
102.13429
  0
VERTEX
  5
5fe
  8
Layer_0
  10
197.66022
  20
102.04185
  0
VERTEX
  5
5ff
  8
Layer_0
  10
197.36902
  20
101.90166
  0
VERTEX
  5
600
  8
Layer_0
  10
197.00626
  20
101.72218
  0
VERTEX
  5
601
  8
Layer_0
  10
196.64728
  20
101.53511
  0
VERTEX
  5
602
  8
Layer_0
  10
196.29263
  20
101.34016
  0
VERTEX
  5
603
  8
Layer_0
  10
195.94205
  20
101.13789
  0
VERTEX
  5
604
  8
Layer_0
  10
195.74847
  20
101.02159
  0
VERTEX
  5
605
  8
Layer_0
  10
195.47382
  20
100.85457
  0
VERTEX
  5
606
  8
Layer_0
  10
195.13028
  20
100.64064
  0
VERTEX
  5
607
  8
Layer_0
  10
194.79138
  20
100.41939
  0
VERTEX
  5
608
  8
Layer_0
  10
194.45734
  20
100.19084
  0
VERTEX
  5
609
  8
Layer_0
  10
193.98096
  20
99.846237
  0
VERTEX
  5
60a
  8
Layer_0
  10
193.72449
  20
99.654526
  0
VERTEX
  5
60b
  8
Layer_0
  10
193.40292
  20
99.40889
  0
VERTEX
  5
60c
  8
Layer_0
  10
193.08676
  20
99.156204
  0
VERTEX
  5
60d
  8
Layer_0
  10
192.77606
  20
98.896988
  0
VERTEX
  5
60e
  8
Layer_0
  10
192.33249
  20
98.506577
  0
VERTEX
  5
60f
  8
Layer_0
  10
192.09579
  20
98.29155
  0
VERTEX
  5
610
  8
Layer_0
  10
191.79916
  20
98.016373
  0
VERTEX
  5
611
  8
Layer_0
  10
191.50851
  20
97.734665
  0
VERTEX
  5
612
  8
Layer_0
  10
191.22382
  20
97.446976
  0
VERTEX
  5
613
  8
Layer_0
  10
190.81525
  20
97.011002
  0
VERTEX
  5
614
  8
Layer_0
  10
190.60022
  20
96.774307
  0
VERTEX
  5
615
  8
Layer_0
  10
190.33127
  20
96.471725
  0
VERTEX
  5
616
  8
Layer_0
  10
190.06882
  20
96.163712
  0
VERTEX
  5
617
  8
Layer_0
  10
189.81314
  20
95.850021
  0
VERTEX
  5
618
  8
Layer_0
  10
189.45227
  20
95.382339
  0
VERTEX
  5
619
  8
Layer_0
  10
189.26056
  20
95.125839
  0
VERTEX
  5
61a
  8
Layer_0
  10
189.0217
  20
94.799118
  0
VERTEX
  5
61b
  8
Layer_0
  10
188.78989
  20
94.46727
  0
VERTEX
  5
61c
  8
Layer_0
  10
188.5654
  20
94.130508
  0
VERTEX
  5
61d
  8
Layer_0
  10
188.25223
  20
93.632996
  0
VERTEX
  5
61e
  8
Layer_0
  10
188.08521
  20
93.358337
  0
VERTEX
  5
61f
  8
Layer_0
  10
187.87863
  20
93.010208
  0
VERTEX
  5
620
  8
Layer_0
  10
187.6796
  20
92.658005
  0
VERTEX
  5
621
  8
Layer_0
  10
187.48792
  20
92.301193
  0
VERTEX
  5
622
  8
Layer_0
  10
187.30435
  20
91.940598
  0
VERTEX
  5
623
  8
Layer_0
  10
187.20514
  20
91.737778
  0
VERTEX
  5
624
  8
Layer_0
  10
187.06494
  20
91.446594
  0
VERTEX
  5
625
  8
Layer_0
  10
186.89334
  20
91.080017
  0
VERTEX
  5
626
  8
Layer_0
  10
186.72955
  20
90.70993
  0
VERTEX
  5
627
  8
Layer_0
  10
186.57394
  20
90.336578
  0
VERTEX
  5
628
  8
Layer_0
  10
186.42618
  20
89.959702
  0
VERTEX
  5
629
  8
Layer_0
  10
186.34564
  20
89.743881
  0
VERTEX
  5
62a
  8
Layer_0
  10
186.23367
  20
89.437775
  0
VERTEX
  5
62b
  8
Layer_0
  10
186.09863
  20
89.056305
  0
VERTEX
  5
62c
  8
Layer_0
  10
185.97202
  20
88.671829
  0
VERTEX
  5
62d
  8
Layer_0
  10
185.85355
  20
88.284927
  0
VERTEX
  5
62e
  8
Layer_0
  10
185.74347
  20
87.895309
  0
VERTEX
  5
62f
  8
Layer_0
  10
185.67975
  20
87.654816
  0
VERTEX
  5
630
  8
Layer_0
  10
185.5976
  20
87.335434
  0
VERTEX
  5
631
  8
Layer_0
  10
185.50107
  20
86.942291
  0
VERTEX
  5
632
  8
Layer_0
  10
185.41296
  20
86.547256
  0
VERTEX
  5
633
  8
Layer_0
  10
185.33325
  20
86.150589
  0
VERTEX
  5
634
  8
Layer_0
  10
185.26193
  20
85.752029
  0
VERTEX
  5
635
  8
Layer_0
  10
185.21802
  20
85.477905
  0
VERTEX
  5
636
  8
Layer_0
  10
185.16757
  20
85.147125
  0
VERTEX
  5
637
  8
Layer_0
  10
185.1109
  20
84.746399
  0
VERTEX
  5
638
  8
Layer_0
  10
185.06293
  20
84.344589
  0
VERTEX
  5
639
  8
Layer_0
  10
185.02335
  20
83.941681
  0
VERTEX
  5
63a
  8
Layer_0
  10
184.99271
  20
83.538239
  0
VERTEX
  5
63b
  8
Layer_0
  10
184.97644
  20
83.262497
  0
VERTEX
  5
63c
  8
Layer_0
  10
184.95908
  20
82.921967
  0
VERTEX
  5
63d
  8
Layer_0
  10
184.94281
  20
82.517426
  0
VERTEX
  5
63e
  8
Layer_0
  10
184.93521
  20
82.1129
  0
VERTEX
  5
63f
  8
Layer_0
  10
184.93631
  20
81.708099
  0
VERTEX
  5
640
  8
Layer_0
  10
184.94608
  20
81.303574
  0
VERTEX
  5
641
  8
Layer_0
  10
184.95908
  20
81.000183
  0
VERTEX
  5
642
  8
Layer_0
  10
184.97644
  20
80.659637
  0
VERTEX
  5
643
  8
Layer_0
  10
185.00137
  20
80.255936
  0
VERTEX
  5
644
  8
Layer_0
  10
185.035
  20
79.852493
  0
VERTEX
  5
645
  8
Layer_0
  10
185.0773
  20
79.44986
  0
VERTEX
  5
646
  8
Layer_0
  10
185.12799
  20
79.048584
  0
VERTEX
  5
647
  8
Layer_0
  10
185.16757
  20
78.775009
  0
VERTEX
  5
648
  8
Layer_0
  10
185.21802
  20
78.444229
  0
VERTEX
  5
649
  8
Layer_0
  10
185.28336
  20
78.044861
  0
VERTEX
  5
64a
  8
Layer_0
  10
185.35709
  20
77.646835
  0
VERTEX
  5
64b
  8
Layer_0
  10
185.43951
  20
77.250717
  0
VERTEX
  5
64c
  8
Layer_0
  10
185.53036
  20
76.856216
  0
VERTEX
  5
64d
  8
Layer_0
  10
185.5976
  20
76.586716
  0
VERTEX
  5
64e
  8
Layer_0
  10
185.67975
  20
76.267319
  0
VERTEX
  5
64f
  8
Layer_0
  10
185.78467
  20
75.876617
  0
VERTEX
  5
650
  8
Layer_0
  10
185.89828
  20
75.488098
  0
VERTEX
  5
651
  8
Layer_0
  10
186.01974
  20
75.102005
  0
VERTEX
  5
652
  8
Layer_0
  10
186.14963
  20
74.718628
  0
VERTEX
  5
653
  8
Layer_0
  10
186.23367
  20
74.48436
  0
VERTEX
  5
654
  8
Layer_0
  10
186.34564
  20
74.178253
  0
VERTEX
  5
655
  8
Layer_0
  10
186.4888
  20
73.799759
  0
VERTEX
  5
656
  8
Layer_0
  10
186.64008
  20
73.42424
  0
VERTEX
  5
657
  8
Layer_0
  10
186.79926
  20
73.052246
  0
VERTEX
  5
658
  8
Layer_0
  10
186.96625
  20
72.683517
  0
VERTEX
  5
659
  8
Layer_0
  10
187.06494
  20
72.475555
  0
VERTEX
  5
65a
  8
Layer_0
  10
187.20514
  20
72.184357
  0
VERTEX
  5
65b
  8
Layer_0
  10
187.38461
  20
71.821579
  0
VERTEX
  5
65c
  8
Layer_0
  10
187.57169
  20
71.462616
  0
VERTEX
  5
65d
  8
Layer_0
  10
187.76663
  20
71.107971
  0
VERTEX
  5
65e
  8
Layer_0
  10
187.9689
  20
70.757401
  0
VERTEX
  5
65f
  8
Layer_0
  10
188.08521
  20
70.563812
  0
VERTEX
  5
660
  8
Layer_0
  10
188.25223
  20
70.289154
  0
VERTEX
  5
661
  8
Layer_0
  10
188.46616
  20
69.945633
  0
VERTEX
  5
662
  8
Layer_0
  10
188.68741
  20
69.60672
  0
VERTEX
  5
663
  8
Layer_0
  10
188.91595
  20
69.27269
  0
VERTEX
  5
664
  8
Layer_0
  10
189.26056
  20
68.79631
  0
VERTEX
  5
665
  8
Layer_0
  10
189.45227
  20
68.53981
  0
VERTEX
  5
666
  8
Layer_0
  10
189.69791
  20
68.218262
  0
VERTEX
  5
667
  8
Layer_0
  10
189.95059
  20
67.902115
  0
VERTEX
  5
668
  8
Layer_0
  10
190.20981
  20
67.5914
  0
VERTEX
  5
669
  8
Layer_0
  10
190.60022
  20
67.147827
  0
VERTEX
  5
66a
  8
Layer_0
  10
190.81525
  20
66.911133
  0
VERTEX
  5
66b
  8
Layer_0
  10
191.09042
  20
66.614517
  0
VERTEX
  5
66c
  8
Layer_0
  10
191.37213
  20
66.323868
  0
VERTEX
  5
66d
  8
Layer_0
  10
191.65982
  20
66.039169
  0
VERTEX
  5
66e
  8
Layer_0
  10
192.09579
  20
65.630585
  0
VERTEX
  5
66f
  8
Layer_0
  10
192.33249
  20
65.415573
  0
VERTEX
  5
670
  8
Layer_0
  10
192.63507
  20
65.146606
  0
VERTEX
  5
671
  8
Layer_0
  10
192.94308
  20
64.884155
  0
VERTEX
  5
672
  8
Layer_0
  10
193.25677
  20
64.628479
  0
VERTEX
  5
673
  8
Layer_0
  10
193.72449
  20
64.267609
  0
VERTEX
  5
674
  8
Layer_0
  10
193.98096
  20
64.075912
  0
VERTEX
  5
675
  8
Layer_0
  10
194.30768
  20
63.837051
  0
VERTEX
  5
676
  8
Layer_0
  10
194.63953
  20
63.60524
  0
VERTEX
  5
677
  8
Layer_0
  10
194.97629
  20
63.380737
  0
VERTEX
  5
678
  8
Layer_0
  10
195.47382
  20
63.067581
  0
VERTEX
  5
679
  8
Layer_0
  10
195.74847
  20
62.900558
  0
VERTEX
  5
67a
  8
Layer_0
  10
196.09659
  20
62.693954
  0
VERTEX
  5
67b
  8
Layer_0
  10
196.44879
  20
62.494949
  0
VERTEX
  5
67c
  8
Layer_0
  10
196.8056
  20
62.303268
  0
VERTEX
  5
67d
  8
Layer_0
  10
197.1662
  20
62.119705
  0
VERTEX
  5
67e
  8
Layer_0
  10
197.36902
  20
62.020477
  0
VERTEX
  5
67f
  8
Layer_0
  10
197.66022
  20
61.880295
  0
VERTEX
  5
680
  8
Layer_0
  10
198.02676
  20
61.708664
  0
VERTEX
  5
681
  8
Layer_0
  10
198.39688
  20
61.544907
  0
VERTEX
  5
682
  8
Layer_0
  10
198.77023
  20
61.389282
  0
VERTEX
  5
683
  8
Layer_0
  10
199.14709
  20
61.241516
  0
VERTEX
  5
684
  8
Layer_0
  10
199.34909
  20
61.166138
  0
VERTEX
  5
685
  8
Layer_0
  10
199.65518
  20
61.053894
  0
VERTEX
  5
686
  8
Layer_0
  10
200.03668
  20
60.918594
  0
VERTEX
  5
687
  8
Layer_0
  10
200.42087
  20
60.791428
  0
VERTEX
  5
688
  8
Layer_0
  10
200.80777
  20
60.672684
  0
VERTEX
  5
689
  8
Layer_0
  10
201.19711
  20
60.562332
  0
VERTEX
  5
68a
  8
Layer_0
  10
201.46661
  20
60.491028
  0
VERTEX
  5
68b
  8
Layer_0
  10
201.78601
  20
60.409134
  0
VERTEX
  5
68c
  8
Layer_0
  10
202.17914
  20
60.312881
  0
VERTEX
  5
68d
  8
Layer_0
  10
202.57419
  20
60.225037
  0
VERTEX
  5
68e
  8
Layer_0
  10
202.97113
  20
60.145599
  0
VERTEX
  5
68f
  8
Layer_0
  10
203.36942
  20
60.074829
  0
VERTEX
  5
690
  8
Layer_0
  10
203.62888
  20
60.033356
  0
VERTEX
  5
691
  8
Layer_0
  10
203.95966
  20
59.982925
  0
VERTEX
  5
692
  8
Layer_0
  10
204.36041
  20
59.926254
  0
VERTEX
  5
693
  8
Layer_0
  10
204.76221
  20
59.878265
  0
VERTEX
  5
694
  8
Layer_0
  10
205.16513
  20
59.838684
  0
VERTEX
  5
695
  8
Layer_0
  10
205.56857
  20
59.808044
  0
VERTEX
  5
696
  8
Layer_0
  10
205.8443
  20
59.791779
  0
VERTEX
  5
697
  8
Layer_0
  10
206.18484
  20
59.774429
  0
VERTEX
  5
698
  8
Layer_0
  10
206.58936
  20
59.758148
  0
VERTEX
  5
699
  8
Layer_0
  10
206.9939
  20
59.750565
  0
VERTEX
  5
69a
  8
Layer_0
  10
207.39868
  20
59.751648
  0
SEQEND
  0
POLYLINE
  5
69c
  8
Layer_0
  62
0
  66
1
  10
0
  20
0
  30
0
  0
VERTEX
  5
69c
  8
Layer_0
  10
272.66833
  20
113.20213
  0
VERTEX
  5
69d
  8
Layer_0
  10
15.020134
  20
113.20213
  0
VERTEX
  5
69e
  8
Layer_0
  10
15.020134
  20
67.498138
  0
VERTEX
  5
69f
  8
Layer_0
  10
55.9151
  20
67.498138
  0
VERTEX
  5
6a0
  8
Layer_0
  10
55.832947
  20
67.5914
  42
-0.40647354
  0
VERTEX
  5
6a1
  8
Layer_0
  10
57.955627
  20
98.506577
  42
-0.41431417
  0
VERTEX
  5
6a2
  8
Layer_0
  10
89.314362
  20
96.774307
  42
-0.37635953
  0
VERTEX
  5
6a3
  8
Layer_0
  10
89.623993
  20
67.498138
  0
VERTEX
  5
6a4
  8
Layer_0
  10
190.29196
  20
67.498138
  0
VERTEX
  5
6a5
  8
Layer_0
  10
190.20981
  20
67.5914
  42
-0.40647485
  0
VERTEX
  5
6a6
  8
Layer_0
  10
192.33249
  20
98.506577
  42
-0.41431327
  0
VERTEX
  5
6a7
  8
Layer_0
  10
223.69122
  20
96.774307
  42
-0.37636137
  0
VERTEX
  5
6a8
  8
Layer_0
  10
224.00085
  20
67.498138
  0
VERTEX
  5
6a9
  8
Layer_0
  10
272.66833
  20
67.498138
  0
VERTEX
  5
6aa
  8
Layer_0
  10
272.66833
  20
113.20213
  0
SEQEND
  0
POLYLINE
  5
6ac
  8
Layer_0
  62
0
  66
1
  10
0
  20
0
  30
0
  0
VERTEX
  5
6ac
  8
Layer_0
  10
244.92566
  20
128.60863
  0
VERTEX
  5
6ad
  8
Layer_0
  10
245.09512
  20
128.62163
  0
VERTEX
  5
6ae
  8
Layer_0
  10
245.26376
  20
128.64333
  0
VERTEX
  5
6af
  8
Layer_0
  10
245.43106
  20
128.67342
  0
VERTEX
  5
6b0
  8
Layer_0
  10
245.59671
  20
128.7122
  0
VERTEX
  5
6b1
  8
Layer_0
  10
245.75992
  20
128.75935
  0
VERTEX
  5
6b2
  8
Layer_0
  10
245.92072
  20
128.81468
  0
VERTEX
  5
6b3
  8
Layer_0
  10
246.07825
  20
128.87813
  0
VERTEX
  5
6b4
  8
Layer_0
  10
246.23251
  20
128.94942
  0
VERTEX
  5
6b5
  8
Layer_0
  10
246.383
  20
129.02888
  0
VERTEX
  5
6b6
  8
Layer_0
  10
246.52914
  20
129.11565
  0
VERTEX
  5
6b7
  8
Layer_0
  10
246.67065
  20
129.2097
  0
VERTEX
  5
6b8
  8
Layer_0
  10
246.80731
  20
129.31084
  0
VERTEX
  5
6b9
  8
Layer_0
  10
246.93854
  20
129.41902
  0
VERTEX
  5
6ba
  8
Layer_0
  10
247.06409
  20
129.53371
  0
VERTEX
  5
6bb
  8
Layer_0
  10
247.18365
  20
129.65465
  0
VERTEX
  5
6bc
  8
Layer_0
  10
247.29697
  20
129.78127
  0
VERTEX
  5
6bd
  8
Layer_0
  10
247.40353
  20
129.91383
  0
VERTEX
  5
6be
  8
Layer_0
  10
247.5033
  20
130.05159
  0
VERTEX
  5
6bf
  8
Layer_0
  10
247.59576
  20
130.1942
  0
VERTEX
  5
6c0
  8
Layer_0
  10
247.68091
  20
130.34114
  0
VERTEX
  5
6c1
  8
Layer_0
  10
247.75845
  20
130.49245
  0
VERTEX
  5
6c2
  8
Layer_0
  10
247.82813
  20
130.64754
  0
VERTEX
  5
6c3
  8
Layer_0
  10
247.88992
  20
130.80586
  0
VERTEX
  5
6c4
  8
Layer_0
  10
247.94336
  20
130.96745
  0
VERTEX
  5
6c5
  8
Layer_0
  10
247.98862
  20
131.13121
  0
VERTEX
  5
6c6
  8
Layer_0
  10
248.02551
  20
131.29716
  0
VERTEX
  5
6c7
  8
Layer_0
  10
248.05399
  20
131.46471
  0
VERTEX
  5
6c8
  8
Layer_0
  10
248.07349
  20
131.63362
  0
VERTEX
  5
6c9
  8
Layer_0
  10
248.08459
  20
131.80336
  0
VERTEX
  5
6ca
  8
Layer_0
  10
248.08704
  20
131.97334
  0
VERTEX
  5
6cb
  8
Layer_0
  10
248.08081
  20
132.14308
  0
VERTEX
  5
6cc
  8
Layer_0
  10
248.06589
  20
132.31255
  0
VERTEX
  5
6cd
  8
Layer_0
  10
248.04257
  20
132.48091
  0
VERTEX
  5
6ce
  8
Layer_0
  10
248.01031
  20
132.64793
  0
VERTEX
  5
6cf
  8
Layer_0
  10
247.96991
  20
132.81303
  0
VERTEX
  5
6d0
  8
Layer_0
  10
247.92084
  20
132.97572
  0
VERTEX
  5
6d1
  8
Layer_0
  10
247.86365
  20
133.13597
  0
VERTEX
  5
6d2
  8
Layer_0
  10
247.79855
  20
133.29295
  0
VERTEX
  5
6d3
  8
Layer_0
  10
247.72537
  20
133.4464
  0
VERTEX
  5
6d4
  8
Layer_0
  10
247.64429
  20
133.59581
  0
VERTEX
  5
6d5
  8
Layer_0
  10
247.55591
  20
133.74113
  0
VERTEX
  5
6d6
  8
Layer_0
  10
247.46021
  20
133.88158
  0
VERTEX
  5
6d7
  8
Layer_0
  10
247.35742
  20
134.01686
  0
VERTEX
  5
6d8
  8
Layer_0
  10
247.28314
  20
134.10661
  0
VERTEX
  5
6d9
  8
Layer_0
  10
224.39182
  20
160.75987
  0
VERTEX
  5
6da
  8
Layer_0
  10
224.27768
  20
160.88594
  0
VERTEX
  5
6db
  8
Layer_0
  10
224.15756
  20
161.00606
  0
VERTEX
  5
6dc
  8
Layer_0
  10
224.03122
  20
161.11995
  0
VERTEX
  5
6dd
  8
Layer_0
  10
223.89917
  20
161.22731
  0
VERTEX
  5
6de
  8
Layer_0
  10
223.76199
  20
161.32762
  0
VERTEX
  5
6df
  8
Layer_0
  10
223.6199
  20
161.42088
  0
VERTEX
  5
6e0
  8
Layer_0
  10
223.47324
  20
161.50658
  0
VERTEX
  5
6e1
  8
Layer_0
  10
223.3222
  20
161.58492
  0
VERTEX
  5
6e2
  8
Layer_0
  10
223.16766
  20
161.65541
  0
VERTEX
  5
6e3
  8
Layer_0
  10
223.00934
  20
161.71779
  0
VERTEX
  5
6e4
  8
Layer_0
  10
222.84827
  20
161.77226
  0
VERTEX
  5
6e5
  8
Layer_0
  10
222.68478
  20
161.81837
  0
VERTEX
  5
6e6
  8
Layer_0
  10
222.51886
  20
161.85579
  0
VERTEX
  5
6e7
  8
Layer_0
  10
222.35156
  20
161.88506
  0
VERTEX
  5
6e8
  8
Layer_0
  10
222.18265
  20
161.90569
  0
VERTEX
  5
6e9
  8
Layer_0
  10
222.01318
  20
161.91759
  0
VERTEX
  5
6ea
  8
Layer_0
  10
221.86435
  20
161.92085
  0
VERTEX
  5
6eb
  8
Layer_0
  10
189.37689
  20
161.92085
  0
VERTEX
  5
6ec
  8
Layer_0
  10
189.20688
  20
161.91652
  0
VERTEX
  5
6ed
  8
Layer_0
  10
189.03745
  20
161.90349
  0
VERTEX
  5
6ee
  8
Layer_0
  10
188.86877
  20
161.88182
  0
VERTEX
  5
6ef
  8
Layer_0
  10
188.70151
  20
161.85173
  0
VERTEX
  5
6f0
  8
Layer_0
  10
188.53583
  20
161.81294
  0
VERTEX
  5
6f1
  8
Layer_0
  10
188.37262
  20
161.76576
  0
VERTEX
  5
6f2
  8
Layer_0
  10
188.21182
  20
161.71046
  0
VERTEX
  5
6f3
  8
Layer_0
  10
188.05432
  20
161.64702
  0
VERTEX
  5
6f4
  8
Layer_0
  10
187.90002
  20
161.5757
  0
VERTEX
  5
6f5
  8
Layer_0
  10
187.74957
  20
161.49626
  0
VERTEX
  5
6f6
  8
Layer_0
  10
187.60342
  20
161.4095
  0
VERTEX
  5
6f7
  8
Layer_0
  10
187.46188
  20
161.31541
  0
VERTEX
  5
6f8
  8
Layer_0
  10
187.32523
  20
161.21428
  0
VERTEX
  5
6f9
  8
Layer_0
  10
187.194
  20
161.10609
  0
VERTEX
  5
6fa
  8
Layer_0
  10
187.06848
  20
160.99141
  0
VERTEX
  5
6fb
  8
Layer_0
  10
186.94891
  20
160.8705
  0
VERTEX
  5
6fc
  8
Layer_0
  10
186.83557
  20
160.74388
  0
VERTEX
  5
6fd
  8
Layer_0
  10
186.72903
  20
160.61128
  0
VERTEX
  5
6fe
  8
Layer_0
  10
186.62924
  20
160.47356
  0
VERTEX
  5
6ff
  8
Layer_0
  10
186.5368
  20
160.33095
  0
VERTEX
  5
700
  8
Layer_0
  10
186.45166
  20
160.18398
  0
VERTEX
  5
701
  8
Layer_0
  10
186.37411
  20
160.0327
  0
VERTEX
  5
702
  8
Layer_0
  10
186.30444
  20
159.87761
  0
VERTEX
  5
703
  8
Layer_0
  10
186.24261
  20
159.71928
  0
VERTEX
  5
704
  8
Layer_0
  10
186.18921
  20
159.55766
  0
VERTEX
  5
705
  8
Layer_0
  10
186.14392
  20
159.39391
  0
VERTEX
  5
706
  8
Layer_0
  10
186.10706
  20
159.22798
  0
VERTEX
  5
707
  8
Layer_0
  10
186.07858
  20
159.06041
  0
VERTEX
  5
708
  8
Layer_0
  10
186.05905
  20
158.89149
  0
VERTEX
  5
709
  8
Layer_0
  10
186.04794
  20
158.72179
  0
VERTEX
  5
70a
  8
Layer_0
  10
186.04523
  20
158.58919
  0
VERTEX
  5
70b
  8
Layer_0
  10
186.04523
  20
131.93593
  0
VERTEX
  5
70c
  8
Layer_0
  10
186.04956
  20
131.76595
  0
VERTEX
  5
70d
  8
Layer_0
  10
186.06259
  20
131.59648
  0
VERTEX
  5
70e
  8
Layer_0
  10
186.08426
  20
131.42784
  0
VERTEX
  5
70f
  8
Layer_0
  10
186.11438
  20
131.26054
  0
VERTEX
  5
710
  8
Layer_0
  10
186.15314
  20
131.09489
  0
VERTEX
  5
711
  8
Layer_0
  10
186.20032
  20
130.93166
  0
VERTEX
  5
712
  8
Layer_0
  10
186.25562
  20
130.77089
  0
VERTEX
  5
713
  8
Layer_0
  10
186.31906
  20
130.61336
  0
VERTEX
  5
714
  8
Layer_0
  10
186.39038
  20
130.45909
  0
VERTEX
  5
715
  8
Layer_0
  10
186.46982
  20
130.30861
  0
VERTEX
  5
716
  8
Layer_0
  10
186.55658
  20
130.16246
  0
VERTEX
  5
717
  8
Layer_0
  10
186.65067
  20
130.02095
  0
VERTEX
  5
718
  8
Layer_0
  10
186.7518
  20
129.88429
  0
VERTEX
  5
719
  8
Layer_0
  10
186.85999
  20
129.75307
  0
VERTEX
  5
71a
  8
Layer_0
  10
186.97467
  20
129.62752
  0
VERTEX
  5
71b
  8
Layer_0
  10
187.09558
  20
129.50795
  0
VERTEX
  5
71c
  8
Layer_0
  10
187.2222
  20
129.39464
  0
VERTEX
  5
71d
  8
Layer_0
  10
187.3548
  20
129.28807
  0
VERTEX
  5
71e
  8
Layer_0
  10
187.49252
  20
129.18831
  0
VERTEX
  5
71f
  8
Layer_0
  10
187.63513
  20
129.09584
  0
VERTEX
  5
720
  8
Layer_0
  10
187.7821
  20
129.0107
  0
VERTEX
  5
721
  8
Layer_0
  10
187.93338
  20
128.93315
  0
VERTEX
  5
722
  8
Layer_0
  10
188.08847
  20
128.86348
  0
VERTEX
  5
723
  8
Layer_0
  10
188.24683
  20
128.80165
  0
VERTEX
  5
724
  8
Layer_0
  10
188.40842
  20
128.74825
  0
VERTEX
  5
725
  8
Layer_0
  10
188.57217
  20
128.70296
  0
VERTEX
  5
726
  8
Layer_0
  10
188.7381
  20
128.66609
  0
VERTEX
  5
727
  8
Layer_0
  10
188.90567
  20
128.63762
  0
VERTEX
  5
728
  8
Layer_0
  10
189.07458
  20
128.61812
  0
VERTEX
  5
729
  8
Layer_0
  10
189.24429
  20
128.60698
  0
VERTEX
  5
72a
  8
Layer_0
  10
189.37689
  20
128.60429
  0
VERTEX
  5
72b
  8
Layer_0
  10
244.75568
  20
128.60429
  0
VERTEX
  5
72c
  8
Layer_0
  10
244.92566
  20
128.60863
  0
SEQEND
  0
POLYLINE
  5
72e
  8
Layer_0
  62
0
  66
1
  10
0
  20
0
  30
0
  0
VERTEX
  5
72e
  8
Layer_0
  10
169.55695
  20
128.60863
  0
VERTEX
  5
72f
  8
Layer_0
  10
169.72641
  20
128.62163
  0
VERTEX
  5
730
  8
Layer_0
  10
169.89505
  20
128.64333
  0
VERTEX
  5
731
  8
Layer_0
  10
170.06232
  20
128.67342
  0
VERTEX
  5
732
  8
Layer_0
  10
170.228
  20
128.7122
  0
VERTEX
  5
733
  8
Layer_0
  10
170.3912
  20
128.75935
  0
VERTEX
  5
734
  8
Layer_0
  10
170.552
  20
128.81468
  0
VERTEX
  5
735
  8
Layer_0
  10
170.7095
  20
128.87813
  0
VERTEX
  5
736
  8
Layer_0
  10
170.8638
  20
128.94942
  0
VERTEX
  5
737
  8
Layer_0
  10
171.01428
  20
129.02888
  0
VERTEX
  5
738
  8
Layer_0
  10
171.1604
  20
129.11565
  0
VERTEX
  5
739
  8
Layer_0
  10
171.30194
  20
129.2097
  0
VERTEX
  5
73a
  8
Layer_0
  10
171.4386
  20
129.31084
  0
VERTEX
  5
73b
  8
Layer_0
  10
171.56982
  20
129.41902
  0
VERTEX
  5
73c
  8
Layer_0
  10
171.69534
  20
129.53371
  0
VERTEX
  5
73d
  8
Layer_0
  10
171.81491
  20
129.65465
  0
VERTEX
  5
73e
  8
Layer_0
  10
171.92825
  20
129.78127
  0
VERTEX
  5
73f
  8
Layer_0
  10
172.03482
  20
129.91383
  0
VERTEX
  5
740
  8
Layer_0
  10
172.13458
  20
130.05159
  0
VERTEX
  5
741
  8
Layer_0
  10
172.22705
  20
130.1942
  0
VERTEX
  5
742
  8
Layer_0
  10
172.31216
  20
130.34114
  0
VERTEX
  5
743
  8
Layer_0
  10
172.38971
  20
130.49245
  0
VERTEX
  5
744
  8
Layer_0
  10
172.45941
  20
130.64754
  0
VERTEX
  5
745
  8
Layer_0
  10
172.52121
  20
130.80586
  0
VERTEX
  5
746
  8
Layer_0
  10
172.57462
  20
130.96745
  0
VERTEX
  5
747
  8
Layer_0
  10
172.6199
  20
131.13121
  0
VERTEX
  5
748
  8
Layer_0
  10
172.65677
  20
131.29716
  0
VERTEX
  5
749
  8
Layer_0
  10
172.68524
  20
131.46471
  0
VERTEX
  5
74a
  8
Layer_0
  10
172.70477
  20
131.63362
  0
VERTEX
  5
74b
  8
Layer_0
  10
172.71588
  20
131.80336
  0
VERTEX
  5
74c
  8
Layer_0
  10
172.7186
  20
131.93593
  0
VERTEX
  5
74d
  8
Layer_0
  10
172.7186
  20
158.58919
  0
VERTEX
  5
74e
  8
Layer_0
  10
172.71426
  20
158.7592
  0
VERTEX
  5
74f
  8
Layer_0
  10
172.70123
  20
158.92867
  0
VERTEX
  5
750
  8
Layer_0
  10
172.67957
  20
159.09731
  0
VERTEX
  5
751
  8
Layer_0
  10
172.64948
  20
159.26457
  0
VERTEX
  5
752
  8
Layer_0
  10
172.61069
  20
159.43025
  0
VERTEX
  5
753
  8
Layer_0
  10
172.56351
  20
159.59346
  0
VERTEX
  5
754
  8
Layer_0
  10
172.50821
  20
159.75426
  0
VERTEX
  5
755
  8
Layer_0
  10
172.44476
  20
159.91179
  0
VERTEX
  5
756
  8
Layer_0
  10
172.37344
  20
160.06606
  0
VERTEX
  5
757
  8
Layer_0
  10
172.29401
  20
160.21654
  0
VERTEX
  5
758
  8
Layer_0
  10
172.20724
  20
160.36266
  0
VERTEX
  5
759
  8
Layer_0
  10
172.11316
  20
160.5042
  0
VERTEX
  5
75a
  8
Layer_0
  10
172.01202
  20
160.64085
  0
VERTEX
  5
75b
  8
Layer_0
  10
171.90384
  20
160.77208
  0
VERTEX
  5
75c
  8
Layer_0
  10
171.78915
  20
160.8976
  0
VERTEX
  5
75d
  8
Layer_0
  10
171.66824
  20
161.01717
  0
VERTEX
  5
75e
  8
Layer_0
  10
171.54163
  20
161.13051
  0
VERTEX
  5
75f
  8
Layer_0
  10
171.40903
  20
161.23708
  0
VERTEX
  5
760
  8
Layer_0
  10
171.2713
  20
161.33684
  0
VERTEX
  5
761
  8
Layer_0
  10
171.12869
  20
161.42931
  0
VERTEX
  5
762
  8
Layer_0
  10
170.98172
  20
161.51442
  0
VERTEX
  5
763
  8
Layer_0
  10
170.83044
  20
161.59196
  0
VERTEX
  5
764
  8
Layer_0
  10
170.67535
  20
161.66167
  0
VERTEX
  5
765
  8
Layer_0
  10
170.51703
  20
161.72346
  0
VERTEX
  5
766
  8
Layer_0
  10
170.35541
  20
161.77687
  0
VERTEX
  5
767
  8
Layer_0
  10
170.19165
  20
161.82216
  0
VERTEX
  5
768
  8
Layer_0
  10
170.02573
  20
161.85902
  0
VERTEX
  5
769
  8
Layer_0
  10
169.85815
  20
161.8875
  0
VERTEX
  5
76a
  8
Layer_0
  10
169.68924
  20
161.90703
  0
VERTEX
  5
76b
  8
Layer_0
  10
169.51953
  20
161.91814
  0
VERTEX
  5
76c
  8
Layer_0
  10
169.38693
  20
161.92085
  0
VERTEX
  5
76d
  8
Layer_0
  10
114.96986
  20
161.92085
  0
VERTEX
  5
76e
  8
Layer_0
  10
114.79987
  20
161.91652
  0
VERTEX
  5
76f
  8
Layer_0
  10
114.63042
  20
161.90349
  0
VERTEX
  5
770
  8
Layer_0
  10
114.46176
  20
161.88182
  0
VERTEX
  5
771
  8
Layer_0
  10
114.29448
  20
161.85173
  0
VERTEX
  5
772
  8
Layer_0
  10
114.12881
  20
161.81294
  0
VERTEX
  5
773
  8
Layer_0
  10
113.96559
  20
161.76576
  0
VERTEX
  5
774
  8
Layer_0
  10
113.80481
  20
161.71046
  0
VERTEX
  5
775
  8
Layer_0
  10
113.64729
  20
161.64702
  0
VERTEX
  5
776
  8
Layer_0
  10
113.49301
  20
161.5757
  0
VERTEX
  5
777
  8
Layer_0
  10
113.34254
  20
161.49626
  0
VERTEX
  5
778
  8
Layer_0
  10
113.1964
  20
161.4095
  0
VERTEX
  5
779
  8
Layer_0
  10
113.05487
  20
161.31541
  0
VERTEX
  5
77a
  8
Layer_0
  10
112.91821
  20
161.21428
  0
VERTEX
  5
77b
  8
Layer_0
  10
112.78699
  20
161.10609
  0
VERTEX
  5
77c
  8
Layer_0
  10
112.66145
  20
160.99141
  0
VERTEX
  5
77d
  8
Layer_0
  10
112.54189
  20
160.8705
  0
VERTEX
  5
77e
  8
Layer_0
  10
112.42856
  20
160.74388
  0
VERTEX
  5
77f
  8
Layer_0
  10
112.32201
  20
160.61128
  0
VERTEX
  5
780
  8
Layer_0
  10
112.22223
  20
160.47356
  0
VERTEX
  5
781
  8
Layer_0
  10
112.12978
  20
160.33095
  0
VERTEX
  5
782
  8
Layer_0
  10
112.04463
  20
160.18398
  0
VERTEX
  5
783
  8
Layer_0
  10
111.96709
  20
160.0327
  0
VERTEX
  5
784
  8
Layer_0
  10
111.89742
  20
159.87761
  0
VERTEX
  5
785
  8
Layer_0
  10
111.83559
  20
159.71928
  0
VERTEX
  5
786
  8
Layer_0
  10
111.78218
  20
159.55766
  0
VERTEX
  5
787
  8
Layer_0
  10
111.73689
  20
159.39391
  0
VERTEX
  5
788
  8
Layer_0
  10
111.70003
  20
159.22798
  0
VERTEX
  5
789
  8
Layer_0
  10
111.67155
  20
159.06041
  0
VERTEX
  5
78a
  8
Layer_0
  10
111.65204
  20
158.89149
  0
VERTEX
  5
78b
  8
Layer_0
  10
111.64091
  20
158.72179
  0
VERTEX
  5
78c
  8
Layer_0
  10
111.63821
  20
158.58919
  0
VERTEX
  5
78d
  8
Layer_0
  10
111.63821
  20
131.93593
  0
VERTEX
  5
78e
  8
Layer_0
  10
111.64255
  20
131.76595
  0
VERTEX
  5
78f
  8
Layer_0
  10
111.65556
  20
131.59648
  0
VERTEX
  5
790
  8
Layer_0
  10
111.67725
  20
131.42784
  0
VERTEX
  5
791
  8
Layer_0
  10
111.70735
  20
131.26054
  0
VERTEX
  5
792
  8
Layer_0
  10
111.74612
  20
131.09489
  0
VERTEX
  5
793
  8
Layer_0
  10
111.79329
  20
130.93166
  0
VERTEX
  5
794
  8
Layer_0
  10
111.8486
  20
130.77089
  0
VERTEX
  5
795
  8
Layer_0
  10
111.91205
  20
130.61336
  0
VERTEX
  5
796
  8
Layer_0
  10
111.98335
  20
130.45909
  0
VERTEX
  5
797
  8
Layer_0
  10
112.06281
  20
130.30861
  0
VERTEX
  5
798
  8
Layer_0
  10
112.14957
  20
130.16246
  0
VERTEX
  5
799
  8
Layer_0
  10
112.24364
  20
130.02095
  0
VERTEX
  5
79a
  8
Layer_0
  10
112.34477
  20
129.88429
  0
VERTEX
  5
79b
  8
Layer_0
  10
112.45296
  20
129.75307
  0
VERTEX
  5
79c
  8
Layer_0
  10
112.56764
  20
129.62752
  0
VERTEX
  5
79d
  8
Layer_0
  10
112.68857
  20
129.50795
  0
VERTEX
  5
79e
  8
Layer_0
  10
112.81519
  20
129.39464
  0
VERTEX
  5
79f
  8
Layer_0
  10
112.94777
  20
129.28807
  0
VERTEX
  5
7a0
  8
Layer_0
  10
113.08551
  20
129.18831
  0
VERTEX
  5
7a1
  8
Layer_0
  10
113.22812
  20
129.09584
  0
VERTEX
  5
7a2
  8
Layer_0
  10
113.37508
  20
129.0107
  0
VERTEX
  5
7a3
  8
Layer_0
  10
113.52637
  20
128.93315
  0
VERTEX
  5
7a4
  8
Layer_0
  10
113.68146
  20
128.86348
  0
VERTEX
  5
7a5
  8
Layer_0
  10
113.8398
  20
128.80165
  0
VERTEX
  5
7a6
  8
Layer_0
  10
114.00139
  20
128.74825
  0
VERTEX
  5
7a7
  8
Layer_0
  10
114.16515
  20
128.70296
  0
VERTEX
  5
7a8
  8
Layer_0
  10
114.33109
  20
128.66609
  0
VERTEX
  5
7a9
  8
Layer_0
  10
114.49864
  20
128.63762
  0
VERTEX
  5
7aa
  8
Layer_0
  10
114.66756
  20
128.61812
  0
VERTEX
  5
7ab
  8
Layer_0
  10
114.83728
  20
128.60698
  0
VERTEX
  5
7ac
  8
Layer_0
  10
114.96986
  20
128.60429
  0
VERTEX
  5
7ad
  8
Layer_0
  10
169.38693
  20
128.60429
  0
VERTEX
  5
7ae
  8
Layer_0
  10
169.55695
  20
128.60863
  0
SEQEND
  0
POLYLINE
  5
7b0
  8
Layer_0
  62
0
  66
1
  10
0
  20
0
  30
0
  0
VERTEX
  5
7b0
  8
Layer_0
  10
95.149918
  20
128.60863
  0
VERTEX
  5
7b1
  8
Layer_0
  10
95.319382
  20
128.62163
  0
VERTEX
  5
7b2
  8
Layer_0
  10
95.488022
  20
128.64333
  0
VERTEX
  5
7b3
  8
Layer_0
  10
95.655304
  20
128.67342
  0
VERTEX
  5
7b4
  8
Layer_0
  10
95.820969
  20
128.7122
  0
VERTEX
  5
7b5
  8
Layer_0
  10
95.984192
  20
128.75935
  0
VERTEX
  5
7b6
  8
Layer_0
  10
96.144974
  20
128.81468
  0
VERTEX
  5
7b7
  8
Layer_0
  10
96.30249
  20
128.87813
  0
VERTEX
  5
7b8
  8
Layer_0
  10
96.456772
  20
128.94942
  0
VERTEX
  5
7b9
  8
Layer_0
  10
96.607254
  20
129.02888
  0
VERTEX
  5
7ba
  8
Layer_0
  10
96.753387
  20
129.11565
  0
VERTEX
  5
7bb
  8
Layer_0
  10
96.894913
  20
129.2097
  0
VERTEX
  5
7bc
  8
Layer_0
  10
97.03157
  20
129.31084
  0
VERTEX
  5
7bd
  8
Layer_0
  10
97.162796
  20
129.41902
  0
VERTEX
  5
7be
  8
Layer_0
  10
97.28833
  20
129.53371
  0
VERTEX
  5
7bf
  8
Layer_0
  10
97.407898
  20
129.65465
  0
VERTEX
  5
7c0
  8
Layer_0
  10
97.521225
  20
129.78127
  0
VERTEX
  5
7c1
  8
Layer_0
  10
97.627792
  20
129.91383
  0
VERTEX
  5
7c2
  8
Layer_0
  10
97.727554
  20
130.05159
  0
VERTEX
  5
7c3
  8
Layer_0
  10
97.820023
  20
130.1942
  0
VERTEX
  5
7c4
  8
Layer_0
  10
97.905151
  20
130.34114
  0
VERTEX
  5
7c5
  8
Layer_0
  10
97.982697
  20
130.49245
  0
VERTEX
  5
7c6
  8
Layer_0
  10
98.052383
  20
130.64754
  0
VERTEX
  5
7c7
  8
Layer_0
  10
98.114197
  20
130.80586
  0
VERTEX
  5
7c8
  8
Layer_0
  10
98.167603
  20
130.96745
  0
VERTEX
  5
7c9
  8
Layer_0
  10
98.212891
  20
131.13121
  0
VERTEX
  5
7ca
  8
Layer_0
  10
98.249756
  20
131.29716
  0
VERTEX
  5
7cb
  8
Layer_0
  10
98.278229
  20
131.46471
  0
VERTEX
  5
7cc
  8
Layer_0
  10
98.297745
  20
131.63362
  0
VERTEX
  5
7cd
  8
Layer_0
  10
98.308868
  20
131.80336
  0
VERTEX
  5
7ce
  8
Layer_0
  10
98.311584
  20
131.93593
  0
VERTEX
  5
7cf
  8
Layer_0
  10
98.311584
  20
158.58919
  0
VERTEX
  5
7d0
  8
Layer_0
  10
98.307236
  20
158.7592
  0
VERTEX
  5
7d1
  8
Layer_0
  10
98.29422
  20
158.92867
  0
VERTEX
  5
7d2
  8
Layer_0
  10
98.272537
  20
159.09731
  0
VERTEX
  5
7d3
  8
Layer_0
  10
98.242447
  20
159.26457
  0
VERTEX
  5
7d4
  8
Layer_0
  10
98.203674
  20
159.43025
  0
VERTEX
  5
7d5
  8
Layer_0
  10
98.156494
  20
159.59346
  0
VERTEX
  5
7d6
  8
Layer_0
  10
98.101181
  20
159.75426
  0
VERTEX
  5
7d7
  8
Layer_0
  10
98.037735
  20
159.91179
  0
VERTEX
  5
7d8
  8
Layer_0
  10
97.966431
  20
160.06606
  0
VERTEX
  5
7d9
  8
Layer_0
  10
97.886993
  20
160.21654
  0
VERTEX
  5
7da
  8
Layer_0
  10
97.800232
  20
160.36266
  0
VERTEX
  5
7db
  8
Layer_0
  10
97.706146
  20
160.5042
  0
VERTEX
  5
7dc
  8
Layer_0
  10
97.605011
  20
160.64085
  0
VERTEX
  5
7dd
  8
Layer_0
  10
97.496826
  20
160.77208
  0
VERTEX
  5
7de
  8
Layer_0
  10
97.382141
  20
160.8976
  0
VERTEX
  5
7df
  8
Layer_0
  10
97.261215
  20
161.01717
  0
VERTEX
  5
7e0
  8
Layer_0
  10
97.134598
  20
161.13051
  0
VERTEX
  5
7e1
  8
Layer_0
  10
97.002014
  20
161.23708
  0
VERTEX
  5
7e2
  8
Layer_0
  10
96.864273
  20
161.33684
  0
VERTEX
  5
7e3
  8
Layer_0
  10
96.721664
  20
161.42931
  0
VERTEX
  5
7e4
  8
Layer_0
  10
96.574707
  20
161.51442
  0
VERTEX
  5
7e5
  8
Layer_0
  10
96.423416
  20
161.59196
  0
VERTEX
  5
7e6
  8
Layer_0
  10
96.268341
  20
161.66167
  0
VERTEX
  5
7e7
  8
Layer_0
  10
96.110001
  20
161.72346
  0
VERTEX
  5
7e8
  8
Layer_0
  10
95.948395
  20
161.77687
  0
VERTEX
  5
7e9
  8
Layer_0
  10
95.784637
  20
161.82216
  0
VERTEX
  5
7ea
  8
Layer_0
  10
95.618698
  20
161.85902
  0
VERTEX
  5
7eb
  8
Layer_0
  10
95.451141
  20
161.8875
  0
VERTEX
  5
7ec
  8
Layer_0
  10
95.282227
  20
161.90703
  0
VERTEX
  5
7ed
  8
Layer_0
  10
95.112503
  20
161.91814
  0
VERTEX
  5
7ee
  8
Layer_0
  10
94.979919
  20
161.92085
  0
VERTEX
  5
7ef
  8
Layer_0
  10
65.827911
  20
161.92085
  0
VERTEX
  5
7f0
  8
Layer_0
  10
65.657913
  20
161.91652
  0
VERTEX
  5
7f1
  8
Layer_0
  10
65.488464
  20
161.90349
  0
VERTEX
  5
7f2
  8
Layer_0
  10
65.319809
  20
161.88182
  0
VERTEX
  5
7f3
  8
Layer_0
  10
65.152527
  20
161.85173
  0
VERTEX
  5
7f4
  8
Layer_0
  10
64.986862
  20
161.81294
  0
VERTEX
  5
7f5
  8
Layer_0
  10
64.823639
  20
161.76576
  0
VERTEX
  5
7f6
  8
Layer_0
  10
64.662872
  20
161.71046
  0
VERTEX
  5
7f7
  8
Layer_0
  10
64.505341
  20
161.64702
  0
VERTEX
  5
7f8
  8
Layer_0
  10
64.351059
  20
161.5757
  0
VERTEX
  5
7f9
  8
Layer_0
  10
64.200592
  20
161.49626
  0
VERTEX
  5
7fa
  8
Layer_0
  10
64.054443
  20
161.4095
  0
VERTEX
  5
7fb
  8
Layer_0
  10
63.912918
  20
161.31541
  0
VERTEX
  5
7fc
  8
Layer_0
  10
63.77626
  20
161.21428
  0
VERTEX
  5
7fd
  8
Layer_0
  10
63.645035
  20
161.10609
  0
VERTEX
  5
7fe
  8
Layer_0
  10
63.519501
  20
160.99141
  0
VERTEX
  5
7ff
  8
Layer_0
  10
63.399933
  20
160.8705
  0
VERTEX
  5
800
  8
Layer_0
  10
63.286606
  20
160.74388
  0
VERTEX
  5
801
  8
Layer_0
  10
63.180054
  20
160.61128
  0
VERTEX
  5
802
  8
Layer_0
  10
63.080276
  20
160.47356
  0
VERTEX
  5
803
  8
Layer_0
  10
62.987823
  20
160.33095
  0
VERTEX
  5
804
  8
Layer_0
  10
62.902679
  20
160.18398
  0
VERTEX
  5
805
  8
Layer_0
  10
62.825134
  20
160.0327
  0
VERTEX
  5
806
  8
Layer_0
  10
62.755463
  20
159.87761
  0
VERTEX
  5
807
  8
Layer_0
  10
62.693634
  20
159.71928
  0
VERTEX
  5
808
  8
Layer_0
  10
62.640228
  20
159.55766
  0
VERTEX
  5
809
  8
Layer_0
  10
62.594955
  20
159.39391
  0
VERTEX
  5
80a
  8
Layer_0
  10
62.558075
  20
159.22798
  0
VERTEX
  5
80b
  8
Layer_0
  10
62.529602
  20
159.06041
  0
VERTEX
  5
80c
  8
Layer_0
  10
62.510086
  20
158.89149
  0
VERTEX
  5
80d
  8
Layer_0
  10
62.498962
  20
158.72179
  0
VERTEX
  5
80e
  8
Layer_0
  10
62.496262
  20
158.58919
  0
VERTEX
  5
80f
  8
Layer_0
  10
62.496262
  20
131.93593
  0
VERTEX
  5
810
  8
Layer_0
  10
62.500595
  20
131.76595
  0
VERTEX
  5
811
  8
Layer_0
  10
62.513611
  20
131.59648
  0
VERTEX
  5
812
  8
Layer_0
  10
62.535294
  20
131.42784
  0
VERTEX
  5
813
  8
Layer_0
  10
62.565399
  20
131.26054
  0
VERTEX
  5
814
  8
Layer_0
  10
62.604172
  20
131.09489
  0
VERTEX
  5
815
  8
Layer_0
  10
62.651352
  20
130.93166
  0
VERTEX
  5
816
  8
Layer_0
  10
62.70665
  20
130.77089
  0
VERTEX
  5
817
  8
Layer_0
  10
62.770096
  20
130.61336
  0
VERTEX
  5
818
  8
Layer_0
  10
62.841415
  20
130.45909
  0
VERTEX
  5
819
  8
Layer_0
  10
62.920853
  20
130.30861
  0
VERTEX
  5
81a
  8
Layer_0
  10
63.007614
  20
130.16246
  0
VERTEX
  5
81b
  8
Layer_0
  10
63.1017
  20
130.02095
  0
VERTEX
  5
81c
  8
Layer_0
  10
63.20282
  20
129.88429
  0
VERTEX
  5
81d
  8
Layer_0
  10
63.311005
  20
129.75307
  0
VERTEX
  5
81e
  8
Layer_0
  10
63.42569
  20
129.62752
  0
VERTEX
  5
81f
  8
Layer_0
  10
63.546616
  20
129.50795
  0
VERTEX
  5
820
  8
Layer_0
  10
63.673233
  20
129.39464
  0
VERTEX
  5
821
  8
Layer_0
  10
63.805817
  20
129.28807
  0
VERTEX
  5
822
  8
Layer_0
  10
63.943558
  20
129.18831
  0
VERTEX
  5
823
  8
Layer_0
  10
64.086166
  20
129.09584
  0
VERTEX
  5
824
  8
Layer_0
  10
64.233124
  20
129.0107
  0
VERTEX
  5
825
  8
Layer_0
  10
64.384415
  20
128.93315
  0
VERTEX
  5
826
  8
Layer_0
  10
64.539505
  20
128.86348
  0
VERTEX
  5
827
  8
Layer_0
  10
64.697845
  20
128.80165
  0
VERTEX
  5
828
  8
Layer_0
  10
64.859436
  20
128.74825
  0
VERTEX
  5
829
  8
Layer_0
  10
65.023193
  20
128.70296
  0
VERTEX
  5
82a
  8
Layer_0
  10
65.189133
  20
128.66609
  0
VERTEX
  5
82b
  8
Layer_0
  10
65.356689
  20
128.63762
  0
VERTEX
  5
82c
  8
Layer_0
  10
65.525604
  20
128.61812
  0
VERTEX
  5
82d
  8
Layer_0
  10
65.695328
  20
128.60698
  0
VERTEX
  5
82e
  8
Layer_0
  10
65.827911
  20
128.60429
  0
VERTEX
  5
82f
  8
Layer_0
  10
94.979919
  20
128.60429
  0
VERTEX
  5
830
  8
Layer_0
  10
95.149918
  20
128.60863
  0
SEQEND
  0
POLYLINE
  5
832
  8
Layer_0
  62
0
  66
1
  10
0
  20
0
  30
0
  0
VERTEX
  5
832
  8
Layer_0
  10
46.00798
  20
128.60863
  0
VERTEX
  5
833
  8
Layer_0
  10
46.177414
  20
128.62163
  0
VERTEX
  5
834
  8
Layer_0
  10
46.346069
  20
128.64333
  0
VERTEX
  5
835
  8
Layer_0
  10
46.513351
  20
128.67342
  0
VERTEX
  5
836
  8
Layer_0
  10
46.679016
  20
128.7122
  0
VERTEX
  5
837
  8
Layer_0
  10
46.842239
  20
128.75935
  0
VERTEX
  5
838
  8
Layer_0
  10
47.003021
  20
128.81468
  0
VERTEX
  5
839
  8
Layer_0
  10
47.160553
  20
128.87813
  0
VERTEX
  5
83a
  8
Layer_0
  10
47.314819
  20
128.94942
  0
VERTEX
  5
83b
  8
Layer_0
  10
47.465302
  20
129.02888
  0
VERTEX
  5
83c
  8
Layer_0
  10
47.611435
  20
129.11565
  0
VERTEX
  5
83d
  8
Layer_0
  10
47.752975
  20
129.2097
  0
VERTEX
  5
83e
  8
Layer_0
  10
47.889618
  20
129.31084
  0
VERTEX
  5
83f
  8
Layer_0
  10
48.020859
  20
129.41902
  0
VERTEX
  5
840
  8
Layer_0
  10
48.146378
  20
129.53371
  0
VERTEX
  5
841
  8
Layer_0
  10
48.265945
  20
129.65465
  0
VERTEX
  5
842
  8
Layer_0
  10
48.379288
  20
129.78127
  0
VERTEX
  5
843
  8
Layer_0
  10
48.48584
  20
129.91383
  0
VERTEX
  5
844
  8
Layer_0
  10
48.585617
  20
130.05159
  0
VERTEX
  5
845
  8
Layer_0
  10
48.67807
  20
130.1942
  0
VERTEX
  5
846
  8
Layer_0
  10
48.763199
  20
130.34114
  0
VERTEX
  5
847
  8
Layer_0
  10
48.840744
  20
130.49245
  0
VERTEX
  5
848
  8
Layer_0
  10
48.910431
  20
130.64754
  0
VERTEX
  5
849
  8
Layer_0
  10
48.97226
  20
130.80586
  0
VERTEX
  5
84a
  8
Layer_0
  10
49.02565
  20
130.96745
  0
VERTEX
  5
84b
  8
Layer_0
  10
49.070938
  20
131.13121
  0
VERTEX
  5
84c
  8
Layer_0
  10
49.107819
  20
131.29716
  0
VERTEX
  5
84d
  8
Layer_0
  10
49.136276
  20
131.46471
  0
VERTEX
  5
84e
  8
Layer_0
  10
49.155792
  20
131.63362
  0
VERTEX
  5
84f
  8
Layer_0
  10
49.166916
  20
131.80336
  0
VERTEX
  5
850
  8
Layer_0
  10
49.169632
  20
131.93593
  0
VERTEX
  5
851
  8
Layer_0
  10
49.169632
  20
154.8831
  0
VERTEX
  5
852
  8
Layer_0
  10
49.165283
  20
155.05312
  0
VERTEX
  5
853
  8
Layer_0
  10
49.152283
  20
155.22255
  0
VERTEX
  5
854
  8
Layer_0
  10
49.130585
  20
155.39122
  0
VERTEX
  5
855
  8
Layer_0
  10
49.100479
  20
155.55849
  0
VERTEX
  5
856
  8
Layer_0
  10
49.061722
  20
155.72417
  0
VERTEX
  5
857
  8
Layer_0
  10
49.014542
  20
155.88737
  0
VERTEX
  5
858
  8
Layer_0
  10
48.959229
  20
156.04817
  0
VERTEX
  5
859
  8
Layer_0
  10
48.895782
  20
156.20567
  0
VERTEX
  5
85a
  8
Layer_0
  10
48.824478
  20
156.35997
  0
VERTEX
  5
85b
  8
Layer_0
  10
48.745041
  20
156.51042
  0
VERTEX
  5
85c
  8
Layer_0
  10
48.658279
  20
156.65657
  0
VERTEX
  5
85d
  8
Layer_0
  10
48.564178
  20
156.79811
  0
VERTEX
  5
85e
  8
Layer_0
  10
48.463058
  20
156.93477
  0
VERTEX
  5
85f
  8
Layer_0
  10
48.354874
  20
157.06599
  0
VERTEX
  5
860
  8
Layer_0
  10
48.240204
  20
157.19151
  0
VERTEX
  5
861
  8
Layer_0
  10
48.119263
  20
157.31108
  0
VERTEX
  5
862
  8
Layer_0
  10
47.992661
  20
157.42442
  0
VERTEX
  5
863
  8
Layer_0
  10
47.860062
  20
157.53096
  0
VERTEX
  5
864
  8
Layer_0
  10
47.722336
  20
157.63075
  0
VERTEX
  5
865
  8
Layer_0
  10
47.579712
  20
157.72319
  0
VERTEX
  5
866
  8
Layer_0
  10
47.43277
  20
157.80833
  0
VERTEX
  5
867
  8
Layer_0
  10
47.281464
  20
157.88588
  0
VERTEX
  5
868
  8
Layer_0
  10
47.126389
  20
157.95555
  0
VERTEX
  5
869
  8
Layer_0
  10
46.968048
  20
158.01738
  0
VERTEX
  5
86a
  8
Layer_0
  10
46.806442
  20
158.07079
  0
VERTEX
  5
86b
  8
Layer_0
  10
46.642685
  20
158.11607
  0
VERTEX
  5
86c
  8
Layer_0
  10
46.476761
  20
158.15294
  0
VERTEX
  5
86d
  8
Layer_0
  10
46.309189
  20
158.18141
  0
VERTEX
  5
86e
  8
Layer_0
  10
46.140274
  20
158.20094
  0
VERTEX
  5
86f
  8
Layer_0
  10
45.970551
  20
158.21205
  0
VERTEX
  5
870
  8
Layer_0
  10
45.800552
  20
158.21449
  0
VERTEX
  5
871
  8
Layer_0
  10
45.630829
  20
158.20827
  0
VERTEX
  5
872
  8
Layer_0
  10
45.461365
  20
158.19334
  0
VERTEX
  5
873
  8
Layer_0
  10
45.292999
  20
158.17003
  0
VERTEX
  5
874
  8
Layer_0
  10
45.125977
  20
158.13777
  0
VERTEX
  5
875
  8
Layer_0
  10
44.960876
  20
158.09737
  0
VERTEX
  5
876
  8
Layer_0
  10
44.798187
  20
158.04829
  0
VERTEX
  5
877
  8
Layer_0
  10
44.637939
  20
157.99107
  0
VERTEX
  5
878
  8
Layer_0
  10
44.480972
  20
157.92601
  0
VERTEX
  5
879
  8
Layer_0
  10
44.327499
  20
157.8528
  0
VERTEX
  5
87a
  8
Layer_0
  10
44.178101
  20
157.77174
  0
VERTEX
  5
87b
  8
Layer_0
  10
44.032776
  20
157.68333
  0
VERTEX
  5
87c
  8
Layer_0
  10
43.892334
  20
157.58763
  0
VERTEX
  5
87d
  8
Layer_0
  10
43.757034
  20
157.48488
  0
VERTEX
  5
87e
  8
Layer_0
  10
43.626892
  20
157.37535
  0
VERTEX
  5
87f
  8
Layer_0
  10
43.502716
  20
157.25929
  0
VERTEX
  5
880
  8
Layer_0
  10
43.384506
  20
157.13701
  0
VERTEX
  5
881
  8
Layer_0
  10
43.272812
  20
157.00905
  0
VERTEX
  5
882
  8
Layer_0
  10
43.167603
  20
156.87538
  0
VERTEX
  5
883
  8
Layer_0
  10
43.069458
  20
156.73656
  0
VERTEX
  5
884
  8
Layer_0
  10
42.978622
  20
156.59312
  0
VERTEX
  5
885
  8
Layer_0
  10
42.895111
  20
156.44481
  0
VERTEX
  5
886
  8
Layer_0
  10
42.819199
  20
156.29271
  0
VERTEX
  5
887
  8
Layer_0
  10
42.752502
  20
156.14034
  0
VERTEX
  5
888
  8
Layer_0
  10
33.402283
  20
133.19316
  0
VERTEX
  5
889
  8
Layer_0
  10
33.342354
  20
133.03401
  0
VERTEX
  5
88a
  8
Layer_0
  10
33.290306
  20
132.87215
  0
VERTEX
  5
88b
  8
Layer_0
  10
33.246643
  20
132.70784
  0
VERTEX
  5
88c
  8
Layer_0
  10
33.211678
  20
132.54164
  0
VERTEX
  5
88d
  8
Layer_0
  10
33.185097
  20
132.37355
  0
VERTEX
  5
88e
  8
Layer_0
  10
33.166931
  20
132.20464
  0
VERTEX
  5
88f
  8
Layer_0
  10
33.157448
  20
132.0349
  0
VERTEX
  5
890
  8
Layer_0
  10
33.156898
  20
131.86491
  0
VERTEX
  5
891
  8
Layer_0
  10
33.164764
  20
131.69518
  0
VERTEX
  5
892
  8
Layer_0
  10
33.181305
  20
131.52599
  0
VERTEX
  5
893
  8
Layer_0
  10
33.20652
  20
131.35762
  0
VERTEX
  5
894
  8
Layer_0
  10
33.240402
  20
131.19115
  0
VERTEX
  5
895
  8
Layer_0
  10
33.282707
  20
131.02657
  0
VERTEX
  5
896
  8
Layer_0
  10
33.333138
  20
130.86415
  0
VERTEX
  5
897
  8
Layer_0
  10
33.391975
  20
130.70473
  0
VERTEX
  5
898
  8
Layer_0
  10
33.458939
  20
130.54829
  0
VERTEX
  5
899
  8
Layer_0
  10
33.533501
  20
130.39565
  0
VERTEX
  5
89a
  8
Layer_0
  10
33.615929
  20
130.24678
  0
VERTEX
  5
89b
  8
Layer_0
  10
33.70594
  20
130.10255
  0
VERTEX
  5
89c
  8
Layer_0
  10
33.803017
  20
129.96318
  0
VERTEX
  5
89d
  8
Layer_0
  10
33.907127
  20
129.82872
  0
VERTEX
  5
89e
  8
Layer_0
  10
34.018013
  20
129.69991
  0
VERTEX
  5
89f
  8
Layer_0
  10
34.135139
  20
129.57683
  0
VERTEX
  5
8a0
  8
Layer_0
  10
34.258781
  20
129.4597
  0
VERTEX
  5
8a1
  8
Layer_0
  10
34.38784
  20
129.34935
  0
VERTEX
  5
8a2
  8
Layer_0
  10
34.522598
  20
129.2455
  0
VERTEX
  5
8a3
  8
Layer_0
  10
34.662224
  20
129.14897
  0
VERTEX
  5
8a4
  8
Layer_0
  10
34.807007
  20
129.05925
  0
VERTEX
  5
8a5
  8
Layer_0
  10
34.955856
  20
128.97734
  0
VERTEX
  5
8a6
  8
Layer_0
  10
35.108772
  20
128.90306
  0
VERTEX
  5
8a7
  8
Layer_0
  10
35.265213
  20
128.83662
  0
VERTEX
  5
8a8
  8
Layer_0
  10
35.424927
  20
128.77834
  0
VERTEX
  5
8a9
  8
Layer_0
  10
35.587326
  20
128.7282
  0
VERTEX
  5
8aa
  8
Layer_0
  10
35.752167
  20
128.68642
  0
VERTEX
  5
8ab
  8
Layer_0
  10
35.918915
  20
128.65309
  0
VERTEX
  5
8ac
  8
Layer_0
  10
36.087021
  20
128.6284
  0
VERTEX
  5
8ad
  8
Layer_0
  10
36.256195
  20
128.61241
  0
VERTEX
  5
8ae
  8
Layer_0
  10
36.487747
  20
128.60429
  0
VERTEX
  5
8af
  8
Layer_0
  10
45.837967
  20
128.60429
  0
VERTEX
  5
8b0
  8
Layer_0
  10
46.00798
  20
128.60863
  0
SEQEND
  0
POLYLINE
  5
8b2
  8
Layer_0
  62
0
  66
1
  10
0
  20
0
  30
0
  0
VERTEX
  5
8b2
  8
Layer_0
  10
385.94467
  20
59.750031
  0
VERTEX
  5
8b3
  8
Layer_0
  10
385.94467
  20
124.16208
  0
VERTEX
  5
8b4
  8
Layer_0
  10
272.6683
  20
124.16208
  0
VERTEX
  5
8b5
  8
Layer_0
  10
272.6683
  20
59.750031
  0
VERTEX
  5
8b6
  8
Layer_0
  10
385.94467
  20
59.750031
  0
SEQEND
  0
POLYLINE
  5
8b8
  8
Layer_0
  62
0
  66
1
  10
0
  20
0
  30
0
  0
VERTEX
  5
8b8
  8
Layer_0
  10
373.31274
  20
111.5854
  0
VERTEX
  5
8b9
  8
Layer_0
  10
373.31354
  20
111.58702
  0
VERTEX
  5
8ba
  8
Layer_0
  10
373.47217
  20
111.89366
  0
VERTEX
  5
8bb
  8
Layer_0
  10
373.47433
  20
111.89799
  0
VERTEX
  5
8bc
  8
Layer_0
  10
373.6644
  20
112.25237
  0
VERTEX
  5
8bd
  8
Layer_0
  10
373.66928
  20
112.26134
  0
VERTEX
  5
8be
  8
Layer_0
  10
373.74274
  20
112.38875
  0
VERTEX
  5
8bf
  8
Layer_0
  10
373.76416
  20
112.42101
  0
VERTEX
  5
8c0
  8
Layer_0
  10
373.77988
  20
112.44215
  0
VERTEX
  5
8c1
  8
Layer_0
  10
373.80157
  20
112.46846
  0
VERTEX
  5
8c2
  8
Layer_0
  10
373.82571
  20
112.49232
  0
VERTEX
  5
8c3
  8
Layer_0
  10
373.85229
  20
112.51347
  0
VERTEX
  5
8c4
  8
Layer_0
  10
373.88074
  20
112.53191
  0
VERTEX
  5
8c5
  8
Layer_0
  10
373.91113
  20
112.54738
  0
VERTEX
  5
8c6
  8
Layer_0
  10
373.94284
  20
112.55983
  0
VERTEX
  5
8c7
  8
Layer_0
  10
373.97565
  20
112.56877
  0
VERTEX
  5
8c8
  8
Layer_0
  10
373.9957
  20
112.57259
  0
VERTEX
  5
8c9
  8
Layer_0
  10
374.02689
  20
112.57747
  0
VERTEX
  5
8ca
  8
Layer_0
  10
374.06024
  20
112.58098
  0
VERTEX
  5
8cb
  8
Layer_0
  10
374.13507
  20
112.58507
  0
VERTEX
  5
8cc
  8
Layer_0
  10
374.14539
  20
112.58531
  0
VERTEX
  5
8cd
  8
Layer_0
  10
374.40729
  20
112.59157
  0
VERTEX
  5
8ce
  8
Layer_0
  10
374.41351
  20
112.59184
  0
VERTEX
  5
8cf
  8
Layer_0
  10
375.01163
  20
112.59453
  0
VERTEX
  5
8d0
  8
Layer_0
  10
375.01544
  20
112.59453
  0
VERTEX
  5
8d1
  8
Layer_0
  10
376.41418
  20
112.58531
  0
VERTEX
  5
8d2
  8
Layer_0
  10
376.44809
  20
112.58342
  0
VERTEX
  5
8d3
  8
Layer_0
  10
376.48172
  20
112.57802
  0
VERTEX
  5
8d4
  8
Layer_0
  10
376.51453
  20
112.56905
  0
VERTEX
  5
8d5
  8
Layer_0
  10
376.54623
  20
112.55711
  0
VERTEX
  5
8d6
  8
Layer_0
  10
376.5766
  20
112.54167
  0
VERTEX
  5
8d7
  8
Layer_0
  10
376.60535
  20
112.52351
  0
VERTEX
  5
8d8
  8
Layer_0
  10
376.63193
  20
112.50237
  0
VERTEX
  5
8d9
  8
Layer_0
  10
376.65631
  20
112.4785
  0
VERTEX
  5
8da
  8
Layer_0
  10
376.67828
  20
112.45247
  0
VERTEX
  5
8db
  8
Layer_0
  10
376.69727
  20
112.42427
  0
VERTEX
  5
8dc
  8
Layer_0
  10
376.71326
  20
112.39445
  0
VERTEX
  5
8dd
  8
Layer_0
  10
376.72626
  20
112.36299
  0
VERTEX
  5
8de
  8
Layer_0
  10
376.73575
  20
112.33046
  0
VERTEX
  5
8df
  8
Layer_0
  10
376.74228
  20
112.2971
  0
VERTEX
  5
8e0
  8
Layer_0
  10
376.74524
  20
112.25914
  0
VERTEX
  5
8e1
  8
Layer_0
  10
376.77237
  20
110.99651
  0
VERTEX
  5
8e2
  8
Layer_0
  10
378.04993
  20
110.98457
  0
VERTEX
  5
8e3
  8
Layer_0
  10
378.03067
  20
115.41811
  0
VERTEX
  5
8e4
  8
Layer_0
  10
378.02417
  20
116.13145
  0
VERTEX
  5
8e5
  8
Layer_0
  10
378.01901
  20
116.40257
  0
VERTEX
  5
8e6
  8
Layer_0
  10
378.01251
  20
116.61272
  0
VERTEX
  5
8e7
  8
Layer_0
  10
378.0033
  20
116.78786
  0
VERTEX
  5
8e8
  8
Layer_0
  10
377.99326
  20
116.90633
  0
VERTEX
  5
8e9
  8
Layer_0
  10
377.97998
  20
117.00529
  0
VERTEX
  5
8ea
  8
Layer_0
  10
377.96805
  20
117.06062
  0
VERTEX
  5
8eb
  8
Layer_0
  10
377.95938
  20
117.088
  0
VERTEX
  5
8ec
  8
Layer_0
  10
377.92197
  20
117.15932
  0
VERTEX
  5
8ed
  8
Layer_0
  10
377.86069
  20
117.25121
  0
VERTEX
  5
8ee
  8
Layer_0
  10
377.68823
  20
117.47356
  0
VERTEX
  5
8ef
  8
Layer_0
  10
377.49411
  20
117.65248
  0
VERTEX
  5
8f0
  8
Layer_0
  10
377.26474
  20
117.80486
  0
VERTEX
  5
8f1
  8
Layer_0
  10
376.99985
  20
117.92931
  0
VERTEX
  5
8f2
  8
Layer_0
  10
376.92719
  20
117.95073
  0
VERTEX
  5
8f3
  8
Layer_0
  10
376.81168
  20
117.97188
  0
VERTEX
  5
8f4
  8
Layer_0
  10
376.66336
  20
117.98897
  0
VERTEX
  5
8f5
  8
Layer_0
  10
376.51208
  20
117.99846
  0
VERTEX
  5
8f6
  8
Layer_0
  10
376.18158
  20
117.99602
  0
VERTEX
  5
8f7
  8
Layer_0
  10
375.92859
  20
117.96428
  0
VERTEX
  5
8f8
  8
Layer_0
  10
375.72742
  20
117.89949
  0
VERTEX
  5
8f9
  8
Layer_0
  10
375.47229
  20
117.78969
  0
VERTEX
  5
8fa
  8
Layer_0
  10
375.2955
  20
117.69426
  0
VERTEX
  5
8fb
  8
Layer_0
  10
375.1445
  20
117.58092
  0
VERTEX
  5
8fc
  8
Layer_0
  10
375.07535
  20
117.51176
  0
VERTEX
  5
8fd
  8
Layer_0
  10
374.99158
  20
117.41255
  0
VERTEX
  5
8fe
  8
Layer_0
  10
374.89398
  20
117.2794
  0
VERTEX
  5
8ff
  8
Layer_0
  10
374.78552
  20
117.11485
  0
VERTEX
  5
900
  8
Layer_0
  10
374.65457
  20
116.89955
  0
VERTEX
  5
901
  8
Layer_0
  10
374.50787
  20
116.64388
  0
VERTEX
  5
902
  8
Layer_0
  10
374.33841
  20
116.33614
  0
VERTEX
  5
903
  8
Layer_0
  10
374.14346
  20
115.97231
  0
VERTEX
  5
904
  8
Layer_0
  10
373.92035
  20
115.54716
  0
VERTEX
  5
905
  8
Layer_0
  10
372.9017
  20
113.5706
  0
VERTEX
  5
906
  8
Layer_0
  10
372.90115
  20
113.56926
  0
VERTEX
  5
907
  8
Layer_0
  10
372.40472
  20
112.61705
  0
VERTEX
  5
908
  8
Layer_0
  10
371.82748
  20
111.48805
  0
VERTEX
  5
909
  8
Layer_0
  10
371.57669
  20
110.98592
  0
VERTEX
  5
90a
  8
Layer_0
  10
371.86868
  20
110.98296
  0
VERTEX
  5
90b
  8
Layer_0
  10
373.00446
  20
110.98241
  0
VERTEX
  5
90c
  8
Layer_0
  10
373.31274
  20
111.5854
  0
SEQEND
  0
POLYLINE
  5
90e
  8
Layer_0
  62
0
  66
1
  10
0
  20
0
  30
0
  0
VERTEX
  5
90e
  8
Layer_0
  10
361.76715
  20
115.14452
  0
VERTEX
  5
90f
  8
Layer_0
  10
361.75497
  20
116.26784
  0
VERTEX
  5
910
  8
Layer_0
  10
361.75522
  20
116.26784
  0
VERTEX
  5
911
  8
Layer_0
  10
361.7471
  20
116.57555
  0
VERTEX
  5
912
  8
Layer_0
  10
361.73679
  20
116.77431
  0
VERTEX
  5
913
  8
Layer_0
  10
361.7319
  20
116.82716
  0
VERTEX
  5
914
  8
Layer_0
  10
361.72052
  20
116.89549
  0
VERTEX
  5
915
  8
Layer_0
  10
361.70941
  20
116.93263
  0
VERTEX
  5
916
  8
Layer_0
  10
361.64514
  20
117.08366
  0
VERTEX
  5
917
  8
Layer_0
  10
361.55838
  20
117.23088
  0
VERTEX
  5
918
  8
Layer_0
  10
361.45401
  20
117.36699
  0
VERTEX
  5
919
  8
Layer_0
  10
361.32794
  20
117.49632
  0
VERTEX
  5
91a
  8
Layer_0
  10
361.18369
  20
117.61427
  0
VERTEX
  5
91b
  8
Layer_0
  10
361.01993
  20
117.72163
  0
VERTEX
  5
91c
  8
Layer_0
  10
360.83853
  20
117.81572
  0
VERTEX
  5
91d
  8
Layer_0
  10
360.6474
  20
117.89272
  0
VERTEX
  5
91e
  8
Layer_0
  10
360.49393
  20
117.92824
  0
VERTEX
  5
91f
  8
Layer_0
  10
360.26483
  20
117.95534
  0
VERTEX
  5
920
  8
Layer_0
  10
360.02542
  20
117.96565
  0
VERTEX
  5
921
  8
Layer_0
  10
359.86029
  20
117.95561
  0
VERTEX
  5
922
  8
Layer_0
  10
359.5184
  20
117.87184
  0
VERTEX
  5
923
  8
Layer_0
  10
359.19196
  20
117.73491
  0
VERTEX
  5
924
  8
Layer_0
  10
359.0545
  20
117.65657
  0
VERTEX
  5
925
  8
Layer_0
  10
358.92978
  20
117.56953
  0
VERTEX
  5
926
  8
Layer_0
  10
358.82404
  20
117.47896
  0
VERTEX
  5
927
  8
Layer_0
  10
358.7381
  20
117.38515
  0
VERTEX
  5
928
  8
Layer_0
  10
358.72101
  20
117.36238
  0
VERTEX
  5
929
  8
Layer_0
  10
358.68332
  20
117.30492
  0
VERTEX
  5
92a
  8
Layer_0
  10
358.64075
  20
117.23549
  0
VERTEX
  5
92b
  8
Layer_0
  10
358.50897
  20
117.00746
  0
VERTEX
  5
92c
  8
Layer_0
  10
358.34088
  20
116.7011
  0
VERTEX
  5
92d
  8
Layer_0
  10
358.12289
  20
116.29305
  0
VERTEX
  5
92e
  8
Layer_0
  10
357.70752
  20
115.49754
  0
VERTEX
  5
92f
  8
Layer_0
  10
356.38657
  20
112.92018
  0
VERTEX
  5
930
  8
Layer_0
  10
356.38602
  20
112.91936
  0
VERTEX
  5
931
  8
Layer_0
  10
355.7825
  20
111.74916
  0
VERTEX
  5
932
  8
Layer_0
  10
355.40833
  20
111.01872
  0
VERTEX
  5
933
  8
Layer_0
  10
355.51923
  20
111.01738
  0
VERTEX
  5
934
  8
Layer_0
  10
356.42752
  20
111.01845
  0
VERTEX
  5
935
  8
Layer_0
  10
356.75882
  20
111.02522
  0
VERTEX
  5
936
  8
Layer_0
  10
356.80627
  20
111.02766
  0
VERTEX
  5
937
  8
Layer_0
  10
356.98523
  20
111.36415
  0
VERTEX
  5
938
  8
Layer_0
  10
357.51257
  20
112.38115
  0
VERTEX
  5
939
  8
Layer_0
  10
357.52966
  20
112.41045
  0
VERTEX
  5
93a
  8
Layer_0
  10
357.54971
  20
112.43782
  0
VERTEX
  5
93b
  8
Layer_0
  10
357.57248
  20
112.46306
  0
VERTEX
  5
93c
  8
Layer_0
  10
357.59772
  20
112.48582
  0
VERTEX
  5
93d
  8
Layer_0
  10
357.62509
  20
112.50587
  0
VERTEX
  5
93e
  8
Layer_0
  10
357.65463
  20
112.52324
  0
VERTEX
  5
93f
  8
Layer_0
  10
357.68555
  20
112.53734
  0
VERTEX
  5
940
  8
Layer_0
  10
357.71756
  20
112.54817
  0
VERTEX
  5
941
  8
Layer_0
  10
357.75089
  20
112.55577
  0
VERTEX
  5
942
  8
Layer_0
  10
357.7764
  20
112.55931
  0
VERTEX
  5
943
  8
Layer_0
  10
357.98489
  20
112.57936
  0
VERTEX
  5
944
  8
Layer_0
  10
357.99463
  20
112.58018
  0
VERTEX
  5
945
  8
Layer_0
  10
358.06757
  20
112.58507
  0
VERTEX
  5
946
  8
Layer_0
  10
358.07898
  20
112.58559
  0
VERTEX
  5
947
  8
Layer_0
  10
358.31052
  20
112.59319
  0
VERTEX
  5
948
  8
Layer_0
  10
358.31757
  20
112.59346
  0
VERTEX
  5
949
  8
Layer_0
  10
358.80884
  20
112.59917
  0
VERTEX
  5
94a
  8
Layer_0
  10
359.18356
  20
112.59917
  0
VERTEX
  5
94b
  8
Layer_0
  10
359.54037
  20
112.59645
  0
VERTEX
  5
94c
  8
Layer_0
  10
359.54361
  20
112.59645
  0
VERTEX
  5
94d
  8
Layer_0
  10
359.85052
  20
112.59129
  0
VERTEX
  5
94e
  8
Layer_0
  10
359.85678
  20
112.59102
  0
VERTEX
  5
94f
  8
Layer_0
  10
360.07584
  20
112.58315
  0
VERTEX
  5
950
  8
Layer_0
  10
360.08887
  20
112.58235
  0
VERTEX
  5
951
  8
Layer_0
  10
360.15366
  20
112.57747
  0
VERTEX
  5
952
  8
Layer_0
  10
360.18756
  20
112.57341
  0
VERTEX
  5
953
  8
Layer_0
  10
360.21628
  20
112.56825
  0
VERTEX
  5
954
  8
Layer_0
  10
360.24936
  20
112.56038
  0
VERTEX
  5
955
  8
Layer_0
  10
360.28165
  20
112.54927
  0
VERTEX
  5
956
  8
Layer_0
  10
360.31229
  20
112.53517
  0
VERTEX
  5
957
  8
Layer_0
  10
360.34155
  20
112.51781
  0
VERTEX
  5
958
  8
Layer_0
  10
360.36893
  20
112.49748
  0
VERTEX
  5
959
  8
Layer_0
  10
360.39417
  20
112.47472
  0
VERTEX
  5
95a
  8
Layer_0
  10
360.41666
  20
112.44948
  0
VERTEX
  5
95b
  8
Layer_0
  10
360.44159
  20
112.41423
  0
VERTEX
  5
95c
  8
Layer_0
  10
360.4519
  20
112.39745
  0
VERTEX
  5
95d
  8
Layer_0
  10
360.46817
  20
112.3676
  0
VERTEX
  5
95e
  8
Layer_0
  10
360.4812
  20
112.33617
  0
VERTEX
  5
95f
  8
Layer_0
  10
360.49176
  20
112.30092
  0
VERTEX
  5
960
  8
Layer_0
  10
360.5007
  20
112.2635
  0
VERTEX
  5
961
  8
Layer_0
  10
360.5072
  20
112.22771
  0
VERTEX
  5
962
  8
Layer_0
  10
360.5148
  20
112.16777
  0
VERTEX
  5
963
  8
Layer_0
  10
360.51642
  20
112.15178
  0
VERTEX
  5
964
  8
Layer_0
  10
360.52295
  20
112.06828
  0
VERTEX
  5
965
  8
Layer_0
  10
360.52347
  20
112.05907
  0
VERTEX
  5
966
  8
Layer_0
  10
360.5289
  20
111.95033
  0
VERTEX
  5
967
  8
Layer_0
  10
360.52917
  20
111.94273
  0
VERTEX
  5
968
  8
Layer_0
  10
360.53732
  20
111.64314
  0
VERTEX
  5
969
  8
Layer_0
  10
360.53757
  20
111.63826
  0
VERTEX
  5
96a
  8
Layer_0
  10
360.54544
  20
110.99651
  0
VERTEX
  5
96b
  8
Layer_0
  10
361.79184
  20
110.98485
  0
VERTEX
  5
96c
  8
Layer_0
  10
361.76715
  20
115.14452
  0
SEQEND
  0
POLYLINE
  5
96e
  8
Layer_0
  62
0
  66
1
  10
0
  20
0
  30
0
  0
VERTEX
  5
96e
  8
Layer_0
  10
370.40378
  20
115.07811
  0
VERTEX
  5
96f
  8
Layer_0
  10
370.40378
  20
115.0789
  0
VERTEX
  5
970
  8
Layer_0
  10
370.41895
  20
117.41444
  0
VERTEX
  5
971
  8
Layer_0
  10
370.41895
  20
117.41768
  0
VERTEX
  5
972
  8
Layer_0
  10
370.42493
  20
117.78941
  0
VERTEX
  5
973
  8
Layer_0
  10
370.30453
  20
117.79268
  0
VERTEX
  5
974
  8
Layer_0
  10
370.30453
  20
117.7924
  0
VERTEX
  5
975
  8
Layer_0
  10
369.12051
  20
117.80434
  0
VERTEX
  5
976
  8
Layer_0
  10
369.11859
  20
117.76393
  0
VERTEX
  5
977
  8
Layer_0
  10
369.11346
  20
117.43153
  0
VERTEX
  5
978
  8
Layer_0
  10
369.10721
  20
115.4463
  0
VERTEX
  5
979
  8
Layer_0
  10
369.11887
  20
110.99651
  0
VERTEX
  5
97a
  8
Layer_0
  10
370.38776
  20
110.98457
  0
VERTEX
  5
97b
  8
Layer_0
  10
370.40378
  20
115.07811
  0
SEQEND
  0
POLYLINE
  5
97d
  8
Layer_0
  62
0
  66
1
  10
0
  20
0
  30
0
  0
VERTEX
  5
97d
  8
Layer_0
  10
367.72769
  20
111.90181
  0
VERTEX
  5
97e
  8
Layer_0
  10
365.33063
  20
111.90181
  0
VERTEX
  5
97f
  8
Layer_0
  10
365.29675
  20
111.9037
  0
VERTEX
  5
980
  8
Layer_0
  10
365.26312
  20
111.90886
  0
VERTEX
  5
981
  8
Layer_0
  10
365.23032
  20
111.91725
  0
VERTEX
  5
982
  8
Layer_0
  10
365.19833
  20
111.92918
  0
VERTEX
  5
983
  8
Layer_0
  10
365.16797
  20
111.94438
  0
VERTEX
  5
984
  8
Layer_0
  10
365.13922
  20
111.96254
  0
VERTEX
  5
985
  8
Layer_0
  10
365.11237
  20
111.98341
  0
VERTEX
  5
986
  8
Layer_0
  10
365.08771
  20
112.007
  0
VERTEX
  5
987
  8
Layer_0
  10
365.06573
  20
112.03276
  0
VERTEX
  5
988
  8
Layer_0
  10
365.04648
  20
112.06096
  0
VERTEX
  5
989
  8
Layer_0
  10
365.03021
  20
112.09077
  0
VERTEX
  5
98a
  8
Layer_0
  10
365.01721
  20
112.12196
  0
VERTEX
  5
98b
  8
Layer_0
  10
365.00745
  20
112.1545
  0
VERTEX
  5
98c
  8
Layer_0
  10
365.00095
  20
112.18785
  0
VERTEX
  5
98d
  8
Layer_0
  10
364.99741
  20
112.2296
  0
VERTEX
  5
98e
  8
Layer_0
  10
364.98523
  20
112.96355
  0
VERTEX
  5
98f
  8
Layer_0
  10
364.98523
  20
112.96654
  0
VERTEX
  5
990
  8
Layer_0
  10
364.98251
  20
113.34938
  0
VERTEX
  5
991
  8
Layer_0
  10
364.98251
  20
113.35234
  0
VERTEX
  5
992
  8
Layer_0
  10
364.98575
  20
115.52547
  0
VERTEX
  5
993
  8
Layer_0
  10
364.98575
  20
115.52708
  0
VERTEX
  5
994
  8
Layer_0
  10
364.99985
  20
117.6194
  0
VERTEX
  5
995
  8
Layer_0
  10
365.00012
  20
117.62483
  0
VERTEX
  5
996
  8
Layer_0
  10
365.00394
  20
117.79051
  0
VERTEX
  5
997
  8
Layer_0
  10
364.87405
  20
117.79076
  0
VERTEX
  5
998
  8
Layer_0
  10
364.0799
  20
117.78209
  0
VERTEX
  5
999
  8
Layer_0
  10
363.72879
  20
117.77641
  0
VERTEX
  5
99a
  8
Layer_0
  10
363.7204
  20
117.60939
  0
VERTEX
  5
99b
  8
Layer_0
  10
363.71469
  20
117.34801
  0
VERTEX
  5
99c
  8
Layer_0
  10
363.71036
  20
116.55333
  0
VERTEX
  5
99d
  8
Layer_0
  10
363.71442
  20
114.3474
  0
VERTEX
  5
99e
  8
Layer_0
  10
363.73584
  20
110.98241
  0
VERTEX
  5
99f
  8
Layer_0
  10
367.72769
  20
110.98241
  0
VERTEX
  5
9a0
  8
Layer_0
  10
367.72769
  20
111.90181
  0
SEQEND
  0
POLYLINE
  5
9a2
  8
Layer_0
  62
0
  66
1
  10
0
  20
0
  30
0
  0
VERTEX
  5
9a2
  8
Layer_0
  10
334.24194
  20
117.74034
  0
VERTEX
  5
9a3
  8
Layer_0
  10
333.43127
  20
117.74089
  0
VERTEX
  5
9a4
  8
Layer_0
  10
332.60947
  20
117.73573
  0
VERTEX
  5
9a5
  8
Layer_0
  10
331.87308
  20
117.72462
  0
VERTEX
  5
9a6
  8
Layer_0
  10
331.87308
  20
117.72487
  0
VERTEX
  5
9a7
  8
Layer_0
  10
331.57755
  20
117.71758
  0
VERTEX
  5
9a8
  8
Layer_0
  10
331.24106
  20
117.70399
  0
VERTEX
  5
9a9
  8
Layer_0
  10
331.1337
  20
117.69533
  0
VERTEX
  5
9aa
  8
Layer_0
  10
331.00925
  20
117.65465
  0
VERTEX
  5
9ab
  8
Layer_0
  10
330.89185
  20
117.60124
  0
VERTEX
  5
9ac
  8
Layer_0
  10
330.78421
  20
117.53618
  0
VERTEX
  5
9ad
  8
Layer_0
  10
330.69202
  20
117.46407
  0
VERTEX
  5
9ae
  8
Layer_0
  10
330.61096
  20
117.38219
  0
VERTEX
  5
9af
  8
Layer_0
  10
330.54318
  20
117.29271
  0
VERTEX
  5
9b0
  8
Layer_0
  10
330.48514
  20
117.19157
  0
VERTEX
  5
9b1
  8
Layer_0
  10
330.44421
  20
117.09206
  0
VERTEX
  5
9b2
  8
Layer_0
  10
330.43933
  20
117.07063
  0
VERTEX
  5
9b3
  8
Layer_0
  10
330.43039
  20
116.98796
  0
VERTEX
  5
9b4
  8
Layer_0
  10
330.42145
  20
116.82365
  0
VERTEX
  5
9b5
  8
Layer_0
  10
330.4144
  20
116.57964
  0
VERTEX
  5
9b6
  8
Layer_0
  10
330.40598
  20
115.99834
  0
VERTEX
  5
9b7
  8
Layer_0
  10
330.38483
  20
111.75432
  0
VERTEX
  5
9b8
  8
Layer_0
  10
330.45316
  20
111.61549
  0
VERTEX
  5
9b9
  8
Layer_0
  10
330.55075
  20
111.45525
  0
VERTEX
  5
9ba
  8
Layer_0
  10
330.66791
  20
111.32213
  0
VERTEX
  5
9bb
  8
Layer_0
  10
330.81079
  20
111.20634
  0
VERTEX
  5
9bc
  8
Layer_0
  10
330.99216
  20
111.10252
  0
VERTEX
  5
9bd
  8
Layer_0
  10
331.13913
  20
111.03282
  0
VERTEX
  5
9be
  8
Layer_0
  10
335.58484
  20
111.01549
  0
VERTEX
  5
9bf
  8
Layer_0
  10
335.59949
  20
111.35222
  0
VERTEX
  5
9c0
  8
Layer_0
  10
335.60599
  20
111.76787
  0
VERTEX
  5
9c1
  8
Layer_0
  10
335.60599
  20
111.90154
  0
VERTEX
  5
9c2
  8
Layer_0
  10
333.9494
  20
111.89964
  0
VERTEX
  5
9c3
  8
Layer_0
  10
333.94885
  20
111.89964
  0
VERTEX
  5
9c4
  8
Layer_0
  10
333.17288
  20
111.90044
  0
VERTEX
  5
9c5
  8
Layer_0
  10
333.17044
  20
111.90044
  0
VERTEX
  5
9c6
  8
Layer_0
  10
332.2803
  20
111.90804
  0
VERTEX
  5
9c7
  8
Layer_0
  10
332.27435
  20
111.90831
  0
VERTEX
  5
9c8
  8
Layer_0
  10
331.96011
  20
111.91646
  0
VERTEX
  5
9c9
  8
Layer_0
  10
331.93707
  20
111.9178
  0
VERTEX
  5
9ca
  8
Layer_0
  10
331.88879
  20
111.92241
  0
VERTEX
  5
9cb
  8
Layer_0
  10
331.85516
  20
111.92729
  0
VERTEX
  5
9cc
  8
Layer_0
  10
331.82236
  20
111.93568
  0
VERTEX
  5
9cd
  8
Layer_0
  10
331.79037
  20
111.94734
  0
VERTEX
  5
9ce
  8
Layer_0
  10
331.75974
  20
111.96227
  0
VERTEX
  5
9cf
  8
Layer_0
  10
331.73099
  20
111.98015
  0
VERTEX
  5
9d0
  8
Layer_0
  10
331.70389
  20
112.00078
  0
VERTEX
  5
9d1
  8
Layer_0
  10
331.6792
  20
112.02437
  0
VERTEX
  5
9d2
  8
Layer_0
  10
331.65726
  20
112.05013
  0
VERTEX
  5
9d3
  8
Layer_0
  10
331.63718
  20
112.07884
  0
VERTEX
  5
9d4
  8
Layer_0
  10
331.62796
  20
112.09377
  0
VERTEX
  5
9d5
  8
Layer_0
  10
331.61142
  20
112.12358
  0
VERTEX
  5
9d6
  8
Layer_0
  10
331.59842
  20
112.15477
  0
VERTEX
  5
9d7
  8
Layer_0
  10
331.58621
  20
112.19624
  0
VERTEX
  5
9d8
  8
Layer_0
  10
331.57889
  20
112.22905
  0
VERTEX
  5
9d9
  8
Layer_0
  10
331.57294
  20
112.26485
  0
VERTEX
  5
9da
  8
Layer_0
  10
331.56723
  20
112.31609
  0
VERTEX
  5
9db
  8
Layer_0
  10
331.56561
  20
112.33534
  0
VERTEX
  5
9dc
  8
Layer_0
  10
331.5618
  20
112.40691
  0
VERTEX
  5
9dd
  8
Layer_0
  10
331.56128
  20
112.41777
  0
VERTEX
  5
9de
  8
Layer_0
  10
331.55939
  20
112.50996
  0
VERTEX
  5
9df
  8
Layer_0
  10
331.55939
  20
112.51808
  0
VERTEX
  5
9e0
  8
Layer_0
  10
331.56046
  20
112.77025
  0
VERTEX
  5
9e1
  8
Layer_0
  10
331.56073
  20
112.77702
  0
VERTEX
  5
9e2
  8
Layer_0
  10
331.57077
  20
113.19347
  0
VERTEX
  5
9e3
  8
Layer_0
  10
331.57077
  20
113.19997
  0
VERTEX
  5
9e4
  8
Layer_0
  10
331.58377
  20
113.49388
  0
VERTEX
  5
9e5
  8
Layer_0
  10
331.58459
  20
113.50664
  0
VERTEX
  5
9e6
  8
Layer_0
  10
331.59326
  20
113.61183
  0
VERTEX
  5
9e7
  8
Layer_0
  10
331.60004
  20
113.65685
  0
VERTEX
  5
9e8
  8
Layer_0
  10
331.60385
  20
113.6739
  0
VERTEX
  5
9e9
  8
Layer_0
  10
331.61307
  20
113.70647
  0
VERTEX
  5
9ea
  8
Layer_0
  10
331.62524
  20
113.73817
  0
VERTEX
  5
9eb
  8
Layer_0
  10
331.64099
  20
113.76854
  0
VERTEX
  5
9ec
  8
Layer_0
  10
331.65942
  20
113.79701
  0
VERTEX
  5
9ed
  8
Layer_0
  10
331.68085
  20
113.82359
  0
VERTEX
  5
9ee
  8
Layer_0
  10
331.70471
  20
113.8477
  0
VERTEX
  5
9ef
  8
Layer_0
  10
331.73099
  20
113.86913
  0
VERTEX
  5
9f0
  8
Layer_0
  10
331.75919
  20
113.88811
  0
VERTEX
  5
9f1
  8
Layer_0
  10
331.78928
  20
113.90382
  0
VERTEX
  5
9f2
  8
Layer_0
  10
331.82074
  20
113.91658
  0
VERTEX
  5
9f3
  8
Layer_0
  10
331.85355
  20
113.92607
  0
VERTEX
  5
9f4
  8
Layer_0
  10
331.89502
  20
113.93285
  0
VERTEX
  5
9f5
  8
Layer_0
  10
331.93192
  20
113.93663
  0
VERTEX
  5
9f6
  8
Layer_0
  10
331.95602
  20
113.93828
  0
VERTEX
  5
9f7
  8
Layer_0
  10
332.20657
  20
113.94585
  0
VERTEX
  5
9f8
  8
Layer_0
  10
332.2117
  20
113.94612
  0
VERTEX
  5
9f9
  8
Layer_0
  10
332.92993
  20
113.95644
  0
VERTEX
  5
9fa
  8
Layer_0
  10
332.93292
  20
113.95644
  0
VERTEX
  5
9fb
  8
Layer_0
  10
334.85062
  20
113.96675
  0
VERTEX
  5
9fc
  8
Layer_0
  10
334.86093
  20
114.83598
  0
VERTEX
  5
9fd
  8
Layer_0
  10
333.60342
  20
114.83464
  0
VERTEX
  5
9fe
  8
Layer_0
  10
333.60315
  20
114.83464
  0
VERTEX
  5
9ff
  8
Layer_0
  10
331.96606
  20
114.83516
  0
VERTEX
  5
a00
  8
Layer_0
  10
331.93192
  20
114.83708
  0
VERTEX
  5
a01
  8
Layer_0
  10
331.89828
  20
114.84221
  0
VERTEX
  5
a02
  8
Layer_0
  10
331.86548
  20
114.85063
  0
VERTEX
  5
a03
  8
Layer_0
  10
331.83377
  20
114.86256
  0
VERTEX
  5
a04
  8
Layer_0
  10
331.80313
  20
114.87773
  0
VERTEX
  5
a05
  8
Layer_0
  10
331.76517
  20
114.90269
  0
VERTEX
  5
a06
  8
Layer_0
  10
331.75406
  20
114.91109
  0
VERTEX
  5
a07
  8
Layer_0
  10
331.72803
  20
114.93279
  0
VERTEX
  5
a08
  8
Layer_0
  10
331.70444
  20
114.95717
  0
VERTEX
  5
a09
  8
Layer_0
  10
331.68329
  20
114.98402
  0
VERTEX
  5
a0a
  8
Layer_0
  10
331.6651
  20
115.01277
  0
VERTEX
  5
a0b
  8
Layer_0
  10
331.64993
  20
115.04314
  0
VERTEX
  5
a0c
  8
Layer_0
  10
331.63962
  20
115.06941
  0
VERTEX
  5
a0d
  8
Layer_0
  10
331.63068
  20
115.09572
  0
VERTEX
  5
a0e
  8
Layer_0
  10
331.62119
  20
115.12852
  0
VERTEX
  5
a0f
  8
Layer_0
  10
331.61685
  20
115.15077
  0
VERTEX
  5
a10
  8
Layer_0
  10
331.60953
  20
115.19685
  0
VERTEX
  5
a11
  8
Layer_0
  10
331.60654
  20
115.22154
  0
VERTEX
  5
a12
  8
Layer_0
  10
331.60086
  20
115.28987
  0
VERTEX
  5
a13
  8
Layer_0
  10
331.60004
  20
115.30287
  0
VERTEX
  5
a14
  8
Layer_0
  10
331.59598
  20
115.39586
  0
VERTEX
  5
a15
  8
Layer_0
  10
331.5957
  20
115.40508
  0
VERTEX
  5
a16
  8
Layer_0
  10
331.59137
  20
115.67513
  0
VERTEX
  5
a17
  8
Layer_0
  10
331.59137
  20
115.68028
  0
VERTEX
  5
a18
  8
Layer_0
  10
331.59082
  20
116.55388
  0
VERTEX
  5
a19
  8
Layer_0
  10
331.59271
  20
116.58775
  0
VERTEX
  5
a1a
  8
Layer_0
  10
331.59787
  20
116.62138
  0
VERTEX
  5
a1b
  8
Layer_0
  10
331.60629
  20
116.65446
  0
VERTEX
  5
a1c
  8
Layer_0
  10
331.61819
  20
116.68617
  0
VERTEX
  5
a1d
  8
Layer_0
  10
331.63312
  20
116.71681
  0
VERTEX
  5
a1e
  8
Layer_0
  10
331.65128
  20
116.74556
  0
VERTEX
  5
a1f
  8
Layer_0
  10
331.67215
  20
116.77242
  0
VERTEX
  5
a20
  8
Layer_0
  10
331.69574
  20
116.7968
  0
VERTEX
  5
a21
  8
Layer_0
  10
331.72177
  20
116.81877
  0
VERTEX
  5
a22
  8
Layer_0
  10
331.74969
  20
116.83803
  0
VERTEX
  5
a23
  8
Layer_0
  10
331.77954
  20
116.85429
  0
VERTEX
  5
a24
  8
Layer_0
  10
331.81097
  20
116.86757
  0
VERTEX
  5
a25
  8
Layer_0
  10
331.84351
  20
116.87733
  0
VERTEX
  5
a26
  8
Layer_0
  10
331.87686
  20
116.88383
  0
VERTEX
  5
a27
  8
Layer_0
  10
331.92297
  20
116.88737
  0
VERTEX
  5
a28
  8
Layer_0
  10
332.6344
  20
116.88979
  0
VERTEX
  5
a29
  8
Layer_0
  10
335.07486
  20
116.90633
  0
VERTEX
  5
a2a
  8
Layer_0
  10
335.38287
  20
116.91286
  0
VERTEX
  5
a2b
  8
Layer_0
  10
335.37772
  20
117.29243
  0
VERTEX
  5
a2c
  8
Layer_0
  10
335.34518
  20
117.7238
  0
VERTEX
  5
a2d
  8
Layer_0
  10
335.22995
  20
117.72758
  0
VERTEX
  5
a2e
  8
Layer_0
  10
334.94662
  20
117.73357
  0
VERTEX
  5
a2f
  8
Layer_0
  10
334.24194
  20
117.74034
  0
SEQEND
  0
POLYLINE
  5
a31
  8
Layer_0
  62
0
  66
1
  10
0
  20
0
  30
0
  0
VERTEX
  5
a31
  8
Layer_0
  10
319.43088
  20
110.89211
  0
VERTEX
  5
a32
  8
Layer_0
  10
319.71286
  20
110.93956
  0
VERTEX
  5
a33
  8
Layer_0
  10
319.92731
  20
111.00789
  0
VERTEX
  5
a34
  8
Layer_0
  10
320.11765
  20
111.09764
  0
VERTEX
  5
a35
  8
Layer_0
  10
320.28683
  20
111.21016
  0
VERTEX
  5
a36
  8
Layer_0
  10
320.45413
  20
111.3582
  0
VERTEX
  5
a37
  8
Layer_0
  10
320.51376
  20
111.42406
  0
VERTEX
  5
a38
  8
Layer_0
  10
320.59186
  20
111.5309
  0
VERTEX
  5
a39
  8
Layer_0
  10
320.64499
  20
111.61388
  0
VERTEX
  5
a3a
  8
Layer_0
  10
320.70438
  20
111.71309
  0
VERTEX
  5
a3b
  8
Layer_0
  10
320.78516
  20
111.85435
  0
VERTEX
  5
a3c
  8
Layer_0
  10
320.8768
  20
112.01976
  0
VERTEX
  5
a3d
  8
Layer_0
  10
321.12436
  20
112.48094
  0
VERTEX
  5
a3e
  8
Layer_0
  10
321.46002
  20
113.1208
  0
VERTEX
  5
a3f
  8
Layer_0
  10
322.48651
  20
115.10442
  0
VERTEX
  5
a40
  8
Layer_0
  10
322.48734
  20
115.10576
  0
VERTEX
  5
a41
  8
Layer_0
  10
322.69745
  20
115.50676
  0
VERTEX
  5
a42
  8
Layer_0
  10
322.70099
  20
115.51326
  0
VERTEX
  5
a43
  8
Layer_0
  10
322.81458
  20
115.7188
  0
VERTEX
  5
a44
  8
Layer_0
  10
322.83249
  20
115.74779
  0
VERTEX
  5
a45
  8
Layer_0
  10
322.85309
  20
115.77464
  0
VERTEX
  5
a46
  8
Layer_0
  10
322.87668
  20
115.7993
  0
VERTEX
  5
a47
  8
Layer_0
  10
322.90244
  20
115.82155
  0
VERTEX
  5
a48
  8
Layer_0
  10
322.93036
  20
115.84081
  0
VERTEX
  5
a49
  8
Layer_0
  10
322.96017
  20
115.85735
  0
VERTEX
  5
a4a
  8
Layer_0
  10
322.99136
  20
115.87062
  0
VERTEX
  5
a4b
  8
Layer_0
  10
323.02524
  20
115.88094
  0
VERTEX
  5
a4c
  8
Layer_0
  10
323.03827
  20
115.88417
  0
VERTEX
  5
a4d
  8
Layer_0
  10
323.07162
  20
115.89067
  0
VERTEX
  5
a4e
  8
Layer_0
  10
323.1055
  20
115.89394
  0
VERTEX
  5
a4f
  8
Layer_0
  10
323.1394
  20
115.89339
  0
VERTEX
  5
a50
  8
Layer_0
  10
323.17328
  20
115.8896
  0
VERTEX
  5
a51
  8
Layer_0
  10
323.20636
  20
115.88255
  0
VERTEX
  5
a52
  8
Layer_0
  10
323.23865
  20
115.87196
  0
VERTEX
  5
a53
  8
Layer_0
  10
323.26981
  20
115.85814
  0
VERTEX
  5
a54
  8
Layer_0
  10
323.29938
  20
115.84108
  0
VERTEX
  5
a55
  8
Layer_0
  10
323.32703
  20
115.82127
  0
VERTEX
  5
a56
  8
Layer_0
  10
323.35223
  20
115.79878
  0
VERTEX
  5
a57
  8
Layer_0
  10
323.37527
  20
115.77382
  0
VERTEX
  5
a58
  8
Layer_0
  10
323.39563
  20
115.74672
  0
VERTEX
  5
a59
  8
Layer_0
  10
323.41324
  20
115.71742
  0
VERTEX
  5
a5a
  8
Layer_0
  10
323.42761
  20
115.68651
  0
VERTEX
  5
a5b
  8
Layer_0
  10
323.44199
  20
115.64287
  0
VERTEX
  5
a5c
  8
Layer_0
  10
323.45203
  20
115.60329
  0
VERTEX
  5
a5d
  8
Layer_0
  10
323.4588
  20
115.56993
  0
VERTEX
  5
a5e
  8
Layer_0
  10
323.46097
  20
115.54933
  0
VERTEX
  5
a5f
  8
Layer_0
  10
323.46881
  20
115.45607
  0
VERTEX
  5
a60
  8
Layer_0
  10
323.46991
  20
115.44087
  0
VERTEX
  5
a61
  8
Layer_0
  10
323.47586
  20
115.28362
  0
VERTEX
  5
a62
  8
Layer_0
  10
323.47614
  20
115.27657
  0
VERTEX
  5
a63
  8
Layer_0
  10
323.48022
  20
115.04366
  0
VERTEX
  5
a64
  8
Layer_0
  10
323.48022
  20
115.03905
  0
VERTEX
  5
a65
  8
Layer_0
  10
323.48727
  20
112.59019
  0
VERTEX
  5
a66
  8
Layer_0
  10
323.49377
  20
112.20033
  0
VERTEX
  5
a67
  8
Layer_0
  10
323.50137
  20
112.03114
  0
VERTEX
  5
a68
  8
Layer_0
  10
323.51031
  20
111.93867
  0
VERTEX
  5
a69
  8
Layer_0
  10
323.52087
  20
111.87712
  0
VERTEX
  5
a6a
  8
Layer_0
  10
323.53091
  20
111.84053
  0
VERTEX
  5
a6b
  8
Layer_0
  10
323.62823
  20
111.61388
  0
VERTEX
  5
a6c
  8
Layer_0
  10
323.76328
  20
111.41811
  0
VERTEX
  5
a6d
  8
Layer_0
  10
323.93787
  20
111.24541
  0
VERTEX
  5
a6e
  8
Layer_0
  10
324.14557
  20
111.10252
  0
VERTEX
  5
a6f
  8
Layer_0
  10
324.37875
  20
110.99406
  0
VERTEX
  5
a70
  8
Layer_0
  10
324.63605
  20
110.92302
  0
VERTEX
  5
a71
  8
Layer_0
  10
324.90445
  20
110.8951
  0
VERTEX
  5
a72
  8
Layer_0
  10
325.18781
  20
110.91353
  0
VERTEX
  5
a73
  8
Layer_0
  10
325.39059
  20
110.95366
  0
VERTEX
  5
a74
  8
Layer_0
  10
325.58066
  20
111.01112
  0
VERTEX
  5
a75
  8
Layer_0
  10
325.755
  20
111.08516
  0
VERTEX
  5
a76
  8
Layer_0
  10
325.90982
  20
111.17274
  0
VERTEX
  5
a77
  8
Layer_0
  10
326.05377
  20
111.27849
  0
VERTEX
  5
a78
  8
Layer_0
  10
326.18149
  20
111.3983
  0
VERTEX
  5
a79
  8
Layer_0
  10
326.29916
  20
111.53795
  0
VERTEX
  5
a7a
  8
Layer_0
  10
326.40652
  20
111.69981
  0
VERTEX
  5
a7b
  8
Layer_0
  10
326.49979
  20
111.86873
  0
VERTEX
  5
a7c
  8
Layer_0
  10
326.92303
  20
112.66722
  0
VERTEX
  5
a7d
  8
Layer_0
  10
328.14392
  20
115.00246
  0
VERTEX
  5
a7e
  8
Layer_0
  10
328.40152
  20
115.50298
  0
VERTEX
  5
a7f
  8
Layer_0
  10
329.05005
  20
116.79463
  0
VERTEX
  5
a80
  8
Layer_0
  10
329.51505
  20
117.73573
  0
VERTEX
  5
a81
  8
Layer_0
  10
329.39249
  20
117.73763
  0
VERTEX
  5
a82
  8
Layer_0
  10
328.16373
  20
117.73897
  0
VERTEX
  5
a83
  8
Layer_0
  10
328.05798
  20
117.5161
  0
VERTEX
  5
a84
  8
Layer_0
  10
328.05692
  20
117.51393
  0
VERTEX
  5
a85
  8
Layer_0
  10
327.93491
  20
117.2618
  0
VERTEX
  5
a86
  8
Layer_0
  10
327.93353
  20
117.2588
  0
VERTEX
  5
a87
  8
Layer_0
  10
327.11444
  20
115.60573
  0
VERTEX
  5
a88
  8
Layer_0
  10
327.11337
  20
115.60356
  0
VERTEX
  5
a89
  8
Layer_0
  10
326.76578
  20
114.9146
  0
VERTEX
  5
a8a
  8
Layer_0
  10
326.76389
  20
114.91109
  0
VERTEX
  5
a8b
  8
Layer_0
  10
325.84067
  20
113.13435
  0
VERTEX
  5
a8c
  8
Layer_0
  10
325.8396
  20
113.13219
  0
VERTEX
  5
a8d
  8
Layer_0
  10
325.56467
  20
112.61272
  0
VERTEX
  5
a8e
  8
Layer_0
  10
325.5625
  20
112.6089
  0
VERTEX
  5
a8f
  8
Layer_0
  10
325.4657
  20
112.43187
  0
VERTEX
  5
a90
  8
Layer_0
  10
325.46271
  20
112.42616
  0
VERTEX
  5
a91
  8
Layer_0
  10
325.39169
  20
112.30199
  0
VERTEX
  5
a92
  8
Layer_0
  10
325.38437
  20
112.28978
  0
VERTEX
  5
a93
  8
Layer_0
  10
325.33826
  20
112.2166
  0
VERTEX
  5
a94
  8
Layer_0
  10
325.31876
  20
112.18892
  0
VERTEX
  5
a95
  8
Layer_0
  10
325.30005
  20
112.16698
  0
VERTEX
  5
a96
  8
Layer_0
  10
325.27753
  20
112.14284
  0
VERTEX
  5
a97
  8
Layer_0
  10
325.25314
  20
112.11925
  0
VERTEX
  5
a98
  8
Layer_0
  10
325.22629
  20
112.0981
  0
VERTEX
  5
a99
  8
Layer_0
  10
325.19754
  20
112.07994
  0
VERTEX
  5
a9a
  8
Layer_0
  10
325.16718
  20
112.06474
  0
VERTEX
  5
a9b
  8
Layer_0
  10
325.13547
  20
112.05281
  0
VERTEX
  5
a9c
  8
Layer_0
  10
325.10266
  20
112.04414
  0
VERTEX
  5
a9d
  8
Layer_0
  10
325.06903
  20
112.03871
  0
VERTEX
  5
a9e
  8
Layer_0
  10
325.03516
  20
112.03682
  0
VERTEX
  5
a9f
  8
Layer_0
  10
325.00098
  20
112.03847
  0
VERTEX
  5
aa0
  8
Layer_0
  10
324.96738
  20
112.04359
  0
VERTEX
  5
aa1
  8
Layer_0
  10
324.93457
  20
112.05202
  0
VERTEX
  5
aa2
  8
Layer_0
  10
324.90256
  20
112.06367
  0
VERTEX
  5
aa3
  8
Layer_0
  10
324.87219
  20
112.07884
  0
VERTEX
  5
aa4
  8
Layer_0
  10
324.8432
  20
112.09676
  0
VERTEX
  5
aa5
  8
Layer_0
  10
324.81635
  20
112.11763
  0
VERTEX
  5
aa6
  8
Layer_0
  10
324.79193
  20
112.14095
  0
VERTEX
  5
aa7
  8
Layer_0
  10
324.76971
  20
112.16698
  0
VERTEX
  5
aa8
  8
Layer_0
  10
324.75046
  20
112.1949
  0
VERTEX
  5
aa9
  8
Layer_0
  10
324.73392
  20
112.22472
  0
VERTEX
  5
aaa
  8
Layer_0
  10
324.72092
  20
112.25591
  0
VERTEX
  5
aab
  8
Layer_0
  10
324.71088
  20
112.28844
  0
VERTEX
  5
aac
  8
Layer_0
  10
324.7049
  20
112.31746
  0
VERTEX
  5
aad
  8
Layer_0
  10
324.70273
  20
112.33101
  0
VERTEX
  5
aae
  8
Layer_0
  10
324.69867
  20
112.37059
  0
VERTEX
  5
aaf
  8
Layer_0
  10
324.69461
  20
112.47472
  0
VERTEX
  5
ab0
  8
Layer_0
  10
324.69434
  20
112.48528
  0
VERTEX
  5
ab1
  8
Layer_0
  10
324.68646
  20
113.51964
  0
VERTEX
  5
ab2
  8
Layer_0
  10
324.68646
  20
113.52263
  0
VERTEX
  5
ab3
  8
Layer_0
  10
324.69324
  20
116.8871
  0
VERTEX
  5
ab4
  8
Layer_0
  10
324.68701
  20
117.73817
  0
VERTEX
  5
ab5
  8
Layer_0
  10
322.46457
  20
117.7238
  0
VERTEX
  5
ab6
  8
Layer_0
  10
321.76532
  20
116.3123
  0
VERTEX
  5
ab7
  8
Layer_0
  10
321.7645
  20
116.31038
  0
VERTEX
  5
ab8
  8
Layer_0
  10
321.41852
  20
115.62254
  0
VERTEX
  5
ab9
  8
Layer_0
  10
321.41745
  20
115.62065
  0
VERTEX
  5
aba
  8
Layer_0
  10
320.85757
  20
114.52473
  0
VERTEX
  5
abb
  8
Layer_0
  10
320.85675
  20
114.52309
  0
VERTEX
  5
abc
  8
Layer_0
  10
320.32181
  20
113.49065
  0
VERTEX
  5
abd
  8
Layer_0
  10
320.32071
  20
113.4882
  0
VERTEX
  5
abe
  8
Layer_0
  10
319.89233
  20
112.67723
  0
VERTEX
  5
abf
  8
Layer_0
  10
319.88989
  20
112.6729
  0
VERTEX
  5
ac0
  8
Layer_0
  10
319.70416
  20
112.33372
  0
VERTEX
  5
ac1
  8
Layer_0
  10
319.69928
  20
112.3253
  0
VERTEX
  5
ac2
  8
Layer_0
  10
319.6456
  20
112.23366
  0
VERTEX
  5
ac3
  8
Layer_0
  10
319.62634
  20
112.20439
  0
VERTEX
  5
ac4
  8
Layer_0
  10
319.60275
  20
112.17238
  0
VERTEX
  5
ac5
  8
Layer_0
  10
319.58136
  20
112.1461
  0
VERTEX
  5
ac6
  8
Layer_0
  10
319.55722
  20
112.12196
  0
VERTEX
  5
ac7
  8
Layer_0
  10
319.53064
  20
112.10081
  0
VERTEX
  5
ac8
  8
Layer_0
  10
319.50217
  20
112.08211
  0
VERTEX
  5
ac9
  8
Layer_0
  10
319.47208
  20
112.06667
  0
VERTEX
  5
aca
  8
Layer_0
  10
319.44037
  20
112.05418
  0
VERTEX
  5
acb
  8
Layer_0
  10
319.40756
  20
112.04497
  0
VERTEX
  5
acc
  8
Layer_0
  10
319.37421
  20
112.03926
  0
VERTEX
  5
acd
  8
Layer_0
  10
319.3403
  20
112.03682
  0
VERTEX
  5
ace
  8
Layer_0
  10
319.30615
  20
112.03819
  0
VERTEX
  5
acf
  8
Layer_0
  10
319.27252
  20
112.0428
  0
VERTEX
  5
ad0
  8
Layer_0
  10
319.23944
  20
112.05064
  0
VERTEX
  5
ad1
  8
Layer_0
  10
319.20746
  20
112.06203
  0
VERTEX
  5
ad2
  8
Layer_0
  10
319.17682
  20
112.07668
  0
VERTEX
  5
ad3
  8
Layer_0
  10
319.1478
  20
112.09431
  0
VERTEX
  5
ad4
  8
Layer_0
  10
319.1207
  20
112.11464
  0
VERTEX
  5
ad5
  8
Layer_0
  10
319.09576
  20
112.13795
  0
VERTEX
  5
ad6
  8
Layer_0
  10
319.07324
  20
112.16344
  0
VERTEX
  5
ad7
  8
Layer_0
  10
319.05347
  20
112.19109
  0
VERTEX
  5
ad8
  8
Layer_0
  10
319.03693
  20
112.22066
  0
VERTEX
  5
ad9
  8
Layer_0
  10
319.0231
  20
112.25185
  0
VERTEX
  5
ada
  8
Layer_0
  10
319.01007
  20
112.29521
  0
VERTEX
  5
adb
  8
Layer_0
  10
319.00681
  20
112.30931
  0
VERTEX
  5
adc
  8
Layer_0
  10
319.00085
  20
112.34267
  0
VERTEX
  5
add
  8
Layer_0
  10
318.99896
  20
112.36028
  0
VERTEX
  5
ade
  8
Layer_0
  10
318.99597
  20
112.40178
  0
VERTEX
  5
adf
  8
Layer_0
  10
318.99542
  20
112.4156
  0
VERTEX
  5
ae0
  8
Layer_0
  10
318.98703
  20
112.69243
  0
VERTEX
  5
ae1
  8
Layer_0
  10
318.98676
  20
112.69865
  0
VERTEX
  5
ae2
  8
Layer_0
  10
318.97644
  20
113.59773
  0
VERTEX
  5
ae3
  8
Layer_0
  10
318.97644
  20
113.60017
  0
VERTEX
  5
ae4
  8
Layer_0
  10
318.97211
  20
114.62856
  0
VERTEX
  5
ae5
  8
Layer_0
  10
318.97211
  20
114.62993
  0
VERTEX
  5
ae6
  8
Layer_0
  10
318.97131
  20
117.73924
  0
VERTEX
  5
ae7
  8
Layer_0
  10
317.81573
  20
117.73924
  0
VERTEX
  5
ae8
  8
Layer_0
  10
317.81573
  20
111.85057
  0
VERTEX
  5
ae9
  8
Layer_0
  10
317.89029
  20
111.70143
  0
VERTEX
  5
aea
  8
Layer_0
  10
318.0321
  20
111.47533
  0
VERTEX
  5
aeb
  8
Layer_0
  10
318.20184
  20
111.29204
  0
VERTEX
  5
aec
  8
Layer_0
  10
318.40573
  20
111.13722
  0
VERTEX
  5
aed
  8
Layer_0
  10
318.63699
  20
111.01656
  0
VERTEX
  5
aee
  8
Layer_0
  10
318.88995
  20
110.93333
  0
VERTEX
  5
aef
  8
Layer_0
  10
319.15485
  20
110.89104
  0
VERTEX
  5
af0
  8
Layer_0
  10
319.43088
  20
110.89211
  0
SEQEND
  0
POLYLINE
  5
af2
  8
Layer_0
  62
0
  66
1
  10
0
  20
0
  30
0
  0
VERTEX
  5
af2
  8
Layer_0
  10
351.66156
  20
112.52785
  0
VERTEX
  5
af3
  8
Layer_0
  10
351.66156
  20
112.53029
  0
VERTEX
  5
af4
  8
Layer_0
  10
351.66943
  20
113.0956
  0
VERTEX
  5
af5
  8
Layer_0
  10
351.66971
  20
113.09993
  0
VERTEX
  5
af6
  8
Layer_0
  10
351.67487
  20
113.2946
  0
VERTEX
  5
af7
  8
Layer_0
  10
351.67487
  20
113.30083
  0
VERTEX
  5
af8
  8
Layer_0
  10
351.68137
  20
113.44426
  0
VERTEX
  5
af9
  8
Layer_0
  10
351.68216
  20
113.45592
  0
VERTEX
  5
afa
  8
Layer_0
  10
351.69003
  20
113.55327
  0
VERTEX
  5
afb
  8
Layer_0
  10
351.69357
  20
113.58202
  0
VERTEX
  5
afc
  8
Layer_0
  10
351.70306
  20
113.63814
  0
VERTEX
  5
afd
  8
Layer_0
  10
351.71063
  20
113.67122
  0
VERTEX
  5
afe
  8
Layer_0
  10
351.72122
  20
113.70348
  0
VERTEX
  5
aff
  8
Layer_0
  10
351.73856
  20
113.74062
  0
VERTEX
  5
b00
  8
Layer_0
  10
351.74969
  20
113.76122
  0
VERTEX
  5
b01
  8
Layer_0
  10
351.7673
  20
113.79051
  0
VERTEX
  5
b02
  8
Layer_0
  10
351.78763
  20
113.81761
  0
VERTEX
  5
b03
  8
Layer_0
  10
351.81097
  20
113.8423
  0
VERTEX
  5
b04
  8
Layer_0
  10
351.83646
  20
113.86479
  0
VERTEX
  5
b05
  8
Layer_0
  10
351.86411
  20
113.88432
  0
VERTEX
  5
b06
  8
Layer_0
  10
351.89365
  20
113.90114
  0
VERTEX
  5
b07
  8
Layer_0
  10
351.92484
  20
113.91469
  0
VERTEX
  5
b08
  8
Layer_0
  10
351.95737
  20
113.92525
  0
VERTEX
  5
b09
  8
Layer_0
  10
351.99045
  20
113.9323
  0
VERTEX
  5
b0a
  8
Layer_0
  10
352.01459
  20
113.93501
  0
VERTEX
  5
b0b
  8
Layer_0
  10
352.05606
  20
113.93855
  0
VERTEX
  5
b0c
  8
Layer_0
  10
352.07532
  20
113.93962
  0
VERTEX
  5
b0d
  8
Layer_0
  10
352.33478
  20
113.94667
  0
VERTEX
  5
b0e
  8
Layer_0
  10
352.33939
  20
113.94695
  0
VERTEX
  5
b0f
  8
Layer_0
  10
353.06766
  20
113.95616
  0
VERTEX
  5
b10
  8
Layer_0
  10
353.0701
  20
113.95616
  0
VERTEX
  5
b11
  8
Layer_0
  10
354.99429
  20
113.96675
  0
VERTEX
  5
b12
  8
Layer_0
  10
355.00461
  20
114.83733
  0
VERTEX
  5
b13
  8
Layer_0
  10
352.0368
  20
114.83733
  0
VERTEX
  5
b14
  8
Layer_0
  10
352.00293
  20
114.83925
  0
VERTEX
  5
b15
  8
Layer_0
  10
351.9693
  20
114.84438
  0
VERTEX
  5
b16
  8
Layer_0
  10
351.93649
  20
114.8528
  0
VERTEX
  5
b17
  8
Layer_0
  10
351.90451
  20
114.86473
  0
VERTEX
  5
b18
  8
Layer_0
  10
351.87415
  20
114.8799
  0
VERTEX
  5
b19
  8
Layer_0
  10
351.8454
  20
114.89809
  0
VERTEX
  5
b1a
  8
Layer_0
  10
351.81854
  20
114.91896
  0
VERTEX
  5
b1b
  8
Layer_0
  10
351.79388
  20
114.94255
  0
VERTEX
  5
b1c
  8
Layer_0
  10
351.77191
  20
114.96831
  0
VERTEX
  5
b1d
  8
Layer_0
  10
351.75266
  20
114.99651
  0
VERTEX
  5
b1e
  8
Layer_0
  10
351.73639
  20
115.02632
  0
VERTEX
  5
b1f
  8
Layer_0
  10
351.72339
  20
115.05751
  0
VERTEX
  5
b20
  8
Layer_0
  10
351.71362
  20
115.09004
  0
VERTEX
  5
b21
  8
Layer_0
  10
351.70901
  20
115.11147
  0
VERTEX
  5
b22
  8
Layer_0
  10
351.68921
  20
115.22127
  0
VERTEX
  5
b23
  8
Layer_0
  10
351.68597
  20
115.24348
  0
VERTEX
  5
b24
  8
Layer_0
  10
351.68216
  20
115.27766
  0
VERTEX
  5
b25
  8
Layer_0
  10
351.68027
  20
115.29961
  0
VERTEX
  5
b26
  8
Layer_0
  10
351.67459
  20
115.42787
  0
VERTEX
  5
b27
  8
Layer_0
  10
351.67432
  20
115.4398
  0
VERTEX
  5
b28
  8
Layer_0
  10
351.6716
  20
115.73967
  0
VERTEX
  5
b29
  8
Layer_0
  10
351.6716
  20
115.74562
  0
VERTEX
  5
b2a
  8
Layer_0
  10
351.67377
  20
115.98341
  0
VERTEX
  5
b2b
  8
Layer_0
  10
351.67377
  20
115.98613
  0
VERTEX
  5
b2c
  8
Layer_0
  10
351.68381
  20
116.57664
  0
VERTEX
  5
b2d
  8
Layer_0
  10
351.68625
  20
116.61055
  0
VERTEX
  5
b2e
  8
Layer_0
  10
351.69193
  20
116.64415
  0
VERTEX
  5
b2f
  8
Layer_0
  10
351.70114
  20
116.67668
  0
VERTEX
  5
b30
  8
Layer_0
  10
351.71362
  20
116.70842
  0
VERTEX
  5
b31
  8
Layer_0
  10
351.72906
  20
116.73851
  0
VERTEX
  5
b32
  8
Layer_0
  10
351.74777
  20
116.76698
  0
VERTEX
  5
b33
  8
Layer_0
  10
351.7692
  20
116.79356
  0
VERTEX
  5
b34
  8
Layer_0
  10
351.79306
  20
116.81767
  0
VERTEX
  5
b35
  8
Layer_0
  10
351.81937
  20
116.8391
  0
VERTEX
  5
b36
  8
Layer_0
  10
351.84784
  20
116.8578
  0
VERTEX
  5
b37
  8
Layer_0
  10
351.87793
  20
116.87352
  0
VERTEX
  5
b38
  8
Layer_0
  10
351.90939
  20
116.88628
  0
VERTEX
  5
b39
  8
Layer_0
  10
351.9422
  20
116.89549
  0
VERTEX
  5
b3a
  8
Layer_0
  10
351.97552
  20
116.90147
  0
VERTEX
  5
b3b
  8
Layer_0
  10
352.01538
  20
116.90416
  0
VERTEX
  5
b3c
  8
Layer_0
  10
355.54715
  20
116.92018
  0
VERTEX
  5
b3d
  8
Layer_0
  10
355.54715
  20
117.73872
  0
VERTEX
  5
b3e
  8
Layer_0
  10
353.69748
  20
117.73491
  0
VERTEX
  5
b3f
  8
Layer_0
  10
352.44974
  20
117.72813
  0
VERTEX
  5
b40
  8
Layer_0
  10
351.80988
  20
117.72002
  0
VERTEX
  5
b41
  8
Layer_0
  10
351.80988
  20
117.72026
  0
VERTEX
  5
b42
  8
Layer_0
  10
351.42865
  20
117.71053
  0
VERTEX
  5
b43
  8
Layer_0
  10
351.37689
  20
117.70699
  0
VERTEX
  5
b44
  8
Layer_0
  10
351.21719
  20
117.67336
  0
VERTEX
  5
b45
  8
Layer_0
  10
351.0697
  20
117.62267
  0
VERTEX
  5
b46
  8
Layer_0
  10
350.93439
  20
117.55598
  0
VERTEX
  5
b47
  8
Layer_0
  10
350.8132
  20
117.4749
  0
VERTEX
  5
b48
  8
Layer_0
  10
350.70612
  20
117.38026
  0
VERTEX
  5
b49
  8
Layer_0
  10
350.6188
  20
117.27834
  0
VERTEX
  5
b4a
  8
Layer_0
  10
350.54831
  20
117.16582
  0
VERTEX
  5
b4b
  8
Layer_0
  10
350.49597
  20
117.04408
  0
VERTEX
  5
b4c
  8
Layer_0
  10
350.48947
  20
117.01967
  0
VERTEX
  5
b4d
  8
Layer_0
  10
350.47943
  20
116.94539
  0
VERTEX
  5
b4e
  8
Layer_0
  10
350.46994
  20
116.78432
  0
VERTEX
  5
b4f
  8
Layer_0
  10
350.46317
  20
116.52946
  0
VERTEX
  5
b50
  8
Layer_0
  10
350.45746
  20
115.87251
  0
VERTEX
  5
b51
  8
Layer_0
  10
350.46045
  20
111.03664
  0
VERTEX
  5
b52
  8
Layer_0
  10
351.65207
  20
111.03526
  0
VERTEX
  5
b53
  8
Layer_0
  10
351.66156
  20
112.52785
  0
SEQEND
  0
POLYLINE
  5
b55
  8
Layer_0
  62
0
  66
1
  10
0
  20
0
  30
0
  0
VERTEX
  5
b55
  8
Layer_0
  10
340.43756
  20
114.83733
  0
VERTEX
  5
b56
  8
Layer_0
  10
339.21204
  20
114.83733
  0
VERTEX
  5
b57
  8
Layer_0
  10
339.17816
  20
114.83925
  0
VERTEX
  5
b58
  8
Layer_0
  10
339.14453
  20
114.84438
  0
VERTEX
  5
b59
  8
Layer_0
  10
339.11172
  20
114.8528
  0
VERTEX
  5
b5a
  8
Layer_0
  10
339.07974
  20
114.86473
  0
VERTEX
  5
b5b
  8
Layer_0
  10
339.04938
  20
114.8799
  0
VERTEX
  5
b5c
  8
Layer_0
  10
339.02063
  20
114.89809
  0
VERTEX
  5
b5d
  8
Layer_0
  10
338.99377
  20
114.91896
  0
VERTEX
  5
b5e
  8
Layer_0
  10
338.96912
  20
114.94255
  0
VERTEX
  5
b5f
  8
Layer_0
  10
338.94714
  20
114.96831
  0
VERTEX
  5
b60
  8
Layer_0
  10
338.92789
  20
114.99651
  0
VERTEX
  5
b61
  8
Layer_0
  10
338.91162
  20
115.02632
  0
VERTEX
  5
b62
  8
Layer_0
  10
338.89862
  20
115.05751
  0
VERTEX
  5
b63
  8
Layer_0
  10
338.88885
  20
115.09004
  0
VERTEX
  5
b64
  8
Layer_0
  10
338.88235
  20
115.12337
  0
VERTEX
  5
b65
  8
Layer_0
  10
338.87881
  20
115.17082
  0
VERTEX
  5
b66
  8
Layer_0
  10
338.87936
  20
116.04414
  0
VERTEX
  5
b67
  8
Layer_0
  10
338.87936
  20
116.0493
  0
VERTEX
  5
b68
  8
Layer_0
  10
338.8837
  20
116.31935
  0
VERTEX
  5
b69
  8
Layer_0
  10
338.88397
  20
116.32829
  0
VERTEX
  5
b6a
  8
Layer_0
  10
338.88803
  20
116.42183
  0
VERTEX
  5
b6b
  8
Layer_0
  10
338.88885
  20
116.43483
  0
VERTEX
  5
b6c
  8
Layer_0
  10
338.89456
  20
116.50371
  0
VERTEX
  5
b6d
  8
Layer_0
  10
338.89752
  20
116.52812
  0
VERTEX
  5
b6e
  8
Layer_0
  10
338.90485
  20
116.57475
  0
VERTEX
  5
b6f
  8
Layer_0
  10
338.9119
  20
116.60783
  0
VERTEX
  5
b70
  8
Layer_0
  10
338.91895
  20
116.63115
  0
VERTEX
  5
b71
  8
Layer_0
  10
338.92816
  20
116.65797
  0
VERTEX
  5
b72
  8
Layer_0
  10
338.94092
  20
116.68944
  0
VERTEX
  5
b73
  8
Layer_0
  10
338.95663
  20
116.71953
  0
VERTEX
  5
b74
  8
Layer_0
  10
338.97534
  20
116.748
  0
VERTEX
  5
b75
  8
Layer_0
  10
338.99704
  20
116.77431
  0
VERTEX
  5
b76
  8
Layer_0
  10
339.02686
  20
116.8033
  0
VERTEX
  5
b77
  8
Layer_0
  10
339.03796
  20
116.81279
  0
VERTEX
  5
b78
  8
Layer_0
  10
339.06509
  20
116.83342
  0
VERTEX
  5
b79
  8
Layer_0
  10
339.09384
  20
116.8513
  0
VERTEX
  5
b7a
  8
Layer_0
  10
339.12448
  20
116.86623
  0
VERTEX
  5
b7b
  8
Layer_0
  10
339.15646
  20
116.87788
  0
VERTEX
  5
b7c
  8
Layer_0
  10
339.19794
  20
116.88762
  0
VERTEX
  5
b7d
  8
Layer_0
  10
339.27386
  20
116.90065
  0
VERTEX
  5
b7e
  8
Layer_0
  10
339.32321
  20
116.90553
  0
VERTEX
  5
b7f
  8
Layer_0
  10
339.47803
  20
116.90877
  0
VERTEX
  5
b80
  8
Layer_0
  10
339.48398
  20
116.90877
  0
VERTEX
  5
b81
  8
Layer_0
  10
342.62234
  20
116.91991
  0
VERTEX
  5
b82
  8
Layer_0
  10
342.62234
  20
116.92018
  0
VERTEX
  5
b83
  8
Layer_0
  10
342.61093
  20
117.29759
  0
VERTEX
  5
b84
  8
Layer_0
  10
342.59387
  20
117.70509
  0
VERTEX
  5
b85
  8
Layer_0
  10
340.32098
  20
117.70265
  0
VERTEX
  5
b86
  8
Layer_0
  10
338.96613
  20
117.69478
  0
VERTEX
  5
b87
  8
Layer_0
  10
338.57596
  20
117.68639
  0
VERTEX
  5
b88
  8
Layer_0
  10
338.41409
  20
117.67934
  0
VERTEX
  5
b89
  8
Layer_0
  10
338.31949
  20
117.67146
  0
VERTEX
  5
b8a
  8
Layer_0
  10
338.30972
  20
117.66985
  0
VERTEX
  5
b8b
  8
Layer_0
  10
338.13376
  20
117.59853
  0
VERTEX
  5
b8c
  8
Layer_0
  10
337.97217
  20
117.50203
  0
VERTEX
  5
b8d
  8
Layer_0
  10
337.84338
  20
117.39168
  0
VERTEX
  5
b8e
  8
Layer_0
  10
337.74576
  20
117.26857
  0
VERTEX
  5
b8f
  8
Layer_0
  10
337.67499
  20
117.14113
  0
VERTEX
  5
b90
  8
Layer_0
  10
337.63651
  20
116.97765
  0
VERTEX
  5
b91
  8
Layer_0
  10
337.62619
  20
116.83803
  0
VERTEX
  5
b92
  8
Layer_0
  10
337.62024
  20
116.61977
  0
VERTEX
  5
b93
  8
Layer_0
  10
337.61942
  20
116.11897
  0
VERTEX
  5
b94
  8
Layer_0
  10
337.62973
  20
115.07161
  0
VERTEX
  5
b95
  8
Layer_0
  10
337.63489
  20
114.93279
  0
VERTEX
  5
b96
  8
Layer_0
  10
337.64273
  20
114.82106
  0
VERTEX
  5
b97
  8
Layer_0
  10
337.65088
  20
114.75954
  0
VERTEX
  5
b98
  8
Layer_0
  10
337.66037
  20
114.71642
  0
VERTEX
  5
b99
  8
Layer_0
  10
337.66849
  20
114.69066
  0
VERTEX
  5
b9a
  8
Layer_0
  10
337.73627
  20
114.54344
  0
VERTEX
  5
b9b
  8
Layer_0
  10
337.83008
  20
114.40569
  0
VERTEX
  5
b9c
  8
Layer_0
  10
337.95047
  20
114.27638
  0
VERTEX
  5
b9d
  8
Layer_0
  10
338.09174
  20
114.16411
  0
VERTEX
  5
b9e
  8
Layer_0
  10
338.18283
  20
114.10555
  0
VERTEX
  5
b9f
  8
Layer_0
  10
338.26093
  20
114.06435
  0
VERTEX
  5
ba0
  8
Layer_0
  10
338.33682
  20
114.03777
  0
VERTEX
  5
ba1
  8
Layer_0
  10
338.45532
  20
114.01445
  0
VERTEX
  5
ba2
  8
Layer_0
  10
338.52689
  20
114.00606
  0
VERTEX
  5
ba3
  8
Layer_0
  10
338.63345
  20
113.99712
  0
VERTEX
  5
ba4
  8
Layer_0
  10
338.75574
  20
113.98979
  0
VERTEX
  5
ba5
  8
Layer_0
  10
339.06183
  20
113.9792
  0
VERTEX
  5
ba6
  8
Layer_0
  10
340.65039
  20
113.94856
  0
VERTEX
  5
ba7
  8
Layer_0
  10
340.65472
  20
113.94829
  0
VERTEX
  5
ba8
  8
Layer_0
  10
341.01669
  20
113.93636
  0
VERTEX
  5
ba9
  8
Layer_0
  10
341.03839
  20
113.93501
  0
VERTEX
  5
baa
  8
Layer_0
  10
341.06876
  20
113.93202
  0
VERTEX
  5
bab
  8
Layer_0
  10
341.10236
  20
113.9269
  0
VERTEX
  5
bac
  8
Layer_0
  10
341.13544
  20
113.91847
  0
VERTEX
  5
bad
  8
Layer_0
  10
341.16718
  20
113.90681
  0
VERTEX
  5
bae
  8
Layer_0
  10
341.19781
  20
113.89189
  0
VERTEX
  5
baf
  8
Layer_0
  10
341.22656
  20
113.87373
  0
VERTEX
  5
bb0
  8
Layer_0
  10
341.25339
  20
113.85313
  0
VERTEX
  5
bb1
  8
Layer_0
  10
341.27808
  20
113.82954
  0
VERTEX
  5
bb2
  8
Layer_0
  10
341.30029
  20
113.80379
  0
VERTEX
  5
bb3
  8
Layer_0
  10
341.31955
  20
113.77586
  0
VERTEX
  5
bb4
  8
Layer_0
  10
341.33582
  20
113.74605
  0
VERTEX
  5
bb5
  8
Layer_0
  10
341.34802
  20
113.71785
  0
VERTEX
  5
bb6
  8
Layer_0
  10
341.35995
  20
113.68611
  0
VERTEX
  5
bb7
  8
Layer_0
  10
341.37024
  20
113.65358
  0
VERTEX
  5
bb8
  8
Layer_0
  10
341.37729
  20
113.62022
  0
VERTEX
  5
bb9
  8
Layer_0
  10
341.38138
  20
113.57036
  0
VERTEX
  5
bba
  8
Layer_0
  10
341.38162
  20
113.51204
  0
VERTEX
  5
bbb
  8
Layer_0
  10
341.38083
  20
113.48793
  0
VERTEX
  5
bbc
  8
Layer_0
  10
341.37946
  20
113.46812
  0
VERTEX
  5
bbd
  8
Layer_0
  10
341.37189
  20
113.0663
  0
VERTEX
  5
bbe
  8
Layer_0
  10
341.36728
  20
112.23366
  0
VERTEX
  5
bbf
  8
Layer_0
  10
341.36536
  20
112.19978
  0
VERTEX
  5
bc0
  8
Layer_0
  10
341.35995
  20
112.16615
  0
VERTEX
  5
bc1
  8
Layer_0
  10
341.35126
  20
112.13335
  0
VERTEX
  5
bc2
  8
Layer_0
  10
341.33908
  20
112.10164
  0
VERTEX
  5
bc3
  8
Layer_0
  10
341.32388
  20
112.07127
  0
VERTEX
  5
bc4
  8
Layer_0
  10
341.30573
  20
112.04253
  0
VERTEX
  5
bc5
  8
Layer_0
  10
341.28458
  20
112.01595
  0
VERTEX
  5
bc6
  8
Layer_0
  10
341.26071
  20
111.99156
  0
VERTEX
  5
bc7
  8
Layer_0
  10
341.23468
  20
111.96959
  0
VERTEX
  5
bc8
  8
Layer_0
  10
341.20676
  20
111.95061
  0
VERTEX
  5
bc9
  8
Layer_0
  10
341.17667
  20
111.93462
  0
VERTEX
  5
bca
  8
Layer_0
  10
341.1452
  20
111.92159
  0
VERTEX
  5
bcb
  8
Layer_0
  10
341.11267
  20
111.91185
  0
VERTEX
  5
bcc
  8
Layer_0
  10
341.07932
  20
111.90559
  0
VERTEX
  5
bcd
  8
Layer_0
  10
341.0354
  20
111.90236
  0
VERTEX
  5
bce
  8
Layer_0
  10
336.95325
  20
111.88634
  0
VERTEX
  5
bcf
  8
Layer_0
  10
336.93915
  20
111.46718
  0
VERTEX
  5
bd0
  8
Layer_0
  10
336.9313
  20
111.18547
  0
VERTEX
  5
bd1
  8
Layer_0
  10
336.92966
  20
111.04042
  0
VERTEX
  5
bd2
  8
Layer_0
  10
337.09341
  20
111.03798
  0
VERTEX
  5
bd3
  8
Layer_0
  10
338.24493
  20
111.03636
  0
VERTEX
  5
bd4
  8
Layer_0
  10
339.67676
  20
111.04475
  0
VERTEX
  5
bd5
  8
Layer_0
  10
340.99472
  20
111.06075
  0
VERTEX
  5
bd6
  8
Layer_0
  10
340.99472
  20
111.06047
  0
VERTEX
  5
bd7
  8
Layer_0
  10
341.70834
  20
111.07701
  0
VERTEX
  5
bd8
  8
Layer_0
  10
341.82196
  20
111.08299
  0
VERTEX
  5
bd9
  8
Layer_0
  10
342.03018
  20
111.157
  0
VERTEX
  5
bda
  8
Layer_0
  10
342.23813
  20
111.2831
  0
VERTEX
  5
bdb
  8
Layer_0
  10
342.41409
  20
111.44142
  0
VERTEX
  5
bdc
  8
Layer_0
  10
342.5437
  20
111.62172
  0
VERTEX
  5
bdd
  8
Layer_0
  10
342.57324
  20
111.68193
  0
VERTEX
  5
bde
  8
Layer_0
  10
342.59793
  20
111.74998
  0
VERTEX
  5
bdf
  8
Layer_0
  10
342.61908
  20
111.84108
  0
VERTEX
  5
be0
  8
Layer_0
  10
342.63535
  20
111.96526
  0
VERTEX
  5
be1
  8
Layer_0
  10
342.64728
  20
112.14418
  0
VERTEX
  5
be2
  8
Layer_0
  10
342.65323
  20
112.37682
  0
VERTEX
  5
be3
  8
Layer_0
  10
342.6546
  20
112.68565
  0
VERTEX
  5
be4
  8
Layer_0
  10
342.64185
  20
114.063
  0
VERTEX
  5
be5
  8
Layer_0
  10
342.57108
  20
114.20778
  0
VERTEX
  5
be6
  8
Layer_0
  10
342.50494
  20
114.32381
  0
VERTEX
  5
be7
  8
Layer_0
  10
342.42984
  20
114.42522
  0
VERTEX
  5
be8
  8
Layer_0
  10
342.3428
  20
114.5182
  0
VERTEX
  5
be9
  8
Layer_0
  10
342.2449
  20
114.60146
  0
VERTEX
  5
bea
  8
Layer_0
  10
342.13998
  20
114.67195
  0
VERTEX
  5
beb
  8
Layer_0
  10
342.02502
  20
114.73186
  0
VERTEX
  5
bec
  8
Layer_0
  10
341.90491
  20
114.77769
  0
VERTEX
  5
bed
  8
Layer_0
  10
341.78534
  20
114.80806
  0
VERTEX
  5
bee
  8
Layer_0
  10
341.75443
  20
114.81157
  0
VERTEX
  5
bef
  8
Layer_0
  10
341.66714
  20
114.817
  0
VERTEX
  5
bf0
  8
Layer_0
  10
341.35535
  20
114.82759
  0
VERTEX
  5
bf1
  8
Layer_0
  10
340.92722
  20
114.83488
  0
VERTEX
  5
bf2
  8
Layer_0
  10
340.43756
  20
114.83733
  0
SEQEND
  0
POLYLINE
  5
bf4
  8
Layer_0
  62
0
  66
1
  10
0
  20
0
  30
0
  0
VERTEX
  5
bf4
  8
Layer_0
  10
347.19604
  20
116.57365
  0
VERTEX
  5
bf5
  8
Layer_0
  10
347.19821
  20
116.60756
  0
VERTEX
  5
bf6
  8
Layer_0
  10
347.20364
  20
116.64116
  0
VERTEX
  5
bf7
  8
Layer_0
  10
347.21231
  20
116.67397
  0
VERTEX
  5
bf8
  8
Layer_0
  10
347.22452
  20
116.7057
  0
VERTEX
  5
bf9
  8
Layer_0
  10
347.23996
  20
116.73607
  0
VERTEX
  5
bfa
  8
Layer_0
  10
347.25812
  20
116.76482
  0
VERTEX
  5
bfb
  8
Layer_0
  10
347.27927
  20
116.79137
  0
VERTEX
  5
bfc
  8
Layer_0
  10
347.30313
  20
116.81551
  0
VERTEX
  5
bfd
  8
Layer_0
  10
347.32916
  20
116.83748
  0
VERTEX
  5
bfe
  8
Layer_0
  10
347.35736
  20
116.85646
  0
VERTEX
  5
bff
  8
Layer_0
  10
347.38745
  20
116.87245
  0
VERTEX
  5
c00
  8
Layer_0
  10
347.41891
  20
116.88518
  0
VERTEX
  5
c01
  8
Layer_0
  10
347.45145
  20
116.89494
  0
VERTEX
  5
c02
  8
Layer_0
  10
347.4848
  20
116.9012
  0
VERTEX
  5
c03
  8
Layer_0
  10
347.52628
  20
116.90416
  0
VERTEX
  5
c04
  8
Layer_0
  10
349.16718
  20
116.91908
  0
VERTEX
  5
c05
  8
Layer_0
  10
349.15741
  20
117.68965
  0
VERTEX
  5
c06
  8
Layer_0
  10
343.87766
  20
117.70482
  0
VERTEX
  5
c07
  8
Layer_0
  10
343.89124
  20
117.40468
  0
VERTEX
  5
c08
  8
Layer_0
  10
343.89148
  20
117.39519
  0
VERTEX
  5
c09
  8
Layer_0
  10
343.89801
  20
117.01018
  0
VERTEX
  5
c0a
  8
Layer_0
  10
343.89801
  20
116.92097
  0
VERTEX
  5
c0b
  8
Layer_0
  10
344.52484
  20
116.92097
  0
VERTEX
  5
c0c
  8
Layer_0
  10
344.90146
  20
116.91936
  0
VERTEX
  5
c0d
  8
Layer_0
  10
344.90552
  20
116.91936
  0
VERTEX
  5
c0e
  8
Layer_0
  10
345.3472
  20
116.91203
  0
VERTEX
  5
c0f
  8
Layer_0
  10
345.35669
  20
116.91176
  0
VERTEX
  5
c10
  8
Layer_0
  10
345.52045
  20
116.90443
  0
VERTEX
  5
c11
  8
Layer_0
  10
345.54974
  20
116.90172
  0
VERTEX
  5
c12
  8
Layer_0
  10
345.58011
  20
116.89766
  0
VERTEX
  5
c13
  8
Layer_0
  10
345.61343
  20
116.89143
  0
VERTEX
  5
c14
  8
Layer_0
  10
345.64624
  20
116.88194
  0
VERTEX
  5
c15
  8
Layer_0
  10
345.6777
  20
116.86891
  0
VERTEX
  5
c16
  8
Layer_0
  10
345.70752
  20
116.85292
  0
VERTEX
  5
c17
  8
Layer_0
  10
345.73572
  20
116.83394
  0
VERTEX
  5
c18
  8
Layer_0
  10
345.76202
  20
116.81227
  0
VERTEX
  5
c19
  8
Layer_0
  10
345.78561
  20
116.78786
  0
VERTEX
  5
c1a
  8
Layer_0
  10
345.81271
  20
116.75288
  0
VERTEX
  5
c1b
  8
Layer_0
  10
345.82874
  20
116.72902
  0
VERTEX
  5
c1c
  8
Layer_0
  10
345.84607
  20
116.7
  0
VERTEX
  5
c1d
  8
Layer_0
  10
345.86044
  20
116.66911
  0
VERTEX
  5
c1e
  8
Layer_0
  10
345.87155
  20
116.6371
  0
VERTEX
  5
c1f
  8
Layer_0
  10
345.88025
  20
116.60078
  0
VERTEX
  5
c20
  8
Layer_0
  10
345.89297
  20
116.52757
  0
VERTEX
  5
c21
  8
Layer_0
  10
345.89706
  20
116.49123
  0
VERTEX
  5
c22
  8
Layer_0
  10
345.90628
  20
116.34401
  0
VERTEX
  5
c23
  8
Layer_0
  10
345.9068
  20
116.33235
  0
VERTEX
  5
c24
  8
Layer_0
  10
345.91357
  20
116.08699
  0
VERTEX
  5
c25
  8
Layer_0
  10
345.91385
  20
116.08101
  0
VERTEX
  5
c26
  8
Layer_0
  10
345.91983
  20
115.47612
  0
VERTEX
  5
c27
  8
Layer_0
  10
345.91983
  20
115.47313
  0
VERTEX
  5
c28
  8
Layer_0
  10
345.92227
  20
111.04991
  0
VERTEX
  5
c29
  8
Layer_0
  10
347.15131
  20
111.04991
  0
VERTEX
  5
c2a
  8
Layer_0
  10
347.19604
  20
116.57365
  0
SEQEND
  0
POLYLINE
  5
c2c
  8
Layer_0
  62
0
  66
1
  10
0
  20
0
  30
0
  0
VERTEX
  5
c2c
  8
Layer_0
  10
375.32941
  20
113.28566
  0
VERTEX
  5
c2d
  8
Layer_0
  10
375.00485
  20
113.28972
  0
VERTEX
  5
c2e
  8
Layer_0
  10
374.99374
  20
113.28999
  0
VERTEX
  5
c2f
  8
Layer_0
  10
374.89343
  20
113.2946
  0
VERTEX
  5
c30
  8
Layer_0
  10
374.87527
  20
113.29594
  0
VERTEX
  5
c31
  8
Layer_0
  10
374.80801
  20
113.30275
  0
VERTEX
  5
c32
  8
Layer_0
  10
374.76572
  20
113.3098
  0
VERTEX
  5
c33
  8
Layer_0
  10
374.72507
  20
113.31929
  0
VERTEX
  5
c34
  8
Layer_0
  10
374.69226
  20
113.32878
  0
VERTEX
  5
c35
  8
Layer_0
  10
374.6608
  20
113.34151
  0
VERTEX
  5
c36
  8
Layer_0
  10
374.62311
  20
113.36183
  0
VERTEX
  5
c37
  8
Layer_0
  10
374.6033
  20
113.37431
  0
VERTEX
  5
c38
  8
Layer_0
  10
374.57538
  20
113.39412
  0
VERTEX
  5
c39
  8
Layer_0
  10
374.5499
  20
113.41634
  0
VERTEX
  5
c3a
  8
Layer_0
  10
374.52658
  20
113.44102
  0
VERTEX
  5
c3b
  8
Layer_0
  10
374.50598
  20
113.46812
  0
VERTEX
  5
c3c
  8
Layer_0
  10
374.48834
  20
113.49715
  0
VERTEX
  5
c3d
  8
Layer_0
  10
374.47345
  20
113.52779
  0
VERTEX
  5
c3e
  8
Layer_0
  10
374.4653
  20
113.54945
  0
VERTEX
  5
c3f
  8
Layer_0
  10
374.4599
  20
113.56548
  0
VERTEX
  5
c40
  8
Layer_0
  10
374.45068
  20
113.59801
  0
VERTEX
  5
c41
  8
Layer_0
  10
374.4447
  20
113.63161
  0
VERTEX
  5
c42
  8
Layer_0
  10
374.44226
  20
113.66551
  0
VERTEX
  5
c43
  8
Layer_0
  10
374.44336
  20
113.69942
  0
VERTEX
  5
c44
  8
Layer_0
  10
374.44797
  20
113.73302
  0
VERTEX
  5
c45
  8
Layer_0
  10
374.45963
  20
113.77858
  0
VERTEX
  5
c46
  8
Layer_0
  10
374.47723
  20
113.83089
  0
VERTEX
  5
c47
  8
Layer_0
  10
374.48917
  20
113.86101
  0
VERTEX
  5
c48
  8
Layer_0
  10
374.53906
  20
113.97215
  0
VERTEX
  5
c49
  8
Layer_0
  10
374.54257
  20
113.97975
  0
VERTEX
  5
c4a
  8
Layer_0
  10
374.61984
  20
114.14107
  0
VERTEX
  5
c4b
  8
Layer_0
  10
374.62228
  20
114.14622
  0
VERTEX
  5
c4c
  8
Layer_0
  10
374.84192
  20
114.58464
  0
VERTEX
  5
c4d
  8
Layer_0
  10
374.84381
  20
114.58818
  0
VERTEX
  5
c4e
  8
Layer_0
  10
375.12009
  20
115.12419
  0
VERTEX
  5
c4f
  8
Layer_0
  10
375.12119
  20
115.12636
  0
VERTEX
  5
c50
  8
Layer_0
  10
375.41806
  20
115.69167
  0
VERTEX
  5
c51
  8
Layer_0
  10
375.41943
  20
115.69411
  0
VERTEX
  5
c52
  8
Layer_0
  10
375.70111
  20
116.22011
  0
VERTEX
  5
c53
  8
Layer_0
  10
375.70276
  20
116.22337
  0
VERTEX
  5
c54
  8
Layer_0
  10
375.93295
  20
116.64171
  0
VERTEX
  5
c55
  8
Layer_0
  10
375.93619
  20
116.64714
  0
VERTEX
  5
c56
  8
Layer_0
  10
376.02078
  20
116.79436
  0
VERTEX
  5
c57
  8
Layer_0
  10
376.02594
  20
116.8033
  0
VERTEX
  5
c58
  8
Layer_0
  10
376.08423
  20
116.89793
  0
VERTEX
  5
c59
  8
Layer_0
  10
376.11136
  20
116.93562
  0
VERTEX
  5
c5a
  8
Layer_0
  10
376.13901
  20
116.96898
  0
VERTEX
  5
c5b
  8
Layer_0
  10
376.16205
  20
116.99419
  0
VERTEX
  5
c5c
  8
Layer_0
  10
376.18753
  20
117.01668
  0
VERTEX
  5
c5d
  8
Layer_0
  10
376.21518
  20
117.03648
  0
VERTEX
  5
c5e
  8
Layer_0
  10
376.24448
  20
117.0533
  0
VERTEX
  5
c5f
  8
Layer_0
  10
376.27567
  20
117.06712
  0
VERTEX
  5
c60
  8
Layer_0
  10
376.30792
  20
117.07796
  0
VERTEX
  5
c61
  8
Layer_0
  10
376.341
  20
117.08501
  0
VERTEX
  5
c62
  8
Layer_0
  10
376.37488
  20
117.08882
  0
VERTEX
  5
c63
  8
Layer_0
  10
376.40878
  20
117.08934
  0
VERTEX
  5
c64
  8
Layer_0
  10
376.44266
  20
117.08611
  0
VERTEX
  5
c65
  8
Layer_0
  10
376.47601
  20
117.07961
  0
VERTEX
  5
c66
  8
Layer_0
  10
376.50854
  20
117.06984
  0
VERTEX
  5
c67
  8
Layer_0
  10
376.54001
  20
117.05653
  0
VERTEX
  5
c68
  8
Layer_0
  10
376.56982
  20
117.04027
  0
VERTEX
  5
c69
  8
Layer_0
  10
376.59775
  20
117.02104
  0
VERTEX
  5
c6a
  8
Layer_0
  10
376.62378
  20
116.99907
  0
VERTEX
  5
c6b
  8
Layer_0
  10
376.64737
  20
116.97466
  0
VERTEX
  5
c6c
  8
Layer_0
  10
376.66824
  20
116.94783
  0
VERTEX
  5
c6d
  8
Layer_0
  10
376.6864
  20
116.91908
  0
VERTEX
  5
c6e
  8
Layer_0
  10
376.70132
  20
116.88844
  0
VERTEX
  5
c6f
  8
Layer_0
  10
376.71326
  20
116.85674
  0
VERTEX
  5
c70
  8
Layer_0
  10
376.72409
  20
116.81117
  0
VERTEX
  5
c71
  8
Layer_0
  10
376.72925
  20
116.78026
  0
VERTEX
  5
c72
  8
Layer_0
  10
376.73358
  20
116.74068
  0
VERTEX
  5
c73
  8
Layer_0
  10
376.73767
  20
116.6512
  0
VERTEX
  5
c74
  8
Layer_0
  10
376.73792
  20
116.64308
  0
VERTEX
  5
c75
  8
Layer_0
  10
376.74091
  20
116.50182
  0
VERTEX
  5
c76
  8
Layer_0
  10
376.74091
  20
116.49693
  0
VERTEX
  5
c77
  8
Layer_0
  10
376.74362
  20
116.084
  0
VERTEX
  5
c78
  8
Layer_0
  10
376.74362
  20
116.08022
  0
VERTEX
  5
c79
  8
Layer_0
  10
376.73929
  20
115.22804
  0
VERTEX
  5
c7a
  8
Layer_0
  10
376.73929
  20
115.2256
  0
VERTEX
  5
c7b
  8
Layer_0
  10
376.73196
  20
114.62938
  0
VERTEX
  5
c7c
  8
Layer_0
  10
376.73196
  20
114.62721
  0
VERTEX
  5
c7d
  8
Layer_0
  10
376.71625
  20
113.79131
  0
VERTEX
  5
c7e
  8
Layer_0
  10
376.71597
  20
113.78236
  0
VERTEX
  5
c7f
  8
Layer_0
  10
376.70972
  20
113.64546
  0
VERTEX
  5
c80
  8
Layer_0
  10
376.70621
  20
113.61156
  0
VERTEX
  5
c81
  8
Layer_0
  10
376.69971
  20
113.5782
  0
VERTEX
  5
c82
  8
Layer_0
  10
376.68967
  20
113.54594
  0
VERTEX
  5
c83
  8
Layer_0
  10
376.67612
  20
113.51448
  0
VERTEX
  5
c84
  8
Layer_0
  10
376.65985
  20
113.48494
  0
VERTEX
  5
c85
  8
Layer_0
  10
376.64032
  20
113.45702
  0
VERTEX
  5
c86
  8
Layer_0
  10
376.61835
  20
113.43098
  0
VERTEX
  5
c87
  8
Layer_0
  10
376.59259
  20
113.40685
  0
VERTEX
  5
c88
  8
Layer_0
  10
376.57986
  20
113.39601
  0
VERTEX
  5
c89
  8
Layer_0
  10
376.55301
  20
113.37541
  0
VERTEX
  5
c8a
  8
Layer_0
  10
376.52402
  20
113.3575
  0
VERTEX
  5
c8b
  8
Layer_0
  10
376.49338
  20
113.34285
  0
VERTEX
  5
c8c
  8
Layer_0
  10
376.45486
  20
113.3293
  0
VERTEX
  5
c8d
  8
Layer_0
  10
376.42233
  20
113.32008
  0
VERTEX
  5
c8e
  8
Layer_0
  10
376.3757
  20
113.31032
  0
VERTEX
  5
c8f
  8
Layer_0
  10
376.32092
  20
113.30299
  0
VERTEX
  5
c90
  8
Layer_0
  10
376.30032
  20
113.30083
  0
VERTEX
  5
c91
  8
Layer_0
  10
376.22006
  20
113.29515
  0
VERTEX
  5
c92
  8
Layer_0
  10
376.20596
  20
113.2946
  0
VERTEX
  5
c93
  8
Layer_0
  10
375.95923
  20
113.28755
  0
VERTEX
  5
c94
  8
Layer_0
  10
375.95056
  20
113.28728
  0
VERTEX
  5
c95
  8
Layer_0
  10
375.33429
  20
113.28566
  0
VERTEX
  5
c96
  8
Layer_0
  10
375.32941
  20
113.28566
  0
SEQEND
  0
POLYLINE
  5
c98
  8
Layer_0
  62
0
  66
1
  10
0
  20
0
  30
0
  0
VERTEX
  5
c98
  8
Layer_0
  10
359.03876
  20
113.28673
  0
VERTEX
  5
c99
  8
Layer_0
  10
359.03308
  20
113.28673
  0
VERTEX
  5
c9a
  8
Layer_0
  10
358.67816
  20
113.29298
  0
VERTEX
  5
c9b
  8
Layer_0
  10
358.66623
  20
113.29353
  0
VERTEX
  5
c9c
  8
Layer_0
  10
358.54449
  20
113.30003
  0
VERTEX
  5
c9d
  8
Layer_0
  10
358.51086
  20
113.30354
  0
VERTEX
  5
c9e
  8
Layer_0
  10
358.49298
  20
113.30681
  0
VERTEX
  5
c9f
  8
Layer_0
  10
358.47644
  20
113.31032
  0
VERTEX
  5
ca0
  8
Layer_0
  10
358.44363
  20
113.31929
  0
VERTEX
  5
ca1
  8
Layer_0
  10
358.41193
  20
113.33119
  0
VERTEX
  5
ca2
  8
Layer_0
  10
358.38129
  20
113.34639
  0
VERTEX
  5
ca3
  8
Layer_0
  10
358.35281
  20
113.36482
  0
VERTEX
  5
ca4
  8
Layer_0
  10
358.32596
  20
113.3857
  0
VERTEX
  5
ca5
  8
Layer_0
  10
358.30185
  20
113.40956
  0
VERTEX
  5
ca6
  8
Layer_0
  10
358.27988
  20
113.43559
  0
VERTEX
  5
ca7
  8
Layer_0
  10
358.26089
  20
113.46379
  0
VERTEX
  5
ca8
  8
Layer_0
  10
358.24463
  20
113.49361
  0
VERTEX
  5
ca9
  8
Layer_0
  10
358.23187
  20
113.52507
  0
VERTEX
  5
caa
  8
Layer_0
  10
358.22214
  20
113.5576
  0
VERTEX
  5
cab
  8
Layer_0
  10
358.21588
  20
113.59096
  0
VERTEX
  5
cac
  8
Layer_0
  10
358.21289
  20
113.62483
  0
VERTEX
  5
cad
  8
Layer_0
  10
358.21344
  20
113.65901
  0
VERTEX
  5
cae
  8
Layer_0
  10
358.2175
  20
113.69261
  0
VERTEX
  5
caf
  8
Layer_0
  10
358.22482
  20
113.72597
  0
VERTEX
  5
cb0
  8
Layer_0
  10
358.23569
  20
113.75798
  0
VERTEX
  5
cb1
  8
Layer_0
  10
358.24762
  20
113.78453
  0
VERTEX
  5
cb2
  8
Layer_0
  10
359.02902
  20
115.356
  0
VERTEX
  5
cb3
  8
Layer_0
  10
359.03336
  20
115.3647
  0
VERTEX
  5
cb4
  8
Layer_0
  10
359.84348
  20
116.87978
  0
VERTEX
  5
cb5
  8
Layer_0
  10
359.86111
  20
116.90904
  0
VERTEX
  5
cb6
  8
Layer_0
  10
359.88144
  20
116.93617
  0
VERTEX
  5
cb7
  8
Layer_0
  10
359.90448
  20
116.96111
  0
VERTEX
  5
cb8
  8
Layer_0
  10
359.93024
  20
116.9836
  0
VERTEX
  5
cb9
  8
Layer_0
  10
359.95792
  20
117.0034
  0
VERTEX
  5
cba
  8
Layer_0
  10
359.98718
  20
117.02022
  0
VERTEX
  5
cbb
  8
Layer_0
  10
360.01837
  20
117.03404
  0
VERTEX
  5
cbc
  8
Layer_0
  10
360.05063
  20
117.04436
  0
VERTEX
  5
cbd
  8
Layer_0
  10
360.08398
  20
117.05165
  0
VERTEX
  5
cbe
  8
Layer_0
  10
360.11786
  20
117.05547
  0
VERTEX
  5
cbf
  8
Layer_0
  10
360.15176
  20
117.05574
  0
VERTEX
  5
cc0
  8
Layer_0
  10
360.18564
  20
117.05247
  0
VERTEX
  5
cc1
  8
Layer_0
  10
360.21899
  20
117.0457
  0
VERTEX
  5
cc2
  8
Layer_0
  10
360.25153
  20
117.03593
  0
VERTEX
  5
cc3
  8
Layer_0
  10
360.28271
  20
117.02266
  0
VERTEX
  5
cc4
  8
Layer_0
  10
360.31253
  20
117.00612
  0
VERTEX
  5
cc5
  8
Layer_0
  10
360.34045
  20
116.98686
  0
VERTEX
  5
cc6
  8
Layer_0
  10
360.36624
  20
116.96489
  0
VERTEX
  5
cc7
  8
Layer_0
  10
360.3898
  20
116.94023
  0
VERTEX
  5
cc8
  8
Layer_0
  10
360.41071
  20
116.91338
  0
VERTEX
  5
cc9
  8
Layer_0
  10
360.42993
  20
116.88222
  0
VERTEX
  5
cca
  8
Layer_0
  10
360.4397
  20
116.8643
  0
VERTEX
  5
ccb
  8
Layer_0
  10
360.45435
  20
116.83366
  0
VERTEX
  5
ccc
  8
Layer_0
  10
360.466
  20
116.80168
  0
VERTEX
  5
ccd
  8
Layer_0
  10
360.47388
  20
116.76997
  0
VERTEX
  5
cce
  8
Layer_0
  10
360.48361
  20
116.72087
  0
VERTEX
  5
ccf
  8
Layer_0
  10
360.4877
  20
116.69539
  0
VERTEX
  5
cd0
  8
Layer_0
  10
360.49637
  20
116.623
  0
VERTEX
  5
cd1
  8
Layer_0
  10
360.49771
  20
116.6089
  0
VERTEX
  5
cd2
  8
Layer_0
  10
360.50452
  20
116.52052
  0
VERTEX
  5
cd3
  8
Layer_0
  10
360.50531
  20
116.50832
  0
VERTEX
  5
cd4
  8
Layer_0
  10
360.50937
  20
116.40639
  0
VERTEX
  5
cd5
  8
Layer_0
  10
360.50937
  20
116.40096
  0
VERTEX
  5
cd6
  8
Layer_0
  10
360.51669
  20
116.0916
  0
VERTEX
  5
cd7
  8
Layer_0
  10
360.51697
  20
116.08751
  0
VERTEX
  5
cd8
  8
Layer_0
  10
360.52429
  20
115.44902
  0
VERTEX
  5
cd9
  8
Layer_0
  10
360.52429
  20
115.4463
  0
VERTEX
  5
cda
  8
Layer_0
  10
360.52728
  20
114.51469
  0
VERTEX
  5
cdb
  8
Layer_0
  10
360.52728
  20
114.51115
  0
VERTEX
  5
cdc
  8
Layer_0
  10
360.52322
  20
113.95778
  0
VERTEX
  5
cdd
  8
Layer_0
  10
360.52295
  20
113.95128
  0
VERTEX
  5
cde
  8
Layer_0
  10
360.51724
  20
113.73952
  0
VERTEX
  5
cdf
  8
Layer_0
  10
360.51617
  20
113.71785
  0
VERTEX
  5
ce0
  8
Layer_0
  10
360.51236
  20
113.6769
  0
VERTEX
  5
ce1
  8
Layer_0
  10
360.50369
  20
113.62672
  0
VERTEX
  5
ce2
  8
Layer_0
  10
360.48145
  20
113.5378
  0
VERTEX
  5
ce3
  8
Layer_0
  10
360.47171
  20
113.50526
  0
VERTEX
  5
ce4
  8
Layer_0
  10
360.4584
  20
113.47383
  0
VERTEX
  5
ce5
  8
Layer_0
  10
360.44214
  20
113.44398
  0
VERTEX
  5
ce6
  8
Layer_0
  10
360.42288
  20
113.41606
  0
VERTEX
  5
ce7
  8
Layer_0
  10
360.40094
  20
113.3903
  0
VERTEX
  5
ce8
  8
Layer_0
  10
360.37625
  20
113.36671
  0
VERTEX
  5
ce9
  8
Layer_0
  10
360.34943
  20
113.34584
  0
VERTEX
  5
cea
  8
Layer_0
  10
360.32068
  20
113.32768
  0
VERTEX
  5
ceb
  8
Layer_0
  10
360.29031
  20
113.31276
  0
VERTEX
  5
cec
  8
Layer_0
  10
360.25833
  20
113.30083
  0
VERTEX
  5
ced
  8
Layer_0
  10
360.22552
  20
113.29216
  0
VERTEX
  5
cee
  8
Layer_0
  10
360.19189
  20
113.287
  0
VERTEX
  5
cef
  8
Layer_0
  10
360.15799
  20
113.28539
  0
VERTEX
  5
cf0
  8
Layer_0
  10
359.03876
  20
113.28673
  0
SEQEND
  0
POLYLINE
  5
cf2
  8
Layer_0
  62
0
  66
1
  10
0
  20
0
  30
0
  0
VERTEX
  5
cf2
  8
Layer_0
  10
377.91706
  20
70.327904
  0
VERTEX
  5
cf3
  8
Layer_0
  10
377.89925
  20
69.927644
  0
VERTEX
  5
cf4
  8
Layer_0
  10
377.84697
  20
69.538946
  0
VERTEX
  5
cf5
  8
Layer_0
  10
377.76196
  20
69.163779
  0
VERTEX
  5
cf6
  8
Layer_0
  10
377.64595
  20
68.80411
  0
VERTEX
  5
cf7
  8
Layer_0
  10
377.50068
  20
68.461907
  0
VERTEX
  5
cf8
  8
Layer_0
  10
377.32787
  20
68.139136
  0
VERTEX
  5
cf9
  8
Layer_0
  10
377.12927
  20
67.837767
  0
VERTEX
  5
cfa
  8
Layer_0
  10
376.90661
  20
67.559767
  0
VERTEX
  5
cfb
  8
Layer_0
  10
376.66162
  20
67.307104
  0
VERTEX
  5
cfc
  8
Layer_0
  10
376.39604
  20
67.081744
  0
VERTEX
  5
cfd
  8
Layer_0
  10
376.1116
  20
66.885657
  0
VERTEX
  5
cfe
  8
Layer_0
  10
375.81003
  20
66.72081
  0
VERTEX
  5
cff
  8
Layer_0
  10
375.49307
  20
66.58917
  0
VERTEX
  5
d00
  8
Layer_0
  10
375.16245
  20
66.492705
  0
VERTEX
  5
d01
  8
Layer_0
  10
374.8199
  20
66.433383
  0
VERTEX
  5
d02
  8
Layer_0
  10
374.46717
  20
66.413172
  0
VERTEX
  5
d03
  8
Layer_0
  10
284.14581
  20
66.41317
  0
VERTEX
  5
d04
  8
Layer_0
  10
283.79307
  20
66.433383
  0
VERTEX
  5
d05
  8
Layer_0
  10
283.45053
  20
66.492705
  0
VERTEX
  5
d06
  8
Layer_0
  10
283.11991
  20
66.58917
  0
VERTEX
  5
d07
  8
Layer_0
  10
282.80295
  20
66.72081
  0
VERTEX
  5
d08
  8
Layer_0
  10
282.50138
  20
66.885657
  0
VERTEX
  5
d09
  8
Layer_0
  10
282.21694
  20
67.081744
  0
VERTEX
  5
d0a
  8
Layer_0
  10
281.95135
  20
67.307104
  0
VERTEX
  5
d0b
  8
Layer_0
  10
281.70636
  20
67.559767
  0
VERTEX
  5
d0c
  8
Layer_0
  10
281.4837
  20
67.837767
  0
VERTEX
  5
d0d
  8
Layer_0
  10
281.2851
  20
68.139136
  0
VERTEX
  5
d0e
  8
Layer_0
  10
281.1123
  20
68.461907
  0
VERTEX
  5
d0f
  8
Layer_0
  10
280.96703
  20
68.80411
  0
VERTEX
  5
d10
  8
Layer_0
  10
280.85102
  20
69.163779
  0
VERTEX
  5
d11
  8
Layer_0
  10
280.76601
  20
69.538946
  0
VERTEX
  5
d12
  8
Layer_0
  10
280.71373
  20
69.927644
  0
VERTEX
  5
d13
  8
Layer_0
  10
280.69592
  20
70.327904
  0
VERTEX
  5
d14
  8
Layer_0
  10
280.69592
  20
101.64576
  0
VERTEX
  5
d15
  8
Layer_0
  10
280.71373
  20
102.04602
  0
VERTEX
  5
d16
  8
Layer_0
  10
280.76601
  20
102.43472
  0
VERTEX
  5
d17
  8
Layer_0
  10
280.85102
  20
102.80988
  0
VERTEX
  5
d18
  8
Layer_0
  10
280.96703
  20
103.16955
  0
VERTEX
  5
d19
  8
Layer_0
  10
281.1123
  20
103.51176
  0
VERTEX
  5
d1a
  8
Layer_0
  10
281.2851
  20
103.83453
  0
VERTEX
  5
d1b
  8
Layer_0
  10
281.4837
  20
104.1359
  0
VERTEX
  5
d1c
  8
Layer_0
  10
281.70636
  20
104.4139
  0
VERTEX
  5
d1d
  8
Layer_0
  10
281.95135
  20
104.66656
  0
VERTEX
  5
d1e
  8
Layer_0
  10
282.21694
  20
104.89192
  0
VERTEX
  5
d1f
  8
Layer_0
  10
282.50138
  20
105.08801
  0
VERTEX
  5
d20
  8
Layer_0
  10
282.80295
  20
105.25285
  0
VERTEX
  5
d21
  8
Layer_0
  10
283.11991
  20
105.38449
  0
VERTEX
  5
d22
  8
Layer_0
  10
283.45053
  20
105.48096
  0
VERTEX
  5
d23
  8
Layer_0
  10
283.79307
  20
105.54028
  0
VERTEX
  5
d24
  8
Layer_0
  10
284.1458
  20
105.56049
  0
VERTEX
  5
d25
  8
Layer_0
  10
374.46716
  20
105.56049
  0
VERTEX
  5
d26
  8
Layer_0
  10
374.8199
  20
105.54028
  0
VERTEX
  5
d27
  8
Layer_0
  10
375.16245
  20
105.48096
  0
VERTEX
  5
d28
  8
Layer_0
  10
375.49307
  20
105.38449
  0
VERTEX
  5
d29
  8
Layer_0
  10
375.81003
  20
105.25285
  0
VERTEX
  5
d2a
  8
Layer_0
  10
376.1116
  20
105.08801
  0
VERTEX
  5
d2b
  8
Layer_0
  10
376.39604
  20
104.89192
  0
VERTEX
  5
d2c
  8
Layer_0
  10
376.66162
  20
104.66656
  0
VERTEX
  5
d2d
  8
Layer_0
  10
376.90661
  20
104.4139
  0
VERTEX
  5
d2e
  8
Layer_0
  10
377.12927
  20
104.1359
  0
VERTEX
  5
d2f
  8
Layer_0
  10
377.32787
  20
103.83453
  0
VERTEX
  5
d30
  8
Layer_0
  10
377.50068
  20
103.51176
  0
VERTEX
  5
d31
  8
Layer_0
  10
377.64595
  20
103.16955
  0
VERTEX
  5
d32
  8
Layer_0
  10
377.76196
  20
102.80988
  0
VERTEX
  5
d33
  8
Layer_0
  10
377.84697
  20
102.43472
  0
VERTEX
  5
d34
  8
Layer_0
  10
377.89925
  20
102.04602
  0
VERTEX
  5
d35
  8
Layer_0
  10
377.91706
  20
101.64576
  0
VERTEX
  5
d36
  8
Layer_0
  10
377.91705
  20
70.327904
  0
SEQEND
  0
POLYLINE
  5
d38
  8
Layer_0
  62
0
  66
1
  10
0
  20
0
  30
0
  0
VERTEX
  5
d38
  8
Layer_0
  10
239.14409
  20
206.44621
  0
VERTEX
  5
d39
  8
Layer_0
  10
238.43168
  20
205.8823
  0
VERTEX
  5
d3a
  8
Layer_0
  10
237.7945
  20
205.32527
  0
VERTEX
  5
d3b
  8
Layer_0
  10
237.21881
  20
204.76244
  0
VERTEX
  5
d3c
  8
Layer_0
  10
236.69087
  20
204.18112
  0
VERTEX
  5
d3d
  8
Layer_0
  10
236.52467
  20
203.98799
  0
VERTEX
  5
d3e
  8
Layer_0
  10
236.38078
  20
203.82136
  0
VERTEX
  5
d3f
  8
Layer_0
  10
236.25845
  20
203.67737
  0
VERTEX
  5
d40
  8
Layer_0
  10
236.15694
  20
203.55212
  0
VERTEX
  5
d41
  8
Layer_0
  10
236.0134
  20
203.34237
  0
VERTEX
  5
d42
  8
Layer_0
  10
235.94421
  20
203.16108
  0
VERTEX
  5
d43
  8
Layer_0
  10
235.94343
  20
202.97725
  0
VERTEX
  5
d44
  8
Layer_0
  10
236.00512
  20
202.75983
  0
VERTEX
  5
d45
  8
Layer_0
  10
236.05753
  20
202.62884
  0
VERTEX
  5
d46
  8
Layer_0
  10
236.12333
  20
202.47782
  0
VERTEX
  5
d47
  8
Layer_0
  10
236.20177
  20
202.30289
  0
VERTEX
  5
d48
  8
Layer_0
  10
236.29211
  20
202.10018
  42
0.003696673
  0
VERTEX
  5
d49
  8
Layer_0
  10
237.08179
  20
200.33939
  42
-0.0016076399
  0
VERTEX
  5
d4a
  8
Layer_0
  10
237.8454
  20
198.65863
  42
0.001041632
  0
VERTEX
  5
d4b
  8
Layer_0
  10
238.461
  20
197.29802
  42
-0.0018129446
  0
VERTEX
  5
d4c
  8
Layer_0
  10
239.32367
  20
195.37717
  42
0.003369233
  0
VERTEX
  5
d4d
  8
Layer_0
  10
240.18967
  20
193.4563
  42
-0.0028720563
  0
VERTEX
  5
d4e
  8
Layer_0
  10
241.13121
  20
191.37537
  42
0.0020944147
  0
VERTEX
  5
d4f
  8
Layer_0
  10
242.07108
  20
189.29443
  42
-0.0045124361
  0
VERTEX
  5
d50
  8
Layer_0
  10
242.6064
  20
188.09389
  0
VERTEX
  5
d51
  8
Layer_0
  10
242.74508
  20
187.79683
  0
VERTEX
  5
d52
  8
Layer_0
  10
242.87654
  20
187.55009
  0
VERTEX
  5
d53
  8
Layer_0
  10
242.93492
  20
187.45362
  0
VERTEX
  5
d54
  8
Layer_0
  10
242.98593
  20
187.37937
  0
VERTEX
  5
d55
  8
Layer_0
  10
243.02772
  20
187.33055
  0
VERTEX
  5
d56
  8
Layer_0
  10
243.05843
  20
187.31038
  0
VERTEX
  5
d57
  8
Layer_0
  10
243.12985
  20
187.3424
  0
VERTEX
  5
d58
  8
Layer_0
  10
243.22345
  20
187.46433
  0
VERTEX
  5
d59
  8
Layer_0
  10
243.34122
  20
187.67937
  0
VERTEX
  5
d5a
  8
Layer_0
  10
243.48515
  20
187.99068
  42
-0.0052445873
  0
VERTEX
  5
d5b
  8
Layer_0
  10
244.13951
  20
189.44357
  0
VERTEX
  5
d5c
  8
Layer_0
  10
244.27411
  20
189.73654
  0
VERTEX
  5
d5d
  8
Layer_0
  10
244.38435
  20
189.98022
  0
VERTEX
  5
d5e
  8
Layer_0
  10
244.42677
  20
190.07564
  0
VERTEX
  5
d5f
  8
Layer_0
  10
244.45883
  20
190.14921
  0
VERTEX
  5
d60
  8
Layer_0
  10
244.47911
  20
190.19774
  0
VERTEX
  5
d61
  8
Layer_0
  10
244.48618
  20
190.21808
  0
VERTEX
  5
d62
  8
Layer_0
  10
244.50901
  20
190.27723
  0
VERTEX
  5
d63
  8
Layer_0
  10
244.57116
  20
190.41972
  0
VERTEX
  5
d64
  8
Layer_0
  10
244.66314
  20
190.6242
  0
VERTEX
  5
d65
  8
Layer_0
  10
244.77546
  20
190.86929
  42
0.002797042
  0
VERTEX
  5
d66
  8
Layer_0
  10
245.42371
  20
192.29578
  0
VERTEX
  5
d67
  8
Layer_0
  10
245.56961
  20
192.61452
  0
VERTEX
  5
d68
  8
Layer_0
  10
245.70153
  20
192.89073
  0
VERTEX
  5
d69
  8
Layer_0
  10
245.75772
  20
193.00365
  0
VERTEX
  5
d6a
  8
Layer_0
  10
245.80497
  20
193.09484
  0
VERTEX
  5
d6b
  8
Layer_0
  10
245.84148
  20
193.16061
  0
VERTEX
  5
d6c
  8
Layer_0
  10
245.86544
  20
193.19726
  0
VERTEX
  5
d6d
  8
Layer_0
  10
245.91648
  20
193.22391
  0
VERTEX
  5
d6e
  8
Layer_0
  10
246.02834
  20
193.24519
  0
VERTEX
  5
d6f
  8
Layer_0
  10
246.2114
  20
193.26141
  0
VERTEX
  5
d70
  8
Layer_0
  10
246.47607
  20
193.27286
  0
VERTEX
  5
d71
  8
Layer_0
  10
246.64225
  20
193.2769
  0
VERTEX
  5
d72
  8
Layer_0
  10
246.83273
  20
193.27987
  0
VERTEX
  5
d73
  8
Layer_0
  10
247.04882
  20
193.2818
  0
VERTEX
  5
d74
  8
Layer_0
  10
247.2918
  20
193.28274
  0
VERTEX
  5
d75
  8
Layer_0
  10
247.56298
  20
193.28272
  0
VERTEX
  5
d76
  8
Layer_0
  10
247.86366
  20
193.28178
  0
VERTEX
  5
d77
  8
Layer_0
  10
248.19513
  20
193.27996
  0
VERTEX
  5
d78
  8
Layer_0
  10
248.55871
  20
193.27729
  0
VERTEX
  5
d79
  8
Layer_0
  10
251.16919
  20
193.25621
  0
VERTEX
  5
d7a
  8
Layer_0
  10
251.43155
  20
192.73598
  0
VERTEX
  5
d7b
  8
Layer_0
  10
251.47813
  20
192.64181
  0
VERTEX
  5
d7c
  8
Layer_0
  10
251.53589
  20
192.52204
  0
VERTEX
  5
d7d
  8
Layer_0
  10
251.60415
  20
192.3781
  0
VERTEX
  5
d7e
  8
Layer_0
  10
251.68225
  20
192.21148
  0
VERTEX
  5
d7f
  8
Layer_0
  10
251.86532
  20
191.81599
  0
VERTEX
  5
d80
  8
Layer_0
  10
252.07975
  20
191.34729
  0
VERTEX
  5
d81
  8
Layer_0
  10
252.32021
  20
190.81707
  0
VERTEX
  5
d82
  8
Layer_0
  10
252.58139
  20
190.23702
  0
VERTEX
  5
d83
  8
Layer_0
  10
252.85795
  20
189.61886
  0
VERTEX
  5
d84
  8
Layer_0
  10
253.14456
  20
188.97428
  42
-5.9916863e-05
  0
VERTEX
  5
d85
  8
Layer_0
  10
253.5524
  20
188.05386
  0
VERTEX
  5
d86
  8
Layer_0
  10
253.64719
  20
187.84279
  0
VERTEX
  5
d87
  8
Layer_0
  10
253.72678
  20
187.67291
  0
VERTEX
  5
d88
  8
Layer_0
  10
253.79368
  20
187.54022
  0
VERTEX
  5
d89
  8
Layer_0
  10
253.8504
  20
187.44067
  0
VERTEX
  5
d8a
  8
Layer_0
  10
253.94328
  20
187.32495
  0
VERTEX
  5
d8b
  8
Layer_0
  10
254.02547
  20
187.29353
  0
VERTEX
  5
d8c
  8
Layer_0
  10
254.06194
  20
187.31911
  0
VERTEX
  5
d8d
  8
Layer_0
  10
254.11904
  20
187.40143
  0
VERTEX
  5
d8e
  8
Layer_0
  10
254.20082
  20
187.54885
  0
VERTEX
  5
d8f
  8
Layer_0
  10
254.31131
  20
187.7697
  0
VERTEX
  5
d90
  8
Layer_0
  10
254.45458
  20
188.07235
  0
VERTEX
  5
d91
  8
Layer_0
  10
254.63466
  20
188.46513
  0
VERTEX
  5
d92
  8
Layer_0
  10
254.73978
  20
188.69794
  0
VERTEX
  5
d93
  8
Layer_0
  10
254.85561
  20
188.95642
  0
VERTEX
  5
d94
  8
Layer_0
  10
254.98268
  20
189.2416
  0
VERTEX
  5
d95
  8
Layer_0
  10
255.12148
  20
189.55454
  42
-0.0030026271
  0
VERTEX
  5
d96
  8
Layer_0
  10
256.25256
  20
192.05566
  42
0.0030319359
  0
VERTEX
  5
d97
  8
Layer_0
  10
256.82745
  20
193.33624
  42
-0.0038100503
  0
VERTEX
  5
d98
  8
Layer_0
  10
257.57043
  20
194.97697
  42
0.0022370815
  0
VERTEX
  5
d99
  8
Layer_0
  10
258.73309
  20
197.53813
  42
-0.0014670578
  0
VERTEX
  5
d9a
  8
Layer_0
  10
260.43829
  20
201.29982
  0
VERTEX
  5
d9b
  8
Layer_0
  10
260.55707
  20
201.55979
  0
VERTEX
  5
d9c
  8
Layer_0
  10
260.66337
  20
201.79289
  0
VERTEX
  5
d9d
  8
Layer_0
  10
260.75786
  20
202.00066
  0
VERTEX
  5
d9e
  8
Layer_0
  10
260.84121
  20
202.18464
  0
VERTEX
  5
d9f
  8
Layer_0
  10
260.97713
  20
202.48733
  0
VERTEX
  5
da0
  8
Layer_0
  10
261.07645
  20
202.71327
  0
VERTEX
  5
da1
  8
Layer_0
  10
261.14445
  20
202.87472
  0
VERTEX
  5
da2
  8
Layer_0
  10
261.18646
  20
202.98398
  0
VERTEX
  5
da3
  8
Layer_0
  10
261.20778
  20
203.05333
  0
VERTEX
  5
da4
  8
Layer_0
  10
261.2137
  20
203.09505
  0
VERTEX
  5
da5
  8
Layer_0
  10
261.17587
  20
203.18868
  0
VERTEX
  5
da6
  8
Layer_0
  10
261.06921
  20
203.34902
  0
VERTEX
  5
da7
  8
Layer_0
  10
260.90396
  20
203.56407
  0
VERTEX
  5
da8
  8
Layer_0
  10
260.69036
  20
203.8218
  0
VERTEX
  5
da9
  8
Layer_0
  10
260.15908
  20
204.4172
  0
VERTEX
  5
daa
  8
Layer_0
  10
259.55732
  20
205.03909
  0
VERTEX
  5
dab
  8
Layer_0
  10
258.8273
  20
205.71024
  0
VERTEX
  5
dac
  8
Layer_0
  10
258.0589
  20
206.34116
  0
VERTEX
  5
dad
  8
Layer_0
  10
257.71221
  20
206.60127
  0
VERTEX
  5
dae
  8
Layer_0
  10
257.41821
  20
206.80303
  0
VERTEX
  5
daf
  8
Layer_0
  10
257.29746
  20
206.87699
  0
VERTEX
  5
db0
  8
Layer_0
  10
257.19766
  20
206.93032
  0
VERTEX
  5
db1
  8
Layer_0
  10
257.12142
  20
206.96101
  0
VERTEX
  5
db2
  8
Layer_0
  10
257.07133
  20
206.96704
  0
VERTEX
  5
db3
  8
Layer_0
  10
256.99482
  20
206.90824
  0
VERTEX
  5
db4
  8
Layer_0
  10
256.89253
  20
206.76322
  0
VERTEX
  5
db5
  8
Layer_0
  10
256.77166
  20
206.54372
  0
VERTEX
  5
db6
  8
Layer_0
  10
256.63936
  20
206.26146
  42
-0.0056628216
  0
VERTEX
  5
db7
  8
Layer_0
  10
256.09979
  20
205.06152
  0
VERTEX
  5
db8
  8
Layer_0
  10
256.00104
  20
204.84759
  0
VERTEX
  5
db9
  8
Layer_0
  10
255.8751
  20
204.57228
  0
VERTEX
  5
dba
  8
Layer_0
  10
255.7266
  20
204.24591
  0
VERTEX
  5
dbb
  8
Layer_0
  10
255.56018
  20
203.8788
  0
VERTEX
  5
dbc
  8
Layer_0
  10
255.19208
  20
203.06359
  0
VERTEX
  5
dbd
  8
Layer_0
  10
254.80785
  20
202.20919
  0
VERTEX
  5
dbe
  8
Layer_0
  10
254.62126
  20
201.79308
  0
VERTEX
  5
dbf
  8
Layer_0
  10
254.44452
  20
201.39811
  0
VERTEX
  5
dc0
  8
Layer_0
  10
254.28227
  20
201.0346
  0
VERTEX
  5
dc1
  8
Layer_0
  10
254.13914
  20
200.71288
  0
VERTEX
  5
dc2
  8
Layer_0
  10
254.01976
  20
200.44324
  0
VERTEX
  5
dc3
  8
Layer_0
  10
253.92875
  20
200.23601
  0
VERTEX
  5
dc4
  8
Layer_0
  10
253.87075
  20
200.10151
  0
VERTEX
  5
dc5
  8
Layer_0
  10
253.85039
  20
200.05004
  0
VERTEX
  5
dc6
  8
Layer_0
  10
253.84078
  20
200.02236
  0
VERTEX
  5
dc7
  8
Layer_0
  10
253.81323
  20
199.95635
  0
VERTEX
  5
dc8
  8
Layer_0
  10
253.76968
  20
199.85631
  0
VERTEX
  5
dc9
  8
Layer_0
  10
253.71205
  20
199.72658
  0
VERTEX
  5
dca
  8
Layer_0
  10
253.56231
  20
199.39529
  0
VERTEX
  5
dcb
  8
Layer_0
  10
253.37945
  20
198.99704
  42
0.0038707727
  0
VERTEX
  5
dcc
  8
Layer_0
  10
252.41142
  20
196.85782
  42
-0.0059873277
  0
VERTEX
  5
dcd
  8
Layer_0
  10
251.56442
  20
194.99699
  0
VERTEX
  5
dce
  8
Layer_0
  10
251.21454
  20
194.25665
  0
VERTEX
  5
dcf
  8
Layer_0
  10
248.52782
  20
194.25665
  0
VERTEX
  5
dd0
  8
Layer_0
  10
245.84111
  20
194.25665
  0
VERTEX
  5
dd1
  8
Layer_0
  10
245.69427
  20
194.5968
  42
0.0077156652
  0
VERTEX
  5
dd2
  8
Layer_0
  10
245.30359
  20
195.4572
  42
-0.0042454214
  0
VERTEX
  5
dd3
  8
Layer_0
  10
243.76385
  20
198.85873
  42
0.00032375853
  0
VERTEX
  5
dd4
  8
Layer_0
  10
242.90041
  20
200.77959
  42
-0.00037149655
  0
VERTEX
  5
dd5
  8
Layer_0
  10
241.21233
  20
204.54128
  0
VERTEX
  5
dd6
  8
Layer_0
  10
241.01646
  20
204.97782
  0
VERTEX
  5
dd7
  8
Layer_0
  10
240.83102
  20
205.38982
  0
VERTEX
  5
dd8
  8
Layer_0
  10
240.66027
  20
205.76791
  0
VERTEX
  5
dd9
  8
Layer_0
  10
240.50846
  20
206.10273
  0
VERTEX
  5
dda
  8
Layer_0
  10
240.37984
  20
206.38494
  0
VERTEX
  5
ddb
  8
Layer_0
  10
240.27866
  20
206.60518
  0
VERTEX
  5
ddc
  8
Layer_0
  10
240.20918
  20
206.75408
  0
VERTEX
  5
ddd
  8
Layer_0
  10
240.17564
  20
206.82231
  0
VERTEX
  5
dde
  8
Layer_0
  10
240.12254
  20
206.89479
  0
VERTEX
  5
ddf
  8
Layer_0
  10
240.05883
  20
206.93717
  0
VERTEX
  5
de0
  8
Layer_0
  10
239.97896
  20
206.94741
  0
VERTEX
  5
de1
  8
Layer_0
  10
239.87742
  20
206.92351
  0
VERTEX
  5
de2
  8
Layer_0
  10
239.74869
  20
206.86346
  0
VERTEX
  5
de3
  8
Layer_0
  10
239.58724
  20
206.76523
  0
VERTEX
  5
de4
  8
Layer_0
  10
239.38755
  20
206.62682
  0
VERTEX
  5
de5
  8
Layer_0
  10
239.14409
  20
206.44621
  0
SEQEND
  0
POLYLINE
  5
de7
  8
Layer_0
  62
0
  66
1
  10
0
  20
0
  30
0
  0
VERTEX
  5
de7
  8
Layer_0
  10
263.5874
  20
197.37181
  0
VERTEX
  5
de8
  8
Layer_0
  10
263.49369
  20
197.2207
  0
VERTEX
  5
de9
  8
Layer_0
  10
263.45471
  20
197.12342
  0
VERTEX
  5
dea
  8
Layer_0
  10
263.44293
  20
197.08685
  0
VERTEX
  5
deb
  8
Layer_0
  10
263.40911
  20
197.00247
  0
VERTEX
  5
dec
  8
Layer_0
  10
263.3555
  20
196.87534
  0
VERTEX
  5
ded
  8
Layer_0
  10
263.28438
  20
196.71052
  0
VERTEX
  5
dee
  8
Layer_0
  10
263.09866
  20
196.28799
  0
VERTEX
  5
def
  8
Layer_0
  10
262.87007
  20
195.77533
  0
VERTEX
  5
df0
  8
Layer_0
  10
262.61675
  20
195.21298
  0
VERTEX
  5
df1
  8
Layer_0
  10
262.35681
  20
194.64137
  0
VERTEX
  5
df2
  8
Layer_0
  10
262.10839
  20
194.10094
  0
VERTEX
  5
df3
  8
Layer_0
  10
261.88962
  20
193.63214
  0
VERTEX
  5
df4
  8
Layer_0
  10
261.78256
  20
193.40274
  0
VERTEX
  5
df5
  8
Layer_0
  10
261.69488
  20
193.21022
  0
VERTEX
  5
df6
  8
Layer_0
  10
261.63564
  20
193.07477
  0
VERTEX
  5
df7
  8
Layer_0
  10
261.61388
  20
193.0166
  0
VERTEX
  5
df8
  8
Layer_0
  10
261.60722
  20
192.99597
  0
VERTEX
  5
df9
  8
Layer_0
  10
261.58811
  20
192.94891
  0
VERTEX
  5
dfa
  8
Layer_0
  10
261.55791
  20
192.87844
  0
VERTEX
  5
dfb
  8
Layer_0
  10
261.51796
  20
192.78757
  0
VERTEX
  5
dfc
  8
Layer_0
  10
261.41412
  20
192.55671
  0
VERTEX
  5
dfd
  8
Layer_0
  10
261.28732
  20
192.2805
  42
0.0025889557
  0
VERTEX
  5
dfe
  8
Layer_0
  10
260.85254
  20
191.33534
  42
-0.00037447827
  0
VERTEX
  5
dff
  8
Layer_0
  10
260.29871
  20
190.11044
  0
VERTEX
  5
e00
  8
Layer_0
  10
260.12568
  20
189.72588
  0
VERTEX
  5
e01
  8
Layer_0
  10
259.98399
  20
189.40677
  0
VERTEX
  5
e02
  8
Layer_0
  10
259.92946
  20
189.28214
  0
VERTEX
  5
e03
  8
Layer_0
  10
259.88825
  20
189.18634
  0
VERTEX
  5
e04
  8
Layer_0
  10
259.86219
  20
189.12353
  0
VERTEX
  5
e05
  8
Layer_0
  10
259.85309
  20
189.09784
  0
VERTEX
  5
e06
  8
Layer_0
  10
259.82837
  20
189.03432
  0
VERTEX
  5
e07
  8
Layer_0
  10
259.76105
  20
188.88192
  0
VERTEX
  5
e08
  8
Layer_0
  10
259.66142
  20
188.6635
  0
VERTEX
  5
e09
  8
Layer_0
  10
259.53975
  20
188.40187
  42
0.0046564238
  0
VERTEX
  5
e0a
  8
Layer_0
  10
258.70831
  20
186.5732
  42
-0.0032259658
  0
VERTEX
  5
e0b
  8
Layer_0
  10
257.96838
  20
184.93246
  0
VERTEX
  5
e0c
  8
Layer_0
  10
257.3401
  20
183.56119
  0
VERTEX
  5
e0d
  8
Layer_0
  10
256.67937
  20
182.10249
  0
VERTEX
  5
e0e
  8
Layer_0
  10
256.52694
  20
181.76372
  0
VERTEX
  5
e0f
  8
Layer_0
  10
256.38437
  20
181.44585
  0
VERTEX
  5
e10
  8
Layer_0
  10
256.25403
  20
181.15418
  0
VERTEX
  5
e11
  8
Layer_0
  10
256.1383
  20
180.89397
  0
VERTEX
  5
e12
  8
Layer_0
  10
256.03955
  20
180.67049
  0
VERTEX
  5
e13
  8
Layer_0
  10
255.96017
  20
180.48902
  0
VERTEX
  5
e14
  8
Layer_0
  10
255.90253
  20
180.35485
  0
VERTEX
  5
e15
  8
Layer_0
  10
255.869
  20
180.27323
  0
VERTEX
  5
e16
  8
Layer_0
  10
255.82281
  20
180.13793
  0
VERTEX
  5
e17
  8
Layer_0
  10
255.79324
  20
180.01886
  0
VERTEX
  5
e18
  8
Layer_0
  10
255.78277
  20
179.92891
  0
VERTEX
  5
e19
  8
Layer_0
  10
255.79386
  20
179.88093
  0
VERTEX
  5
e1a
  8
Layer_0
  10
255.83125
  20
179.87725
  0
VERTEX
  5
e1b
  8
Layer_0
  10
255.90472
  20
179.90069
  0
VERTEX
  5
e1c
  8
Layer_0
  10
256.01043
  20
179.94878
  0
VERTEX
  5
e1d
  8
Layer_0
  10
256.14453
  20
180.01901
  0
VERTEX
  5
e1e
  8
Layer_0
  10
256.4826
  20
180.21597
  0
VERTEX
  5
e1f
  8
Layer_0
  10
256.88824
  20
180.47166
  0
VERTEX
  5
e20
  8
Layer_0
  10
257.77941
  20
181.07959
  0
VERTEX
  5
e21
  8
Layer_0
  10
258.57251
  20
181.68352
  42
0.14125308
  0
VERTEX
  5
e22
  8
Layer_0
  10
263.48071
  20
188.89424
  0
VERTEX
  5
e23
  8
Layer_0
  10
263.67854
  20
189.52345
  0
VERTEX
  5
e24
  8
Layer_0
  10
263.83943
  20
190.10243
  0
VERTEX
  5
e25
  8
Layer_0
  10
263.96669
  20
190.65288
  0
VERTEX
  5
e26
  8
Layer_0
  10
264.06359
  20
191.1965
  0
VERTEX
  5
e27
  8
Layer_0
  10
264.13342
  20
191.75497
  0
VERTEX
  5
e28
  8
Layer_0
  10
264.17946
  20
192.34998
  0
VERTEX
  5
e29
  8
Layer_0
  10
264.20499
  20
193.00324
  0
VERTEX
  5
e2a
  8
Layer_0
  10
264.21329
  20
193.73642
  0
VERTEX
  5
e2b
  8
Layer_0
  10
264.20623
  20
194.40175
  0
VERTEX
  5
e2c
  8
Layer_0
  10
264.18455
  20
195.0325
  0
VERTEX
  5
e2d
  8
Layer_0
  10
264.14951
  20
195.61681
  0
VERTEX
  5
e2e
  8
Layer_0
  10
264.10239
  20
196.14283
  0
VERTEX
  5
e2f
  8
Layer_0
  10
264.04445
  20
196.5987
  0
VERTEX
  5
e30
  8
Layer_0
  10
263.97696
  20
196.97255
  0
VERTEX
  5
e31
  8
Layer_0
  10
263.94003
  20
197.12502
  0
VERTEX
  5
e32
  8
Layer_0
  10
263.90119
  20
197.25253
  0
VERTEX
  5
e33
  8
Layer_0
  10
263.8606
  20
197.35361
  0
VERTEX
  5
e34
  8
Layer_0
  10
263.81841
  20
197.42678
  0
VERTEX
  5
e35
  8
Layer_0
  10
263.76143
  20
197.49446
  0
VERTEX
  5
e36
  8
Layer_0
  10
263.71469
  20
197.51042
  0
VERTEX
  5
e37
  8
Layer_0
  10
263.66206
  20
197.47081
  0
VERTEX
  5
e38
  8
Layer_0
  10
263.5874
  20
197.37181
  0
SEQEND
  0
POLYLINE
  5
e3a
  8
Layer_0
  62
0
  66
1
  10
0
  20
0
  30
0
  0
VERTEX
  5
e3a
  8
Layer_0
  10
248.43317
  20
187.98908
  0
VERTEX
  5
e3b
  8
Layer_0
  10
248.3844
  20
187.91233
  0
VERTEX
  5
e3c
  8
Layer_0
  10
248.31347
  20
187.77831
  0
VERTEX
  5
e3d
  8
Layer_0
  10
248.26247
  20
187.67397
  0
VERTEX
  5
e3e
  8
Layer_0
  10
248.19725
  20
187.5363
  0
VERTEX
  5
e3f
  8
Layer_0
  10
248.11494
  20
187.35896
  0
VERTEX
  5
e40
  8
Layer_0
  10
248.01263
  20
187.1356
  0
VERTEX
  5
e41
  8
Layer_0
  10
247.88745
  20
186.85989
  0
VERTEX
  5
e42
  8
Layer_0
  10
247.7365
  20
186.52549
  0
VERTEX
  5
e43
  8
Layer_0
  10
247.55689
  20
186.12606
  0
VERTEX
  5
e44
  8
Layer_0
  10
247.34573
  20
185.65526
  0
VERTEX
  5
e45
  8
Layer_0
  10
247.10013
  20
185.10675
  0
VERTEX
  5
e46
  8
Layer_0
  10
246.81721
  20
184.47419
  0
VERTEX
  5
e47
  8
Layer_0
  10
246.66085
  20
184.12441
  0
VERTEX
  5
e48
  8
Layer_0
  10
246.49407
  20
183.75124
  0
VERTEX
  5
e49
  8
Layer_0
  10
246.31651
  20
183.35389
  0
VERTEX
  5
e4a
  8
Layer_0
  10
246.12782
  20
182.93156
  42
-0.0050051022
  0
VERTEX
  5
e4b
  8
Layer_0
  10
245.40295
  20
181.33084
  0
VERTEX
  5
e4c
  8
Layer_0
  10
245.13557
  20
180.75694
  0
VERTEX
  5
e4d
  8
Layer_0
  10
244.90453
  20
180.24796
  0
VERTEX
  5
e4e
  8
Layer_0
  10
244.71075
  20
179.80615
  0
VERTEX
  5
e4f
  8
Layer_0
  10
244.55512
  20
179.43372
  0
VERTEX
  5
e50
  8
Layer_0
  10
244.43854
  20
179.1329
  0
VERTEX
  5
e51
  8
Layer_0
  10
244.36192
  20
178.90593
  0
VERTEX
  5
e52
  8
Layer_0
  10
244.32615
  20
178.75502
  0
VERTEX
  5
e53
  8
Layer_0
  10
244.33213
  20
178.6824
  0
VERTEX
  5
e54
  8
Layer_0
  10
244.45194
  20
178.60392
  0
VERTEX
  5
e55
  8
Layer_0
  10
244.62882
  20
178.54917
  42
-0.0090279158
  0
VERTEX
  5
e56
  8
Layer_0
  10
245.44661
  20
178.3844
  0
VERTEX
  5
e57
  8
Layer_0
  10
246.2348
  20
178.24263
  0
VERTEX
  5
e58
  8
Layer_0
  10
247.04602
  20
178.14537
  0
VERTEX
  5
e59
  8
Layer_0
  10
247.87735
  20
178.09254
  0
VERTEX
  5
e5a
  8
Layer_0
  10
248.72583
  20
178.08411
  0
VERTEX
  5
e5b
  8
Layer_0
  10
249.58855
  20
178.12003
  0
VERTEX
  5
e5c
  8
Layer_0
  10
250.46256
  20
178.20025
  0
VERTEX
  5
e5d
  8
Layer_0
  10
251.34494
  20
178.32473
  0
VERTEX
  5
e5e
  8
Layer_0
  10
252.23274
  20
178.49341
  0
VERTEX
  5
e5f
  8
Layer_0
  10
252.39713
  20
178.5351
  0
VERTEX
  5
e60
  8
Layer_0
  10
252.54412
  20
178.58413
  0
VERTEX
  5
e61
  8
Layer_0
  10
252.65765
  20
178.6344
  0
VERTEX
  5
e62
  8
Layer_0
  10
252.7217
  20
178.67978
  0
VERTEX
  5
e63
  8
Layer_0
  10
252.72751
  20
178.71147
  0
VERTEX
  5
e64
  8
Layer_0
  10
252.71809
  20
178.77371
  0
VERTEX
  5
e65
  8
Layer_0
  10
252.69361
  20
178.86608
  0
VERTEX
  5
e66
  8
Layer_0
  10
252.65425
  20
178.98814
  0
VERTEX
  5
e67
  8
Layer_0
  10
252.60019
  20
179.13945
  0
VERTEX
  5
e68
  8
Layer_0
  10
252.53161
  20
179.3196
  0
VERTEX
  5
e69
  8
Layer_0
  10
252.44869
  20
179.52814
  0
VERTEX
  5
e6a
  8
Layer_0
  10
252.35161
  20
179.76464
  0
VERTEX
  5
e6b
  8
Layer_0
  10
252.24054
  20
180.02867
  0
VERTEX
  5
e6c
  8
Layer_0
  10
252.11568
  20
180.3198
  0
VERTEX
  5
e6d
  8
Layer_0
  10
251.97719
  20
180.63759
  0
VERTEX
  5
e6e
  8
Layer_0
  10
251.82526
  20
180.98162
  0
VERTEX
  5
e6f
  8
Layer_0
  10
251.66007
  20
181.35145
  0
VERTEX
  5
e70
  8
Layer_0
  10
251.4818
  20
181.74665
  0
VERTEX
  5
e71
  8
Layer_0
  10
251.29062
  20
182.16678
  0
VERTEX
  5
e72
  8
Layer_0
  10
251.08673
  20
182.61142
  0
VERTEX
  5
e73
  8
Layer_0
  10
250.95584
  20
182.89697
  0
VERTEX
  5
e74
  8
Layer_0
  10
250.80685
  20
183.22398
  0
VERTEX
  5
e75
  8
Layer_0
  10
250.64328
  20
183.58456
  0
VERTEX
  5
e76
  8
Layer_0
  10
250.46868
  20
183.9708
  0
VERTEX
  5
e77
  8
Layer_0
  10
250.10049
  20
184.78864
  0
VERTEX
  5
e78
  8
Layer_0
  10
249.73055
  20
185.61429
  0
VERTEX
  5
e79
  8
Layer_0
  10
249.55374
  20
186.01028
  0
VERTEX
  5
e7a
  8
Layer_0
  10
249.3871
  20
186.38451
  0
VERTEX
  5
e7b
  8
Layer_0
  10
249.23415
  20
186.72908
  0
VERTEX
  5
e7c
  8
Layer_0
  10
249.09843
  20
187.03608
  0
VERTEX
  5
e7d
  8
Layer_0
  10
248.98347
  20
187.29761
  0
VERTEX
  5
e7e
  8
Layer_0
  10
248.89279
  20
187.50577
  0
VERTEX
  5
e7f
  8
Layer_0
  10
248.82994
  20
187.65264
  0
VERTEX
  5
e80
  8
Layer_0
  10
248.79845
  20
187.73034
  0
VERTEX
  5
e81
  8
Layer_0
  10
248.71003
  20
187.91943
  0
VERTEX
  5
e82
  8
Layer_0
  10
248.6142
  20
188.02947
  0
VERTEX
  5
e83
  8
Layer_0
  10
248.51918
  20
188.05463
  0
VERTEX
  5
e84
  8
Layer_0
  10
248.43317
  20
187.98908
  0
SEQEND
  0
POLYLINE
  5
e86
  8
Layer_0
  62
0
  66
1
  10
0
  20
0
  30
0
  0
VERTEX
  5
e86
  8
Layer_0
  10
233.25705
  20
197.56389
  0
VERTEX
  5
e87
  8
Layer_0
  10
233.24469
  20
197.53116
  0
VERTEX
  5
e88
  8
Layer_0
  10
233.22599
  20
197.46438
  0
VERTEX
  5
e89
  8
Layer_0
  10
233.20187
  20
197.36761
  0
VERTEX
  5
e8a
  8
Layer_0
  10
233.17326
  20
197.24491
  0
VERTEX
  5
e8b
  8
Layer_0
  10
233.10621
  20
196.9379
  0
VERTEX
  5
e8c
  8
Layer_0
  10
233.03224
  20
196.57577
  0
VERTEX
  5
e8d
  8
Layer_0
  10
232.93769
  20
196.0338
  0
VERTEX
  5
e8e
  8
Layer_0
  10
232.88229
  20
195.49415
  0
VERTEX
  5
e8f
  8
Layer_0
  10
232.86613
  20
195.17791
  0
VERTEX
  5
e90
  8
Layer_0
  10
232.85597
  20
194.80549
  0
VERTEX
  5
e91
  8
Layer_0
  10
232.85056
  20
194.35798
  0
VERTEX
  5
e92
  8
Layer_0
  10
232.84864
  20
193.81646
  0
VERTEX
  5
e93
  8
Layer_0
  10
232.85329
  20
193.1527
  0
VERTEX
  5
e94
  8
Layer_0
  10
232.86983
  20
192.56216
  0
VERTEX
  5
e95
  8
Layer_0
  10
232.90002
  20
192.02917
  0
VERTEX
  5
e96
  8
Layer_0
  10
232.94566
  20
191.53805
  0
VERTEX
  5
e97
  8
Layer_0
  10
233.09039
  20
190.61874
  0
VERTEX
  5
e98
  8
Layer_0
  10
233.31823
  20
189.67883
  42
0.081750563
  0
VERTEX
  5
e99
  8
Layer_0
  10
235.46457
  20
185.01875
  42
0.068962628
  0
VERTEX
  5
e9a
  8
Layer_0
  10
238.47133
  20
181.69101
  0
VERTEX
  5
e9b
  8
Layer_0
  10
238.7064
  20
181.50333
  0
VERTEX
  5
e9c
  8
Layer_0
  10
239.00211
  20
181.28263
  0
VERTEX
  5
e9d
  8
Layer_0
  10
239.33799
  20
181.04277
  0
VERTEX
  5
e9e
  8
Layer_0
  10
239.69362
  20
180.79761
  0
VERTEX
  5
e9f
  8
Layer_0
  10
240.04854
  20
180.56102
  0
VERTEX
  5
ea0
  8
Layer_0
  10
240.3823
  20
180.34686
  0
VERTEX
  5
ea1
  8
Layer_0
  10
240.67446
  20
180.16899
  0
VERTEX
  5
ea2
  8
Layer_0
  10
240.90457
  20
180.04128
  0
VERTEX
  5
ea3
  8
Layer_0
  10
241.09341
  20
179.94263
  0
VERTEX
  5
ea4
  8
Layer_0
  10
241.22043
  20
179.89628
  0
VERTEX
  5
ea5
  8
Layer_0
  10
241.25607
  20
179.90708
  0
VERTEX
  5
ea6
  8
Layer_0
  10
241.27063
  20
179.94821
  0
VERTEX
  5
ea7
  8
Layer_0
  10
241.26224
  20
180.0254
  0
VERTEX
  5
ea8
  8
Layer_0
  10
241.22902
  20
180.14441
  0
VERTEX
  5
ea9
  8
Layer_0
  10
241.16909
  20
180.31099
  0
VERTEX
  5
eaa
  8
Layer_0
  10
241.08058
  20
180.53088
  0
VERTEX
  5
eab
  8
Layer_0
  10
240.96162
  20
180.80983
  0
VERTEX
  5
eac
  8
Layer_0
  10
240.81033
  20
181.1536
  0
VERTEX
  5
ead
  8
Layer_0
  10
240.62483
  20
181.56792
  0
VERTEX
  5
eae
  8
Layer_0
  10
240.40325
  20
182.05855
  0
VERTEX
  5
eaf
  8
Layer_0
  10
240.14372
  20
182.63124
  0
VERTEX
  5
eb0
  8
Layer_0
  10
239.84436
  20
183.29173
  42
-0.0045457887
  0
VERTEX
  5
eb1
  8
Layer_0
  10
239.20491
  20
184.73238
  42
0.0095339375
  0
VERTEX
  5
eb2
  8
Layer_0
  10
238.63475
  20
185.98506
  0
VERTEX
  5
eb3
  8
Layer_0
  10
238.51386
  20
186.24154
  0
VERTEX
  5
eb4
  8
Layer_0
  10
238.41487
  20
186.45757
  0
VERTEX
  5
eb5
  8
Layer_0
  10
238.34798
  20
186.61044
  0
VERTEX
  5
eb6
  8
Layer_0
  10
238.32341
  20
186.67743
  0
VERTEX
  5
eb7
  8
Layer_0
  10
238.29886
  20
186.74567
  0
VERTEX
  5
eb8
  8
Layer_0
  10
238.23201
  20
186.90194
  0
VERTEX
  5
eb9
  8
Layer_0
  10
238.13307
  20
187.123
  0
VERTEX
  5
eba
  8
Layer_0
  10
238.01225
  20
187.38562
  42
-0.0049495466
  0
VERTEX
  5
ebb
  8
Layer_0
  10
236.38927
  20
190.97519
  42
0.0055223329
  0
VERTEX
  5
ebc
  8
Layer_0
  10
235.72449
  20
192.45584
  42
-0.0051456364
  0
VERTEX
  5
ebd
  8
Layer_0
  10
233.94437
  20
196.41763
  0
VERTEX
  5
ebe
  8
Layer_0
  10
233.79004
  20
196.76087
  0
VERTEX
  5
ebf
  8
Layer_0
  10
233.66
  20
197.03907
  0
VERTEX
  5
ec0
  8
Layer_0
  10
233.55188
  20
197.25619
  0
VERTEX
  5
ec1
  8
Layer_0
  10
233.46331
  20
197.41617
  0
VERTEX
  5
ec2
  8
Layer_0
  10
233.39191
  20
197.52298
  0
VERTEX
  5
ec3
  8
Layer_0
  10
233.33532
  20
197.58056
  0
VERTEX
  5
ec4
  8
Layer_0
  10
233.29115
  20
197.59288
  0
VERTEX
  5
ec5
  8
Layer_0
  10
233.25705
  20
197.56389
  0
SEQEND
  0
POLYLINE
  5
ec7
  8
Layer_0
  62
0
  66
1
  10
0
  20
0
  30
0
  0
VERTEX
  5
ec7
  8
Layer_0
  10
247.04733
  20
209.49242
  0
VERTEX
  5
ec8
  8
Layer_0
  10
246.31733
  20
209.387
  0
VERTEX
  5
ec9
  8
Layer_0
  10
245.53696
  20
209.25724
  0
VERTEX
  5
eca
  8
Layer_0
  10
245.1811
  20
209.1926
  0
VERTEX
  5
ecb
  8
Layer_0
  10
244.87649
  20
209.13314
  0
VERTEX
  5
ecc
  8
Layer_0
  10
244.64443
  20
209.08259
  0
VERTEX
  5
ecd
  8
Layer_0
  10
244.50619
  20
209.0447
  0
VERTEX
  5
ece
  8
Layer_0
  10
244.40164
  20
208.9972
  0
VERTEX
  5
ecf
  8
Layer_0
  10
244.31932
  20
208.94004
  0
VERTEX
  5
ed0
  8
Layer_0
  10
244.26541
  20
208.87858
  0
VERTEX
  5
ed1
  8
Layer_0
  10
244.24607
  20
208.8182
  0
VERTEX
  5
ed2
  8
Layer_0
  10
244.25429
  20
208.75894
  0
VERTEX
  5
ed3
  8
Layer_0
  10
244.28006
  20
208.66812
  0
VERTEX
  5
ed4
  8
Layer_0
  10
244.32509
  20
208.54159
  0
VERTEX
  5
ed5
  8
Layer_0
  10
244.39109
  20
208.3752
  0
VERTEX
  5
ed6
  8
Layer_0
  10
244.47976
  20
208.16481
  0
VERTEX
  5
ed7
  8
Layer_0
  10
244.59279
  20
207.90627
  0
VERTEX
  5
ed8
  8
Layer_0
  10
244.73189
  20
207.59544
  0
VERTEX
  5
ed9
  8
Layer_0
  10
244.89876
  20
207.22817
  42
-0.0013717509
  0
VERTEX
  5
eda
  8
Layer_0
  10
247.4501
  20
201.57996
  0
VERTEX
  5
edb
  8
Layer_0
  10
247.60912
  20
201.22713
  0
VERTEX
  5
edc
  8
Layer_0
  10
247.75081
  20
200.91376
  0
VERTEX
  5
edd
  8
Layer_0
  10
247.87631
  20
200.63752
  0
VERTEX
  5
ede
  8
Layer_0
  10
247.98681
  20
200.39611
  0
VERTEX
  5
edf
  8
Layer_0
  10
248.08348
  20
200.18725
  0
VERTEX
  5
ee0
  8
Layer_0
  10
248.16747
  20
200.00862
  0
VERTEX
  5
ee1
  8
Layer_0
  10
248.23996
  20
199.85792
  0
VERTEX
  5
ee2
  8
Layer_0
  10
248.30212
  20
199.73285
  0
VERTEX
  5
ee3
  8
Layer_0
  10
248.4001
  20
199.55041
  0
VERTEX
  5
ee4
  8
Layer_0
  10
248.47077
  20
199.44289
  0
VERTEX
  5
ee5
  8
Layer_0
  10
248.52346
  20
199.39187
  0
VERTEX
  5
ee6
  8
Layer_0
  10
248.56754
  20
199.37896
  0
VERTEX
  5
ee7
  8
Layer_0
  10
248.58739
  20
199.39652
  0
VERTEX
  5
ee8
  8
Layer_0
  10
248.62099
  20
199.44685
  0
VERTEX
  5
ee9
  8
Layer_0
  10
248.66653
  20
199.52642
  0
VERTEX
  5
eea
  8
Layer_0
  10
248.7222
  20
199.6317
  0
VERTEX
  5
eeb
  8
Layer_0
  10
248.85666
  20
199.90527
  0
VERTEX
  5
eec
  8
Layer_0
  10
249.00985
  20
200.23935
  42
-0.0035410094
  0
VERTEX
  5
eed
  8
Layer_0
  10
249.65073
  20
201.65999
  42
0.0057412904
  0
VERTEX
  5
eee
  8
Layer_0
  10
250.16974
  20
202.82051
  42
-0.0072932719
  0
VERTEX
  5
eef
  8
Layer_0
  10
250.77968
  20
204.16592
  0
VERTEX
  5
ef0
  8
Layer_0
  10
250.91538
  20
204.45756
  0
VERTEX
  5
ef1
  8
Layer_0
  10
251.02651
  20
204.7008
  0
VERTEX
  5
ef2
  8
Layer_0
  10
251.06927
  20
204.79633
  0
VERTEX
  5
ef3
  8
Layer_0
  10
251.10159
  20
204.87023
  0
VERTEX
  5
ef4
  8
Layer_0
  10
251.12203
  20
204.91932
  0
VERTEX
  5
ef5
  8
Layer_0
  10
251.12917
  20
204.94043
  0
VERTEX
  5
ef6
  8
Layer_0
  10
251.15209
  20
205.00123
  0
VERTEX
  5
ef7
  8
Layer_0
  10
251.21449
  20
205.14509
  0
VERTEX
  5
ef8
  8
Layer_0
  10
251.30685
  20
205.35048
  0
VERTEX
  5
ef9
  8
Layer_0
  10
251.41963
  20
205.59591
  0
VERTEX
  5
efa
  8
Layer_0
  10
251.69886
  20
206.20272
  0
VERTEX
  5
efb
  8
Layer_0
  10
251.95938
  20
206.77829
  0
VERTEX
  5
efc
  8
Layer_0
  10
252.19549
  20
207.30933
  0
VERTEX
  5
efd
  8
Layer_0
  10
252.40146
  20
207.78257
  0
VERTEX
  5
efe
  8
Layer_0
  10
252.5716
  20
208.18471
  0
VERTEX
  5
eff
  8
Layer_0
  10
252.7002
  20
208.50247
  0
VERTEX
  5
f00
  8
Layer_0
  10
252.74713
  20
208.62556
  0
VERTEX
  5
f01
  8
Layer_0
  10
252.78154
  20
208.72257
  0
VERTEX
  5
f02
  8
Layer_0
  10
252.80271
  20
208.79185
  0
VERTEX
  5
f03
  8
Layer_0
  10
252.80992
  20
208.83172
  0
VERTEX
  5
f04
  8
Layer_0
  10
252.79582
  20
208.89217
  0
VERTEX
  5
f05
  8
Layer_0
  10
252.748
  20
208.94741
  0
VERTEX
  5
f06
  8
Layer_0
  10
252.65818
  20
209.00009
  0
VERTEX
  5
f07
  8
Layer_0
  10
252.51808
  20
209.05285
  0
VERTEX
  5
f08
  8
Layer_0
  10
252.31941
  20
209.10835
  0
VERTEX
  5
f09
  8
Layer_0
  10
252.0539
  20
209.16922
  0
VERTEX
  5
f0a
  8
Layer_0
  10
251.71327
  20
209.23812
  0
VERTEX
  5
f0b
  8
Layer_0
  10
251.28924
  20
209.3177
  0
VERTEX
  5
f0c
  8
Layer_0
  10
251.11409
  20
209.34535
  0
VERTEX
  5
f0d
  8
Layer_0
  10
250.89981
  20
209.3719
  0
VERTEX
  5
f0e
  8
Layer_0
  10
250.65222
  20
209.39709
  0
VERTEX
  5
f0f
  8
Layer_0
  10
250.37713
  20
209.42068
  0
VERTEX
  5
f10
  8
Layer_0
  10
249.76771
  20
209.46214
  0
VERTEX
  5
f11
  8
Layer_0
  10
249.11805
  20
209.49435
  0
VERTEX
  5
f12
  8
Layer_0
  10
248.47467
  20
209.5154
  0
VERTEX
  5
f13
  8
Layer_0
  10
247.88408
  20
209.52337
  0
VERTEX
  5
f14
  8
Layer_0
  10
247.62312
  20
209.52186
  0
VERTEX
  5
f15
  8
Layer_0
  10
247.3928
  20
209.51635
  0
VERTEX
  5
f16
  8
Layer_0
  10
247.19893
  20
209.50662
  0
VERTEX
  5
f17
  8
Layer_0
  10
247.04733
  20
209.49242
  0
SEQEND
  0
POLYLINE
  5
f19
  8
Layer_0
  62
0
  66
1
  10
0
  20
0
  30
0
  0
VERTEX
  5
f19
  8
Layer_0
  10
251.36928
  20
213.90998
  0
VERTEX
  5
f1a
  8
Layer_0
  10
252.41353
  20
213.72786
  0
VERTEX
  5
f1b
  8
Layer_0
  10
253.45879
  20
213.48882
  0
VERTEX
  5
f1c
  8
Layer_0
  10
254.49589
  20
213.19618
  0
VERTEX
  5
f1d
  8
Layer_0
  10
255.51569
  20
212.85329
  0
VERTEX
  5
f1e
  8
Layer_0
  10
256.50902
  20
212.46346
  0
VERTEX
  5
f1f
  8
Layer_0
  10
257.46674
  20
212.03004
  0
VERTEX
  5
f20
  8
Layer_0
  10
258.3797
  20
211.55635
  0
VERTEX
  5
f21
  8
Layer_0
  10
259.23874
  20
211.04573
  0
VERTEX
  5
f22
  8
Layer_0
  10
260.09838
  20
210.46959
  0
VERTEX
  5
f23
  8
Layer_0
  10
260.92694
  20
209.85688
  0
VERTEX
  5
f24
  8
Layer_0
  10
261.71967
  20
209.21205
  0
VERTEX
  5
f25
  8
Layer_0
  10
262.47184
  20
208.53955
  0
VERTEX
  5
f26
  8
Layer_0
  10
263.17869
  20
207.84383
  0
VERTEX
  5
f27
  8
Layer_0
  10
263.83549
  20
207.12932
  0
VERTEX
  5
f28
  8
Layer_0
  10
264.43748
  20
206.40049
  0
VERTEX
  5
f29
  8
Layer_0
  10
264.97993
  20
205.66178
  0
VERTEX
  5
f2a
  8
Layer_0
  10
265.09039
  20
205.50324
  0
VERTEX
  5
f2b
  8
Layer_0
  10
265.18742
  20
205.3674
  0
VERTEX
  5
f2c
  8
Layer_0
  10
265.26053
  20
205.2687
  0
VERTEX
  5
f2d
  8
Layer_0
  10
265.29926
  20
205.22159
  0
VERTEX
  5
f2e
  8
Layer_0
  10
265.33595
  20
205.17905
  0
VERTEX
  5
f2f
  8
Layer_0
  10
265.3895
  20
205.10424
  0
VERTEX
  5
f30
  8
Layer_0
  10
265.45791
  20
205.00063
  0
VERTEX
  5
f31
  8
Layer_0
  10
265.53922
  20
204.87166
  0
VERTEX
  5
f32
  8
Layer_0
  10
265.73258
  20
204.55151
  0
VERTEX
  5
f33
  8
Layer_0
  10
265.95372
  20
204.17143
  0
VERTEX
  5
f34
  8
Layer_0
  10
266.18678
  20
203.75911
  0
VERTEX
  5
f35
  8
Layer_0
  10
266.4159
  20
203.34221
  0
VERTEX
  5
f36
  8
Layer_0
  10
266.62523
  20
202.94839
  0
VERTEX
  5
f37
  8
Layer_0
  10
266.79891
  20
202.6053
  0
VERTEX
  5
f38
  8
Layer_0
  10
267.3279
  20
201.41343
  0
VERTEX
  5
f39
  8
Layer_0
  10
267.79929
  20
200.14574
  0
VERTEX
  5
f3a
  8
Layer_0
  10
268.0018
  20
199.51763
  0
VERTEX
  5
f3b
  8
Layer_0
  10
268.176
  20
198.91158
  0
VERTEX
  5
f3c
  8
Layer_0
  10
268.31727
  20
198.34125
  0
VERTEX
  5
f3d
  8
Layer_0
  10
268.42096
  20
197.82031
  0
VERTEX
  5
f3e
  8
Layer_0
  10
268.47767
  20
197.48453
  0
VERTEX
  5
f3f
  8
Layer_0
  10
268.52758
  20
197.18448
  0
VERTEX
  5
f40
  8
Layer_0
  10
268.57114
  20
196.91502
  0
VERTEX
  5
f41
  8
Layer_0
  10
268.60878
  20
196.67101
  0
VERTEX
  5
f42
  8
Layer_0
  10
268.66806
  20
196.23877
  0
VERTEX
  5
f43
  8
Layer_0
  10
268.7089
  20
195.84663
  0
VERTEX
  5
f44
  8
Layer_0
  10
268.73481
  20
195.45346
  0
VERTEX
  5
f45
  8
Layer_0
  10
268.74929
  20
195.01813
  0
VERTEX
  5
f46
  8
Layer_0
  10
268.75333
  20
194.77181
  0
VERTEX
  5
f47
  8
Layer_0
  10
268.75582
  20
194.49951
  0
VERTEX
  5
f48
  8
Layer_0
  10
268.7572
  20
194.19612
  0
VERTEX
  5
f49
  8
Layer_0
  10
268.7579
  20
193.85648
  0
VERTEX
  5
f4a
  8
Layer_0
  10
268.75396
  20
193.15107
  0
VERTEX
  5
f4b
  8
Layer_0
  10
268.7386
  20
192.52129
  0
VERTEX
  5
f4c
  8
Layer_0
  10
268.70978
  20
191.94649
  0
VERTEX
  5
f4d
  8
Layer_0
  10
268.66544
  20
191.40602
  0
VERTEX
  5
f4e
  8
Layer_0
  10
268.60352
  20
190.87923
  0
VERTEX
  5
f4f
  8
Layer_0
  10
268.52197
  20
190.34546
  0
VERTEX
  5
f50
  8
Layer_0
  10
268.41873
  20
189.78406
  0
VERTEX
  5
f51
  8
Layer_0
  10
268.29174
  20
189.17437
  0
VERTEX
  5
f52
  8
Layer_0
  10
268.25936
  20
189.0375
  0
VERTEX
  5
f53
  8
Layer_0
  10
268.21583
  20
188.87161
  0
VERTEX
  5
f54
  8
Layer_0
  10
268.16254
  20
188.68096
  0
VERTEX
  5
f55
  8
Layer_0
  10
268.10089
  20
188.4698
  0
VERTEX
  5
f56
  8
Layer_0
  10
267.95806
  20
188.00298
  0
VERTEX
  5
f57
  8
Layer_0
  10
267.79849
  20
187.5052
  0
VERTEX
  5
f58
  8
Layer_0
  10
267.6333
  20
187.01049
  0
VERTEX
  5
f59
  8
Layer_0
  10
267.47364
  20
186.5529
  0
VERTEX
  5
f5a
  8
Layer_0
  10
267.39937
  20
186.34866
  0
VERTEX
  5
f5b
  8
Layer_0
  10
267.33065
  20
186.16646
  0
VERTEX
  5
f5c
  8
Layer_0
  10
267.26889
  20
186.01057
  0
VERTEX
  5
f5d
  8
Layer_0
  10
267.21547
  20
185.88523
  0
VERTEX
  5
f5e
  8
Layer_0
  10
266.54778
  20
184.52309
  0
VERTEX
  5
f5f
  8
Layer_0
  10
265.79233
  20
183.17848
  0
VERTEX
  5
f60
  8
Layer_0
  10
265.41271
  20
182.56458
  0
VERTEX
  5
f61
  8
Layer_0
  10
265.04837
  20
182.01725
  0
VERTEX
  5
f62
  8
Layer_0
  10
264.87581
  20
181.77503
  0
VERTEX
  5
f63
  8
Layer_0
  10
264.71171
  20
181.55723
  0
VERTEX
  5
f64
  8
Layer_0
  10
264.55764
  20
181.36644
  0
VERTEX
  5
f65
  8
Layer_0
  10
264.41514
  20
181.20526
  42
0.016239592
  0
VERTEX
  5
f66
  8
Layer_0
  10
263.81488
  20
180.492
  0
VERTEX
  5
f67
  8
Layer_0
  10
263.3493
  20
179.95915
  0
VERTEX
  5
f68
  8
Layer_0
  10
262.82003
  20
179.41474
  0
VERTEX
  5
f69
  8
Layer_0
  10
262.23718
  20
178.86718
  0
VERTEX
  5
f6a
  8
Layer_0
  10
261.61085
  20
178.32488
  0
VERTEX
  5
f6b
  8
Layer_0
  10
260.95116
  20
177.79626
  0
VERTEX
  5
f6c
  8
Layer_0
  10
260.26821
  20
177.28974
  0
VERTEX
  5
f6d
  8
Layer_0
  10
259.57211
  20
176.81374
  0
VERTEX
  5
f6e
  8
Layer_0
  10
258.87296
  20
176.37668
  0
VERTEX
  5
f6f
  8
Layer_0
  10
258.18728
  20
175.9859
  0
VERTEX
  5
f70
  8
Layer_0
  10
257.49548
  20
175.62664
  0
VERTEX
  5
f71
  8
Layer_0
  10
256.79031
  20
175.29603
  0
VERTEX
  5
f72
  8
Layer_0
  10
256.06451
  20
174.99119
  0
VERTEX
  5
f73
  8
Layer_0
  10
255.31083
  20
174.70923
  0
VERTEX
  5
f74
  8
Layer_0
  10
254.52201
  20
174.44729
  0
VERTEX
  5
f75
  8
Layer_0
  10
253.69079
  20
174.20249
  0
VERTEX
  5
f76
  8
Layer_0
  10
252.80992
  20
173.97194
  0
VERTEX
  5
f77
  8
Layer_0
  10
252.45833
  20
173.89315
  0
VERTEX
  5
f78
  8
Layer_0
  10
252.07558
  20
173.8223
  0
VERTEX
  5
f79
  8
Layer_0
  10
251.66555
  20
173.7595
  0
VERTEX
  5
f7a
  8
Layer_0
  10
251.23209
  20
173.70488
  0
VERTEX
  5
f7b
  8
Layer_0
  10
250.31029
  20
173.62071
  0
VERTEX
  5
f7c
  8
Layer_0
  10
249.34105
  20
173.5708
  0
VERTEX
  5
f7d
  8
Layer_0
  10
248.35521
  20
173.55617
  0
VERTEX
  5
f7e
  8
Layer_0
  10
247.38363
  20
173.57784
  0
VERTEX
  5
f7f
  8
Layer_0
  10
246.45717
  20
173.63683
  0
VERTEX
  5
f80
  8
Layer_0
  10
245.60668
  20
173.73416
  0
VERTEX
  5
f81
  8
Layer_0
  10
244.73159
  20
173.88676
  0
VERTEX
  5
f82
  8
Layer_0
  10
243.81634
  20
174.09238
  0
VERTEX
  5
f83
  8
Layer_0
  10
242.88597
  20
174.34267
  0
VERTEX
  5
f84
  8
Layer_0
  10
241.96552
  20
174.62932
  0
VERTEX
  5
f85
  8
Layer_0
  10
241.08002
  20
174.94398
  0
VERTEX
  5
f86
  8
Layer_0
  10
240.25452
  20
175.2783
  0
VERTEX
  5
f87
  8
Layer_0
  10
239.8721
  20
175.45024
  0
VERTEX
  5
f88
  8
Layer_0
  10
239.51406
  20
175.62397
  0
VERTEX
  5
f89
  8
Layer_0
  10
239.18354
  20
175.79844
  0
VERTEX
  5
f8a
  8
Layer_0
  10
238.88366
  20
175.97263
  42
0.013024332
  0
VERTEX
  5
f8b
  8
Layer_0
  10
238.24338
  20
176.33987
  0
VERTEX
  5
f8c
  8
Layer_0
  10
237.63549
  20
176.69747
  0
VERTEX
  5
f8d
  8
Layer_0
  10
236.99336
  20
177.12595
  0
VERTEX
  5
f8e
  8
Layer_0
  10
236.33012
  20
177.61437
  0
VERTEX
  5
f8f
  8
Layer_0
  10
235.65895
  20
178.15178
  0
VERTEX
  5
f90
  8
Layer_0
  10
234.99299
  20
178.72724
  0
VERTEX
  5
f91
  8
Layer_0
  10
234.34539
  20
179.3298
  0
VERTEX
  5
f92
  8
Layer_0
  10
233.72931
  20
179.94851
  0
VERTEX
  5
f93
  8
Layer_0
  10
233.1579
  20
180.57242
  0
VERTEX
  5
f94
  8
Layer_0
  10
232.67004
  20
181.16053
  0
VERTEX
  5
f95
  8
Layer_0
  10
232.18812
  20
181.80043
  0
VERTEX
  5
f96
  8
Layer_0
  10
231.71769
  20
182.48301
  0
VERTEX
  5
f97
  8
Layer_0
  10
231.26428
  20
183.19914
  0
VERTEX
  5
f98
  8
Layer_0
  10
230.83343
  20
183.9397
  0
VERTEX
  5
f99
  8
Layer_0
  10
230.43067
  20
184.69557
  0
VERTEX
  5
f9a
  8
Layer_0
  10
230.06155
  20
185.45763
  0
VERTEX
  5
f9b
  8
Layer_0
  10
229.7316
  20
186.21675
  0
VERTEX
  5
f9c
  8
Layer_0
  10
229.40924
  20
187.05968
  0
VERTEX
  5
f9d
  8
Layer_0
  10
229.12632
  20
187.91426
  0
VERTEX
  5
f9e
  8
Layer_0
  10
228.88286
  20
188.77914
  0
VERTEX
  5
f9f
  8
Layer_0
  10
228.67892
  20
189.65295
  0
VERTEX
  5
fa0
  8
Layer_0
  10
228.51452
  20
190.53433
  0
VERTEX
  5
fa1
  8
Layer_0
  10
228.38972
  20
191.42192
  0
VERTEX
  5
fa2
  8
Layer_0
  10
228.30454
  20
192.31435
  0
VERTEX
  5
fa3
  8
Layer_0
  10
228.25903
  20
193.21026
  0
VERTEX
  5
fa4
  8
Layer_0
  10
228.25322
  20
194.10829
  0
VERTEX
  5
fa5
  8
Layer_0
  10
228.28715
  20
195.00708
  0
VERTEX
  5
fa6
  8
Layer_0
  10
228.36087
  20
195.90527
  0
VERTEX
  5
fa7
  8
Layer_0
  10
228.47441
  20
196.80148
  0
VERTEX
  5
fa8
  8
Layer_0
  10
228.62782
  20
197.69436
  0
VERTEX
  5
fa9
  8
Layer_0
  10
228.82112
  20
198.58255
  0
VERTEX
  5
faa
  8
Layer_0
  10
229.05436
  20
199.46468
  0
VERTEX
  5
fab
  8
Layer_0
  10
229.32758
  20
200.33939
  0
VERTEX
  5
fac
  8
Layer_0
  10
229.61133
  20
201.12343
  0
VERTEX
  5
fad
  8
Layer_0
  10
229.93051
  20
201.89711
  0
VERTEX
  5
fae
  8
Layer_0
  10
230.28398
  20
202.659
  0
VERTEX
  5
faf
  8
Layer_0
  10
230.67065
  20
203.40765
  0
VERTEX
  5
fb0
  8
Layer_0
  10
231.08937
  20
204.14162
  0
VERTEX
  5
fb1
  8
Layer_0
  10
231.53903
  20
204.85946
  0
VERTEX
  5
fb2
  8
Layer_0
  10
232.0185
  20
205.55974
  0
VERTEX
  5
fb3
  8
Layer_0
  10
232.52667
  20
206.24102
  0
VERTEX
  5
fb4
  8
Layer_0
  10
233.06242
  20
206.90185
  0
VERTEX
  5
fb5
  8
Layer_0
  10
233.62462
  20
207.54078
  0
VERTEX
  5
fb6
  8
Layer_0
  10
234.21214
  20
208.15639
  0
VERTEX
  5
fb7
  8
Layer_0
  10
234.82388
  20
208.74722
  0
VERTEX
  5
fb8
  8
Layer_0
  10
235.4587
  20
209.31183
  0
VERTEX
  5
fb9
  8
Layer_0
  10
236.11549
  20
209.84878
  0
VERTEX
  5
fba
  8
Layer_0
  10
236.79312
  20
210.35664
  0
VERTEX
  5
fbb
  8
Layer_0
  10
237.49047
  20
210.83395
  0
VERTEX
  5
fbc
  8
Layer_0
  10
237.71554
  20
210.97562
  0
VERTEX
  5
fbd
  8
Layer_0
  10
238.0091
  20
211.15299
  0
VERTEX
  5
fbe
  8
Layer_0
  10
238.34183
  20
211.34923
  0
VERTEX
  5
fbf
  8
Layer_0
  10
238.68438
  20
211.54752
  0
VERTEX
  5
fc0
  8
Layer_0
  10
239.00744
  20
211.73103
  0
VERTEX
  5
fc1
  8
Layer_0
  10
239.28166
  20
211.88293
  0
VERTEX
  5
fc2
  8
Layer_0
  10
239.3913
  20
211.94178
  0
VERTEX
  5
fc3
  8
Layer_0
  10
239.47773
  20
211.98641
  0
VERTEX
  5
fc4
  8
Layer_0
  10
239.53729
  20
212.01474
  0
VERTEX
  5
fc5
  8
Layer_0
  10
239.56631
  20
212.02464
  0
VERTEX
  5
fc6
  8
Layer_0
  10
239.6275
  20
212.049
  0
VERTEX
  5
fc7
  8
Layer_0
  10
239.77799
  20
212.11532
  0
VERTEX
  5
fc8
  8
Layer_0
  10
239.99515
  20
212.21346
  0
VERTEX
  5
fc9
  8
Layer_0
  10
240.25633
  20
212.33331
  42
-0.081587411
  0
VERTEX
  5
fca
  8
Layer_0
  10
246.0869
  20
213.93719
  42
0.006946041
  0
VERTEX
  5
fcb
  8
Layer_0
  10
247.16739
  20
214.06012
  0
VERTEX
  5
fcc
  8
Layer_0
  10
247.2907
  20
214.07122
  0
VERTEX
  5
fcd
  8
Layer_0
  10
247.46313
  20
214.07851
  0
VERTEX
  5
fce
  8
Layer_0
  10
247.67815
  20
214.08221
  0
VERTEX
  5
fcf
  8
Layer_0
  10
247.92921
  20
214.08255
  0
VERTEX
  5
fd0
  8
Layer_0
  10
248.51322
  20
214.0741
  0
VERTEX
  5
fd1
  8
Layer_0
  10
249.16281
  20
214.05502
  0
VERTEX
  5
fd2
  8
Layer_0
  10
249.82559
  20
214.02721
  0
VERTEX
  5
fd3
  8
Layer_0
  10
250.44918
  20
213.99251
  0
VERTEX
  5
fd4
  8
Layer_0
  10
250.72991
  20
213.97317
  0
VERTEX
  5
fd5
  8
Layer_0
  10
250.9812
  20
213.95281
  0
VERTEX
  5
fd6
  8
Layer_0
  10
251.1965
  20
213.93167
  0
VERTEX
  5
fd7
  8
Layer_0
  10
251.36928
  20
213.90998
  0
SEQEND
  0
POLYLINE
  5
fd9
  8
Layer_0
  62
0
  66
1
  10
0
  20
0
  30
0
  0
VERTEX
  5
fd9
  8
Layer_0
  10
247.16739
  20
216.02515
  0
VERTEX
  5
fda
  8
Layer_0
  10
246.5645
  20
215.98275
  0
VERTEX
  5
fdb
  8
Layer_0
  10
246.02416
  20
215.92406
  0
VERTEX
  5
fdc
  8
Layer_0
  10
245.72216
  20
215.88135
  0
VERTEX
  5
fdd
  8
Layer_0
  10
245.36948
  20
215.82587
  0
VERTEX
  5
fde
  8
Layer_0
  10
244.94399
  20
215.7547
  0
VERTEX
  5
fdf
  8
Layer_0
  10
244.42358
  20
215.66495
  0
VERTEX
  5
fe0
  8
Layer_0
  10
243.97681
  20
215.57816
  0
VERTEX
  5
fe1
  8
Layer_0
  10
243.47785
  20
215.4655
  0
VERTEX
  5
fe2
  8
Layer_0
  10
242.947
  20
215.33271
  0
VERTEX
  5
fe3
  8
Layer_0
  10
242.40455
  20
215.18549
  0
VERTEX
  5
fe4
  8
Layer_0
  10
241.87078
  20
215.02956
  0
VERTEX
  5
fe5
  8
Layer_0
  10
241.36597
  20
214.87063
  0
VERTEX
  5
fe6
  8
Layer_0
  10
240.91042
  20
214.71442
  0
VERTEX
  5
fe7
  8
Layer_0
  10
240.5244
  20
214.56663
  0
VERTEX
  5
fe8
  8
Layer_0
  10
239.67973
  20
214.20538
  0
VERTEX
  5
fe9
  8
Layer_0
  10
238.87826
  20
213.83362
  0
VERTEX
  5
fea
  8
Layer_0
  10
238.11544
  20
213.44872
  0
VERTEX
  5
feb
  8
Layer_0
  10
237.38672
  20
213.04809
  0
VERTEX
  5
fec
  8
Layer_0
  10
236.68754
  20
212.62911
  0
VERTEX
  5
fed
  8
Layer_0
  10
236.01336
  20
212.18916
  0
VERTEX
  5
fee
  8
Layer_0
  10
235.35963
  20
211.72564
  0
VERTEX
  5
fef
  8
Layer_0
  10
234.72179
  20
211.23593
  0
VERTEX
  5
ff0
  8
Layer_0
  10
234.53186
  20
211.08022
  0
VERTEX
  5
ff1
  8
Layer_0
  10
234.32266
  20
210.90117
  0
VERTEX
  5
ff2
  8
Layer_0
  10
234.09745
  20
210.70198
  0
VERTEX
  5
ff3
  8
Layer_0
  10
233.85947
  20
210.48586
  0
VERTEX
  5
ff4
  8
Layer_0
  10
233.35821
  20
210.01573
  0
VERTEX
  5
ff5
  8
Layer_0
  10
232.84487
  20
209.51648
  0
VERTEX
  5
ff6
  8
Layer_0
  10
232.34545
  20
209.01384
  0
VERTEX
  5
ff7
  8
Layer_0
  10
231.88594
  20
208.53353
  0
VERTEX
  5
ff8
  8
Layer_0
  10
231.67928
  20
208.30977
  0
VERTEX
  5
ff9
  8
Layer_0
  10
231.49234
  20
208.10125
  0
VERTEX
  5
ffa
  8
Layer_0
  10
231.32839
  20
207.91116
  0
VERTEX
  5
ffb
  8
Layer_0
  10
231.19065
  20
207.74272
  42
0.059680355
  0
VERTEX
  5
ffc
  8
Layer_0
  10
228.35201
  20
203.13547
  42
0.041487176
  0
VERTEX
  5
ffd
  8
Layer_0
  10
227.12167
  20
199.73912
  0
VERTEX
  5
ffe
  8
Layer_0
  10
227.04917
  20
199.47008
  0
VERTEX
  5
fff
  8
Layer_0
  10
226.98457
  20
199.22876
  0
VERTEX
  5
1000
  8
Layer_0
  10
226.92725
  20
199.01225
  0
VERTEX
  5
1001
  8
Layer_0
  10
226.87658
  20
198.81766
  0
VERTEX
  5
1002
  8
Layer_0
  10
226.79273
  20
198.48266
  0
VERTEX
  5
1003
  8
Layer_0
  10
226.728
  20
198.20057
  0
VERTEX
  5
1004
  8
Layer_0
  10
226.63593
  20
197.70247
  0
VERTEX
  5
1005
  8
Layer_0
  10
226.56037
  20
197.13795
  0
VERTEX
  5
1006
  8
Layer_0
  10
226.51795
  20
196.82215
  0
VERTEX
  5
1007
  8
Layer_0
  10
226.47118
  20
196.52436
  0
VERTEX
  5
1008
  8
Layer_0
  10
226.42573
  20
196.2781
  0
VERTEX
  5
1009
  8
Layer_0
  10
226.3873
  20
196.11686
  0
VERTEX
  5
100a
  8
Layer_0
  10
226.36796
  20
196.01169
  0
VERTEX
  5
100b
  8
Layer_0
  10
226.35111
  20
195.83657
  0
VERTEX
  5
100c
  8
Layer_0
  10
226.33675
  20
195.60118
  0
VERTEX
  5
100d
  8
Layer_0
  10
226.3249
  20
195.31519
  0
VERTEX
  5
100e
  8
Layer_0
  10
226.30876
  20
194.63007
  0
VERTEX
  5
100f
  8
Layer_0
  10
226.30277
  20
193.85854
  0
VERTEX
  5
1010
  8
Layer_0
  10
226.30703
  20
193.07797
  0
VERTEX
  5
1011
  8
Layer_0
  10
226.32161
  20
192.36568
  0
VERTEX
  5
1012
  8
Layer_0
  10
226.3328
  20
192.05933
  0
VERTEX
  5
1013
  8
Layer_0
  10
226.34661
  20
191.79905
  0
VERTEX
  5
1014
  8
Layer_0
  10
226.36304
  20
191.59451
  0
VERTEX
  5
1015
  8
Layer_0
  10
226.3821
  20
191.4554
  42
-0.0089091329
  0
VERTEX
  5
1016
  8
Layer_0
  10
226.6042
  20
190.17482
  0
VERTEX
  5
1017
  8
Layer_0
  10
226.80343
  20
189.1053
  0
VERTEX
  5
1018
  8
Layer_0
  10
227.06356
  20
188.04473
  0
VERTEX
  5
1019
  8
Layer_0
  10
227.22525
  20
187.48584
  0
VERTEX
  5
101a
  8
Layer_0
  10
227.41271
  20
186.89084
  0
VERTEX
  5
101b
  8
Layer_0
  10
227.62948
  20
186.24692
  0
VERTEX
  5
101c
  8
Layer_0
  10
227.87905
  20
185.54132
  0
VERTEX
  5
101d
  8
Layer_0
  10
227.97965
  20
185.28866
  0
VERTEX
  5
101e
  8
Layer_0
  10
228.12629
  20
184.95486
  0
VERTEX
  5
101f
  8
Layer_0
  10
228.3064
  20
184.56569
  0
VERTEX
  5
1020
  8
Layer_0
  10
228.5074
  20
184.14692
  0
VERTEX
  5
1021
  8
Layer_0
  10
228.71672
  20
183.72434
  0
VERTEX
  5
1022
  8
Layer_0
  10
228.9218
  20
183.32372
  0
VERTEX
  5
1023
  8
Layer_0
  10
229.11006
  20
182.97083
  0
VERTEX
  5
1024
  8
Layer_0
  10
229.26893
  20
182.69146
  42
-0.0023798768
  0
VERTEX
  5
1025
  8
Layer_0
  10
229.66179
  20
182.03255
  0
VERTEX
  5
1026
  8
Layer_0
  10
229.68316
  20
181.99841
  0
VERTEX
  5
1027
  8
Layer_0
  10
229.72199
  20
181.93887
  0
VERTEX
  5
1028
  8
Layer_0
  10
229.77607
  20
181.85722
  0
VERTEX
  5
1029
  8
Layer_0
  10
229.8432
  20
181.75674
  0
VERTEX
  5
102a
  8
Layer_0
  10
230.00783
  20
181.51243
  0
VERTEX
  5
102b
  8
Layer_0
  10
230.19826
  20
181.23219
  42
0.1315008
  0
VERTEX
  5
102c
  8
Layer_0
  10
238.83891
  20
173.80829
  0
VERTEX
  5
102d
  8
Layer_0
  10
239.28419
  20
173.59688
  0
VERTEX
  5
102e
  8
Layer_0
  10
239.70056
  20
173.40487
  0
VERTEX
  5
102f
  8
Layer_0
  10
239.88333
  20
173.32275
  0
VERTEX
  5
1030
  8
Layer_0
  10
240.0414
  20
173.25341
  0
VERTEX
  5
1031
  8
Layer_0
  10
240.16892
  20
173.19951
  0
VERTEX
  5
1032
  8
Layer_0
  10
240.26007
  20
173.16367
  42
0.018995475
  0
VERTEX
  5
1033
  8
Layer_0
  10
242.5253
  20
172.41034
  42
0.028034614
  0
VERTEX
  5
1034
  8
Layer_0
  10
244.68628
  20
171.92479
  42
-0.030526564
  0
VERTEX
  5
1035
  8
Layer_0
  10
245.56667
  20
171.73991
  0
VERTEX
  5
1036
  8
Layer_0
  10
245.70185
  20
171.71668
  0
VERTEX
  5
1037
  8
Layer_0
  10
245.9287
  20
171.69665
  0
VERTEX
  5
1038
  8
Layer_0
  10
246.23436
  20
171.6798
  0
VERTEX
  5
1039
  8
Layer_0
  10
246.60598
  20
171.66611
  0
VERTEX
  5
103a
  8
Layer_0
  10
247.03068
  20
171.65558
  0
VERTEX
  5
103b
  8
Layer_0
  10
247.49562
  20
171.6482
  0
VERTEX
  5
103c
  8
Layer_0
  10
247.98794
  20
171.64395
  0
VERTEX
  5
103d
  8
Layer_0
  10
248.49479
  20
171.64283
  0
VERTEX
  5
103e
  8
Layer_0
  10
249.5006
  20
171.64991
  0
VERTEX
  5
103f
  8
Layer_0
  10
250.41021
  20
171.66936
  0
VERTEX
  5
1040
  8
Layer_0
  10
250.79679
  20
171.68369
  0
VERTEX
  5
1041
  8
Layer_0
  10
251.12074
  20
171.70108
  0
VERTEX
  5
1042
  8
Layer_0
  10
251.36922
  20
171.72152
  0
VERTEX
  5
1043
  8
Layer_0
  10
251.52935
  20
171.74499
  42
-0.0058372415
  0
VERTEX
  5
1044
  8
Layer_0
  10
253.17009
  20
172.08284
  0
VERTEX
  5
1045
  8
Layer_0
  10
253.89159
  20
172.24148
  0
VERTEX
  5
1046
  8
Layer_0
  10
254.61294
  20
172.42931
  0
VERTEX
  5
1047
  8
Layer_0
  10
255.33249
  20
172.64547
  0
VERTEX
  5
1048
  8
Layer_0
  10
256.0486
  20
172.88909
  0
VERTEX
  5
1049
  8
Layer_0
  10
256.75962
  20
173.15933
  0
VERTEX
  5
104a
  8
Layer_0
  10
257.46391
  20
173.4553
  0
VERTEX
  5
104b
  8
Layer_0
  10
258.15982
  20
173.77617
  0
VERTEX
  5
104c
  8
Layer_0
  10
258.84571
  20
174.12105
  0
VERTEX
  5
104d
  8
Layer_0
  10
259.51994
  20
174.48909
  0
VERTEX
  5
104e
  8
Layer_0
  10
260.18086
  20
174.87943
  0
VERTEX
  5
104f
  8
Layer_0
  10
260.82683
  20
175.2912
  0
VERTEX
  5
1050
  8
Layer_0
  10
261.4562
  20
175.72355
  0
VERTEX
  5
1051
  8
Layer_0
  10
262.06734
  20
176.17561
  0
VERTEX
  5
1052
  8
Layer_0
  10
262.65858
  20
176.64652
  0
VERTEX
  5
1053
  8
Layer_0
  10
263.22831
  20
177.13542
  0
VERTEX
  5
1054
  8
Layer_0
  10
263.77485
  20
177.64145
  0
VERTEX
  5
1055
  8
Layer_0
  10
264.88105
  20
178.77257
  0
VERTEX
  5
1056
  8
Layer_0
  10
265.90628
  20
179.94723
  0
VERTEX
  5
1057
  8
Layer_0
  10
266.36693
  20
180.52464
  0
VERTEX
  5
1058
  8
Layer_0
  10
266.7814
  20
181.08143
  0
VERTEX
  5
1059
  8
Layer_0
  10
267.14107
  20
181.60712
  0
VERTEX
  5
105a
  8
Layer_0
  10
267.43729
  20
182.09119
  42
-0.00069844851
  0
VERTEX
  5
105b
  8
Layer_0
  10
267.94046
  20
182.97159
  0
VERTEX
  5
105c
  8
Layer_0
  10
268.30092
  20
183.63743
  0
VERTEX
  5
105d
  8
Layer_0
  10
268.65233
  20
184.3568
  0
VERTEX
  5
105e
  8
Layer_0
  10
268.98822
  20
185.11287
  0
VERTEX
  5
105f
  8
Layer_0
  10
269.30209
  20
185.88879
  0
VERTEX
  5
1060
  8
Layer_0
  10
269.58747
  20
186.66773
  0
VERTEX
  5
1061
  8
Layer_0
  10
269.83785
  20
187.43284
  0
VERTEX
  5
1062
  8
Layer_0
  10
270.04674
  20
188.16729
  0
VERTEX
  5
1063
  8
Layer_0
  10
270.20767
  20
188.85423
  42
-0.00080026244
  0
VERTEX
  5
1064
  8
Layer_0
  10
270.51395
  20
190.3349
  0
VERTEX
  5
1065
  8
Layer_0
  10
270.60592
  20
190.85255
  0
VERTEX
  5
1066
  8
Layer_0
  10
270.66329
  20
191.43495
  0
VERTEX
  5
1067
  8
Layer_0
  10
270.6825
  20
191.80411
  0
VERTEX
  5
1068
  8
Layer_0
  10
270.69726
  20
192.25385
  0
VERTEX
  5
1069
  8
Layer_0
  10
270.7034
  20
192.51566
  0
VERTEX
  5
106a
  8
Layer_0
  10
270.70896
  20
192.80566
  0
VERTEX
  5
106b
  8
Layer_0
  10
270.71411
  20
193.12654
  0
VERTEX
  5
106c
  8
Layer_0
  10
270.71902
  20
193.48099
  0
VERTEX
  5
106d
  8
Layer_0
  10
270.7237
  20
193.96998
  0
VERTEX
  5
106e
  8
Layer_0
  10
270.72491
  20
194.43746
  0
VERTEX
  5
106f
  8
Layer_0
  10
270.72282
  20
194.87436
  0
VERTEX
  5
1070
  8
Layer_0
  10
270.71759
  20
195.27159
  0
VERTEX
  5
1071
  8
Layer_0
  10
270.70938
  20
195.62007
  0
VERTEX
  5
1072
  8
Layer_0
  10
270.69836
  20
195.91073
  0
VERTEX
  5
1073
  8
Layer_0
  10
270.68469
  20
196.13448
  0
VERTEX
  5
1074
  8
Layer_0
  10
270.66853
  20
196.28225
  0
VERTEX
  5
1075
  8
Layer_0
  10
270.56316
  20
196.91241
  0
VERTEX
  5
1076
  8
Layer_0
  10
270.45749
  20
197.50532
  0
VERTEX
  5
1077
  8
Layer_0
  10
270.35044
  20
198.0646
  0
VERTEX
  5
1078
  8
Layer_0
  10
270.2409
  20
198.59384
  0
VERTEX
  5
1079
  8
Layer_0
  10
270.0099
  20
199.57664
  0
VERTEX
  5
107a
  8
Layer_0
  10
269.75568
  20
200.48253
  0
VERTEX
  5
107b
  8
Layer_0
  10
269.4694
  20
201.34034
  0
VERTEX
  5
107c
  8
Layer_0
  10
269.14223
  20
202.1789
  0
VERTEX
  5
107d
  8
Layer_0
  10
268.76533
  20
203.02703
  0
VERTEX
  5
107e
  8
Layer_0
  10
268.32987
  20
203.91355
  0
VERTEX
  5
107f
  8
Layer_0
  10
267.91326
  20
204.69003
  0
VERTEX
  5
1080
  8
Layer_0
  10
267.44769
  20
205.50117
  0
VERTEX
  5
1081
  8
Layer_0
  10
267.22574
  20
205.87036
  0
VERTEX
  5
1082
  8
Layer_0
  10
267.02661
  20
206.18896
  0
VERTEX
  5
1083
  8
Layer_0
  10
266.93925
  20
206.32312
  0
VERTEX
  5
1084
  8
Layer_0
  10
266.86197
  20
206.43722
  0
VERTEX
  5
1085
  8
Layer_0
  10
266.79624
  20
206.5288
  0
VERTEX
  5
1086
  8
Layer_0
  10
266.74351
  20
206.59539
  42
-0.017580621
  0
VERTEX
  5
1087
  8
Layer_0
  10
266.20557
  20
207.30252
  0
VERTEX
  5
1088
  8
Layer_0
  10
265.56772
  20
208.106
  0
VERTEX
  5
1089
  8
Layer_0
  10
264.85075
  20
208.91104
  0
VERTEX
  5
108a
  8
Layer_0
  10
264.06905
  20
209.70493
  0
VERTEX
  5
108b
  8
Layer_0
  10
263.237
  20
210.47493
  0
VERTEX
  5
108c
  8
Layer_0
  10
262.36898
  20
211.20833
  0
VERTEX
  5
108d
  8
Layer_0
  10
261.47939
  20
211.89241
  0
VERTEX
  5
108e
  8
Layer_0
  10
260.58261
  20
212.51445
  0
VERTEX
  5
108f
  8
Layer_0
  10
259.69302
  20
213.06172
  0
VERTEX
  5
1090
  8
Layer_0
  10
258.77324
  20
213.55425
  0
VERTEX
  5
1091
  8
Layer_0
  10
257.78318
  20
214.02006
  0
VERTEX
  5
1092
  8
Layer_0
  10
256.74501
  20
214.45154
  0
VERTEX
  5
1093
  8
Layer_0
  10
255.68094
  20
214.8411
  0
VERTEX
  5
1094
  8
Layer_0
  10
254.61315
  20
215.18114
  0
VERTEX
  5
1095
  8
Layer_0
  10
253.56383
  20
215.46407
  0
VERTEX
  5
1096
  8
Layer_0
  10
252.55518
  20
215.6823
  0
VERTEX
  5
1097
  8
Layer_0
  10
251.60938
  20
215.82822
  42
-0.038208927
  0
VERTEX
  5
1098
  8
Layer_0
  10
250.92908
  20
215.94684
  0
VERTEX
  5
1099
  8
Layer_0
  10
250.84097
  20
215.96456
  0
VERTEX
  5
109a
  8
Layer_0
  10
250.71181
  20
215.98102
  0
VERTEX
  5
109b
  8
Layer_0
  10
250.54619
  20
215.99611
  0
VERTEX
  5
109c
  8
Layer_0
  10
250.34872
  20
216.00975
  0
VERTEX
  5
109d
  8
Layer_0
  10
249.8766
  20
216.03228
  0
VERTEX
  5
109e
  8
Layer_0
  10
249.33222
  20
216.04785
  0
VERTEX
  5
109f
  8
Layer_0
  10
248.75233
  20
216.05569
  0
VERTEX
  5
10a0
  8
Layer_0
  10
248.17371
  20
216.05503
  0
VERTEX
  5
10a1
  8
Layer_0
  10
247.63314
  20
216.0451
  0
VERTEX
  5
10a2
  8
Layer_0
  10
247.16739
  20
216.02515
  0
SEQEND
  0
POLYLINE
  5
10a4
  8
Layer_0
  62
0
  66
1
  10
0
  20
0
  30
0
  0
VERTEX
  5
10a4
  8
Layer_0
  10
197.63023
  20
230.84697
  0
VERTEX
  5
10a5
  8
Layer_0
  10
196.91783
  20
230.28306
  0
VERTEX
  5
10a6
  8
Layer_0
  10
196.28065
  20
229.72603
  0
VERTEX
  5
10a7
  8
Layer_0
  10
195.70495
  20
229.1632
  0
VERTEX
  5
10a8
  8
Layer_0
  10
195.17701
  20
228.58187
  0
VERTEX
  5
10a9
  8
Layer_0
  10
195.01082
  20
228.38875
  0
VERTEX
  5
10aa
  8
Layer_0
  10
194.86693
  20
228.22212
  0
VERTEX
  5
10ab
  8
Layer_0
  10
194.7446
  20
228.07813
  0
VERTEX
  5
10ac
  8
Layer_0
  10
194.64308
  20
227.95288
  0
VERTEX
  5
10ad
  8
Layer_0
  10
194.49954
  20
227.74313
  0
VERTEX
  5
10ae
  8
Layer_0
  10
194.43035
  20
227.56184
  0
VERTEX
  5
10af
  8
Layer_0
  10
194.42958
  20
227.378
  0
VERTEX
  5
10b0
  8
Layer_0
  10
194.49126
  20
227.16059
  0
VERTEX
  5
10b1
  8
Layer_0
  10
194.54367
  20
227.02959
  0
VERTEX
  5
10b2
  8
Layer_0
  10
194.60947
  20
226.87857
  0
VERTEX
  5
10b3
  8
Layer_0
  10
194.68792
  20
226.70365
  0
VERTEX
  5
10b4
  8
Layer_0
  10
194.77826
  20
226.50094
  42
0.003696673
  0
VERTEX
  5
10b5
  8
Layer_0
  10
195.56793
  20
224.74014
  42
-0.0016076399
  0
VERTEX
  5
10b6
  8
Layer_0
  10
196.33154
  20
223.05939
  42
0.001041632
  0
VERTEX
  5
10b7
  8
Layer_0
  10
196.94714
  20
221.69878
  42
-0.0018129446
  0
VERTEX
  5
10b8
  8
Layer_0
  10
197.80981
  20
219.77792
  42
0.003369233
  0
VERTEX
  5
10b9
  8
Layer_0
  10
198.67581
  20
217.85706
  42
-0.0028720563
  0
VERTEX
  5
10ba
  8
Layer_0
  10
199.61736
  20
215.77612
  42
0.0020944147
  0
VERTEX
  5
10bb
  8
Layer_0
  10
200.55722
  20
213.69519
  42
-0.0045124361
  0
VERTEX
  5
10bc
  8
Layer_0
  10
201.09254
  20
212.49464
  0
VERTEX
  5
10bd
  8
Layer_0
  10
201.23123
  20
212.19759
  0
VERTEX
  5
10be
  8
Layer_0
  10
201.36269
  20
211.95085
  0
VERTEX
  5
10bf
  8
Layer_0
  10
201.42107
  20
211.85438
  0
VERTEX
  5
10c0
  8
Layer_0
  10
201.47208
  20
211.78012
  0
VERTEX
  5
10c1
  8
Layer_0
  10
201.51387
  20
211.73131
  0
VERTEX
  5
10c2
  8
Layer_0
  10
201.54457
  20
211.71113
  0
VERTEX
  5
10c3
  8
Layer_0
  10
201.616
  20
211.74315
  0
VERTEX
  5
10c4
  8
Layer_0
  10
201.7096
  20
211.86509
  0
VERTEX
  5
10c5
  8
Layer_0
  10
201.82736
  20
212.08012
  0
VERTEX
  5
10c6
  8
Layer_0
  10
201.97129
  20
212.39144
  42
-0.0052445873
  0
VERTEX
  5
10c7
  8
Layer_0
  10
202.62566
  20
213.84433
  0
VERTEX
  5
10c8
  8
Layer_0
  10
202.76026
  20
214.1373
  0
VERTEX
  5
10c9
  8
Layer_0
  10
202.87049
  20
214.38098
  0
VERTEX
  5
10ca
  8
Layer_0
  10
202.91291
  20
214.4764
  0
VERTEX
  5
10cb
  8
Layer_0
  10
202.94497
  20
214.54996
  0
VERTEX
  5
10cc
  8
Layer_0
  10
202.96525
  20
214.5985
  0
VERTEX
  5
10cd
  8
Layer_0
  10
202.97233
  20
214.61884
  0
VERTEX
  5
10ce
  8
Layer_0
  10
202.99515
  20
214.67798
  0
VERTEX
  5
10cf
  8
Layer_0
  10
203.0573
  20
214.82048
  0
VERTEX
  5
10d0
  8
Layer_0
  10
203.14928
  20
215.02496
  0
VERTEX
  5
10d1
  8
Layer_0
  10
203.26161
  20
215.27005
  42
0.002797042
  0
VERTEX
  5
10d2
  8
Layer_0
  10
203.90985
  20
216.69653
  0
VERTEX
  5
10d3
  8
Layer_0
  10
204.05575
  20
217.01528
  0
VERTEX
  5
10d4
  8
Layer_0
  10
204.18768
  20
217.29149
  0
VERTEX
  5
10d5
  8
Layer_0
  10
204.24386
  20
217.40441
  0
VERTEX
  5
10d6
  8
Layer_0
  10
204.29112
  20
217.4956
  0
VERTEX
  5
10d7
  8
Layer_0
  10
204.32763
  20
217.56137
  0
VERTEX
  5
10d8
  8
Layer_0
  10
204.35158
  20
217.59802
  0
VERTEX
  5
10d9
  8
Layer_0
  10
204.40263
  20
217.62467
  0
VERTEX
  5
10da
  8
Layer_0
  10
204.51448
  20
217.64595
  0
VERTEX
  5
10db
  8
Layer_0
  10
204.69754
  20
217.66216
  0
VERTEX
  5
10dc
  8
Layer_0
  10
204.96221
  20
217.67362
  0
VERTEX
  5
10dd
  8
Layer_0
  10
205.12839
  20
217.67766
  0
VERTEX
  5
10de
  8
Layer_0
  10
205.31888
  20
217.68063
  0
VERTEX
  5
10df
  8
Layer_0
  10
205.53496
  20
217.68256
  0
VERTEX
  5
10e0
  8
Layer_0
  10
205.77794
  20
217.6835
  0
VERTEX
  5
10e1
  8
Layer_0
  10
206.04912
  20
217.68347
  0
VERTEX
  5
10e2
  8
Layer_0
  10
206.3498
  20
217.68253
  0
VERTEX
  5
10e3
  8
Layer_0
  10
206.68128
  20
217.68071
  0
VERTEX
  5
10e4
  8
Layer_0
  10
207.04485
  20
217.67805
  0
VERTEX
  5
10e5
  8
Layer_0
  10
209.65533
  20
217.65697
  0
VERTEX
  5
10e6
  8
Layer_0
  10
209.91769
  20
217.13673
  0
VERTEX
  5
10e7
  8
Layer_0
  10
209.96427
  20
217.04257
  0
VERTEX
  5
10e8
  8
Layer_0
  10
210.02203
  20
216.92279
  0
VERTEX
  5
10e9
  8
Layer_0
  10
210.0903
  20
216.77886
  0
VERTEX
  5
10ea
  8
Layer_0
  10
210.1684
  20
216.61223
  0
VERTEX
  5
10eb
  8
Layer_0
  10
210.35146
  20
216.21675
  0
VERTEX
  5
10ec
  8
Layer_0
  10
210.56589
  20
215.74805
  0
VERTEX
  5
10ed
  8
Layer_0
  10
210.80636
  20
215.21782
  0
VERTEX
  5
10ee
  8
Layer_0
  10
211.06754
  20
214.63778
  0
VERTEX
  5
10ef
  8
Layer_0
  10
211.34409
  20
214.01962
  0
VERTEX
  5
10f0
  8
Layer_0
  10
211.63071
  20
213.37504
  42
-5.9916863e-05
  0
VERTEX
  5
10f1
  8
Layer_0
  10
212.03854
  20
212.45462
  0
VERTEX
  5
10f2
  8
Layer_0
  10
212.13333
  20
212.24355
  0
VERTEX
  5
10f3
  8
Layer_0
  10
212.21292
  20
212.07367
  0
VERTEX
  5
10f4
  8
Layer_0
  10
212.27983
  20
211.94097
  0
VERTEX
  5
10f5
  8
Layer_0
  10
212.33654
  20
211.84143
  0
VERTEX
  5
10f6
  8
Layer_0
  10
212.42943
  20
211.7257
  0
VERTEX
  5
10f7
  8
Layer_0
  10
212.51161
  20
211.69428
  0
VERTEX
  5
10f8
  8
Layer_0
  10
212.54809
  20
211.71987
  0
VERTEX
  5
10f9
  8
Layer_0
  10
212.60519
  20
211.80219
  0
VERTEX
  5
10fa
  8
Layer_0
  10
212.68696
  20
211.9496
  0
VERTEX
  5
10fb
  8
Layer_0
  10
212.79746
  20
212.17046
  0
VERTEX
  5
10fc
  8
Layer_0
  10
212.94072
  20
212.4731
  0
VERTEX
  5
10fd
  8
Layer_0
  10
213.12081
  20
212.86589
  0
VERTEX
  5
10fe
  8
Layer_0
  10
213.22592
  20
213.0987
  0
VERTEX
  5
10ff
  8
Layer_0
  10
213.34176
  20
213.35717
  0
VERTEX
  5
1100
  8
Layer_0
  10
213.46882
  20
213.64236
  0
VERTEX
  5
1101
  8
Layer_0
  10
213.60763
  20
213.9553
  42
-0.0030026271
  0
VERTEX
  5
1102
  8
Layer_0
  10
214.73871
  20
216.45642
  42
0.0030319359
  0
VERTEX
  5
1103
  8
Layer_0
  10
215.3136
  20
217.737
  42
-0.0038100503
  0
VERTEX
  5
1104
  8
Layer_0
  10
216.05656
  20
219.37773
  42
0.0022370815
  0
VERTEX
  5
1105
  8
Layer_0
  10
217.21924
  20
221.93889
  42
-0.0014670578
  0
VERTEX
  5
1106
  8
Layer_0
  10
218.92445
  20
225.70058
  0
VERTEX
  5
1107
  8
Layer_0
  10
219.04322
  20
225.96055
  0
VERTEX
  5
1108
  8
Layer_0
  10
219.14951
  20
226.19365
  0
VERTEX
  5
1109
  8
Layer_0
  10
219.24401
  20
226.40142
  0
VERTEX
  5
110a
  8
Layer_0
  10
219.32735
  20
226.58539
  0
VERTEX
  5
110b
  8
Layer_0
  10
219.46328
  20
226.88809
  0
VERTEX
  5
110c
  8
Layer_0
  10
219.56259
  20
227.11402
  0
VERTEX
  5
110d
  8
Layer_0
  10
219.6306
  20
227.27548
  0
VERTEX
  5
110e
  8
Layer_0
  10
219.67261
  20
227.38474
  0
VERTEX
  5
110f
  8
Layer_0
  10
219.69392
  20
227.45409
  0
VERTEX
  5
1110
  8
Layer_0
  10
219.69985
  20
227.49581
  0
VERTEX
  5
1111
  8
Layer_0
  10
219.66202
  20
227.58943
  0
VERTEX
  5
1112
  8
Layer_0
  10
219.55535
  20
227.74978
  0
VERTEX
  5
1113
  8
Layer_0
  10
219.3901
  20
227.96483
  0
VERTEX
  5
1114
  8
Layer_0
  10
219.1765
  20
228.22255
  0
VERTEX
  5
1115
  8
Layer_0
  10
218.64523
  20
228.81796
  0
VERTEX
  5
1116
  8
Layer_0
  10
218.04346
  20
229.43984
  0
VERTEX
  5
1117
  8
Layer_0
  10
217.31344
  20
230.111
  0
VERTEX
  5
1118
  8
Layer_0
  10
216.54504
  20
230.74191
  0
VERTEX
  5
1119
  8
Layer_0
  10
216.19835
  20
231.00203
  0
VERTEX
  5
111a
  8
Layer_0
  10
215.90436
  20
231.20378
  0
VERTEX
  5
111b
  8
Layer_0
  10
215.7836
  20
231.27774
  0
VERTEX
  5
111c
  8
Layer_0
  10
215.68381
  20
231.33107
  0
VERTEX
  5
111d
  8
Layer_0
  10
215.60757
  20
231.36176
  0
VERTEX
  5
111e
  8
Layer_0
  10
215.55748
  20
231.3678
  0
VERTEX
  5
111f
  8
Layer_0
  10
215.48096
  20
231.30899
  0
VERTEX
  5
1120
  8
Layer_0
  10
215.37868
  20
231.16398
  0
VERTEX
  5
1121
  8
Layer_0
  10
215.2578
  20
230.94448
  0
VERTEX
  5
1122
  8
Layer_0
  10
215.1255
  20
230.66221
  42
-0.0056628216
  0
VERTEX
  5
1123
  8
Layer_0
  10
214.58595
  20
229.46228
  0
VERTEX
  5
1124
  8
Layer_0
  10
214.48719
  20
229.24834
  0
VERTEX
  5
1125
  8
Layer_0
  10
214.36125
  20
228.97304
  0
VERTEX
  5
1126
  8
Layer_0
  10
214.21275
  20
228.64667
  0
VERTEX
  5
1127
  8
Layer_0
  10
214.04632
  20
228.27956
  0
VERTEX
  5
1128
  8
Layer_0
  10
213.67823
  20
227.46435
  0
VERTEX
  5
1129
  8
Layer_0
  10
213.29399
  20
226.60995
  0
VERTEX
  5
112a
  8
Layer_0
  10
213.1074
  20
226.19383
  0
VERTEX
  5
112b
  8
Layer_0
  10
212.93067
  20
225.79887
  0
VERTEX
  5
112c
  8
Layer_0
  10
212.76842
  20
225.43536
  0
VERTEX
  5
112d
  8
Layer_0
  10
212.62529
  20
225.11363
  0
VERTEX
  5
112e
  8
Layer_0
  10
212.5059
  20
224.844
  0
VERTEX
  5
112f
  8
Layer_0
  10
212.4149
  20
224.63677
  0
VERTEX
  5
1130
  8
Layer_0
  10
212.3569
  20
224.50227
  0
VERTEX
  5
1131
  8
Layer_0
  10
212.33654
  20
224.4508
  0
VERTEX
  5
1132
  8
Layer_0
  10
212.32692
  20
224.42312
  0
VERTEX
  5
1133
  8
Layer_0
  10
212.29938
  20
224.3571
  0
VERTEX
  5
1134
  8
Layer_0
  10
212.25582
  20
224.25707
  0
VERTEX
  5
1135
  8
Layer_0
  10
212.1982
  20
224.12734
  0
VERTEX
  5
1136
  8
Layer_0
  10
212.04845
  20
223.79605
  0
VERTEX
  5
1137
  8
Layer_0
  10
211.8656
  20
223.3978
  42
0.0038707727
  0
VERTEX
  5
1138
  8
Layer_0
  10
210.89757
  20
221.25858
  42
-0.0059873277
  0
VERTEX
  5
1139
  8
Layer_0
  10
210.05057
  20
219.39775
  0
VERTEX
  5
113a
  8
Layer_0
  10
209.70068
  20
218.65741
  0
VERTEX
  5
113b
  8
Layer_0
  10
207.01396
  20
218.65741
  0
VERTEX
  5
113c
  8
Layer_0
  10
204.32726
  20
218.65741
  0
VERTEX
  5
113d
  8
Layer_0
  10
204.18042
  20
218.99756
  42
0.0077156652
  0
VERTEX
  5
113e
  8
Layer_0
  10
203.78973
  20
219.85796
  42
-0.0042454214
  0
VERTEX
  5
113f
  8
Layer_0
  10
202.25
  20
223.25949
  42
0.00032375853
  0
VERTEX
  5
1140
  8
Layer_0
  10
201.38655
  20
225.18034
  42
-0.00037149655
  0
VERTEX
  5
1141
  8
Layer_0
  10
199.69847
  20
228.94203
  0
VERTEX
  5
1142
  8
Layer_0
  10
199.5026
  20
229.37858
  0
VERTEX
  5
1143
  8
Layer_0
  10
199.31717
  20
229.79057
  0
VERTEX
  5
1144
  8
Layer_0
  10
199.14641
  20
230.16866
  0
VERTEX
  5
1145
  8
Layer_0
  10
198.9946
  20
230.50349
  0
VERTEX
  5
1146
  8
Layer_0
  10
198.86598
  20
230.7857
  0
VERTEX
  5
1147
  8
Layer_0
  10
198.7648
  20
231.00593
  0
VERTEX
  5
1148
  8
Layer_0
  10
198.69532
  20
231.15484
  0
VERTEX
  5
1149
  8
Layer_0
  10
198.66178
  20
231.22306
  0
VERTEX
  5
114a
  8
Layer_0
  10
198.60869
  20
231.29555
  0
VERTEX
  5
114b
  8
Layer_0
  10
198.54497
  20
231.33792
  0
VERTEX
  5
114c
  8
Layer_0
  10
198.46511
  20
231.34817
  0
VERTEX
  5
114d
  8
Layer_0
  10
198.36357
  20
231.32427
  0
VERTEX
  5
114e
  8
Layer_0
  10
198.23484
  20
231.26421
  0
VERTEX
  5
114f
  8
Layer_0
  10
198.07339
  20
231.16599
  0
VERTEX
  5
1150
  8
Layer_0
  10
197.87369
  20
231.02758
  0
VERTEX
  5
1151
  8
Layer_0
  10
197.63023
  20
230.84697
  0
SEQEND
  0
POLYLINE
  5
1153
  8
Layer_0
  62
0
  66
1
  10
0
  20
0
  30
0
  0
VERTEX
  5
1153
  8
Layer_0
  10
222.07354
  20
221.77256
  0
VERTEX
  5
1154
  8
Layer_0
  10
221.97983
  20
221.62146
  0
VERTEX
  5
1155
  8
Layer_0
  10
221.94085
  20
221.52418
  0
VERTEX
  5
1156
  8
Layer_0
  10
221.92908
  20
221.48761
  0
VERTEX
  5
1157
  8
Layer_0
  10
221.89525
  20
221.40323
  0
VERTEX
  5
1158
  8
Layer_0
  10
221.84164
  20
221.2761
  0
VERTEX
  5
1159
  8
Layer_0
  10
221.77052
  20
221.11127
  0
VERTEX
  5
115a
  8
Layer_0
  10
221.5848
  20
220.68875
  0
VERTEX
  5
115b
  8
Layer_0
  10
221.35622
  20
220.17609
  0
VERTEX
  5
115c
  8
Layer_0
  10
221.10289
  20
219.61373
  0
VERTEX
  5
115d
  8
Layer_0
  10
220.84296
  20
219.04212
  0
VERTEX
  5
115e
  8
Layer_0
  10
220.59454
  20
218.5017
  0
VERTEX
  5
115f
  8
Layer_0
  10
220.37577
  20
218.03289
  0
VERTEX
  5
1160
  8
Layer_0
  10
220.2687
  20
217.80349
  0
VERTEX
  5
1161
  8
Layer_0
  10
220.18103
  20
217.61097
  0
VERTEX
  5
1162
  8
Layer_0
  10
220.12178
  20
217.47553
  0
VERTEX
  5
1163
  8
Layer_0
  10
220.10003
  20
217.41735
  0
VERTEX
  5
1164
  8
Layer_0
  10
220.09336
  20
217.39673
  0
VERTEX
  5
1165
  8
Layer_0
  10
220.07426
  20
217.34967
  0
VERTEX
  5
1166
  8
Layer_0
  10
220.04406
  20
217.27919
  0
VERTEX
  5
1167
  8
Layer_0
  10
220.0041
  20
217.18832
  0
VERTEX
  5
1168
  8
Layer_0
  10
219.90027
  20
216.95747
  0
VERTEX
  5
1169
  8
Layer_0
  10
219.77347
  20
216.68126
  42
0.0025889557
  0
VERTEX
  5
116a
  8
Layer_0
  10
219.33868
  20
215.7361
  42
-0.00037447827
  0
VERTEX
  5
116b
  8
Layer_0
  10
218.78485
  20
214.5112
  0
VERTEX
  5
116c
  8
Layer_0
  10
218.61183
  20
214.12663
  0
VERTEX
  5
116d
  8
Layer_0
  10
218.47014
  20
213.80752
  0
VERTEX
  5
116e
  8
Layer_0
  10
218.41561
  20
213.6829
  0
VERTEX
  5
116f
  8
Layer_0
  10
218.3744
  20
213.5871
  0
VERTEX
  5
1170
  8
Layer_0
  10
218.34833
  20
213.52428
  0
VERTEX
  5
1171
  8
Layer_0
  10
218.33923
  20
213.49859
  0
VERTEX
  5
1172
  8
Layer_0
  10
218.31451
  20
213.43507
  0
VERTEX
  5
1173
  8
Layer_0
  10
218.24719
  20
213.28268
  0
VERTEX
  5
1174
  8
Layer_0
  10
218.14756
  20
213.06425
  0
VERTEX
  5
1175
  8
Layer_0
  10
218.0259
  20
212.80263
  42
0.0046564238
  0
VERTEX
  5
1176
  8
Layer_0
  10
217.19446
  20
210.97395
  42
-0.0032259658
  0
VERTEX
  5
1177
  8
Layer_0
  10
216.45451
  20
209.33322
  0
VERTEX
  5
1178
  8
Layer_0
  10
215.82625
  20
207.96195
  0
VERTEX
  5
1179
  8
Layer_0
  10
215.16552
  20
206.50325
  0
VERTEX
  5
117a
  8
Layer_0
  10
215.01309
  20
206.16447
  0
VERTEX
  5
117b
  8
Layer_0
  10
214.87051
  20
205.84661
  0
VERTEX
  5
117c
  8
Layer_0
  10
214.74017
  20
205.55494
  0
VERTEX
  5
117d
  8
Layer_0
  10
214.62444
  20
205.29472
  0
VERTEX
  5
117e
  8
Layer_0
  10
214.5257
  20
205.07125
  0
VERTEX
  5
117f
  8
Layer_0
  10
214.44632
  20
204.88978
  0
VERTEX
  5
1180
  8
Layer_0
  10
214.38867
  20
204.7556
  0
VERTEX
  5
1181
  8
Layer_0
  10
214.35515
  20
204.67399
  0
VERTEX
  5
1182
  8
Layer_0
  10
214.30895
  20
204.53868
  0
VERTEX
  5
1183
  8
Layer_0
  10
214.27939
  20
204.41962
  0
VERTEX
  5
1184
  8
Layer_0
  10
214.26891
  20
204.32966
  0
VERTEX
  5
1185
  8
Layer_0
  10
214.28
  20
204.28169
  0
VERTEX
  5
1186
  8
Layer_0
  10
214.3174
  20
204.27801
  0
VERTEX
  5
1187
  8
Layer_0
  10
214.39087
  20
204.30145
  0
VERTEX
  5
1188
  8
Layer_0
  10
214.49657
  20
204.34953
  0
VERTEX
  5
1189
  8
Layer_0
  10
214.63068
  20
204.41976
  0
VERTEX
  5
118a
  8
Layer_0
  10
214.96875
  20
204.61672
  0
VERTEX
  5
118b
  8
Layer_0
  10
215.37438
  20
204.87241
  0
VERTEX
  5
118c
  8
Layer_0
  10
216.26556
  20
205.48035
  0
VERTEX
  5
118d
  8
Layer_0
  10
217.05866
  20
206.08427
  42
0.14125308
  0
VERTEX
  5
118e
  8
Layer_0
  10
221.96687
  20
213.295
  0
VERTEX
  5
118f
  8
Layer_0
  10
222.16468
  20
213.9242
  0
VERTEX
  5
1190
  8
Layer_0
  10
222.32558
  20
214.50319
  0
VERTEX
  5
1191
  8
Layer_0
  10
222.45283
  20
215.05364
  0
VERTEX
  5
1192
  8
Layer_0
  10
222.54974
  20
215.59725
  0
VERTEX
  5
1193
  8
Layer_0
  10
222.61956
  20
216.15573
  0
VERTEX
  5
1194
  8
Layer_0
  10
222.6656
  20
216.75074
  0
VERTEX
  5
1195
  8
Layer_0
  10
222.69113
  20
217.404
  0
VERTEX
  5
1196
  8
Layer_0
  10
222.69943
  20
218.13718
  0
VERTEX
  5
1197
  8
Layer_0
  10
222.69238
  20
218.8025
  0
VERTEX
  5
1198
  8
Layer_0
  10
222.6707
  20
219.43325
  0
VERTEX
  5
1199
  8
Layer_0
  10
222.63566
  20
220.01757
  0
VERTEX
  5
119a
  8
Layer_0
  10
222.58854
  20
220.54359
  0
VERTEX
  5
119b
  8
Layer_0
  10
222.53059
  20
220.99946
  0
VERTEX
  5
119c
  8
Layer_0
  10
222.4631
  20
221.37331
  0
VERTEX
  5
119d
  8
Layer_0
  10
222.42617
  20
221.52578
  0
VERTEX
  5
119e
  8
Layer_0
  10
222.38733
  20
221.65329
  0
VERTEX
  5
119f
  8
Layer_0
  10
222.34674
  20
221.75437
  0
VERTEX
  5
11a0
  8
Layer_0
  10
222.30455
  20
221.82753
  0
VERTEX
  5
11a1
  8
Layer_0
  10
222.24758
  20
221.89522
  0
VERTEX
  5
11a2
  8
Layer_0
  10
222.20084
  20
221.91118
  0
VERTEX
  5
11a3
  8
Layer_0
  10
222.1482
  20
221.87157
  0
VERTEX
  5
11a4
  8
Layer_0
  10
222.07354
  20
221.77256
  0
SEQEND
  0
POLYLINE
  5
11a6
  8
Layer_0
  62
0
  66
1
  10
0
  20
0
  30
0
  0
VERTEX
  5
11a6
  8
Layer_0
  10
206.91932
  20
212.38984
  0
VERTEX
  5
11a7
  8
Layer_0
  10
206.87055
  20
212.31309
  0
VERTEX
  5
11a8
  8
Layer_0
  10
206.79961
  20
212.17906
  0
VERTEX
  5
11a9
  8
Layer_0
  10
206.74861
  20
212.07473
  0
VERTEX
  5
11aa
  8
Layer_0
  10
206.6834
  20
211.93706
  0
VERTEX
  5
11ab
  8
Layer_0
  10
206.60108
  20
211.75971
  0
VERTEX
  5
11ac
  8
Layer_0
  10
206.49878
  20
211.53636
  0
VERTEX
  5
11ad
  8
Layer_0
  10
206.3736
  20
211.26065
  0
VERTEX
  5
11ae
  8
Layer_0
  10
206.22264
  20
210.92625
  0
VERTEX
  5
11af
  8
Layer_0
  10
206.04303
  20
210.52682
  0
VERTEX
  5
11b0
  8
Layer_0
  10
205.83187
  20
210.05601
  0
VERTEX
  5
11b1
  8
Layer_0
  10
205.58628
  20
209.5075
  0
VERTEX
  5
11b2
  8
Layer_0
  10
205.30335
  20
208.87494
  0
VERTEX
  5
11b3
  8
Layer_0
  10
205.14699
  20
208.52516
  0
VERTEX
  5
11b4
  8
Layer_0
  10
204.98021
  20
208.152
  0
VERTEX
  5
11b5
  8
Layer_0
  10
204.80266
  20
207.75465
  0
VERTEX
  5
11b6
  8
Layer_0
  10
204.61397
  20
207.33232
  42
-0.0050051022
  0
VERTEX
  5
11b7
  8
Layer_0
  10
203.8891
  20
205.7316
  0
VERTEX
  5
11b8
  8
Layer_0
  10
203.62171
  20
205.15769
  0
VERTEX
  5
11b9
  8
Layer_0
  10
203.39068
  20
204.64872
  0
VERTEX
  5
11ba
  8
Layer_0
  10
203.19689
  20
204.2069
  0
VERTEX
  5
11bb
  8
Layer_0
  10
203.04126
  20
203.83447
  0
VERTEX
  5
11bc
  8
Layer_0
  10
202.92469
  20
203.53366
  0
VERTEX
  5
11bd
  8
Layer_0
  10
202.84806
  20
203.30668
  0
VERTEX
  5
11be
  8
Layer_0
  10
202.81229
  20
203.15577
  0
VERTEX
  5
11bf
  8
Layer_0
  10
202.81828
  20
203.08316
  0
VERTEX
  5
11c0
  8
Layer_0
  10
202.93808
  20
203.00467
  0
VERTEX
  5
11c1
  8
Layer_0
  10
203.11496
  20
202.94992
  42
-0.0090279158
  0
VERTEX
  5
11c2
  8
Layer_0
  10
203.93275
  20
202.78516
  0
VERTEX
  5
11c3
  8
Layer_0
  10
204.72095
  20
202.64339
  0
VERTEX
  5
11c4
  8
Layer_0
  10
205.53217
  20
202.54612
  0
VERTEX
  5
11c5
  8
Layer_0
  10
206.36349
  20
202.4933
  0
VERTEX
  5
11c6
  8
Layer_0
  10
207.21198
  20
202.48487
  0
VERTEX
  5
11c7
  8
Layer_0
  10
208.07469
  20
202.52079
  0
VERTEX
  5
11c8
  8
Layer_0
  10
208.94871
  20
202.60101
  0
VERTEX
  5
11c9
  8
Layer_0
  10
209.83108
  20
202.72549
  0
VERTEX
  5
11ca
  8
Layer_0
  10
210.71888
  20
202.89417
  0
VERTEX
  5
11cb
  8
Layer_0
  10
210.88328
  20
202.93586
  0
VERTEX
  5
11cc
  8
Layer_0
  10
211.03026
  20
202.98489
  0
VERTEX
  5
11cd
  8
Layer_0
  10
211.1438
  20
203.03516
  0
VERTEX
  5
11ce
  8
Layer_0
  10
211.20784
  20
203.08054
  0
VERTEX
  5
11cf
  8
Layer_0
  10
211.21366
  20
203.11223
  0
VERTEX
  5
11d0
  8
Layer_0
  10
211.20424
  20
203.17447
  0
VERTEX
  5
11d1
  8
Layer_0
  10
211.17976
  20
203.26684
  0
VERTEX
  5
11d2
  8
Layer_0
  10
211.1404
  20
203.38889
  0
VERTEX
  5
11d3
  8
Layer_0
  10
211.08634
  20
203.54021
  0
VERTEX
  5
11d4
  8
Layer_0
  10
211.01776
  20
203.72035
  0
VERTEX
  5
11d5
  8
Layer_0
  10
210.93483
  20
203.92889
  0
VERTEX
  5
11d6
  8
Layer_0
  10
210.83775
  20
204.16539
  0
VERTEX
  5
11d7
  8
Layer_0
  10
210.72669
  20
204.42943
  0
VERTEX
  5
11d8
  8
Layer_0
  10
210.60182
  20
204.72055
  0
VERTEX
  5
11d9
  8
Layer_0
  10
210.46334
  20
205.03835
  0
VERTEX
  5
11da
  8
Layer_0
  10
210.31141
  20
205.38238
  0
VERTEX
  5
11db
  8
Layer_0
  10
210.14622
  20
205.75221
  0
VERTEX
  5
11dc
  8
Layer_0
  10
209.96795
  20
206.1474
  0
VERTEX
  5
11dd
  8
Layer_0
  10
209.77677
  20
206.56754
  0
VERTEX
  5
11de
  8
Layer_0
  10
209.57287
  20
207.01218
  0
VERTEX
  5
11df
  8
Layer_0
  10
209.44198
  20
207.29772
  0
VERTEX
  5
11e0
  8
Layer_0
  10
209.29299
  20
207.62474
  0
VERTEX
  5
11e1
  8
Layer_0
  10
209.12943
  20
207.98531
  0
VERTEX
  5
11e2
  8
Layer_0
  10
208.95483
  20
208.37155
  0
VERTEX
  5
11e3
  8
Layer_0
  10
208.58664
  20
209.1894
  0
VERTEX
  5
11e4
  8
Layer_0
  10
208.21669
  20
210.01505
  0
VERTEX
  5
11e5
  8
Layer_0
  10
208.03989
  20
210.41104
  0
VERTEX
  5
11e6
  8
Layer_0
  10
207.87325
  20
210.78527
  0
VERTEX
  5
11e7
  8
Layer_0
  10
207.7203
  20
211.12984
  0
VERTEX
  5
11e8
  8
Layer_0
  10
207.58458
  20
211.43684
  0
VERTEX
  5
11e9
  8
Layer_0
  10
207.46961
  20
211.69837
  0
VERTEX
  5
11ea
  8
Layer_0
  10
207.37894
  20
211.90652
  0
VERTEX
  5
11eb
  8
Layer_0
  10
207.31609
  20
212.0534
  0
VERTEX
  5
11ec
  8
Layer_0
  10
207.2846
  20
212.1311
  0
VERTEX
  5
11ed
  8
Layer_0
  10
207.19618
  20
212.32019
  0
VERTEX
  5
11ee
  8
Layer_0
  10
207.10035
  20
212.43023
  0
VERTEX
  5
11ef
  8
Layer_0
  10
207.00532
  20
212.45538
  0
VERTEX
  5
11f0
  8
Layer_0
  10
206.91932
  20
212.38984
  0
SEQEND
  0
POLYLINE
  5
11f2
  8
Layer_0
  62
0
  66
1
  10
0
  20
0
  30
0
  0
VERTEX
  5
11f2
  8
Layer_0
  10
191.74319
  20
221.96465
  0
VERTEX
  5
11f3
  8
Layer_0
  10
191.73084
  20
221.93191
  0
VERTEX
  5
11f4
  8
Layer_0
  10
191.71214
  20
221.86514
  0
VERTEX
  5
11f5
  8
Layer_0
  10
191.68802
  20
221.76837
  0
VERTEX
  5
11f6
  8
Layer_0
  10
191.6594
  20
221.64566
  0
VERTEX
  5
11f7
  8
Layer_0
  10
191.59236
  20
221.33865
  0
VERTEX
  5
11f8
  8
Layer_0
  10
191.51838
  20
220.97653
  0
VERTEX
  5
11f9
  8
Layer_0
  10
191.42384
  20
220.43456
  0
VERTEX
  5
11fa
  8
Layer_0
  10
191.36844
  20
219.89491
  0
VERTEX
  5
11fb
  8
Layer_0
  10
191.35227
  20
219.57866
  0
VERTEX
  5
11fc
  8
Layer_0
  10
191.34211
  20
219.20625
  0
VERTEX
  5
11fd
  8
Layer_0
  10
191.3367
  20
218.75874
  0
VERTEX
  5
11fe
  8
Layer_0
  10
191.33479
  20
218.21721
  0
VERTEX
  5
11ff
  8
Layer_0
  10
191.33944
  20
217.55345
  0
VERTEX
  5
1200
  8
Layer_0
  10
191.35597
  20
216.96291
  0
VERTEX
  5
1201
  8
Layer_0
  10
191.38617
  20
216.42992
  0
VERTEX
  5
1202
  8
Layer_0
  10
191.43181
  20
215.93881
  0
VERTEX
  5
1203
  8
Layer_0
  10
191.57653
  20
215.01949
  0
VERTEX
  5
1204
  8
Layer_0
  10
191.80437
  20
214.07958
  42
0.081750563
  0
VERTEX
  5
1205
  8
Layer_0
  10
193.95071
  20
209.41951
  42
0.068962628
  0
VERTEX
  5
1206
  8
Layer_0
  10
196.95747
  20
206.09177
  0
VERTEX
  5
1207
  8
Layer_0
  10
197.19255
  20
205.90409
  0
VERTEX
  5
1208
  8
Layer_0
  10
197.48825
  20
205.68339
  0
VERTEX
  5
1209
  8
Layer_0
  10
197.82414
  20
205.44353
  0
VERTEX
  5
120a
  8
Layer_0
  10
198.17977
  20
205.19837
  0
VERTEX
  5
120b
  8
Layer_0
  10
198.53468
  20
204.96178
  0
VERTEX
  5
120c
  8
Layer_0
  10
198.86845
  20
204.74762
  0
VERTEX
  5
120d
  8
Layer_0
  10
199.16061
  20
204.56975
  0
VERTEX
  5
120e
  8
Layer_0
  10
199.39072
  20
204.44204
  0
VERTEX
  5
120f
  8
Layer_0
  10
199.57956
  20
204.34339
  0
VERTEX
  5
1210
  8
Layer_0
  10
199.70658
  20
204.29703
  0
VERTEX
  5
1211
  8
Layer_0
  10
199.74222
  20
204.30784
  0
VERTEX
  5
1212
  8
Layer_0
  10
199.75678
  20
204.34896
  0
VERTEX
  5
1213
  8
Layer_0
  10
199.74838
  20
204.42616
  0
VERTEX
  5
1214
  8
Layer_0
  10
199.71516
  20
204.54517
  0
VERTEX
  5
1215
  8
Layer_0
  10
199.65523
  20
204.71175
  0
VERTEX
  5
1216
  8
Layer_0
  10
199.56673
  20
204.93164
  0
VERTEX
  5
1217
  8
Layer_0
  10
199.44776
  20
205.21059
  0
VERTEX
  5
1218
  8
Layer_0
  10
199.29647
  20
205.55435
  0
VERTEX
  5
1219
  8
Layer_0
  10
199.11097
  20
205.96868
  0
VERTEX
  5
121a
  8
Layer_0
  10
198.8894
  20
206.45931
  0
VERTEX
  5
121b
  8
Layer_0
  10
198.62987
  20
207.03199
  0
VERTEX
  5
121c
  8
Layer_0
  10
198.33051
  20
207.69248
  42
-0.0045457887
  0
VERTEX
  5
121d
  8
Layer_0
  10
197.69106
  20
209.13313
  42
0.0095339375
  0
VERTEX
  5
121e
  8
Layer_0
  10
197.1209
  20
210.38582
  0
VERTEX
  5
121f
  8
Layer_0
  10
197.00001
  20
210.64229
  0
VERTEX
  5
1220
  8
Layer_0
  10
196.90101
  20
210.85833
  0
VERTEX
  5
1221
  8
Layer_0
  10
196.83412
  20
211.0112
  0
VERTEX
  5
1222
  8
Layer_0
  10
196.80956
  20
211.07819
  0
VERTEX
  5
1223
  8
Layer_0
  10
196.785
  20
211.14643
  0
VERTEX
  5
1224
  8
Layer_0
  10
196.71815
  20
211.3027
  0
VERTEX
  5
1225
  8
Layer_0
  10
196.61921
  20
211.52376
  0
VERTEX
  5
1226
  8
Layer_0
  10
196.49839
  20
211.78638
  42
-0.0049495466
  0
VERTEX
  5
1227
  8
Layer_0
  10
194.87541
  20
215.37595
  42
0.0055223329
  0
VERTEX
  5
1228
  8
Layer_0
  10
194.21063
  20
216.8566
  42
-0.0051456364
  0
VERTEX
  5
1229
  8
Layer_0
  10
192.43051
  20
220.81839
  0
VERTEX
  5
122a
  8
Layer_0
  10
192.27618
  20
221.16163
  0
VERTEX
  5
122b
  8
Layer_0
  10
192.14615
  20
221.43983
  0
VERTEX
  5
122c
  8
Layer_0
  10
192.03803
  20
221.65694
  0
VERTEX
  5
122d
  8
Layer_0
  10
191.94946
  20
221.81693
  0
VERTEX
  5
122e
  8
Layer_0
  10
191.87806
  20
221.92373
  0
VERTEX
  5
122f
  8
Layer_0
  10
191.82146
  20
221.98132
  0
VERTEX
  5
1230
  8
Layer_0
  10
191.7773
  20
221.99364
  0
VERTEX
  5
1231
  8
Layer_0
  10
191.74319
  20
221.96465
  0
SEQEND
  0
POLYLINE
  5
1233
  8
Layer_0
  62
0
  66
1
  10
0
  20
0
  30
0
  0
VERTEX
  5
1233
  8
Layer_0
  10
205.53348
  20
233.89318
  0
VERTEX
  5
1234
  8
Layer_0
  10
204.80348
  20
233.78775
  0
VERTEX
  5
1235
  8
Layer_0
  10
204.02311
  20
233.65799
  0
VERTEX
  5
1236
  8
Layer_0
  10
203.66724
  20
233.59336
  0
VERTEX
  5
1237
  8
Layer_0
  10
203.36263
  20
233.53389
  0
VERTEX
  5
1238
  8
Layer_0
  10
203.13057
  20
233.48334
  0
VERTEX
  5
1239
  8
Layer_0
  10
202.99233
  20
233.44546
  0
VERTEX
  5
123a
  8
Layer_0
  10
202.88778
  20
233.39796
  0
VERTEX
  5
123b
  8
Layer_0
  10
202.80547
  20
233.3408
  0
VERTEX
  5
123c
  8
Layer_0
  10
202.75156
  20
233.27934
  0
VERTEX
  5
123d
  8
Layer_0
  10
202.73222
  20
233.21895
  0
VERTEX
  5
123e
  8
Layer_0
  10
202.74043
  20
233.1597
  0
VERTEX
  5
123f
  8
Layer_0
  10
202.7662
  20
233.06888
  0
VERTEX
  5
1240
  8
Layer_0
  10
202.81124
  20
232.94234
  0
VERTEX
  5
1241
  8
Layer_0
  10
202.87724
  20
232.77596
  0
VERTEX
  5
1242
  8
Layer_0
  10
202.9659
  20
232.56557
  0
VERTEX
  5
1243
  8
Layer_0
  10
203.07894
  20
232.30703
  0
VERTEX
  5
1244
  8
Layer_0
  10
203.21804
  20
231.9962
  0
VERTEX
  5
1245
  8
Layer_0
  10
203.38491
  20
231.62892
  42
-0.0013717509
  0
VERTEX
  5
1246
  8
Layer_0
  10
205.93625
  20
225.98071
  0
VERTEX
  5
1247
  8
Layer_0
  10
206.09527
  20
225.62789
  0
VERTEX
  5
1248
  8
Layer_0
  10
206.23695
  20
225.31451
  0
VERTEX
  5
1249
  8
Layer_0
  10
206.36246
  20
225.03827
  0
VERTEX
  5
124a
  8
Layer_0
  10
206.47296
  20
224.79687
  0
VERTEX
  5
124b
  8
Layer_0
  10
206.56962
  20
224.588
  0
VERTEX
  5
124c
  8
Layer_0
  10
206.65361
  20
224.40937
  0
VERTEX
  5
124d
  8
Layer_0
  10
206.7261
  20
224.25867
  0
VERTEX
  5
124e
  8
Layer_0
  10
206.78826
  20
224.13361
  0
VERTEX
  5
124f
  8
Layer_0
  10
206.88624
  20
223.95117
  0
VERTEX
  5
1250
  8
Layer_0
  10
206.95691
  20
223.84364
  0
VERTEX
  5
1251
  8
Layer_0
  10
207.00961
  20
223.79263
  0
VERTEX
  5
1252
  8
Layer_0
  10
207.05368
  20
223.77972
  0
VERTEX
  5
1253
  8
Layer_0
  10
207.07353
  20
223.79728
  0
VERTEX
  5
1254
  8
Layer_0
  10
207.10713
  20
223.84761
  0
VERTEX
  5
1255
  8
Layer_0
  10
207.15268
  20
223.92717
  0
VERTEX
  5
1256
  8
Layer_0
  10
207.20835
  20
224.03245
  0
VERTEX
  5
1257
  8
Layer_0
  10
207.3428
  20
224.30603
  0
VERTEX
  5
1258
  8
Layer_0
  10
207.496
  20
224.6401
  42
-0.0035410094
  0
VERTEX
  5
1259
  8
Layer_0
  10
208.13687
  20
226.06075
  42
0.0057412904
  0
VERTEX
  5
125a
  8
Layer_0
  10
208.65588
  20
227.22127
  42
-0.0072932719
  0
VERTEX
  5
125b
  8
Layer_0
  10
209.26582
  20
228.56668
  0
VERTEX
  5
125c
  8
Layer_0
  10
209.40152
  20
228.85832
  0
VERTEX
  5
125d
  8
Layer_0
  10
209.51265
  20
229.10156
  0
VERTEX
  5
125e
  8
Layer_0
  10
209.55542
  20
229.19709
  0
VERTEX
  5
125f
  8
Layer_0
  10
209.58774
  20
229.27099
  0
VERTEX
  5
1260
  8
Layer_0
  10
209.60818
  20
229.32008
  0
VERTEX
  5
1261
  8
Layer_0
  10
209.61531
  20
229.34118
  0
VERTEX
  5
1262
  8
Layer_0
  10
209.63823
  20
229.40199
  0
VERTEX
  5
1263
  8
Layer_0
  10
209.70064
  20
229.54584
  0
VERTEX
  5
1264
  8
Layer_0
  10
209.79299
  20
229.75124
  0
VERTEX
  5
1265
  8
Layer_0
  10
209.90577
  20
229.99667
  0
VERTEX
  5
1266
  8
Layer_0
  10
210.185
  20
230.60347
  0
VERTEX
  5
1267
  8
Layer_0
  10
210.44553
  20
231.17904
  0
VERTEX
  5
1268
  8
Layer_0
  10
210.68163
  20
231.71009
  0
VERTEX
  5
1269
  8
Layer_0
  10
210.88761
  20
232.18332
  0
VERTEX
  5
126a
  8
Layer_0
  10
211.05775
  20
232.58547
  0
VERTEX
  5
126b
  8
Layer_0
  10
211.18634
  20
232.90323
  0
VERTEX
  5
126c
  8
Layer_0
  10
211.23328
  20
233.02632
  0
VERTEX
  5
126d
  8
Layer_0
  10
211.26769
  20
233.12333
  0
VERTEX
  5
126e
  8
Layer_0
  10
211.28885
  20
233.1926
  0
VERTEX
  5
126f
  8
Layer_0
  10
211.29607
  20
233.23248
  0
VERTEX
  5
1270
  8
Layer_0
  10
211.28197
  20
233.29293
  0
VERTEX
  5
1271
  8
Layer_0
  10
211.23415
  20
233.34817
  0
VERTEX
  5
1272
  8
Layer_0
  10
211.14432
  20
233.40084
  0
VERTEX
  5
1273
  8
Layer_0
  10
211.00422
  20
233.45361
  0
VERTEX
  5
1274
  8
Layer_0
  10
210.80555
  20
233.50911
  0
VERTEX
  5
1275
  8
Layer_0
  10
210.54005
  20
233.56998
  0
VERTEX
  5
1276
  8
Layer_0
  10
210.19942
  20
233.63888
  0
VERTEX
  5
1277
  8
Layer_0
  10
209.77538
  20
233.71845
  0
VERTEX
  5
1278
  8
Layer_0
  10
209.60024
  20
233.74611
  0
VERTEX
  5
1279
  8
Layer_0
  10
209.38596
  20
233.77265
  0
VERTEX
  5
127a
  8
Layer_0
  10
209.13837
  20
233.79784
  0
VERTEX
  5
127b
  8
Layer_0
  10
208.86328
  20
233.82144
  0
VERTEX
  5
127c
  8
Layer_0
  10
208.25385
  20
233.8629
  0
VERTEX
  5
127d
  8
Layer_0
  10
207.60419
  20
233.89511
  0
VERTEX
  5
127e
  8
Layer_0
  10
206.96081
  20
233.91616
  0
VERTEX
  5
127f
  8
Layer_0
  10
206.37023
  20
233.92413
  0
VERTEX
  5
1280
  8
Layer_0
  10
206.10927
  20
233.92261
  0
VERTEX
  5
1281
  8
Layer_0
  10
205.87894
  20
233.91711
  0
VERTEX
  5
1282
  8
Layer_0
  10
205.68508
  20
233.90738
  0
VERTEX
  5
1283
  8
Layer_0
  10
205.53348
  20
233.89318
  0
SEQEND
  0
POLYLINE
  5
1285
  8
Layer_0
  62
0
  66
1
  10
0
  20
0
  30
0
  0
VERTEX
  5
1285
  8
Layer_0
  10
209.85542
  20
238.31074
  0
VERTEX
  5
1286
  8
Layer_0
  10
210.89968
  20
238.12862
  0
VERTEX
  5
1287
  8
Layer_0
  10
211.94493
  20
237.88957
  0
VERTEX
  5
1288
  8
Layer_0
  10
212.98204
  20
237.59694
  0
VERTEX
  5
1289
  8
Layer_0
  10
214.00183
  20
237.25404
  0
VERTEX
  5
128a
  8
Layer_0
  10
214.99517
  20
236.86422
  0
VERTEX
  5
128b
  8
Layer_0
  10
215.95289
  20
236.4308
  0
VERTEX
  5
128c
  8
Layer_0
  10
216.86584
  20
235.95711
  0
VERTEX
  5
128d
  8
Layer_0
  10
217.72488
  20
235.44648
  0
VERTEX
  5
128e
  8
Layer_0
  10
218.58452
  20
234.87035
  0
VERTEX
  5
128f
  8
Layer_0
  10
219.41308
  20
234.25764
  0
VERTEX
  5
1290
  8
Layer_0
  10
220.20582
  20
233.61281
  0
VERTEX
  5
1291
  8
Layer_0
  10
220.95798
  20
232.94031
  0
VERTEX
  5
1292
  8
Layer_0
  10
221.66484
  20
232.24458
  0
VERTEX
  5
1293
  8
Layer_0
  10
222.32163
  20
231.53008
  0
VERTEX
  5
1294
  8
Layer_0
  10
222.92363
  20
230.80125
  0
VERTEX
  5
1295
  8
Layer_0
  10
223.46608
  20
230.06254
  0
VERTEX
  5
1296
  8
Layer_0
  10
223.57653
  20
229.904
  0
VERTEX
  5
1297
  8
Layer_0
  10
223.67356
  20
229.76816
  0
VERTEX
  5
1298
  8
Layer_0
  10
223.74668
  20
229.66946
  0
VERTEX
  5
1299
  8
Layer_0
  10
223.78541
  20
229.62234
  0
VERTEX
  5
129a
  8
Layer_0
  10
223.8221
  20
229.57981
  0
VERTEX
  5
129b
  8
Layer_0
  10
223.87564
  20
229.505
  0
VERTEX
  5
129c
  8
Layer_0
  10
223.94406
  20
229.40139
  0
VERTEX
  5
129d
  8
Layer_0
  10
224.02537
  20
229.27242
  0
VERTEX
  5
129e
  8
Layer_0
  10
224.21873
  20
228.95226
  0
VERTEX
  5
129f
  8
Layer_0
  10
224.43986
  20
228.57219
  0
VERTEX
  5
12a0
  8
Layer_0
  10
224.67292
  20
228.15987
  0
VERTEX
  5
12a1
  8
Layer_0
  10
224.90204
  20
227.74297
  0
VERTEX
  5
12a2
  8
Layer_0
  10
225.11137
  20
227.34914
  0
VERTEX
  5
12a3
  8
Layer_0
  10
225.28505
  20
227.00606
  0
VERTEX
  5
12a4
  8
Layer_0
  10
225.81405
  20
225.81419
  0
VERTEX
  5
12a5
  8
Layer_0
  10
226.28544
  20
224.54649
  0
VERTEX
  5
12a6
  8
Layer_0
  10
226.48794
  20
223.91839
  0
VERTEX
  5
12a7
  8
Layer_0
  10
226.66215
  20
223.31233
  0
VERTEX
  5
12a8
  8
Layer_0
  10
226.80341
  20
222.74201
  0
VERTEX
  5
12a9
  8
Layer_0
  10
226.90711
  20
222.22107
  0
VERTEX
  5
12aa
  8
Layer_0
  10
226.96381
  20
221.88529
  0
VERTEX
  5
12ab
  8
Layer_0
  10
227.01373
  20
221.58524
  0
VERTEX
  5
12ac
  8
Layer_0
  10
227.05729
  20
221.31578
  0
VERTEX
  5
12ad
  8
Layer_0
  10
227.09493
  20
221.07177
  0
VERTEX
  5
12ae
  8
Layer_0
  10
227.1542
  20
220.63953
  0
VERTEX
  5
12af
  8
Layer_0
  10
227.19505
  20
220.24739
  0
VERTEX
  5
12b0
  8
Layer_0
  10
227.22096
  20
219.85422
  0
VERTEX
  5
12b1
  8
Layer_0
  10
227.23543
  20
219.41889
  0
VERTEX
  5
12b2
  8
Layer_0
  10
227.23947
  20
219.17256
  0
VERTEX
  5
12b3
  8
Layer_0
  10
227.24196
  20
218.90027
  0
VERTEX
  5
12b4
  8
Layer_0
  10
227.24334
  20
218.59688
  0
VERTEX
  5
12b5
  8
Layer_0
  10
227.24405
  20
218.25723
  0
VERTEX
  5
12b6
  8
Layer_0
  10
227.2401
  20
217.55182
  0
VERTEX
  5
12b7
  8
Layer_0
  10
227.22475
  20
216.92205
  0
VERTEX
  5
12b8
  8
Layer_0
  10
227.19593
  20
216.34725
  0
VERTEX
  5
12b9
  8
Layer_0
  10
227.15159
  20
215.80678
  0
VERTEX
  5
12ba
  8
Layer_0
  10
227.08967
  20
215.27999
  0
VERTEX
  5
12bb
  8
Layer_0
  10
227.00812
  20
214.74622
  0
VERTEX
  5
12bc
  8
Layer_0
  10
226.90487
  20
214.18481
  0
VERTEX
  5
12bd
  8
Layer_0
  10
226.77788
  20
213.57513
  0
VERTEX
  5
12be
  8
Layer_0
  10
226.7455
  20
213.43826
  0
VERTEX
  5
12bf
  8
Layer_0
  10
226.70197
  20
213.27237
  0
VERTEX
  5
12c0
  8
Layer_0
  10
226.64868
  20
213.08171
  0
VERTEX
  5
12c1
  8
Layer_0
  10
226.58703
  20
212.87056
  0
VERTEX
  5
12c2
  8
Layer_0
  10
226.44421
  20
212.40374
  0
VERTEX
  5
12c3
  8
Layer_0
  10
226.28463
  20
211.90595
  0
VERTEX
  5
12c4
  8
Layer_0
  10
226.11945
  20
211.41125
  0
VERTEX
  5
12c5
  8
Layer_0
  10
225.95979
  20
210.95365
  0
VERTEX
  5
12c6
  8
Layer_0
  10
225.88551
  20
210.74941
  0
VERTEX
  5
12c7
  8
Layer_0
  10
225.8168
  20
210.56722
  0
VERTEX
  5
12c8
  8
Layer_0
  10
225.75504
  20
210.41133
  0
VERTEX
  5
12c9
  8
Layer_0
  10
225.70162
  20
210.28599
  0
VERTEX
  5
12ca
  8
Layer_0
  10
225.03392
  20
208.92385
  0
VERTEX
  5
12cb
  8
Layer_0
  10
224.27848
  20
207.57924
  0
VERTEX
  5
12cc
  8
Layer_0
  10
223.89886
  20
206.96534
  0
VERTEX
  5
12cd
  8
Layer_0
  10
223.53452
  20
206.41801
  0
VERTEX
  5
12ce
  8
Layer_0
  10
223.36195
  20
206.17579
  0
VERTEX
  5
12cf
  8
Layer_0
  10
223.19786
  20
205.95799
  0
VERTEX
  5
12d0
  8
Layer_0
  10
223.04379
  20
205.7672
  0
VERTEX
  5
12d1
  8
Layer_0
  10
222.90129
  20
205.60601
  42
0.016239592
  0
VERTEX
  5
12d2
  8
Layer_0
  10
222.30103
  20
204.89276
  0
VERTEX
  5
12d3
  8
Layer_0
  10
221.83544
  20
204.35991
  0
VERTEX
  5
12d4
  8
Layer_0
  10
221.30617
  20
203.8155
  0
VERTEX
  5
12d5
  8
Layer_0
  10
220.72332
  20
203.26793
  0
VERTEX
  5
12d6
  8
Layer_0
  10
220.097
  20
202.72563
  0
VERTEX
  5
12d7
  8
Layer_0
  10
219.43731
  20
202.19702
  0
VERTEX
  5
12d8
  8
Layer_0
  10
218.75436
  20
201.6905
  0
VERTEX
  5
12d9
  8
Layer_0
  10
218.05825
  20
201.2145
  0
VERTEX
  5
12da
  8
Layer_0
  10
217.35911
  20
200.77744
  0
VERTEX
  5
12db
  8
Layer_0
  10
216.67342
  20
200.38666
  0
VERTEX
  5
12dc
  8
Layer_0
  10
215.98162
  20
200.0274
  0
VERTEX
  5
12dd
  8
Layer_0
  10
215.27645
  20
199.69679
  0
VERTEX
  5
12de
  8
Layer_0
  10
214.55065
  20
199.39194
  0
VERTEX
  5
12df
  8
Layer_0
  10
213.79697
  20
199.10999
  0
VERTEX
  5
12e0
  8
Layer_0
  10
213.00815
  20
198.84805
  0
VERTEX
  5
12e1
  8
Layer_0
  10
212.17693
  20
198.60324
  0
VERTEX
  5
12e2
  8
Layer_0
  10
211.29607
  20
198.3727
  0
VERTEX
  5
12e3
  8
Layer_0
  10
210.94447
  20
198.29391
  0
VERTEX
  5
12e4
  8
Layer_0
  10
210.56173
  20
198.22305
  0
VERTEX
  5
12e5
  8
Layer_0
  10
210.1517
  20
198.16025
  0
VERTEX
  5
12e6
  8
Layer_0
  10
209.71823
  20
198.10564
  0
VERTEX
  5
12e7
  8
Layer_0
  10
208.79644
  20
198.02146
  0
VERTEX
  5
12e8
  8
Layer_0
  10
207.82719
  20
197.97155
  0
VERTEX
  5
12e9
  8
Layer_0
  10
206.84135
  20
197.95693
  0
VERTEX
  5
12ea
  8
Layer_0
  10
205.86978
  20
197.9786
  0
VERTEX
  5
12eb
  8
Layer_0
  10
204.94332
  20
198.03759
  0
VERTEX
  5
12ec
  8
Layer_0
  10
204.09283
  20
198.13492
  0
VERTEX
  5
12ed
  8
Layer_0
  10
203.21773
  20
198.28751
  0
VERTEX
  5
12ee
  8
Layer_0
  10
202.30248
  20
198.49313
  0
VERTEX
  5
12ef
  8
Layer_0
  10
201.37211
  20
198.74343
  0
VERTEX
  5
12f0
  8
Layer_0
  10
200.45166
  20
199.03008
  0
VERTEX
  5
12f1
  8
Layer_0
  10
199.56617
  20
199.34473
  0
VERTEX
  5
12f2
  8
Layer_0
  10
198.74067
  20
199.67906
  0
VERTEX
  5
12f3
  8
Layer_0
  10
198.35824
  20
199.851
  0
VERTEX
  5
12f4
  8
Layer_0
  10
198.0002
  20
200.02472
  0
VERTEX
  5
12f5
  8
Layer_0
  10
197.66968
  20
200.1992
  0
VERTEX
  5
12f6
  8
Layer_0
  10
197.36981
  20
200.37339
  42
0.013024332
  0
VERTEX
  5
12f7
  8
Layer_0
  10
196.72952
  20
200.74063
  0
VERTEX
  5
12f8
  8
Layer_0
  10
196.12164
  20
201.09823
  0
VERTEX
  5
12f9
  8
Layer_0
  10
195.4795
  20
201.52671
  0
VERTEX
  5
12fa
  8
Layer_0
  10
194.81627
  20
202.01513
  0
VERTEX
  5
12fb
  8
Layer_0
  10
194.1451
  20
202.55254
  0
VERTEX
  5
12fc
  8
Layer_0
  10
193.47913
  20
203.128
  0
VERTEX
  5
12fd
  8
Layer_0
  10
192.83153
  20
203.73056
  0
VERTEX
  5
12fe
  8
Layer_0
  10
192.21545
  20
204.34926
  0
VERTEX
  5
12ff
  8
Layer_0
  10
191.64405
  20
204.97317
  0
VERTEX
  5
1300
  8
Layer_0
  10
191.15618
  20
205.56128
  0
VERTEX
  5
1301
  8
Layer_0
  10
190.67427
  20
206.20119
  0
VERTEX
  5
1302
  8
Layer_0
  10
190.20384
  20
206.88377
  0
VERTEX
  5
1303
  8
Layer_0
  10
189.75043
  20
207.5999
  0
VERTEX
  5
1304
  8
Layer_0
  10
189.31958
  20
208.34046
  0
VERTEX
  5
1305
  8
Layer_0
  10
188.91682
  20
209.09633
  0
VERTEX
  5
1306
  8
Layer_0
  10
188.5477
  20
209.85839
  0
VERTEX
  5
1307
  8
Layer_0
  10
188.21774
  20
210.61751
  0
VERTEX
  5
1308
  8
Layer_0
  10
187.89539
  20
211.46043
  0
VERTEX
  5
1309
  8
Layer_0
  10
187.61246
  20
212.31502
  0
VERTEX
  5
130a
  8
Layer_0
  10
187.36901
  20
213.17989
  0
VERTEX
  5
130b
  8
Layer_0
  10
187.16506
  20
214.05371
  0
VERTEX
  5
130c
  8
Layer_0
  10
187.00067
  20
214.93509
  0
VERTEX
  5
130d
  8
Layer_0
  10
186.87586
  20
215.82267
  0
VERTEX
  5
130e
  8
Layer_0
  10
186.79068
  20
216.71511
  0
VERTEX
  5
130f
  8
Layer_0
  10
186.74517
  20
217.61102
  0
VERTEX
  5
1310
  8
Layer_0
  10
186.73936
  20
218.50905
  0
VERTEX
  5
1311
  8
Layer_0
  10
186.7733
  20
219.40784
  0
VERTEX
  5
1312
  8
Layer_0
  10
186.84702
  20
220.30602
  0
VERTEX
  5
1313
  8
Layer_0
  10
186.96056
  20
221.20224
  0
VERTEX
  5
1314
  8
Layer_0
  10
187.11396
  20
222.09512
  0
VERTEX
  5
1315
  8
Layer_0
  10
187.30726
  20
222.98331
  0
VERTEX
  5
1316
  8
Layer_0
  10
187.5405
  20
223.86544
  0
VERTEX
  5
1317
  8
Layer_0
  10
187.81372
  20
224.74015
  0
VERTEX
  5
1318
  8
Layer_0
  10
188.09747
  20
225.52419
  0
VERTEX
  5
1319
  8
Layer_0
  10
188.41665
  20
226.29787
  0
VERTEX
  5
131a
  8
Layer_0
  10
188.77013
  20
227.05976
  0
VERTEX
  5
131b
  8
Layer_0
  10
189.15679
  20
227.8084
  0
VERTEX
  5
131c
  8
Layer_0
  10
189.57551
  20
228.54237
  0
VERTEX
  5
131d
  8
Layer_0
  10
190.02517
  20
229.26022
  0
VERTEX
  5
131e
  8
Layer_0
  10
190.50465
  20
229.9605
  0
VERTEX
  5
131f
  8
Layer_0
  10
191.01282
  20
230.64178
  0
VERTEX
  5
1320
  8
Layer_0
  10
191.54856
  20
231.3026
  0
VERTEX
  5
1321
  8
Layer_0
  10
192.11076
  20
231.94154
  0
VERTEX
  5
1322
  8
Layer_0
  10
192.69829
  20
232.55714
  0
VERTEX
  5
1323
  8
Layer_0
  10
193.31002
  20
233.14797
  0
VERTEX
  5
1324
  8
Layer_0
  10
193.94485
  20
233.71259
  0
VERTEX
  5
1325
  8
Layer_0
  10
194.60163
  20
234.24954
  0
VERTEX
  5
1326
  8
Layer_0
  10
195.27927
  20
234.75739
  0
VERTEX
  5
1327
  8
Layer_0
  10
195.97662
  20
235.2347
  0
VERTEX
  5
1328
  8
Layer_0
  10
196.20169
  20
235.37638
  0
VERTEX
  5
1329
  8
Layer_0
  10
196.49525
  20
235.55375
  0
VERTEX
  5
132a
  8
Layer_0
  10
196.82797
  20
235.74999
  0
VERTEX
  5
132b
  8
Layer_0
  10
197.17053
  20
235.94828
  0
VERTEX
  5
132c
  8
Layer_0
  10
197.49358
  20
236.13178
  0
VERTEX
  5
132d
  8
Layer_0
  10
197.76781
  20
236.28369
  0
VERTEX
  5
132e
  8
Layer_0
  10
197.87745
  20
236.34253
  0
VERTEX
  5
132f
  8
Layer_0
  10
197.96388
  20
236.38717
  0
VERTEX
  5
1330
  8
Layer_0
  10
198.02344
  20
236.41549
  0
VERTEX
  5
1331
  8
Layer_0
  10
198.05246
  20
236.4254
  0
VERTEX
  5
1332
  8
Layer_0
  10
198.11364
  20
236.44976
  0
VERTEX
  5
1333
  8
Layer_0
  10
198.26414
  20
236.51607
  0
VERTEX
  5
1334
  8
Layer_0
  10
198.4813
  20
236.61422
  0
VERTEX
  5
1335
  8
Layer_0
  10
198.74248
  20
236.73407
  42
-0.081587411
  0
VERTEX
  5
1336
  8
Layer_0
  10
204.57304
  20
238.33795
  42
0.006946041
  0
VERTEX
  5
1337
  8
Layer_0
  10
205.65353
  20
238.46088
  0
VERTEX
  5
1338
  8
Layer_0
  10
205.77684
  20
238.47198
  0
VERTEX
  5
1339
  8
Layer_0
  10
205.94928
  20
238.47927
  0
VERTEX
  5
133a
  8
Layer_0
  10
206.1643
  20
238.48296
  0
VERTEX
  5
133b
  8
Layer_0
  10
206.41535
  20
238.48331
  0
VERTEX
  5
133c
  8
Layer_0
  10
206.99937
  20
238.47485
  0
VERTEX
  5
133d
  8
Layer_0
  10
207.64896
  20
238.45578
  0
VERTEX
  5
133e
  8
Layer_0
  10
208.31173
  20
238.42796
  0
VERTEX
  5
133f
  8
Layer_0
  10
208.93532
  20
238.39327
  0
VERTEX
  5
1340
  8
Layer_0
  10
209.21605
  20
238.37393
  0
VERTEX
  5
1341
  8
Layer_0
  10
209.46734
  20
238.35357
  0
VERTEX
  5
1342
  8
Layer_0
  10
209.68265
  20
238.33243
  0
VERTEX
  5
1343
  8
Layer_0
  10
209.85542
  20
238.31074
  0
SEQEND
  0
POLYLINE
  5
1345
  8
Layer_0
  62
0
  66
1
  10
0
  20
0
  30
0
  0
VERTEX
  5
1345
  8
Layer_0
  10
205.65353
  20
240.42591
  0
VERTEX
  5
1346
  8
Layer_0
  10
205.05064
  20
240.3835
  0
VERTEX
  5
1347
  8
Layer_0
  10
204.5103
  20
240.32481
  0
VERTEX
  5
1348
  8
Layer_0
  10
204.20831
  20
240.28211
  0
VERTEX
  5
1349
  8
Layer_0
  10
203.85562
  20
240.22662
  0
VERTEX
  5
134a
  8
Layer_0
  10
203.43013
  20
240.15546
  0
VERTEX
  5
134b
  8
Layer_0
  10
202.90973
  20
240.06571
  0
VERTEX
  5
134c
  8
Layer_0
  10
202.46295
  20
239.97891
  0
VERTEX
  5
134d
  8
Layer_0
  10
201.964
  20
239.86626
  0
VERTEX
  5
134e
  8
Layer_0
  10
201.43315
  20
239.73347
  0
VERTEX
  5
134f
  8
Layer_0
  10
200.8907
  20
239.58625
  0
VERTEX
  5
1350
  8
Layer_0
  10
200.35693
  20
239.43032
  0
VERTEX
  5
1351
  8
Layer_0
  10
199.85212
  20
239.27139
  0
VERTEX
  5
1352
  8
Layer_0
  10
199.39656
  20
239.11517
  0
VERTEX
  5
1353
  8
Layer_0
  10
199.01054
  20
238.96739
  0
VERTEX
  5
1354
  8
Layer_0
  10
198.16588
  20
238.60614
  0
VERTEX
  5
1355
  8
Layer_0
  10
197.36441
  20
238.23437
  0
VERTEX
  5
1356
  8
Layer_0
  10
196.60158
  20
237.84948
  0
VERTEX
  5
1357
  8
Layer_0
  10
195.87286
  20
237.44885
  0
VERTEX
  5
1358
  8
Layer_0
  10
195.17368
  20
237.02987
  0
VERTEX
  5
1359
  8
Layer_0
  10
194.4995
  20
236.58992
  0
VERTEX
  5
135a
  8
Layer_0
  10
193.84577
  20
236.1264
  0
VERTEX
  5
135b
  8
Layer_0
  10
193.20794
  20
235.63669
  0
VERTEX
  5
135c
  8
Layer_0
  10
193.01801
  20
235.48098
  0
VERTEX
  5
135d
  8
Layer_0
  10
192.80881
  20
235.30193
  0
VERTEX
  5
135e
  8
Layer_0
  10
192.5836
  20
235.10273
  0
VERTEX
  5
135f
  8
Layer_0
  10
192.34562
  20
234.88662
  0
VERTEX
  5
1360
  8
Layer_0
  10
191.84435
  20
234.41649
  0
VERTEX
  5
1361
  8
Layer_0
  10
191.33101
  20
233.91724
  0
VERTEX
  5
1362
  8
Layer_0
  10
190.83159
  20
233.4146
  0
VERTEX
  5
1363
  8
Layer_0
  10
190.37208
  20
232.93428
  0
VERTEX
  5
1364
  8
Layer_0
  10
190.16542
  20
232.71053
  0
VERTEX
  5
1365
  8
Layer_0
  10
189.97849
  20
232.502
  0
VERTEX
  5
1366
  8
Layer_0
  10
189.81453
  20
232.31191
  0
VERTEX
  5
1367
  8
Layer_0
  10
189.6768
  20
232.14348
  42
0.059680355
  0
VERTEX
  5
1368
  8
Layer_0
  10
186.83815
  20
227.53622
  42
0.041487176
  0
VERTEX
  5
1369
  8
Layer_0
  10
185.60782
  20
224.13988
  0
VERTEX
  5
136a
  8
Layer_0
  10
185.53532
  20
223.87084
  0
VERTEX
  5
136b
  8
Layer_0
  10
185.47071
  20
223.62951
  0
VERTEX
  5
136c
  8
Layer_0
  10
185.41339
  20
223.41301
  0
VERTEX
  5
136d
  8
Layer_0
  10
185.36273
  20
223.21842
  0
VERTEX
  5
136e
  8
Layer_0
  10
185.27887
  20
222.88341
  0
VERTEX
  5
136f
  8
Layer_0
  10
185.21415
  20
222.60133
  0
VERTEX
  5
1370
  8
Layer_0
  10
185.12208
  20
222.10322
  0
VERTEX
  5
1371
  8
Layer_0
  10
185.04652
  20
221.53871
  0
VERTEX
  5
1372
  8
Layer_0
  10
185.0041
  20
221.22291
  0
VERTEX
  5
1373
  8
Layer_0
  10
184.95732
  20
220.92512
  0
VERTEX
  5
1374
  8
Layer_0
  10
184.91188
  20
220.67886
  0
VERTEX
  5
1375
  8
Layer_0
  10
184.87344
  20
220.51762
  0
VERTEX
  5
1376
  8
Layer_0
  10
184.8541
  20
220.41244
  0
VERTEX
  5
1377
  8
Layer_0
  10
184.83725
  20
220.23733
  0
VERTEX
  5
1378
  8
Layer_0
  10
184.82289
  20
220.00194
  0
VERTEX
  5
1379
  8
Layer_0
  10
184.81104
  20
219.71595
  0
VERTEX
  5
137a
  8
Layer_0
  10
184.7949
  20
219.03082
  0
VERTEX
  5
137b
  8
Layer_0
  10
184.78892
  20
218.2593
  0
VERTEX
  5
137c
  8
Layer_0
  10
184.79318
  20
217.47872
  0
VERTEX
  5
137d
  8
Layer_0
  10
184.80776
  20
216.76644
  0
VERTEX
  5
137e
  8
Layer_0
  10
184.81895
  20
216.46008
  0
VERTEX
  5
137f
  8
Layer_0
  10
184.83275
  20
216.1998
  0
VERTEX
  5
1380
  8
Layer_0
  10
184.84918
  20
215.99527
  0
VERTEX
  5
1381
  8
Layer_0
  10
184.86825
  20
215.85615
  42
-0.0089091329
  0
VERTEX
  5
1382
  8
Layer_0
  10
185.09035
  20
214.57558
  0
VERTEX
  5
1383
  8
Layer_0
  10
185.28958
  20
213.50605
  0
VERTEX
  5
1384
  8
Layer_0
  10
185.5497
  20
212.44549
  0
VERTEX
  5
1385
  8
Layer_0
  10
185.71139
  20
211.8866
  0
VERTEX
  5
1386
  8
Layer_0
  10
185.89886
  20
211.29159
  0
VERTEX
  5
1387
  8
Layer_0
  10
186.11562
  20
210.64768
  0
VERTEX
  5
1388
  8
Layer_0
  10
186.36519
  20
209.94208
  0
VERTEX
  5
1389
  8
Layer_0
  10
186.4658
  20
209.68942
  0
VERTEX
  5
138a
  8
Layer_0
  10
186.61244
  20
209.35562
  0
VERTEX
  5
138b
  8
Layer_0
  10
186.79254
  20
208.96644
  0
VERTEX
  5
138c
  8
Layer_0
  10
186.99354
  20
208.54768
  0
VERTEX
  5
138d
  8
Layer_0
  10
187.20287
  20
208.1251
  0
VERTEX
  5
138e
  8
Layer_0
  10
187.40794
  20
207.72447
  0
VERTEX
  5
138f
  8
Layer_0
  10
187.5962
  20
207.37159
  0
VERTEX
  5
1390
  8
Layer_0
  10
187.75507
  20
207.09221
  42
-0.0023798768
  0
VERTEX
  5
1391
  8
Layer_0
  10
188.14793
  20
206.4333
  0
VERTEX
  5
1392
  8
Layer_0
  10
188.16931
  20
206.39916
  0
VERTEX
  5
1393
  8
Layer_0
  10
188.20814
  20
206.33963
  0
VERTEX
  5
1394
  8
Layer_0
  10
188.26221
  20
206.25798
  0
VERTEX
  5
1395
  8
Layer_0
  10
188.32935
  20
206.1575
  0
VERTEX
  5
1396
  8
Layer_0
  10
188.49397
  20
205.91318
  0
VERTEX
  5
1397
  8
Layer_0
  10
188.68441
  20
205.63294
  42
0.1315008
  0
VERTEX
  5
1398
  8
Layer_0
  10
197.32506
  20
198.20905
  0
VERTEX
  5
1399
  8
Layer_0
  10
197.77033
  20
197.99764
  0
VERTEX
  5
139a
  8
Layer_0
  10
198.1867
  20
197.80562
  0
VERTEX
  5
139b
  8
Layer_0
  10
198.36948
  20
197.72351
  0
VERTEX
  5
139c
  8
Layer_0
  10
198.52754
  20
197.65417
  0
VERTEX
  5
139d
  8
Layer_0
  10
198.65506
  20
197.60026
  0
VERTEX
  5
139e
  8
Layer_0
  10
198.74622
  20
197.56443
  42
0.018995475
  0
VERTEX
  5
139f
  8
Layer_0
  10
201.01144
  20
196.8111
  42
0.028034614
  0
VERTEX
  5
13a0
  8
Layer_0
  10
203.17242
  20
196.32555
  42
-0.030526564
  0
VERTEX
  5
13a1
  8
Layer_0
  10
204.05281
  20
196.14067
  0
VERTEX
  5
13a2
  8
Layer_0
  10
204.188
  20
196.11744
  0
VERTEX
  5
13a3
  8
Layer_0
  10
204.41485
  20
196.09741
  0
VERTEX
  5
13a4
  8
Layer_0
  10
204.72051
  20
196.08055
  0
VERTEX
  5
13a5
  8
Layer_0
  10
205.09212
  20
196.06687
  0
VERTEX
  5
13a6
  8
Layer_0
  10
205.51683
  20
196.05634
  0
VERTEX
  5
13a7
  8
Layer_0
  10
205.98177
  20
196.04896
  0
VERTEX
  5
13a8
  8
Layer_0
  10
206.47409
  20
196.04471
  0
VERTEX
  5
13a9
  8
Layer_0
  10
206.98093
  20
196.04358
  0
VERTEX
  5
13aa
  8
Layer_0
  10
207.98675
  20
196.05067
  0
VERTEX
  5
13ab
  8
Layer_0
  10
208.89635
  20
196.07011
  0
VERTEX
  5
13ac
  8
Layer_0
  10
209.28293
  20
196.08444
  0
VERTEX
  5
13ad
  8
Layer_0
  10
209.60689
  20
196.10184
  0
VERTEX
  5
13ae
  8
Layer_0
  10
209.85536
  20
196.12227
  0
VERTEX
  5
13af
  8
Layer_0
  10
210.01549
  20
196.14575
  42
-0.0058372415
  0
VERTEX
  5
13b0
  8
Layer_0
  10
211.65623
  20
196.4836
  0
VERTEX
  5
13b1
  8
Layer_0
  10
212.37774
  20
196.64224
  0
VERTEX
  5
13b2
  8
Layer_0
  10
213.09909
  20
196.83007
  0
VERTEX
  5
13b3
  8
Layer_0
  10
213.81864
  20
197.04623
  0
VERTEX
  5
13b4
  8
Layer_0
  10
214.53474
  20
197.28985
  0
VERTEX
  5
13b5
  8
Layer_0
  10
215.24576
  20
197.56008
  0
VERTEX
  5
13b6
  8
Layer_0
  10
215.95005
  20
197.85606
  0
VERTEX
  5
13b7
  8
Layer_0
  10
216.64596
  20
198.17692
  0
VERTEX
  5
13b8
  8
Layer_0
  10
217.33186
  20
198.5218
  0
VERTEX
  5
13b9
  8
Layer_0
  10
218.00609
  20
198.88984
  0
VERTEX
  5
13ba
  8
Layer_0
  10
218.66701
  20
199.28018
  0
VERTEX
  5
13bb
  8
Layer_0
  10
219.31298
  20
199.69196
  0
VERTEX
  5
13bc
  8
Layer_0
  10
219.94235
  20
200.12431
  0
VERTEX
  5
13bd
  8
Layer_0
  10
220.55348
  20
200.57637
  0
VERTEX
  5
13be
  8
Layer_0
  10
221.14473
  20
201.04728
  0
VERTEX
  5
13bf
  8
Layer_0
  10
221.71445
  20
201.53618
  0
VERTEX
  5
13c0
  8
Layer_0
  10
222.261
  20
202.0422
  0
VERTEX
  5
13c1
  8
Layer_0
  10
223.3672
  20
203.17333
  0
VERTEX
  5
13c2
  8
Layer_0
  10
224.39243
  20
204.34799
  0
VERTEX
  5
13c3
  8
Layer_0
  10
224.85307
  20
204.9254
  0
VERTEX
  5
13c4
  8
Layer_0
  10
225.26755
  20
205.48219
  0
VERTEX
  5
13c5
  8
Layer_0
  10
225.62722
  20
206.00787
  0
VERTEX
  5
13c6
  8
Layer_0
  10
225.92344
  20
206.49194
  42
-0.00069844851
  0
VERTEX
  5
13c7
  8
Layer_0
  10
226.42661
  20
207.37234
  0
VERTEX
  5
13c8
  8
Layer_0
  10
226.78706
  20
208.03818
  0
VERTEX
  5
13c9
  8
Layer_0
  10
227.13847
  20
208.75756
  0
VERTEX
  5
13ca
  8
Layer_0
  10
227.47436
  20
209.51363
  0
VERTEX
  5
13cb
  8
Layer_0
  10
227.78824
  20
210.28955
  0
VERTEX
  5
13cc
  8
Layer_0
  10
228.07361
  20
211.06848
  0
VERTEX
  5
13cd
  8
Layer_0
  10
228.32399
  20
211.8336
  0
VERTEX
  5
13ce
  8
Layer_0
  10
228.53289
  20
212.56804
  0
VERTEX
  5
13cf
  8
Layer_0
  10
228.69381
  20
213.25498
  42
-0.00080026244
  0
VERTEX
  5
13d0
  8
Layer_0
  10
229.00009
  20
214.73566
  0
VERTEX
  5
13d1
  8
Layer_0
  10
229.09206
  20
215.2533
  0
VERTEX
  5
13d2
  8
Layer_0
  10
229.14943
  20
215.83571
  0
VERTEX
  5
13d3
  8
Layer_0
  10
229.16864
  20
216.20486
  0
VERTEX
  5
13d4
  8
Layer_0
  10
229.1834
  20
216.65461
  0
VERTEX
  5
13d5
  8
Layer_0
  10
229.18955
  20
216.91641
  0
VERTEX
  5
13d6
  8
Layer_0
  10
229.19511
  20
217.20642
  0
VERTEX
  5
13d7
  8
Layer_0
  10
229.20025
  20
217.5273
  0
VERTEX
  5
13d8
  8
Layer_0
  10
229.20516
  20
217.88175
  0
VERTEX
  5
13d9
  8
Layer_0
  10
229.20984
  20
218.37074
  0
VERTEX
  5
13da
  8
Layer_0
  10
229.21105
  20
218.83822
  0
VERTEX
  5
13db
  8
Layer_0
  10
229.20896
  20
219.27511
  0
VERTEX
  5
13dc
  8
Layer_0
  10
229.20373
  20
219.67234
  0
VERTEX
  5
13dd
  8
Layer_0
  10
229.19552
  20
220.02082
  0
VERTEX
  5
13de
  8
Layer_0
  10
229.1845
  20
220.31148
  0
VERTEX
  5
13df
  8
Layer_0
  10
229.17083
  20
220.53524
  0
VERTEX
  5
13e0
  8
Layer_0
  10
229.15468
  20
220.68301
  0
VERTEX
  5
13e1
  8
Layer_0
  10
229.0493
  20
221.31316
  0
VERTEX
  5
13e2
  8
Layer_0
  10
228.94364
  20
221.90608
  0
VERTEX
  5
13e3
  8
Layer_0
  10
228.83659
  20
222.46535
  0
VERTEX
  5
13e4
  8
Layer_0
  10
228.72704
  20
222.9946
  0
VERTEX
  5
13e5
  8
Layer_0
  10
228.49605
  20
223.97739
  0
VERTEX
  5
13e6
  8
Layer_0
  10
228.24183
  20
224.88329
  0
VERTEX
  5
13e7
  8
Layer_0
  10
227.95555
  20
225.7411
  0
VERTEX
  5
13e8
  8
Layer_0
  10
227.62837
  20
226.57966
  0
VERTEX
  5
13e9
  8
Layer_0
  10
227.25147
  20
227.42779
  0
VERTEX
  5
13ea
  8
Layer_0
  10
226.81601
  20
228.31431
  0
VERTEX
  5
13eb
  8
Layer_0
  10
226.39941
  20
229.09078
  0
VERTEX
  5
13ec
  8
Layer_0
  10
225.93383
  20
229.90192
  0
VERTEX
  5
13ed
  8
Layer_0
  10
225.71189
  20
230.27112
  0
VERTEX
  5
13ee
  8
Layer_0
  10
225.51276
  20
230.58972
  0
VERTEX
  5
13ef
  8
Layer_0
  10
225.42539
  20
230.72388
  0
VERTEX
  5
13f0
  8
Layer_0
  10
225.34812
  20
230.83798
  0
VERTEX
  5
13f1
  8
Layer_0
  10
225.28238
  20
230.92956
  0
VERTEX
  5
13f2
  8
Layer_0
  10
225.22965
  20
230.99615
  42
-0.017580621
  0
VERTEX
  5
13f3
  8
Layer_0
  10
224.69171
  20
231.70328
  0
VERTEX
  5
13f4
  8
Layer_0
  10
224.05386
  20
232.50676
  0
VERTEX
  5
13f5
  8
Layer_0
  10
223.33689
  20
233.3118
  0
VERTEX
  5
13f6
  8
Layer_0
  10
222.55519
  20
234.10568
  0
VERTEX
  5
13f7
  8
Layer_0
  10
221.72314
  20
234.87569
  0
VERTEX
  5
13f8
  8
Layer_0
  10
220.85513
  20
235.60909
  0
VERTEX
  5
13f9
  8
Layer_0
  10
219.96554
  20
236.29317
  0
VERTEX
  5
13fa
  8
Layer_0
  10
219.06875
  20
236.9152
  0
VERTEX
  5
13fb
  8
Layer_0
  10
218.17916
  20
237.46247
  0
VERTEX
  5
13fc
  8
Layer_0
  10
217.25939
  20
237.95501
  0
VERTEX
  5
13fd
  8
Layer_0
  10
216.26932
  20
238.42082
  0
VERTEX
  5
13fe
  8
Layer_0
  10
215.23116
  20
238.8523
  0
VERTEX
  5
13ff
  8
Layer_0
  10
214.16708
  20
239.24185
  0
VERTEX
  5
1400
  8
Layer_0
  10
213.09929
  20
239.5819
  0
VERTEX
  5
1401
  8
Layer_0
  10
212.04997
  20
239.86483
  0
VERTEX
  5
1402
  8
Layer_0
  10
211.04132
  20
240.08305
  0
VERTEX
  5
1403
  8
Layer_0
  10
210.09553
  20
240.22898
  42
-0.038208927
  0
VERTEX
  5
1404
  8
Layer_0
  10
209.41522
  20
240.3476
  0
VERTEX
  5
1405
  8
Layer_0
  10
209.32711
  20
240.36532
  0
VERTEX
  5
1406
  8
Layer_0
  10
209.19795
  20
240.38177
  0
VERTEX
  5
1407
  8
Layer_0
  10
209.03234
  20
240.39687
  0
VERTEX
  5
1408
  8
Layer_0
  10
208.83487
  20
240.41051
  0
VERTEX
  5
1409
  8
Layer_0
  10
208.36275
  20
240.43304
  0
VERTEX
  5
140a
  8
Layer_0
  10
207.81836
  20
240.44861
  0
VERTEX
  5
140b
  8
Layer_0
  10
207.23847
  20
240.45644
  0
VERTEX
  5
140c
  8
Layer_0
  10
206.65986
  20
240.45578
  0
VERTEX
  5
140d
  8
Layer_0
  10
206.11929
  20
240.44586
  0
VERTEX
  5
140e
  8
Layer_0
  10
205.65353
  20
240.42591
  0
SEQEND
  0
POLYLINE
  5
1410
  8
Layer_0
  62
0
  66
1
  10
0
  20
0
  30
0
  0
VERTEX
  5
1410
  8
Layer_0
  10
385.86578
  20
223.55652
  0
VERTEX
  5
1411
  8
Layer_0
  10
385.86578
  20
288.52386
  0
VERTEX
  5
1412
  8
Layer_0
  10
272.58942
  20
288.52386
  0
VERTEX
  5
1413
  8
Layer_0
  10
272.58942
  20
223.55652
  0
VERTEX
  5
1414
  8
Layer_0
  10
385.86578
  20
223.55652
  0
SEQEND
  0
POLYLINE
  5
1416
  8
Layer_0
  62
0
  66
1
  10
0
  20
0
  30
0
  0
VERTEX
  5
1416
  8
Layer_0
  10
301.04977
  20
257.70587
  0
VERTEX
  5
1417
  8
Layer_0
  10
301.01115
  20
256.88264
  0
VERTEX
  5
1418
  8
Layer_0
  10
300.89781
  20
256.08318
  0
VERTEX
  5
1419
  8
Layer_0
  10
300.71349
  20
255.31155
  0
VERTEX
  5
141a
  8
Layer_0
  10
300.46197
  20
254.5718
  0
VERTEX
  5
141b
  8
Layer_0
  10
300.147
  20
253.86797
  0
VERTEX
  5
141c
  8
Layer_0
  10
299.77234
  20
253.20411
  0
VERTEX
  5
141d
  8
Layer_0
  10
299.34175
  20
252.58427
  0
VERTEX
  5
141e
  8
Layer_0
  10
298.85899
  20
252.01249
  0
VERTEX
  5
141f
  8
Layer_0
  10
298.32782
  20
251.49282
  0
VERTEX
  5
1420
  8
Layer_0
  10
297.752
  20
251.02931
  0
VERTEX
  5
1421
  8
Layer_0
  10
297.13529
  20
250.62601
  0
VERTEX
  5
1422
  8
Layer_0
  10
296.48145
  20
250.28695
  0
VERTEX
  5
1423
  8
Layer_0
  10
295.79424
  20
250.0162
  0
VERTEX
  5
1424
  8
Layer_0
  10
295.07742
  20
249.81779
  0
VERTEX
  5
1425
  8
Layer_0
  10
294.33474
  20
249.69578
  0
VERTEX
  5
1426
  8
Layer_0
  10
293.56998
  20
249.65421
  0
VERTEX
  5
1427
  8
Layer_0
  10
292.80521
  20
249.69578
  0
VERTEX
  5
1428
  8
Layer_0
  10
292.06254
  20
249.81779
  0
VERTEX
  5
1429
  8
Layer_0
  10
291.34572
  20
250.0162
  0
VERTEX
  5
142a
  8
Layer_0
  10
290.6585
  20
250.28695
  0
VERTEX
  5
142b
  8
Layer_0
  10
290.00466
  20
250.62601
  0
VERTEX
  5
142c
  8
Layer_0
  10
289.38795
  20
251.02931
  0
VERTEX
  5
142d
  8
Layer_0
  10
288.81213
  20
251.49282
  0
VERTEX
  5
142e
  8
Layer_0
  10
288.28096
  20
252.01249
  0
VERTEX
  5
142f
  8
Layer_0
  10
287.79821
  20
252.58427
  0
VERTEX
  5
1430
  8
Layer_0
  10
287.36762
  20
253.20411
  0
VERTEX
  5
1431
  8
Layer_0
  10
286.99295
  20
253.86797
  0
VERTEX
  5
1432
  8
Layer_0
  10
286.67798
  20
254.5718
  0
VERTEX
  5
1433
  8
Layer_0
  10
286.42646
  20
255.31155
  0
VERTEX
  5
1434
  8
Layer_0
  10
286.24215
  20
256.08318
  0
VERTEX
  5
1435
  8
Layer_0
  10
286.1288
  20
256.88264
  0
VERTEX
  5
1436
  8
Layer_0
  10
286.09018
  20
257.70587
  0
VERTEX
  5
1437
  8
Layer_0
  10
286.1288
  20
258.52911
  0
VERTEX
  5
1438
  8
Layer_0
  10
286.24215
  20
259.32856
  0
VERTEX
  5
1439
  8
Layer_0
  10
286.42646
  20
260.10019
  0
VERTEX
  5
143a
  8
Layer_0
  10
286.67798
  20
260.83994
  0
VERTEX
  5
143b
  8
Layer_0
  10
286.99295
  20
261.54377
  0
VERTEX
  5
143c
  8
Layer_0
  10
287.36762
  20
262.20763
  0
VERTEX
  5
143d
  8
Layer_0
  10
287.79821
  20
262.82747
  0
VERTEX
  5
143e
  8
Layer_0
  10
288.28096
  20
263.39925
  0
VERTEX
  5
143f
  8
Layer_0
  10
288.81213
  20
263.91892
  0
VERTEX
  5
1440
  8
Layer_0
  10
289.38795
  20
264.38243
  0
VERTEX
  5
1441
  8
Layer_0
  10
290.00466
  20
264.78574
  0
VERTEX
  5
1442
  8
Layer_0
  10
290.6585
  20
265.12479
  0
VERTEX
  5
1443
  8
Layer_0
  10
291.34572
  20
265.39554
  0
VERTEX
  5
1444
  8
Layer_0
  10
292.06254
  20
265.59395
  0
VERTEX
  5
1445
  8
Layer_0
  10
292.80521
  20
265.71596
  0
VERTEX
  5
1446
  8
Layer_0
  10
293.56998
  20
265.75753
  0
VERTEX
  5
1447
  8
Layer_0
  10
294.33474
  20
265.71596
  0
VERTEX
  5
1448
  8
Layer_0
  10
295.07742
  20
265.59395
  0
VERTEX
  5
1449
  8
Layer_0
  10
295.79424
  20
265.39554
  0
VERTEX
  5
144a
  8
Layer_0
  10
296.48145
  20
265.12479
  0
VERTEX
  5
144b
  8
Layer_0
  10
297.13529
  20
264.78574
  0
VERTEX
  5
144c
  8
Layer_0
  10
297.752
  20
264.38243
  0
VERTEX
  5
144d
  8
Layer_0
  10
298.32782
  20
263.91892
  0
VERTEX
  5
144e
  8
Layer_0
  10
298.85899
  20
263.39925
  0
VERTEX
  5
144f
  8
Layer_0
  10
299.34175
  20
262.82747
  0
VERTEX
  5
1450
  8
Layer_0
  10
299.77234
  20
262.20763
  0
VERTEX
  5
1451
  8
Layer_0
  10
300.147
  20
261.54377
  0
VERTEX
  5
1452
  8
Layer_0
  10
300.46197
  20
260.83994
  0
VERTEX
  5
1453
  8
Layer_0
  10
300.71349
  20
260.10019
  0
VERTEX
  5
1454
  8
Layer_0
  10
300.89781
  20
259.32856
  0
VERTEX
  5
1455
  8
Layer_0
  10
301.01115
  20
258.52911
  0
VERTEX
  5
1456
  8
Layer_0
  10
301.04977
  20
257.70587
  0
SEQEND
  0
POLYLINE
  5
1458
  8
Layer_0
  62
0
  66
1
  10
0
  20
0
  30
0
  0
VERTEX
  5
1458
  8
Layer_0
  10
372.12515
  20
257.70587
  0
VERTEX
  5
1459
  8
Layer_0
  10
372.08653
  20
256.88264
  0
VERTEX
  5
145a
  8
Layer_0
  10
371.97318
  20
256.08318
  0
VERTEX
  5
145b
  8
Layer_0
  10
371.78887
  20
255.31155
  0
VERTEX
  5
145c
  8
Layer_0
  10
371.53735
  20
254.5718
  0
VERTEX
  5
145d
  8
Layer_0
  10
371.22238
  20
253.86797
  0
VERTEX
  5
145e
  8
Layer_0
  10
370.84772
  20
253.20411
  0
VERTEX
  5
145f
  8
Layer_0
  10
370.41713
  20
252.58427
  0
VERTEX
  5
1460
  8
Layer_0
  10
369.93437
  20
252.01249
  0
VERTEX
  5
1461
  8
Layer_0
  10
369.4032
  20
251.49282
  0
VERTEX
  5
1462
  8
Layer_0
  10
368.82738
  20
251.02931
  0
VERTEX
  5
1463
  8
Layer_0
  10
368.21067
  20
250.62601
  0
VERTEX
  5
1464
  8
Layer_0
  10
367.55683
  20
250.28695
  0
VERTEX
  5
1465
  8
Layer_0
  10
366.86962
  20
250.0162
  0
VERTEX
  5
1466
  8
Layer_0
  10
366.15279
  20
249.81779
  0
VERTEX
  5
1467
  8
Layer_0
  10
365.41012
  20
249.69578
  0
VERTEX
  5
1468
  8
Layer_0
  10
364.64536
  20
249.65421
  0
VERTEX
  5
1469
  8
Layer_0
  10
363.88059
  20
249.69578
  0
VERTEX
  5
146a
  8
Layer_0
  10
363.13792
  20
249.81779
  0
VERTEX
  5
146b
  8
Layer_0
  10
362.42109
  20
250.0162
  0
VERTEX
  5
146c
  8
Layer_0
  10
361.73388
  20
250.28695
  0
VERTEX
  5
146d
  8
Layer_0
  10
361.08004
  20
250.62601
  0
VERTEX
  5
146e
  8
Layer_0
  10
360.46333
  20
251.02931
  0
VERTEX
  5
146f
  8
Layer_0
  10
359.88751
  20
251.49282
  0
VERTEX
  5
1470
  8
Layer_0
  10
359.35634
  20
252.01249
  0
VERTEX
  5
1471
  8
Layer_0
  10
358.87358
  20
252.58427
  0
VERTEX
  5
1472
  8
Layer_0
  10
358.44299
  20
253.20411
  0
VERTEX
  5
1473
  8
Layer_0
  10
358.06833
  20
253.86797
  0
VERTEX
  5
1474
  8
Layer_0
  10
357.75336
  20
254.5718
  0
VERTEX
  5
1475
  8
Layer_0
  10
357.50184
  20
255.31155
  0
VERTEX
  5
1476
  8
Layer_0
  10
357.31753
  20
256.08318
  0
VERTEX
  5
1477
  8
Layer_0
  10
357.20418
  20
256.88264
  0
VERTEX
  5
1478
  8
Layer_0
  10
357.16556
  20
257.70587
  0
VERTEX
  5
1479
  8
Layer_0
  10
357.20418
  20
258.52911
  0
VERTEX
  5
147a
  8
Layer_0
  10
357.31753
  20
259.32856
  0
VERTEX
  5
147b
  8
Layer_0
  10
357.50184
  20
260.10019
  0
VERTEX
  5
147c
  8
Layer_0
  10
357.75336
  20
260.83994
  0
VERTEX
  5
147d
  8
Layer_0
  10
358.06833
  20
261.54377
  0
VERTEX
  5
147e
  8
Layer_0
  10
358.44299
  20
262.20763
  0
VERTEX
  5
147f
  8
Layer_0
  10
358.87358
  20
262.82747
  0
VERTEX
  5
1480
  8
Layer_0
  10
359.35634
  20
263.39925
  0
VERTEX
  5
1481
  8
Layer_0
  10
359.88751
  20
263.91892
  0
VERTEX
  5
1482
  8
Layer_0
  10
360.46333
  20
264.38243
  0
VERTEX
  5
1483
  8
Layer_0
  10
361.08004
  20
264.78574
  0
VERTEX
  5
1484
  8
Layer_0
  10
361.73388
  20
265.12479
  0
VERTEX
  5
1485
  8
Layer_0
  10
362.42109
  20
265.39554
  0
VERTEX
  5
1486
  8
Layer_0
  10
363.13792
  20
265.59395
  0
VERTEX
  5
1487
  8
Layer_0
  10
363.88059
  20
265.71596
  0
VERTEX
  5
1488
  8
Layer_0
  10
364.64536
  20
265.75753
  0
VERTEX
  5
1489
  8
Layer_0
  10
365.41012
  20
265.71596
  0
VERTEX
  5
148a
  8
Layer_0
  10
366.15279
  20
265.59395
  0
VERTEX
  5
148b
  8
Layer_0
  10
366.86962
  20
265.39554
  0
VERTEX
  5
148c
  8
Layer_0
  10
367.55683
  20
265.12479
  0
VERTEX
  5
148d
  8
Layer_0
  10
368.21067
  20
264.78574
  0
VERTEX
  5
148e
  8
Layer_0
  10
368.82738
  20
264.38243
  0
VERTEX
  5
148f
  8
Layer_0
  10
369.4032
  20
263.91892
  0
VERTEX
  5
1490
  8
Layer_0
  10
369.93437
  20
263.39925
  0
VERTEX
  5
1491
  8
Layer_0
  10
370.41713
  20
262.82747
  0
VERTEX
  5
1492
  8
Layer_0
  10
370.84772
  20
262.20763
  0
VERTEX
  5
1493
  8
Layer_0
  10
371.22238
  20
261.54377
  0
VERTEX
  5
1494
  8
Layer_0
  10
371.53735
  20
260.83994
  0
VERTEX
  5
1495
  8
Layer_0
  10
371.78887
  20
260.10019
  0
VERTEX
  5
1496
  8
Layer_0
  10
371.97318
  20
259.32856
  0
VERTEX
  5
1497
  8
Layer_0
  10
372.08653
  20
258.52911
  0
VERTEX
  5
1498
  8
Layer_0
  10
372.12515
  20
257.70587
  0
SEQEND
  0
POLYLINE
  5
149a
  8
Layer_0
  62
0
  66
1
  10
0
  20
0
  30
0
  0
VERTEX
  5
149a
  8
Layer_0
  10
330.03586
  20
235.70428
  0
VERTEX
  5
149b
  8
Layer_0
  10
330.44037
  20
235.71404
  42
0.28565017
  0
VERTEX
  5
149c
  8
Layer_0
  10
349.9827
  20
248.68224
  0
VERTEX
  5
149d
  8
Layer_0
  10
378.09192
  20
248.68224
  42
0.41433493
  0
VERTEX
  5
149e
  8
Layer_0
  10
381.42358
  20
252.01389
  0
VERTEX
  5
149f
  8
Layer_0
  10
381.42358
  20
263.81354
  42
0.41415422
  0
VERTEX
  5
14a0
  8
Layer_0
  10
378.09192
  20
267.14517
  0
VERTEX
  5
14a1
  8
Layer_0
  10
349.98294
  20
267.14517
  0
VERTEX
  5
14a2
  8
Layer_0
  10
349.95612
  20
267.20456
  42
0.40878367
  0
VERTEX
  5
14a3
  8
Layer_0
  10
320.8605
  20
278.25424
  42
0.18422922
  0
VERTEX
  5
14a4
  8
Layer_0
  10
309.58307
  20
267.14517
  0
VERTEX
  5
14a5
  8
Layer_0
  10
281.47385
  20
267.14517
  42
0.41424053
  0
VERTEX
  5
14a6
  8
Layer_0
  10
278.14218
  20
263.81354
  0
VERTEX
  5
14a7
  8
Layer_0
  10
278.14218
  20
252.01389
  42
0.19913284
  0
VERTEX
  5
14a8
  8
Layer_0
  10
279.11713
  20
249.65733
  42
0.19897242
  0
VERTEX
  5
14a9
  8
Layer_0
  10
281.47385
  20
248.68224
  0
VERTEX
  5
14aa
  8
Layer_0
  10
309.58255
  20
248.68224
  0
VERTEX
  5
14ab
  8
Layer_0
  10
309.60342
  20
248.63614
  42
0.2959032
  0
VERTEX
  5
14ac
  8
Layer_0
  10
330.03586
  20
235.70428
  0
SEQEND
  0
POLYLINE
  5
14ae
  8
Layer_0
  62
0
  66
1
  10
0
  20
0
  30
0
  0
VERTEX
  5
14ae
  8
Layer_0
  10
385.77374
  20
275.24591
  0
VERTEX
  5
14af
  8
Layer_0
  10
343.5957
  20
275.24591
  42
-0.24184298
  0
VERTEX
  5
14b0
  8
Layer_0
  10
351.92758
  20
256.77863
  42
-0.24181494
  0
VERTEX
  5
14b1
  8
Layer_0
  10
341.76437
  20
239.2509
  42
-0.41387988
  0
VERTEX
  5
14b2
  8
Layer_0
  10
311.1019
  20
245.90884
  42
-0.38500763
  0
VERTEX
  5
14b3
  8
Layer_0
  10
315.93616
  20
275.24591
  0
VERTEX
  5
14b4
  8
Layer_0
  10
272.40875
  20
275.24591
  0
VERTEX
  5
14b5
  8
Layer_0
  10
272.40875
  20
229.61589
  0
VERTEX
  5
14b6
  8
Layer_0
  10
385.77374
  20
229.61589
  0
VERTEX
  5
14b7
  8
Layer_0
  10
385.77374
  20
275.24591
  0
SEQEND
  0
POLYLINE
  5
14b9
  8
Layer_0
  62
0
  66
1
  10
0
  20
0
  30
0
  0
VERTEX
  5
14b9
  8
Layer_0
  10
332.3883
  20
277.97542
  0
VERTEX
  5
14ba
  8
Layer_0
  10
333.43256
  20
277.7933
  0
VERTEX
  5
14bb
  8
Layer_0
  10
334.47782
  20
277.55426
  0
VERTEX
  5
14bc
  8
Layer_0
  10
335.51492
  20
277.26163
  0
VERTEX
  5
14bd
  8
Layer_0
  10
336.53471
  20
276.91873
  0
VERTEX
  5
14be
  8
Layer_0
  10
337.52805
  20
276.52891
  0
VERTEX
  5
14bf
  8
Layer_0
  10
338.48577
  20
276.09548
  0
VERTEX
  5
14c0
  8
Layer_0
  10
339.39873
  20
275.6218
  0
VERTEX
  5
14c1
  8
Layer_0
  10
340.25776
  20
275.11117
  0
VERTEX
  5
14c2
  8
Layer_0
  10
341.11741
  20
274.53503
  0
VERTEX
  5
14c3
  8
Layer_0
  10
341.94597
  20
273.92233
  0
VERTEX
  5
14c4
  8
Layer_0
  10
342.7387
  20
273.2775
  0
VERTEX
  5
14c5
  8
Layer_0
  10
343.49087
  20
272.605
  0
VERTEX
  5
14c6
  8
Layer_0
  10
344.19772
  20
271.90927
  0
VERTEX
  5
14c7
  8
Layer_0
  10
344.85451
  20
271.19477
  0
VERTEX
  5
14c8
  8
Layer_0
  10
345.45651
  20
270.46594
  0
VERTEX
  5
14c9
  8
Layer_0
  10
345.99896
  20
269.72723
  0
VERTEX
  5
14ca
  8
Layer_0
  10
346.10942
  20
269.56869
  0
VERTEX
  5
14cb
  8
Layer_0
  10
346.20644
  20
269.43285
  0
VERTEX
  5
14cc
  8
Layer_0
  10
346.27956
  20
269.33415
  0
VERTEX
  5
14cd
  8
Layer_0
  10
346.31829
  20
269.28703
  0
VERTEX
  5
14ce
  8
Layer_0
  10
346.35498
  20
269.24449
  0
VERTEX
  5
14cf
  8
Layer_0
  10
346.40852
  20
269.16969
  0
VERTEX
  5
14d0
  8
Layer_0
  10
346.47694
  20
269.06608
  0
VERTEX
  5
14d1
  8
Layer_0
  10
346.55825
  20
268.93711
  0
VERTEX
  5
14d2
  8
Layer_0
  10
346.75161
  20
268.61695
  0
VERTEX
  5
14d3
  8
Layer_0
  10
346.97275
  20
268.23688
  0
VERTEX
  5
14d4
  8
Layer_0
  10
347.2058
  20
267.82456
  0
VERTEX
  5
14d5
  8
Layer_0
  10
347.43493
  20
267.40766
  0
VERTEX
  5
14d6
  8
Layer_0
  10
347.64426
  20
267.01383
  0
VERTEX
  5
14d7
  8
Layer_0
  10
347.81794
  20
266.67075
  0
VERTEX
  5
14d8
  8
Layer_0
  10
348.34693
  20
265.47888
  0
VERTEX
  5
14d9
  8
Layer_0
  10
348.81832
  20
264.21118
  0
VERTEX
  5
14da
  8
Layer_0
  10
349.02083
  20
263.58307
  0
VERTEX
  5
14db
  8
Layer_0
  10
349.19503
  20
262.97702
  0
VERTEX
  5
14dc
  8
Layer_0
  10
349.33629
  20
262.40669
  0
VERTEX
  5
14dd
  8
Layer_0
  10
349.43999
  20
261.88576
  0
VERTEX
  5
14de
  8
Layer_0
  10
349.4967
  20
261.54998
  0
VERTEX
  5
14df
  8
Layer_0
  10
349.54661
  20
261.24993
  0
VERTEX
  5
14e0
  8
Layer_0
  10
349.59017
  20
260.98047
  0
VERTEX
  5
14e1
  8
Layer_0
  10
349.62781
  20
260.73646
  0
VERTEX
  5
14e2
  8
Layer_0
  10
349.68709
  20
260.30422
  0
VERTEX
  5
14e3
  8
Layer_0
  10
349.72793
  20
259.91208
  0
VERTEX
  5
14e4
  8
Layer_0
  10
349.75384
  20
259.51891
  0
VERTEX
  5
14e5
  8
Layer_0
  10
349.76831
  20
259.08358
  0
VERTEX
  5
14e6
  8
Layer_0
  10
349.77235
  20
258.83725
  0
VERTEX
  5
14e7
  8
Layer_0
  10
349.77485
  20
258.56496
  0
VERTEX
  5
14e8
  8
Layer_0
  10
349.77623
  20
258.26156
  0
VERTEX
  5
14e9
  8
Layer_0
  10
349.77693
  20
257.92192
  0
VERTEX
  5
14ea
  8
Layer_0
  10
349.77299
  20
257.21651
  0
VERTEX
  5
14eb
  8
Layer_0
  10
349.75763
  20
256.58673
  0
VERTEX
  5
14ec
  8
Layer_0
  10
349.72881
  20
256.01194
  0
VERTEX
  5
14ed
  8
Layer_0
  10
349.68447
  20
255.47147
  0
VERTEX
  5
14ee
  8
Layer_0
  10
349.62255
  20
254.94468
  0
VERTEX
  5
14ef
  8
Layer_0
  10
349.541
  20
254.4109
  0
VERTEX
  5
14f0
  8
Layer_0
  10
349.43776
  20
253.8495
  0
VERTEX
  5
14f1
  8
Layer_0
  10
349.31077
  20
253.23982
  0
VERTEX
  5
14f2
  8
Layer_0
  10
349.27838
  20
253.10294
  0
VERTEX
  5
14f3
  8
Layer_0
  10
349.23485
  20
252.93705
  0
VERTEX
  5
14f4
  8
Layer_0
  10
349.18157
  20
252.7464
  0
VERTEX
  5
14f5
  8
Layer_0
  10
349.11992
  20
252.53524
  0
VERTEX
  5
14f6
  8
Layer_0
  10
348.97709
  20
252.06843
  0
VERTEX
  5
14f7
  8
Layer_0
  10
348.81751
  20
251.57064
  0
VERTEX
  5
14f8
  8
Layer_0
  10
348.65233
  20
251.07593
  0
VERTEX
  5
14f9
  8
Layer_0
  10
348.49267
  20
250.61834
  0
VERTEX
  5
14fa
  8
Layer_0
  10
348.4184
  20
250.4141
  0
VERTEX
  5
14fb
  8
Layer_0
  10
348.34968
  20
250.23191
  0
VERTEX
  5
14fc
  8
Layer_0
  10
348.28792
  20
250.07601
  0
VERTEX
  5
14fd
  8
Layer_0
  10
348.2345
  20
249.95067
  0
VERTEX
  5
14fe
  8
Layer_0
  10
347.56681
  20
248.58854
  0
VERTEX
  5
14ff
  8
Layer_0
  10
346.81136
  20
247.24393
  0
VERTEX
  5
1500
  8
Layer_0
  10
346.43174
  20
246.63002
  0
VERTEX
  5
1501
  8
Layer_0
  10
346.0674
  20
246.0827
  0
VERTEX
  5
1502
  8
Layer_0
  10
345.89483
  20
245.84048
  0
VERTEX
  5
1503
  8
Layer_0
  10
345.73074
  20
245.62268
  0
VERTEX
  5
1504
  8
Layer_0
  10
345.57667
  20
245.43189
  0
VERTEX
  5
1505
  8
Layer_0
  10
345.43417
  20
245.2707
  42
0.016239592
  0
VERTEX
  5
1506
  8
Layer_0
  10
344.83389
  20
244.55743
  0
VERTEX
  5
1507
  8
Layer_0
  10
344.36832
  20
244.0246
  0
VERTEX
  5
1508
  8
Layer_0
  10
343.83906
  20
243.48019
  0
VERTEX
  5
1509
  8
Layer_0
  10
343.25621
  20
242.93262
  0
VERTEX
  5
150a
  8
Layer_0
  10
342.62988
  20
242.39032
  0
VERTEX
  5
150b
  8
Layer_0
  10
341.97019
  20
241.86171
  0
VERTEX
  5
150c
  8
Layer_0
  10
341.28724
  20
241.35519
  0
VERTEX
  5
150d
  8
Layer_0
  10
340.59114
  20
240.87919
  0
VERTEX
  5
150e
  8
Layer_0
  10
339.89199
  20
240.44212
  0
VERTEX
  5
150f
  8
Layer_0
  10
339.20631
  20
240.05134
  0
VERTEX
  5
1510
  8
Layer_0
  10
338.51451
  20
239.69209
  0
VERTEX
  5
1511
  8
Layer_0
  10
337.80934
  20
239.36147
  0
VERTEX
  5
1512
  8
Layer_0
  10
337.08354
  20
239.05663
  0
VERTEX
  5
1513
  8
Layer_0
  10
336.32985
  20
238.77468
  0
VERTEX
  5
1514
  8
Layer_0
  10
335.54103
  20
238.51274
  0
VERTEX
  5
1515
  8
Layer_0
  10
334.70982
  20
238.26793
  0
VERTEX
  5
1516
  8
Layer_0
  10
333.82895
  20
238.03738
  0
VERTEX
  5
1517
  8
Layer_0
  10
333.47735
  20
237.9586
  0
VERTEX
  5
1518
  8
Layer_0
  10
333.09461
  20
237.88774
  0
VERTEX
  5
1519
  8
Layer_0
  10
332.68458
  20
237.82494
  0
VERTEX
  5
151a
  8
Layer_0
  10
332.25112
  20
237.77032
  0
VERTEX
  5
151b
  8
Layer_0
  10
331.32932
  20
237.68615
  0
VERTEX
  5
151c
  8
Layer_0
  10
330.36007
  20
237.63624
  0
VERTEX
  5
151d
  8
Layer_0
  10
329.37423
  20
237.62161
  0
VERTEX
  5
151e
  8
Layer_0
  10
328.40266
  20
237.64329
  0
VERTEX
  5
151f
  8
Layer_0
  10
327.4762
  20
237.70228
  0
VERTEX
  5
1520
  8
Layer_0
  10
326.62571
  20
237.7996
  0
VERTEX
  5
1521
  8
Layer_0
  10
325.75062
  20
237.9522
  0
VERTEX
  5
1522
  8
Layer_0
  10
324.83537
  20
238.15782
  0
VERTEX
  5
1523
  8
Layer_0
  10
323.905
  20
238.40812
  0
VERTEX
  5
1524
  8
Layer_0
  10
322.98454
  20
238.69477
  0
VERTEX
  5
1525
  8
Layer_0
  10
322.09905
  20
239.00942
  0
VERTEX
  5
1526
  8
Layer_0
  10
321.27355
  20
239.34375
  0
VERTEX
  5
1527
  8
Layer_0
  10
320.89112
  20
239.51568
  0
VERTEX
  5
1528
  8
Layer_0
  10
320.53309
  20
239.68941
  0
VERTEX
  5
1529
  8
Layer_0
  10
320.20256
  20
239.86389
  0
VERTEX
  5
152a
  8
Layer_0
  10
319.90269
  20
240.03807
  42
0.013024332
  0
VERTEX
  5
152b
  8
Layer_0
  10
319.26239
  20
240.40532
  0
VERTEX
  5
152c
  8
Layer_0
  10
318.65452
  20
240.76291
  0
VERTEX
  5
152d
  8
Layer_0
  10
318.01238
  20
241.19139
  0
VERTEX
  5
152e
  8
Layer_0
  10
317.34915
  20
241.67981
  0
VERTEX
  5
152f
  8
Layer_0
  10
316.67798
  20
242.21723
  0
VERTEX
  5
1530
  8
Layer_0
  10
316.01202
  20
242.79269
  0
VERTEX
  5
1531
  8
Layer_0
  10
315.36442
  20
243.39524
  0
VERTEX
  5
1532
  8
Layer_0
  10
314.74834
  20
244.01395
  0
VERTEX
  5
1533
  8
Layer_0
  10
314.17693
  20
244.63786
  0
VERTEX
  5
1534
  8
Layer_0
  10
313.68907
  20
245.22597
  0
VERTEX
  5
1535
  8
Layer_0
  10
313.20715
  20
245.86588
  0
VERTEX
  5
1536
  8
Layer_0
  10
312.73672
  20
246.54845
  0
VERTEX
  5
1537
  8
Layer_0
  10
312.28331
  20
247.26458
  0
VERTEX
  5
1538
  8
Layer_0
  10
311.85246
  20
248.00515
  0
VERTEX
  5
1539
  8
Layer_0
  10
311.4497
  20
248.76102
  0
VERTEX
  5
153a
  8
Layer_0
  10
311.08058
  20
249.52307
  0
VERTEX
  5
153b
  8
Layer_0
  10
310.75063
  20
250.2822
  0
VERTEX
  5
153c
  8
Layer_0
  10
310.42827
  20
251.12512
  0
VERTEX
  5
153d
  8
Layer_0
  10
310.14534
  20
251.9797
  0
VERTEX
  5
153e
  8
Layer_0
  10
309.90189
  20
252.84458
  0
VERTEX
  5
153f
  8
Layer_0
  10
309.69795
  20
253.71839
  0
VERTEX
  5
1540
  8
Layer_0
  10
309.53355
  20
254.59977
  0
VERTEX
  5
1541
  8
Layer_0
  10
309.40875
  20
255.48736
  0
VERTEX
  5
1542
  8
Layer_0
  10
309.32357
  20
256.37979
  0
VERTEX
  5
1543
  8
Layer_0
  10
309.27805
  20
257.27571
  0
VERTEX
  5
1544
  8
Layer_0
  10
309.27225
  20
258.17374
  0
VERTEX
  5
1545
  8
Layer_0
  10
309.30618
  20
259.07253
  0
VERTEX
  5
1546
  8
Layer_0
  10
309.3799
  20
259.97071
  0
VERTEX
  5
1547
  8
Layer_0
  10
309.49344
  20
260.86693
  0
VERTEX
  5
1548
  8
Layer_0
  10
309.64684
  20
261.75981
  0
VERTEX
  5
1549
  8
Layer_0
  10
309.84015
  20
262.64799
  0
VERTEX
  5
154a
  8
Layer_0
  10
310.07339
  20
263.53013
  0
VERTEX
  5
154b
  8
Layer_0
  10
310.34661
  20
264.40484
  0
VERTEX
  5
154c
  8
Layer_0
  10
310.63036
  20
265.18887
  0
VERTEX
  5
154d
  8
Layer_0
  10
310.94953
  20
265.96256
  0
VERTEX
  5
154e
  8
Layer_0
  10
311.30301
  20
266.72444
  0
VERTEX
  5
154f
  8
Layer_0
  10
311.68967
  20
267.47309
  0
VERTEX
  5
1550
  8
Layer_0
  10
312.10839
  20
268.20706
  0
VERTEX
  5
1551
  8
Layer_0
  10
312.55805
  20
268.92491
  0
VERTEX
  5
1552
  8
Layer_0
  10
313.03753
  20
269.62519
  0
VERTEX
  5
1553
  8
Layer_0
  10
313.5457
  20
270.30646
  0
VERTEX
  5
1554
  8
Layer_0
  10
314.08145
  20
270.96729
  0
VERTEX
  5
1555
  8
Layer_0
  10
314.64364
  20
271.60623
  0
VERTEX
  5
1556
  8
Layer_0
  10
315.23117
  20
272.22183
  0
VERTEX
  5
1557
  8
Layer_0
  10
315.84291
  20
272.81266
  0
VERTEX
  5
1558
  8
Layer_0
  10
316.47773
  20
273.37727
  0
VERTEX
  5
1559
  8
Layer_0
  10
317.13452
  20
273.91423
  0
VERTEX
  5
155a
  8
Layer_0
  10
317.81215
  20
274.42208
  0
VERTEX
  5
155b
  8
Layer_0
  10
318.5095
  20
274.89939
  0
VERTEX
  5
155c
  8
Layer_0
  10
318.73457
  20
275.04107
  0
VERTEX
  5
155d
  8
Layer_0
  10
319.02813
  20
275.21844
  0
VERTEX
  5
155e
  8
Layer_0
  10
319.36085
  20
275.41468
  0
VERTEX
  5
155f
  8
Layer_0
  10
319.70341
  20
275.61296
  0
VERTEX
  5
1560
  8
Layer_0
  10
320.02647
  20
275.79647
  0
VERTEX
  5
1561
  8
Layer_0
  10
320.30069
  20
275.94838
  0
VERTEX
  5
1562
  8
Layer_0
  10
320.41033
  20
276.00722
  0
VERTEX
  5
1563
  8
Layer_0
  10
320.49676
  20
276.05186
  0
VERTEX
  5
1564
  8
Layer_0
  10
320.55632
  20
276.08018
  0
VERTEX
  5
1565
  8
Layer_0
  10
320.58534
  20
276.09009
  0
VERTEX
  5
1566
  8
Layer_0
  10
320.64653
  20
276.11445
  0
VERTEX
  5
1567
  8
Layer_0
  10
320.79702
  20
276.18076
  0
VERTEX
  5
1568
  8
Layer_0
  10
321.01418
  20
276.27891
  0
VERTEX
  5
1569
  8
Layer_0
  10
321.27536
  20
276.39875
  42
-0.081587411
  0
VERTEX
  5
156a
  8
Layer_0
  10
327.10593
  20
278.00266
  42
0.006946041
  0
VERTEX
  5
156b
  8
Layer_0
  10
328.1864
  20
278.12555
  0
VERTEX
  5
156c
  8
Layer_0
  10
328.30972
  20
278.13667
  0
VERTEX
  5
156d
  8
Layer_0
  10
328.48216
  20
278.14396
  0
VERTEX
  5
156e
  8
Layer_0
  10
328.69718
  20
278.14765
  0
VERTEX
  5
156f
  8
Layer_0
  10
328.94823
  20
278.14799
  0
VERTEX
  5
1570
  8
Layer_0
  10
329.53225
  20
278.13954
  0
VERTEX
  5
1571
  8
Layer_0
  10
330.18184
  20
278.12047
  0
VERTEX
  5
1572
  8
Layer_0
  10
330.84462
  20
278.09265
  0
VERTEX
  5
1573
  8
Layer_0
  10
331.4682
  20
278.05796
  0
VERTEX
  5
1574
  8
Layer_0
  10
331.74893
  20
278.03861
  0
VERTEX
  5
1575
  8
Layer_0
  10
332.00023
  20
278.01826
  0
VERTEX
  5
1576
  8
Layer_0
  10
332.21553
  20
277.99712
  0
VERTEX
  5
1577
  8
Layer_0
  10
332.3883
  20
277.97542
  0
SEQEND
  0
POLYLINE
  5
1579
  8
Layer_0
  62
0
  66
1
  10
0
  20
0
  30
0
  0
VERTEX
  5
1579
  8
Layer_0
  10
328.31636
  20
273.55787
  0
VERTEX
  5
157a
  8
Layer_0
  10
327.58636
  20
273.45244
  0
VERTEX
  5
157b
  8
Layer_0
  10
326.80599
  20
273.32268
  0
VERTEX
  5
157c
  8
Layer_0
  10
326.45012
  20
273.25805
  0
VERTEX
  5
157d
  8
Layer_0
  10
326.14552
  20
273.19858
  0
VERTEX
  5
157e
  8
Layer_0
  10
325.91345
  20
273.14803
  0
VERTEX
  5
157f
  8
Layer_0
  10
325.77522
  20
273.11015
  0
VERTEX
  5
1580
  8
Layer_0
  10
325.67067
  20
273.06265
  0
VERTEX
  5
1581
  8
Layer_0
  10
325.58835
  20
273.00549
  0
VERTEX
  5
1582
  8
Layer_0
  10
325.53444
  20
272.94403
  0
VERTEX
  5
1583
  8
Layer_0
  10
325.5151
  20
272.88364
  0
VERTEX
  5
1584
  8
Layer_0
  10
325.52331
  20
272.82439
  0
VERTEX
  5
1585
  8
Layer_0
  10
325.54909
  20
272.73356
  0
VERTEX
  5
1586
  8
Layer_0
  10
325.59412
  20
272.60703
  0
VERTEX
  5
1587
  8
Layer_0
  10
325.66012
  20
272.44064
  0
VERTEX
  5
1588
  8
Layer_0
  10
325.74879
  20
272.23025
  0
VERTEX
  5
1589
  8
Layer_0
  10
325.86182
  20
271.97172
  0
VERTEX
  5
158a
  8
Layer_0
  10
326.00092
  20
271.66088
  0
VERTEX
  5
158b
  8
Layer_0
  10
326.16779
  20
271.29361
  42
-0.0013717509
  0
VERTEX
  5
158c
  8
Layer_0
  10
328.71912
  20
265.64539
  0
VERTEX
  5
158d
  8
Layer_0
  10
328.87815
  20
265.29258
  0
VERTEX
  5
158e
  8
Layer_0
  10
329.01983
  20
264.9792
  0
VERTEX
  5
158f
  8
Layer_0
  10
329.14534
  20
264.70296
  0
VERTEX
  5
1590
  8
Layer_0
  10
329.25584
  20
264.46156
  0
VERTEX
  5
1591
  8
Layer_0
  10
329.35251
  20
264.25269
  0
VERTEX
  5
1592
  8
Layer_0
  10
329.4365
  20
264.07406
  0
VERTEX
  5
1593
  8
Layer_0
  10
329.50899
  20
263.92336
  0
VERTEX
  5
1594
  8
Layer_0
  10
329.57114
  20
263.79829
  0
VERTEX
  5
1595
  8
Layer_0
  10
329.66913
  20
263.61585
  0
VERTEX
  5
1596
  8
Layer_0
  10
329.73979
  20
263.50833
  0
VERTEX
  5
1597
  8
Layer_0
  10
329.79249
  20
263.45732
  0
VERTEX
  5
1598
  8
Layer_0
  10
329.83657
  20
263.4444
  0
VERTEX
  5
1599
  8
Layer_0
  10
329.85641
  20
263.46196
  0
VERTEX
  5
159a
  8
Layer_0
  10
329.89002
  20
263.51229
  0
VERTEX
  5
159b
  8
Layer_0
  10
329.93556
  20
263.59186
  0
VERTEX
  5
159c
  8
Layer_0
  10
329.99123
  20
263.69714
  0
VERTEX
  5
159d
  8
Layer_0
  10
330.12569
  20
263.97072
  0
VERTEX
  5
159e
  8
Layer_0
  10
330.27888
  20
264.30479
  42
-0.0035410094
  0
VERTEX
  5
159f
  8
Layer_0
  10
330.91977
  20
265.72543
  42
0.0057412904
  0
VERTEX
  5
15a0
  8
Layer_0
  10
331.43875
  20
266.88596
  42
-0.0072932719
  0
VERTEX
  5
15a1
  8
Layer_0
  10
332.04871
  20
268.23135
  0
VERTEX
  5
15a2
  8
Layer_0
  10
332.18441
  20
268.52301
  0
VERTEX
  5
15a3
  8
Layer_0
  10
332.29553
  20
268.76625
  0
VERTEX
  5
15a4
  8
Layer_0
  10
332.3383
  20
268.86178
  0
VERTEX
  5
15a5
  8
Layer_0
  10
332.37062
  20
268.93567
  0
VERTEX
  5
15a6
  8
Layer_0
  10
332.39106
  20
268.98476
  0
VERTEX
  5
15a7
  8
Layer_0
  10
332.3982
  20
269.00587
  0
VERTEX
  5
15a8
  8
Layer_0
  10
332.42111
  20
269.06668
  0
VERTEX
  5
15a9
  8
Layer_0
  10
332.48352
  20
269.21053
  0
VERTEX
  5
15aa
  8
Layer_0
  10
332.57587
  20
269.41593
  0
VERTEX
  5
15ab
  8
Layer_0
  10
332.68865
  20
269.66136
  0
VERTEX
  5
15ac
  8
Layer_0
  10
332.96789
  20
270.26816
  0
VERTEX
  5
15ad
  8
Layer_0
  10
333.22841
  20
270.84373
  0
VERTEX
  5
15ae
  8
Layer_0
  10
333.46451
  20
271.37477
  0
VERTEX
  5
15af
  8
Layer_0
  10
333.67049
  20
271.84801
  0
VERTEX
  5
15b0
  8
Layer_0
  10
333.84063
  20
272.25015
  0
VERTEX
  5
15b1
  8
Layer_0
  10
333.96922
  20
272.56792
  0
VERTEX
  5
15b2
  8
Layer_0
  10
334.01616
  20
272.69101
  0
VERTEX
  5
15b3
  8
Layer_0
  10
334.05057
  20
272.78802
  0
VERTEX
  5
15b4
  8
Layer_0
  10
334.07174
  20
272.85729
  0
VERTEX
  5
15b5
  8
Layer_0
  10
334.07895
  20
272.89717
  0
VERTEX
  5
15b6
  8
Layer_0
  10
334.06485
  20
272.95761
  0
VERTEX
  5
15b7
  8
Layer_0
  10
334.01703
  20
273.01285
  0
VERTEX
  5
15b8
  8
Layer_0
  10
333.92721
  20
273.06553
  0
VERTEX
  5
15b9
  8
Layer_0
  10
333.7871
  20
273.1183
  0
VERTEX
  5
15ba
  8
Layer_0
  10
333.58844
  20
273.17379
  0
VERTEX
  5
15bb
  8
Layer_0
  10
333.32293
  20
273.23467
  0
VERTEX
  5
15bc
  8
Layer_0
  10
332.9823
  20
273.30357
  0
VERTEX
  5
15bd
  8
Layer_0
  10
332.55827
  20
273.38314
  0
VERTEX
  5
15be
  8
Layer_0
  10
332.38312
  20
273.4108
  0
VERTEX
  5
15bf
  8
Layer_0
  10
332.16884
  20
273.43734
  0
VERTEX
  5
15c0
  8
Layer_0
  10
331.92125
  20
273.46253
  0
VERTEX
  5
15c1
  8
Layer_0
  10
331.64616
  20
273.48613
  0
VERTEX
  5
15c2
  8
Layer_0
  10
331.03673
  20
273.52759
  0
VERTEX
  5
15c3
  8
Layer_0
  10
330.38708
  20
273.5598
  0
VERTEX
  5
15c4
  8
Layer_0
  10
329.7437
  20
273.58085
  0
VERTEX
  5
15c5
  8
Layer_0
  10
329.15311
  20
273.58882
  0
VERTEX
  5
15c6
  8
Layer_0
  10
328.89215
  20
273.5873
  0
VERTEX
  5
15c7
  8
Layer_0
  10
328.66183
  20
273.5818
  0
VERTEX
  5
15c8
  8
Layer_0
  10
328.46796
  20
273.57207
  0
VERTEX
  5
15c9
  8
Layer_0
  10
328.31636
  20
273.55787
  0
SEQEND
  0
POLYLINE
  5
15cb
  8
Layer_0
  62
0
  66
1
  10
0
  20
0
  30
0
  0
VERTEX
  5
15cb
  8
Layer_0
  10
320.41311
  20
270.51165
  0
VERTEX
  5
15cc
  8
Layer_0
  10
319.70071
  20
269.94775
  0
VERTEX
  5
15cd
  8
Layer_0
  10
319.06353
  20
269.39072
  0
VERTEX
  5
15ce
  8
Layer_0
  10
318.48783
  20
268.82788
  0
VERTEX
  5
15cf
  8
Layer_0
  10
317.95989
  20
268.24656
  0
VERTEX
  5
15d0
  8
Layer_0
  10
317.7937
  20
268.05343
  0
VERTEX
  5
15d1
  8
Layer_0
  10
317.64981
  20
267.88681
  0
VERTEX
  5
15d2
  8
Layer_0
  10
317.52748
  20
267.74281
  0
VERTEX
  5
15d3
  8
Layer_0
  10
317.42597
  20
267.61757
  0
VERTEX
  5
15d4
  8
Layer_0
  10
317.28242
  20
267.40781
  0
VERTEX
  5
15d5
  8
Layer_0
  10
317.21324
  20
267.22653
  0
VERTEX
  5
15d6
  8
Layer_0
  10
317.21246
  20
267.04269
  0
VERTEX
  5
15d7
  8
Layer_0
  10
317.27415
  20
266.82528
  0
VERTEX
  5
15d8
  8
Layer_0
  10
317.32656
  20
266.69428
  0
VERTEX
  5
15d9
  8
Layer_0
  10
317.39236
  20
266.54326
  0
VERTEX
  5
15da
  8
Layer_0
  10
317.4708
  20
266.36834
  0
VERTEX
  5
15db
  8
Layer_0
  10
317.56114
  20
266.16563
  42
0.003696673
  0
VERTEX
  5
15dc
  8
Layer_0
  10
318.3508
  20
264.40485
  42
-0.0016076399
  0
VERTEX
  5
15dd
  8
Layer_0
  10
319.11444
  20
262.72409
  42
0.001041632
  0
VERTEX
  5
15de
  8
Layer_0
  10
319.73001
  20
261.36346
  42
-0.0018129446
  0
VERTEX
  5
15df
  8
Layer_0
  10
320.59271
  20
259.4426
  42
0.003369233
  0
VERTEX
  5
15e0
  8
Layer_0
  10
321.45871
  20
257.52173
  42
-0.0028720563
  0
VERTEX
  5
15e1
  8
Layer_0
  10
322.40024
  20
255.44081
  42
0.0020944147
  0
VERTEX
  5
15e2
  8
Layer_0
  10
323.34012
  20
253.35986
  42
-0.0045124361
  0
VERTEX
  5
15e3
  8
Layer_0
  10
323.87543
  20
252.15933
  0
VERTEX
  5
15e4
  8
Layer_0
  10
324.01411
  20
251.86228
  0
VERTEX
  5
15e5
  8
Layer_0
  10
324.14557
  20
251.61553
  0
VERTEX
  5
15e6
  8
Layer_0
  10
324.20395
  20
251.51906
  0
VERTEX
  5
15e7
  8
Layer_0
  10
324.25496
  20
251.44481
  0
VERTEX
  5
15e8
  8
Layer_0
  10
324.29675
  20
251.39599
  0
VERTEX
  5
15e9
  8
Layer_0
  10
324.32746
  20
251.37582
  0
VERTEX
  5
15ea
  8
Layer_0
  10
324.39888
  20
251.40784
  0
VERTEX
  5
15eb
  8
Layer_0
  10
324.49248
  20
251.52978
  0
VERTEX
  5
15ec
  8
Layer_0
  10
324.61025
  20
251.74481
  0
VERTEX
  5
15ed
  8
Layer_0
  10
324.75418
  20
252.05613
  42
-0.0052445873
  0
VERTEX
  5
15ee
  8
Layer_0
  10
325.40854
  20
253.50902
  0
VERTEX
  5
15ef
  8
Layer_0
  10
325.54314
  20
253.80198
  0
VERTEX
  5
15f0
  8
Layer_0
  10
325.65337
  20
254.04567
  0
VERTEX
  5
15f1
  8
Layer_0
  10
325.69579
  20
254.14108
  0
VERTEX
  5
15f2
  8
Layer_0
  10
325.72785
  20
254.21465
  0
VERTEX
  5
15f3
  8
Layer_0
  10
325.74813
  20
254.26319
  0
VERTEX
  5
15f4
  8
Layer_0
  10
325.75521
  20
254.28352
  0
VERTEX
  5
15f5
  8
Layer_0
  10
325.77803
  20
254.34267
  0
VERTEX
  5
15f6
  8
Layer_0
  10
325.84018
  20
254.48517
  0
VERTEX
  5
15f7
  8
Layer_0
  10
325.93217
  20
254.68964
  0
VERTEX
  5
15f8
  8
Layer_0
  10
326.04449
  20
254.93474
  42
0.002797042
  0
VERTEX
  5
15f9
  8
Layer_0
  10
326.69272
  20
256.36121
  0
VERTEX
  5
15fa
  8
Layer_0
  10
326.83864
  20
256.67996
  0
VERTEX
  5
15fb
  8
Layer_0
  10
326.97056
  20
256.95618
  0
VERTEX
  5
15fc
  8
Layer_0
  10
327.02675
  20
257.06909
  0
VERTEX
  5
15fd
  8
Layer_0
  10
327.074
  20
257.16029
  0
VERTEX
  5
15fe
  8
Layer_0
  10
327.11051
  20
257.22605
  0
VERTEX
  5
15ff
  8
Layer_0
  10
327.13447
  20
257.2627
  0
VERTEX
  5
1600
  8
Layer_0
  10
327.18551
  20
257.28936
  0
VERTEX
  5
1601
  8
Layer_0
  10
327.29736
  20
257.31064
  0
VERTEX
  5
1602
  8
Layer_0
  10
327.48043
  20
257.32685
  0
VERTEX
  5
1603
  8
Layer_0
  10
327.74509
  20
257.33831
  0
VERTEX
  5
1604
  8
Layer_0
  10
327.91128
  20
257.34235
  0
VERTEX
  5
1605
  8
Layer_0
  10
328.10176
  20
257.34532
  0
VERTEX
  5
1606
  8
Layer_0
  10
328.31784
  20
257.34725
  0
VERTEX
  5
1607
  8
Layer_0
  10
328.56082
  20
257.34818
  0
VERTEX
  5
1608
  8
Layer_0
  10
328.83201
  20
257.34816
  0
VERTEX
  5
1609
  8
Layer_0
  10
329.13268
  20
257.34722
  0
VERTEX
  5
160a
  8
Layer_0
  10
329.46416
  20
257.3454
  0
VERTEX
  5
160b
  8
Layer_0
  10
329.82773
  20
257.34274
  0
VERTEX
  5
160c
  8
Layer_0
  10
332.4382
  20
257.32166
  0
VERTEX
  5
160d
  8
Layer_0
  10
332.70056
  20
256.80142
  0
VERTEX
  5
160e
  8
Layer_0
  10
332.74715
  20
256.70726
  0
VERTEX
  5
160f
  8
Layer_0
  10
332.80491
  20
256.58748
  0
VERTEX
  5
1610
  8
Layer_0
  10
332.87318
  20
256.44355
  0
VERTEX
  5
1611
  8
Layer_0
  10
332.95128
  20
256.27692
  0
VERTEX
  5
1612
  8
Layer_0
  10
333.13435
  20
255.88144
  0
VERTEX
  5
1613
  8
Layer_0
  10
333.34878
  20
255.41274
  0
VERTEX
  5
1614
  8
Layer_0
  10
333.58924
  20
254.88251
  0
VERTEX
  5
1615
  8
Layer_0
  10
333.85042
  20
254.30247
  0
VERTEX
  5
1616
  8
Layer_0
  10
334.12698
  20
253.68431
  0
VERTEX
  5
1617
  8
Layer_0
  10
334.41359
  20
253.03973
  42
-5.9916863e-05
  0
VERTEX
  5
1618
  8
Layer_0
  10
334.82141
  20
252.11931
  0
VERTEX
  5
1619
  8
Layer_0
  10
334.91621
  20
251.90823
  0
VERTEX
  5
161a
  8
Layer_0
  10
334.99581
  20
251.73836
  0
VERTEX
  5
161b
  8
Layer_0
  10
335.06271
  20
251.60566
  0
VERTEX
  5
161c
  8
Layer_0
  10
335.11942
  20
251.50612
  0
VERTEX
  5
161d
  8
Layer_0
  10
335.21231
  20
251.39039
  0
VERTEX
  5
161e
  8
Layer_0
  10
335.2945
  20
251.35897
  0
VERTEX
  5
161f
  8
Layer_0
  10
335.33097
  20
251.38456
  0
VERTEX
  5
1620
  8
Layer_0
  10
335.38807
  20
251.46688
  0
VERTEX
  5
1621
  8
Layer_0
  10
335.46984
  20
251.61429
  0
VERTEX
  5
1622
  8
Layer_0
  10
335.58034
  20
251.83515
  0
VERTEX
  5
1623
  8
Layer_0
  10
335.72361
  20
252.13779
  0
VERTEX
  5
1624
  8
Layer_0
  10
335.90369
  20
252.53058
  0
VERTEX
  5
1625
  8
Layer_0
  10
336.0088
  20
252.76339
  0
VERTEX
  5
1626
  8
Layer_0
  10
336.12464
  20
253.02186
  0
VERTEX
  5
1627
  8
Layer_0
  10
336.25171
  20
253.30705
  0
VERTEX
  5
1628
  8
Layer_0
  10
336.39051
  20
253.61999
  42
-0.0030026271
  0
VERTEX
  5
1629
  8
Layer_0
  10
337.52158
  20
256.12112
  42
0.0030319359
  0
VERTEX
  5
162a
  8
Layer_0
  10
338.09647
  20
257.40167
  42
-0.0038100503
  0
VERTEX
  5
162b
  8
Layer_0
  10
338.83945
  20
259.04242
  42
0.0022370815
  0
VERTEX
  5
162c
  8
Layer_0
  10
340.00211
  20
261.60358
  42
-0.0014670578
  0
VERTEX
  5
162d
  8
Layer_0
  10
341.70734
  20
265.36526
  0
VERTEX
  5
162e
  8
Layer_0
  10
341.8261
  20
265.62524
  0
VERTEX
  5
162f
  8
Layer_0
  10
341.9324
  20
265.85834
  0
VERTEX
  5
1630
  8
Layer_0
  10
342.02689
  20
266.06611
  0
VERTEX
  5
1631
  8
Layer_0
  10
342.11024
  20
266.25008
  0
VERTEX
  5
1632
  8
Layer_0
  10
342.24616
  20
266.55278
  0
VERTEX
  5
1633
  8
Layer_0
  10
342.34547
  20
266.77871
  0
VERTEX
  5
1634
  8
Layer_0
  10
342.41348
  20
266.94017
  0
VERTEX
  5
1635
  8
Layer_0
  10
342.45549
  20
267.04943
  0
VERTEX
  5
1636
  8
Layer_0
  10
342.4768
  20
267.11877
  0
VERTEX
  5
1637
  8
Layer_0
  10
342.48273
  20
267.1605
  0
VERTEX
  5
1638
  8
Layer_0
  10
342.4449
  20
267.25412
  0
VERTEX
  5
1639
  8
Layer_0
  10
342.33824
  20
267.41447
  0
VERTEX
  5
163a
  8
Layer_0
  10
342.17299
  20
267.62951
  0
VERTEX
  5
163b
  8
Layer_0
  10
341.95939
  20
267.88724
  0
VERTEX
  5
163c
  8
Layer_0
  10
341.42811
  20
268.48265
  0
VERTEX
  5
163d
  8
Layer_0
  10
340.82634
  20
269.10453
  0
VERTEX
  5
163e
  8
Layer_0
  10
340.09632
  20
269.77568
  0
VERTEX
  5
163f
  8
Layer_0
  10
339.32792
  20
270.4066
  0
VERTEX
  5
1640
  8
Layer_0
  10
338.98124
  20
270.66672
  0
VERTEX
  5
1641
  8
Layer_0
  10
338.68724
  20
270.86847
  0
VERTEX
  5
1642
  8
Layer_0
  10
338.56649
  20
270.94243
  0
VERTEX
  5
1643
  8
Layer_0
  10
338.46669
  20
270.99576
  0
VERTEX
  5
1644
  8
Layer_0
  10
338.39045
  20
271.02645
  0
VERTEX
  5
1645
  8
Layer_0
  10
338.34036
  20
271.03249
  0
VERTEX
  5
1646
  8
Layer_0
  10
338.26385
  20
270.97368
  0
VERTEX
  5
1647
  8
Layer_0
  10
338.16156
  20
270.82867
  0
VERTEX
  5
1648
  8
Layer_0
  10
338.04068
  20
270.60916
  0
VERTEX
  5
1649
  8
Layer_0
  10
337.90839
  20
270.3269
  42
-0.0056628216
  0
VERTEX
  5
164a
  8
Layer_0
  10
337.36884
  20
269.12695
  0
VERTEX
  5
164b
  8
Layer_0
  10
337.27007
  20
268.91303
  0
VERTEX
  5
164c
  8
Layer_0
  10
337.14413
  20
268.63772
  0
VERTEX
  5
164d
  8
Layer_0
  10
336.99563
  20
268.31136
  0
VERTEX
  5
164e
  8
Layer_0
  10
336.82921
  20
267.94424
  0
VERTEX
  5
164f
  8
Layer_0
  10
336.46111
  20
267.12904
  0
VERTEX
  5
1650
  8
Layer_0
  10
336.07688
  20
266.27463
  0
VERTEX
  5
1651
  8
Layer_0
  10
335.89028
  20
265.85852
  0
VERTEX
  5
1652
  8
Layer_0
  10
335.71355
  20
265.46355
  0
VERTEX
  5
1653
  8
Layer_0
  10
335.5513
  20
265.10005
  0
VERTEX
  5
1654
  8
Layer_0
  10
335.40817
  20
264.77832
  0
VERTEX
  5
1655
  8
Layer_0
  10
335.28879
  20
264.50869
  0
VERTEX
  5
1656
  8
Layer_0
  10
335.19778
  20
264.30146
  0
VERTEX
  5
1657
  8
Layer_0
  10
335.13978
  20
264.16695
  0
VERTEX
  5
1658
  8
Layer_0
  10
335.11942
  20
264.11549
  0
VERTEX
  5
1659
  8
Layer_0
  10
335.10981
  20
264.08781
  0
VERTEX
  5
165a
  8
Layer_0
  10
335.08226
  20
264.02179
  0
VERTEX
  5
165b
  8
Layer_0
  10
335.03871
  20
263.92176
  0
VERTEX
  5
165c
  8
Layer_0
  10
334.98108
  20
263.79202
  0
VERTEX
  5
165d
  8
Layer_0
  10
334.83134
  20
263.46074
  0
VERTEX
  5
165e
  8
Layer_0
  10
334.64848
  20
263.06249
  42
0.0038707727
  0
VERTEX
  5
165f
  8
Layer_0
  10
333.68045
  20
260.92328
  42
-0.0059873277
  0
VERTEX
  5
1660
  8
Layer_0
  10
332.83347
  20
259.06244
  0
VERTEX
  5
1661
  8
Layer_0
  10
332.48358
  20
258.32211
  0
VERTEX
  5
1662
  8
Layer_0
  10
329.79684
  20
258.32211
  0
VERTEX
  5
1663
  8
Layer_0
  10
327.11014
  20
258.32211
  0
VERTEX
  5
1664
  8
Layer_0
  10
326.96332
  20
258.66226
  42
0.0077156652
  0
VERTEX
  5
1665
  8
Layer_0
  10
326.5726
  20
259.52264
  42
-0.0042454214
  0
VERTEX
  5
1666
  8
Layer_0
  10
325.0329
  20
262.92416
  42
0.00032375853
  0
VERTEX
  5
1667
  8
Layer_0
  10
324.16943
  20
264.84503
  42
-0.00037149655
  0
VERTEX
  5
1668
  8
Layer_0
  10
322.48135
  20
268.60672
  0
VERTEX
  5
1669
  8
Layer_0
  10
322.28549
  20
269.04327
  0
VERTEX
  5
166a
  8
Layer_0
  10
322.10005
  20
269.45526
  0
VERTEX
  5
166b
  8
Layer_0
  10
321.9293
  20
269.83335
  0
VERTEX
  5
166c
  8
Layer_0
  10
321.77749
  20
270.16818
  0
VERTEX
  5
166d
  8
Layer_0
  10
321.64886
  20
270.45039
  0
VERTEX
  5
166e
  8
Layer_0
  10
321.54769
  20
270.67062
  0
VERTEX
  5
166f
  8
Layer_0
  10
321.4782
  20
270.81953
  0
VERTEX
  5
1670
  8
Layer_0
  10
321.44467
  20
270.88775
  0
VERTEX
  5
1671
  8
Layer_0
  10
321.39157
  20
270.96024
  0
VERTEX
  5
1672
  8
Layer_0
  10
321.32785
  20
271.00261
  0
VERTEX
  5
1673
  8
Layer_0
  10
321.24799
  20
271.01286
  0
VERTEX
  5
1674
  8
Layer_0
  10
321.14645
  20
270.98896
  0
VERTEX
  5
1675
  8
Layer_0
  10
321.01772
  20
270.9289
  0
VERTEX
  5
1676
  8
Layer_0
  10
320.85627
  20
270.83067
  0
VERTEX
  5
1677
  8
Layer_0
  10
320.65657
  20
270.69226
  0
VERTEX
  5
1678
  8
Layer_0
  10
320.41311
  20
270.51165
  0
SEQEND
  0
POLYLINE
  5
167a
  8
Layer_0
  62
0
  66
1
  10
0
  20
0
  30
0
  0
VERTEX
  5
167a
  8
Layer_0
  10
314.52607
  20
261.62934
  0
VERTEX
  5
167b
  8
Layer_0
  10
314.51372
  20
261.5966
  0
VERTEX
  5
167c
  8
Layer_0
  10
314.49502
  20
261.52983
  0
VERTEX
  5
167d
  8
Layer_0
  10
314.4709
  20
261.43306
  0
VERTEX
  5
167e
  8
Layer_0
  10
314.44228
  20
261.31035
  0
VERTEX
  5
167f
  8
Layer_0
  10
314.37524
  20
261.00334
  0
VERTEX
  5
1680
  8
Layer_0
  10
314.30126
  20
260.64122
  0
VERTEX
  5
1681
  8
Layer_0
  10
314.20672
  20
260.09924
  0
VERTEX
  5
1682
  8
Layer_0
  10
314.15132
  20
259.5596
  0
VERTEX
  5
1683
  8
Layer_0
  10
314.13515
  20
259.24335
  0
VERTEX
  5
1684
  8
Layer_0
  10
314.12499
  20
258.87093
  0
VERTEX
  5
1685
  8
Layer_0
  10
314.11959
  20
258.42342
  0
VERTEX
  5
1686
  8
Layer_0
  10
314.11767
  20
257.8819
  0
VERTEX
  5
1687
  8
Layer_0
  10
314.12232
  20
257.21814
  0
VERTEX
  5
1688
  8
Layer_0
  10
314.13885
  20
256.6276
  0
VERTEX
  5
1689
  8
Layer_0
  10
314.16905
  20
256.09461
  0
VERTEX
  5
168a
  8
Layer_0
  10
314.21469
  20
255.60349
  0
VERTEX
  5
168b
  8
Layer_0
  10
314.35941
  20
254.68418
  0
VERTEX
  5
168c
  8
Layer_0
  10
314.58725
  20
253.74427
  42
0.081750563
  0
VERTEX
  5
168d
  8
Layer_0
  10
316.73361
  20
249.0842
  42
0.068962628
  0
VERTEX
  5
168e
  8
Layer_0
  10
319.74036
  20
245.75645
  0
VERTEX
  5
168f
  8
Layer_0
  10
319.97543
  20
245.56877
  0
VERTEX
  5
1690
  8
Layer_0
  10
320.27113
  20
245.34807
  0
VERTEX
  5
1691
  8
Layer_0
  10
320.60702
  20
245.10821
  0
VERTEX
  5
1692
  8
Layer_0
  10
320.96265
  20
244.86306
  0
VERTEX
  5
1693
  8
Layer_0
  10
321.31757
  20
244.62647
  0
VERTEX
  5
1694
  8
Layer_0
  10
321.65133
  20
244.41231
  0
VERTEX
  5
1695
  8
Layer_0
  10
321.94349
  20
244.23444
  0
VERTEX
  5
1696
  8
Layer_0
  10
322.1736
  20
244.10673
  0
VERTEX
  5
1697
  8
Layer_0
  10
322.36244
  20
244.00807
  0
VERTEX
  5
1698
  8
Layer_0
  10
322.48946
  20
243.96172
  0
VERTEX
  5
1699
  8
Layer_0
  10
322.5251
  20
243.97253
  0
VERTEX
  5
169a
  8
Layer_0
  10
322.53966
  20
244.01365
  0
VERTEX
  5
169b
  8
Layer_0
  10
322.53127
  20
244.09085
  0
VERTEX
  5
169c
  8
Layer_0
  10
322.49804
  20
244.20986
  0
VERTEX
  5
169d
  8
Layer_0
  10
322.43812
  20
244.37644
  0
VERTEX
  5
169e
  8
Layer_0
  10
322.34961
  20
244.59633
  0
VERTEX
  5
169f
  8
Layer_0
  10
322.23065
  20
244.87528
  0
VERTEX
  5
16a0
  8
Layer_0
  10
322.07935
  20
245.21904
  0
VERTEX
  5
16a1
  8
Layer_0
  10
321.89386
  20
245.63336
  0
VERTEX
  5
16a2
  8
Layer_0
  10
321.67228
  20
246.12399
  0
VERTEX
  5
16a3
  8
Layer_0
  10
321.41275
  20
246.69668
  0
VERTEX
  5
16a4
  8
Layer_0
  10
321.11339
  20
247.35717
  42
-0.0045457887
  0
VERTEX
  5
16a5
  8
Layer_0
  10
320.47394
  20
248.79782
  42
0.0095339375
  0
VERTEX
  5
16a6
  8
Layer_0
  10
319.90378
  20
250.05051
  0
VERTEX
  5
16a7
  8
Layer_0
  10
319.78289
  20
250.30698
  0
VERTEX
  5
16a8
  8
Layer_0
  10
319.68389
  20
250.52301
  0
VERTEX
  5
16a9
  8
Layer_0
  10
319.617
  20
250.67588
  0
VERTEX
  5
16aa
  8
Layer_0
  10
319.59244
  20
250.74288
  0
VERTEX
  5
16ab
  8
Layer_0
  10
319.56789
  20
250.81112
  0
VERTEX
  5
16ac
  8
Layer_0
  10
319.50103
  20
250.96739
  0
VERTEX
  5
16ad
  8
Layer_0
  10
319.4021
  20
251.18845
  0
VERTEX
  5
16ae
  8
Layer_0
  10
319.28128
  20
251.45107
  42
-0.0049495466
  0
VERTEX
  5
16af
  8
Layer_0
  10
317.65829
  20
255.04062
  42
0.0055223329
  0
VERTEX
  5
16b0
  8
Layer_0
  10
316.99353
  20
256.5213
  42
-0.0051456364
  0
VERTEX
  5
16b1
  8
Layer_0
  10
315.21338
  20
260.48306
  0
VERTEX
  5
16b2
  8
Layer_0
  10
315.05907
  20
260.82632
  0
VERTEX
  5
16b3
  8
Layer_0
  10
314.92903
  20
261.10452
  0
VERTEX
  5
16b4
  8
Layer_0
  10
314.82091
  20
261.32163
  0
VERTEX
  5
16b5
  8
Layer_0
  10
314.73234
  20
261.48162
  0
VERTEX
  5
16b6
  8
Layer_0
  10
314.66094
  20
261.58842
  0
VERTEX
  5
16b7
  8
Layer_0
  10
314.60435
  20
261.64601
  0
VERTEX
  5
16b8
  8
Layer_0
  10
314.56018
  20
261.65833
  0
VERTEX
  5
16b9
  8
Layer_0
  10
314.52607
  20
261.62934
  0
SEQEND
  0
POLYLINE
  5
16bb
  8
Layer_0
  62
0
  66
1
  10
0
  20
0
  30
0
  0
VERTEX
  5
16bb
  8
Layer_0
  10
344.85642
  20
261.43725
  0
VERTEX
  5
16bc
  8
Layer_0
  10
344.76271
  20
261.28615
  0
VERTEX
  5
16bd
  8
Layer_0
  10
344.72374
  20
261.18886
  0
VERTEX
  5
16be
  8
Layer_0
  10
344.71196
  20
261.15229
  0
VERTEX
  5
16bf
  8
Layer_0
  10
344.67813
  20
261.06792
  0
VERTEX
  5
16c0
  8
Layer_0
  10
344.62453
  20
260.94079
  0
VERTEX
  5
16c1
  8
Layer_0
  10
344.55341
  20
260.77596
  0
VERTEX
  5
16c2
  8
Layer_0
  10
344.36769
  20
260.35343
  0
VERTEX
  5
16c3
  8
Layer_0
  10
344.1391
  20
259.84078
  0
VERTEX
  5
16c4
  8
Layer_0
  10
343.88577
  20
259.27842
  0
VERTEX
  5
16c5
  8
Layer_0
  10
343.62584
  20
258.70681
  0
VERTEX
  5
16c6
  8
Layer_0
  10
343.37742
  20
258.16639
  0
VERTEX
  5
16c7
  8
Layer_0
  10
343.15865
  20
257.69758
  0
VERTEX
  5
16c8
  8
Layer_0
  10
343.05158
  20
257.46818
  0
VERTEX
  5
16c9
  8
Layer_0
  10
342.96391
  20
257.27566
  0
VERTEX
  5
16ca
  8
Layer_0
  10
342.90467
  20
257.14021
  0
VERTEX
  5
16cb
  8
Layer_0
  10
342.88291
  20
257.08204
  0
VERTEX
  5
16cc
  8
Layer_0
  10
342.87624
  20
257.06142
  0
VERTEX
  5
16cd
  8
Layer_0
  10
342.85714
  20
257.01436
  0
VERTEX
  5
16ce
  8
Layer_0
  10
342.82694
  20
256.94388
  0
VERTEX
  5
16cf
  8
Layer_0
  10
342.78698
  20
256.85301
  0
VERTEX
  5
16d0
  8
Layer_0
  10
342.68315
  20
256.62216
  0
VERTEX
  5
16d1
  8
Layer_0
  10
342.55635
  20
256.34595
  42
0.0025889557
  0
VERTEX
  5
16d2
  8
Layer_0
  10
342.12158
  20
255.40079
  42
-0.00037447827
  0
VERTEX
  5
16d3
  8
Layer_0
  10
341.56775
  20
254.17589
  0
VERTEX
  5
16d4
  8
Layer_0
  10
341.39471
  20
253.79132
  0
VERTEX
  5
16d5
  8
Layer_0
  10
341.25302
  20
253.47221
  0
VERTEX
  5
16d6
  8
Layer_0
  10
341.19849
  20
253.34759
  0
VERTEX
  5
16d7
  8
Layer_0
  10
341.15728
  20
253.25179
  0
VERTEX
  5
16d8
  8
Layer_0
  10
341.13121
  20
253.18897
  0
VERTEX
  5
16d9
  8
Layer_0
  10
341.12212
  20
253.16328
  0
VERTEX
  5
16da
  8
Layer_0
  10
341.09739
  20
253.09976
  0
VERTEX
  5
16db
  8
Layer_0
  10
341.03007
  20
252.94737
  0
VERTEX
  5
16dc
  8
Layer_0
  10
340.93044
  20
252.72894
  0
VERTEX
  5
16dd
  8
Layer_0
  10
340.80878
  20
252.46732
  42
0.0046564238
  0
VERTEX
  5
16de
  8
Layer_0
  10
339.97736
  20
250.63864
  42
-0.0032259658
  0
VERTEX
  5
16df
  8
Layer_0
  10
339.2374
  20
248.99791
  0
VERTEX
  5
16e0
  8
Layer_0
  10
338.60913
  20
247.62664
  0
VERTEX
  5
16e1
  8
Layer_0
  10
337.9484
  20
246.16793
  0
VERTEX
  5
16e2
  8
Layer_0
  10
337.79597
  20
245.82916
  0
VERTEX
  5
16e3
  8
Layer_0
  10
337.6534
  20
245.5113
  0
VERTEX
  5
16e4
  8
Layer_0
  10
337.52306
  20
245.21962
  0
VERTEX
  5
16e5
  8
Layer_0
  10
337.40733
  20
244.95941
  0
VERTEX
  5
16e6
  8
Layer_0
  10
337.30858
  20
244.73593
  0
VERTEX
  5
16e7
  8
Layer_0
  10
337.2292
  20
244.55447
  0
VERTEX
  5
16e8
  8
Layer_0
  10
337.17156
  20
244.42029
  0
VERTEX
  5
16e9
  8
Layer_0
  10
337.13803
  20
244.33868
  0
VERTEX
  5
16ea
  8
Layer_0
  10
337.09184
  20
244.20337
  0
VERTEX
  5
16eb
  8
Layer_0
  10
337.06227
  20
244.08431
  0
VERTEX
  5
16ec
  8
Layer_0
  10
337.0518
  20
243.99435
  0
VERTEX
  5
16ed
  8
Layer_0
  10
337.06289
  20
243.94638
  0
VERTEX
  5
16ee
  8
Layer_0
  10
337.10028
  20
243.94269
  0
VERTEX
  5
16ef
  8
Layer_0
  10
337.17375
  20
243.96614
  0
VERTEX
  5
16f0
  8
Layer_0
  10
337.27946
  20
244.01422
  0
VERTEX
  5
16f1
  8
Layer_0
  10
337.41356
  20
244.08445
  0
VERTEX
  5
16f2
  8
Layer_0
  10
337.75163
  20
244.28141
  0
VERTEX
  5
16f3
  8
Layer_0
  10
338.15726
  20
244.5371
  0
VERTEX
  5
16f4
  8
Layer_0
  10
339.04844
  20
245.14504
  0
VERTEX
  5
16f5
  8
Layer_0
  10
339.84154
  20
245.74896
  42
0.14125308
  0
VERTEX
  5
16f6
  8
Layer_0
  10
344.74976
  20
252.95969
  0
VERTEX
  5
16f7
  8
Layer_0
  10
344.94757
  20
253.58889
  0
VERTEX
  5
16f8
  8
Layer_0
  10
345.10846
  20
254.16787
  0
VERTEX
  5
16f9
  8
Layer_0
  10
345.23572
  20
254.71833
  0
VERTEX
  5
16fa
  8
Layer_0
  10
345.33262
  20
255.26194
  0
VERTEX
  5
16fb
  8
Layer_0
  10
345.40245
  20
255.82041
  0
VERTEX
  5
16fc
  8
Layer_0
  10
345.44849
  20
256.41543
  0
VERTEX
  5
16fd
  8
Layer_0
  10
345.47401
  20
257.06868
  0
VERTEX
  5
16fe
  8
Layer_0
  10
345.48232
  20
257.80187
  0
VERTEX
  5
16ff
  8
Layer_0
  10
345.47526
  20
258.46719
  0
VERTEX
  5
1700
  8
Layer_0
  10
345.45358
  20
259.09794
  0
VERTEX
  5
1701
  8
Layer_0
  10
345.41854
  20
259.68226
  0
VERTEX
  5
1702
  8
Layer_0
  10
345.37142
  20
260.20828
  0
VERTEX
  5
1703
  8
Layer_0
  10
345.31348
  20
260.66415
  0
VERTEX
  5
1704
  8
Layer_0
  10
345.24599
  20
261.038
  0
VERTEX
  5
1705
  8
Layer_0
  10
345.20906
  20
261.19046
  0
VERTEX
  5
1706
  8
Layer_0
  10
345.17022
  20
261.31798
  0
VERTEX
  5
1707
  8
Layer_0
  10
345.12962
  20
261.41906
  0
VERTEX
  5
1708
  8
Layer_0
  10
345.08744
  20
261.49222
  0
VERTEX
  5
1709
  8
Layer_0
  10
345.03046
  20
261.55991
  0
VERTEX
  5
170a
  8
Layer_0
  10
344.98372
  20
261.57587
  0
VERTEX
  5
170b
  8
Layer_0
  10
344.93108
  20
261.53626
  0
VERTEX
  5
170c
  8
Layer_0
  10
344.85642
  20
261.43725
  0
SEQEND
  0
POLYLINE
  5
170e
  8
Layer_0
  62
0
  66
1
  10
0
  20
0
  30
0
  0
VERTEX
  5
170e
  8
Layer_0
  10
329.7022
  20
252.05453
  0
VERTEX
  5
170f
  8
Layer_0
  10
329.65343
  20
251.97777
  0
VERTEX
  5
1710
  8
Layer_0
  10
329.5825
  20
251.84375
  0
VERTEX
  5
1711
  8
Layer_0
  10
329.53149
  20
251.73942
  0
VERTEX
  5
1712
  8
Layer_0
  10
329.46628
  20
251.60175
  0
VERTEX
  5
1713
  8
Layer_0
  10
329.38397
  20
251.4244
  0
VERTEX
  5
1714
  8
Layer_0
  10
329.28166
  20
251.20105
  0
VERTEX
  5
1715
  8
Layer_0
  10
329.15648
  20
250.92534
  0
VERTEX
  5
1716
  8
Layer_0
  10
329.00553
  20
250.59094
  0
VERTEX
  5
1717
  8
Layer_0
  10
328.82592
  20
250.1915
  0
VERTEX
  5
1718
  8
Layer_0
  10
328.61476
  20
249.7207
  0
VERTEX
  5
1719
  8
Layer_0
  10
328.36916
  20
249.17219
  0
VERTEX
  5
171a
  8
Layer_0
  10
328.08624
  20
248.53963
  0
VERTEX
  5
171b
  8
Layer_0
  10
327.92987
  20
248.18985
  0
VERTEX
  5
171c
  8
Layer_0
  10
327.7631
  20
247.81668
  0
VERTEX
  5
171d
  8
Layer_0
  10
327.58554
  20
247.41933
  0
VERTEX
  5
171e
  8
Layer_0
  10
327.39685
  20
246.99701
  42
-0.0050051022
  0
VERTEX
  5
171f
  8
Layer_0
  10
326.672
  20
245.39629
  0
VERTEX
  5
1720
  8
Layer_0
  10
326.4046
  20
244.82238
  0
VERTEX
  5
1721
  8
Layer_0
  10
326.17356
  20
244.31341
  0
VERTEX
  5
1722
  8
Layer_0
  10
325.97978
  20
243.87159
  0
VERTEX
  5
1723
  8
Layer_0
  10
325.82415
  20
243.49916
  0
VERTEX
  5
1724
  8
Layer_0
  10
325.70757
  20
243.19835
  0
VERTEX
  5
1725
  8
Layer_0
  10
325.63095
  20
242.97137
  0
VERTEX
  5
1726
  8
Layer_0
  10
325.59518
  20
242.82046
  0
VERTEX
  5
1727
  8
Layer_0
  10
325.60116
  20
242.74785
  0
VERTEX
  5
1728
  8
Layer_0
  10
325.72097
  20
242.66936
  0
VERTEX
  5
1729
  8
Layer_0
  10
325.89785
  20
242.61461
  42
-0.0090279158
  0
VERTEX
  5
172a
  8
Layer_0
  10
326.71564
  20
242.44983
  0
VERTEX
  5
172b
  8
Layer_0
  10
327.50383
  20
242.30808
  0
VERTEX
  5
172c
  8
Layer_0
  10
328.31505
  20
242.21081
  0
VERTEX
  5
172d
  8
Layer_0
  10
329.14637
  20
242.15799
  0
VERTEX
  5
172e
  8
Layer_0
  10
329.99486
  20
242.14956
  0
VERTEX
  5
172f
  8
Layer_0
  10
330.85758
  20
242.18548
  0
VERTEX
  5
1730
  8
Layer_0
  10
331.73159
  20
242.2657
  0
VERTEX
  5
1731
  8
Layer_0
  10
332.61397
  20
242.39017
  0
VERTEX
  5
1732
  8
Layer_0
  10
333.50177
  20
242.55886
  0
VERTEX
  5
1733
  8
Layer_0
  10
333.66616
  20
242.60055
  0
VERTEX
  5
1734
  8
Layer_0
  10
333.81315
  20
242.64958
  0
VERTEX
  5
1735
  8
Layer_0
  10
333.92668
  20
242.69985
  0
VERTEX
  5
1736
  8
Layer_0
  10
333.99072
  20
242.74523
  0
VERTEX
  5
1737
  8
Layer_0
  10
333.99654
  20
242.77692
  0
VERTEX
  5
1738
  8
Layer_0
  10
333.98712
  20
242.83916
  0
VERTEX
  5
1739
  8
Layer_0
  10
333.96264
  20
242.93152
  0
VERTEX
  5
173a
  8
Layer_0
  10
333.92328
  20
243.05358
  0
VERTEX
  5
173b
  8
Layer_0
  10
333.86922
  20
243.2049
  0
VERTEX
  5
173c
  8
Layer_0
  10
333.80064
  20
243.38504
  0
VERTEX
  5
173d
  8
Layer_0
  10
333.71772
  20
243.59358
  0
VERTEX
  5
173e
  8
Layer_0
  10
333.62063
  20
243.83008
  0
VERTEX
  5
173f
  8
Layer_0
  10
333.50957
  20
244.09411
  0
VERTEX
  5
1740
  8
Layer_0
  10
333.38471
  20
244.38524
  0
VERTEX
  5
1741
  8
Layer_0
  10
333.24622
  20
244.70304
  0
VERTEX
  5
1742
  8
Layer_0
  10
333.09429
  20
245.04707
  0
VERTEX
  5
1743
  8
Layer_0
  10
332.9291
  20
245.41689
  0
VERTEX
  5
1744
  8
Layer_0
  10
332.75083
  20
245.81209
  0
VERTEX
  5
1745
  8
Layer_0
  10
332.55965
  20
246.23223
  0
VERTEX
  5
1746
  8
Layer_0
  10
332.35575
  20
246.67687
  0
VERTEX
  5
1747
  8
Layer_0
  10
332.22487
  20
246.96241
  0
VERTEX
  5
1748
  8
Layer_0
  10
332.07588
  20
247.28942
  0
VERTEX
  5
1749
  8
Layer_0
  10
331.91231
  20
247.65
  0
VERTEX
  5
174a
  8
Layer_0
  10
331.73771
  20
248.03624
  0
VERTEX
  5
174b
  8
Layer_0
  10
331.36952
  20
248.85409
  0
VERTEX
  5
174c
  8
Layer_0
  10
330.99957
  20
249.67974
  0
VERTEX
  5
174d
  8
Layer_0
  10
330.82277
  20
250.07573
  0
VERTEX
  5
174e
  8
Layer_0
  10
330.65613
  20
250.44996
  0
VERTEX
  5
174f
  8
Layer_0
  10
330.50318
  20
250.79452
  0
VERTEX
  5
1750
  8
Layer_0
  10
330.36746
  20
251.10152
  0
VERTEX
  5
1751
  8
Layer_0
  10
330.25249
  20
251.36305
  0
VERTEX
  5
1752
  8
Layer_0
  10
330.16182
  20
251.57121
  0
VERTEX
  5
1753
  8
Layer_0
  10
330.09897
  20
251.71809
  0
VERTEX
  5
1754
  8
Layer_0
  10
330.06748
  20
251.79579
  0
VERTEX
  5
1755
  8
Layer_0
  10
329.97906
  20
251.98488
  0
VERTEX
  5
1756
  8
Layer_0
  10
329.88323
  20
252.09491
  0
VERTEX
  5
1757
  8
Layer_0
  10
329.78821
  20
252.12007
  0
VERTEX
  5
1758
  8
Layer_0
  10
329.7022
  20
252.05453
  0
SEQEND
  0
ENDSEC
  0
EOF
