  0
SECTION
  2
HEADER
  9
$ACADVER
  1
AC1014
  9
$HANDSEED
  5
FFFF
  9
$MEASUREMENT
 70
     1
  0
ENDSEC
  0
SECTION
  2
TABLES
  0
TABLE
  2
VPORT
  5
8
330
0
100
AcDbSymbolTable
 70
     4
  0
VPORT
  5
2E
330
8
100
AcDbSymbolTableRecord
100
AcDbViewportTableRecord
  2
*ACTIVE
 70
     0
 10
0.0
 20
0.0
 11
1.0
 21
1.0
 12
210.0
 22
148.5
 13
0.0
 23
0.0
 14
10.0
 24
10.0
 15
10.0
 25
10.0
 16
0.0
 26
0.0
 36
1.0
 17
0.0
 27
0.0
 37
0.0
 40
341.0
 41
1.24
 42
50.0
 43
0.0
 44
0.0
 50
0.0
 51
0.0
 71
     0
 72
   100
 73
     1
 74
     3
 75
     0
 76
     0
 77
     0
 78
     0
  0
ENDTAB
  0
TABLE
  2
LTYPE
  5
5
330
0
100
AcDbSymbolTable
 70
     1
  0
LTYPE
  5
14
330
5
100
AcDbSymbolTableRecord
100
AcDbLinetypeTableRecord
  2
BYBLOCK
 70
     0
  3

 72
    65
 73
     0
 40
0.0
  0
LTYPE
  5
15
330
5
100
AcDbSymbolTableRecord
100
AcDbLinetypeTableRecord
  2
BYLAYER
 70
     0
  3

 72
    65
 73
     0
 40
0.0
  0
LTYPE
  5
16
330
5
100
AcDbSymbolTableRecord
100
AcDbLinetypeTableRecord
  2
CONTINUOUS
 70
     0
  3
Solid line
 72
    65
 73
     0
 40
0.0
  0
ENDTAB
  0
TABLE
  2
LAYER
  5
2
100
AcDbSymbolTable
 70
2
  0
LAYER
  5
50
100
AcDbSymbolTableRecord
100
AcDbLayerTableRecord
  2
0
 70
0
  6
CONTINUOUS
  0
LAYER
  5
51
100
AcDbSymbolTableRecord
100
AcDbLayerTableRecord
  2
A10-C-v1-MM_adobe
 70
0
  6
CONTINUOUS
  0
ENDTAB
  0
TABLE
  2
STYLE
  5
3
330
0
100
AcDbSymbolTable
 70
     1
  0
STYLE
  5
11
330
3
100
AcDbSymbolTableRecord
100
AcDbTextStyleTableRecord
  2
STANDARD
 70
     0
 40
0.0
 41
1.0
 50
0.0
 71
     0
 42
2.5
  3
txt
  4

  0
ENDTAB
  0
TABLE
  2
VIEW
  5
6
330
0
100
AcDbSymbolTable
 70
     0
  0
ENDTAB
  0
TABLE
  2
UCS
  5
7
330
0
100
AcDbSymbolTable
 70
     0
  0
ENDTAB
  0
TABLE
  2
APPID
  5
9
330
0
100
AcDbSymbolTable
 70
     2
  0
APPID
  5
12
330
9
100
AcDbSymbolTableRecord
100
AcDbRegAppTableRecord
  2
ACAD
 70
     0
  0
ENDTAB
  0
TABLE
  2
DIMSTYLE
  5
A
330
0
100
AcDbSymbolTable
 70
     1
  0
DIMSTYLE
105
27
330
A
100
AcDbSymbolTableRecord
100
AcDbDimStyleTableRecord
  2
ISO-25
 70
     0
  3

  4

  5

  6

  7

 40
1.0
 41
2.5
 42
0.625
 43
3.75
 44
1.25
 45
0.0
 46
0.0
 47
0.0
 48
0.0
140
2.5
141
2.5
142
0.0
143
0.03937007874016
144
1.0
145
0.0
146
1.0
147
0.625
 71
     0
 72
     0
 73
     0
 74
     0
 75
     0
 76
     0
 77
     1
 78
     8
170
     0
171
     3
172
     1
173
     0
174
     0
175
     0
176
     0
177
     0
178
     0
270
     2
271
     2
272
     2
273
     2
274
     3
340
11
275
     0
280
     0
281
     0
282
     0
283
     0
284
     8
285
     0
286
     0
287
     3
288
     0
  0
ENDTAB
  0
TABLE
  2
BLOCK_RECORD
  5
1
330
0
100
AcDbSymbolTable
 70
     1
  0
BLOCK_RECORD
  5
1F
330
1
100
AcDbSymbolTableRecord
100
AcDbBlockTableRecord
  2
*MODEL_SPACE
  0
BLOCK_RECORD
  5
1B
330
1
100
AcDbSymbolTableRecord
100
AcDbBlockTableRecord
  2
*PAPER_SPACE
  0
ENDTAB
  0
ENDSEC
  0
SECTION
  2
BLOCKS
  0
BLOCK
  5
20
330
1F
100
AcDbEntity
  8
0
100
AcDbBlockBegin
  2
*MODEL_SPACE
 70
     0
 10
0.0
 20
0.0
 30
0.0
  3
*MODEL_SPACE
  1

  0
ENDBLK
  5
21
330
1F
100
AcDbEntity
  8
0
100
AcDbBlockEnd
  0
BLOCK
  5
1C
330
1B
100
AcDbEntity
 67
     1
  8
0
100
AcDbBlockBegin
  2
*PAPER_SPACE
  1

  0
ENDBLK
  5
1D
330
1B
100
AcDbEntity
 67
     1
  8
0
100
AcDbBlockEnd
  0
ENDSEC
  0
SECTION
  2
ENTITIES
  0
SPLINE
  5
100
100
AcDbEntity
  8
A10-C-v1-MM_adobe
 62
7
100
AcDbSpline
 70
8
 71
3
 72
8
 73
4
 74
0
 40
0
 40
0
 40
0
 40
0
 40
1
 40
1
 40
1
 40
1
 10
35.227160
 20
16.782553
 30
0.0
 10
35.209146
 20
16.765275
 30
0.0
 10
35.184674
 20
16.756081
 30
0.0
 10
35.159257
 20
16.756081
 30
0.0
  0
SPLINE
  5
101
100
AcDbEntity
  8
A10-C-v1-MM_adobe
 62
7
100
AcDbSpline
 70
8
 71
3
 72
8
 73
4
 74
0
 40
0
 40
0
 40
0
 40
0
 40
1
 40
1
 40
1
 40
1
 10
32.357585
 20
16.756076
 30
0.0
 10
32.332251
 20
16.756076
 30
0.0
 10
32.307724
 20
16.765271
 30
0.0
 10
32.289710
 20
16.782549
 30
0.0
  0
SPLINE
  5
102
100
AcDbEntity
  8
A10-C-v1-MM_adobe
 62
7
100
AcDbSpline
 70
8
 71
3
 72
8
 73
4
 74
0
 40
0
 40
0
 40
0
 40
0
 40
1
 40
1
 40
1
 40
1
 10
31.800157
 20
17.226942
 30
0.0
 10
31.782032
 20
17.244164
 30
0.0
 10
31.771976
 20
17.266594
 30
0.0
 10
31.771976
 20
17.291039
 30
0.0
  0
SPLINE
  5
103
100
AcDbEntity
  8
A10-C-v1-MM_adobe
 62
7
100
AcDbSpline
 70
8
 71
3
 72
8
 73
4
 74
0
 40
0
 40
0
 40
0
 40
0
 40
1
 40
1
 40
1
 40
1
 10
31.735732
 20
19.923936
 30
0.0
 10
31.735732
 20
19.947756
 30
0.0
 10
31.745871
 20
19.970811
 30
0.0
 10
31.763968
 20
19.988033
 30
0.0
  0
LWPOLYLINE
  5
104
100
AcDbEntity
  8
A10-C-v1-MM_adobe
 62
7
100
AcDbPolyline
 90
2
 70
0
 10
35.159261
 20
16.756076
 30
0.0
 10
32.357581
 20
16.756076
 30
0.0
  0
SPLINE
  5
105
100
AcDbEntity
  8
A10-C-v1-MM_adobe
 62
7
100
AcDbSpline
 70
8
 71
3
 72
8
 73
4
 74
0
 40
0
 40
0
 40
0
 40
0
 40
1
 40
1
 40
1
 40
1
 10
32.236843
 20
20.432210
 30
0.0
 10
32.254913
 20
20.449349
 30
0.0
 10
32.279357
 20
20.458654
 30
0.0
 10
32.304801
 20
20.458654
 30
0.0
  0
LWPOLYLINE
  5
106
100
AcDbEntity
  8
A10-C-v1-MM_adobe
 62
7
100
AcDbPolyline
 90
2
 70
0
 10
32.289714
 20
16.782553
 30
0.0
 10
31.816756
 20
17.226942
 30
0.0
  0
SPLINE
  5
107
100
AcDbEntity
  8
A10-C-v1-MM_adobe
 62
7
100
AcDbSpline
 70
8
 71
3
 72
8
 73
4
 74
0
 40
0
 40
0
 40
0
 40
0
 40
1
 40
1
 40
1
 40
1
 10
35.106472
 20
20.458713
 30
0.0
 10
35.131944
 20
20.458713
 30
0.0
 10
35.156333
 20
20.449435
 30
0.0
 10
35.174403
 20
20.432213
 30
0.0
  0
LWPOLYLINE
  5
108
100
AcDbEntity
  8
A10-C-v1-MM_adobe
 62
7
100
AcDbPolyline
 90
2
 70
0
 10
31.735732
 20
17.290771
 30
0.0
 10
31.735732
 20
19.923938
 30
0.0
  0
LWPOLYLINE
  5
109
100
AcDbEntity
  8
A10-C-v1-MM_adobe
 62
7
100
AcDbPolyline
 90
2
 70
0
 10
32.304796
 20
20.458713
 30
0.0
 10
35.106476
 20
20.458713
 30
0.0
  0
LWPOLYLINE
  5
10a
100
AcDbEntity
  8
A10-C-v1-MM_adobe
 62
7
100
AcDbPolyline
 90
2
 70
0
 10
35.174397
 20
20.432210
 30
0.0
 10
35.647356
 20
19.987765
 30
0.0
  0
LWPOLYLINE
  5
10b
100
AcDbEntity
  8
A10-C-v1-MM_adobe
 62
7
100
AcDbPolyline
 90
2
 70
0
 10
35.652696
 20
19.994874
 30
0.0
 10
35.652696
 20
17.209443
 30
0.0
  0
LWPOLYLINE
  5
10c
100
AcDbEntity
  8
A10-C-v1-MM_adobe
 62
7
100
AcDbPolyline
 90
2
 70
0
 10
31.763971
 20
19.987765
 30
0.0
 10
32.236846
 20
20.432210
 30
0.0
  0
SPLINE
  5
10d
100
AcDbEntity
  8
A10-C-v1-MM_adobe
 62
7
100
AcDbSpline
 70
8
 71
3
 72
8
 73
4
 74
0
 40
0
 40
0
 40
0
 40
0
 40
1
 40
1
 40
1
 40
1
 10
31.031793
 20
16.986979
 30
0.0
 10
31.017390
 20
16.971382
 30
0.0
 10
30.997807
 20
16.963076
 30
0.0
 10
30.977488
 20
16.963076
 30
0.0
  0
SPLINE
  5
10e
100
AcDbEntity
  8
A10-C-v1-MM_adobe
 62
7
100
AcDbSpline
 70
8
 71
3
 72
8
 73
4
 74
0
 40
0
 40
0
 40
0
 40
0
 40
1
 40
1
 40
1
 40
1
 10
28.736369
 20
16.963081
 30
0.0
 10
28.716106
 20
16.963081
 30
0.0
 10
28.696467
 20
16.971386
 30
0.0
 10
28.682092
 20
16.986983
 30
0.0
  0
LWPOLYLINE
  5
10f
100
AcDbEntity
  8
A10-C-v1-MM_adobe
 62
7
100
AcDbPolyline
 90
2
 70
0
 10
35.652696
 20
17.209446
 30
0.0
 10
35.227154
 20
16.782557
 30
0.0
  0
SPLINE
  5
110
100
AcDbEntity
  8
A10-C-v1-MM_adobe
 62
7
100
AcDbSpline
 70
8
 71
3
 72
8
 73
4
 74
0
 40
0
 40
0
 40
0
 40
0
 40
1
 40
1
 40
1
 40
1
 10
28.290460
 20
17.388456
 30
0.0
 10
28.275974
 20
17.404025
 30
0.0
 10
28.267918
 20
17.424261
 30
0.0
 10
28.267918
 20
17.446372
 30
0.0
  0
SPLINE
  5
111
100
AcDbEntity
  8
A10-C-v1-MM_adobe
 62
7
100
AcDbSpline
 70
8
 71
3
 72
8
 73
4
 74
0
 40
0
 40
0
 40
0
 40
0
 40
1
 40
1
 40
1
 40
1
 10
28.238946
 20
19.824951
 30
0.0
 10
28.238946
 20
19.846438
 30
0.0
 10
28.247057
 20
19.867271
 30
0.0
 10
28.261515
 20
19.882840
 30
0.0
  0
LWPOLYLINE
  5
112
100
AcDbEntity
  8
A10-C-v1-MM_adobe
 62
7
100
AcDbPolyline
 90
2
 70
0
 10
30.977485
 20
16.963081
 30
0.0
 10
28.736374
 20
16.963081
 30
0.0
  0
SPLINE
  5
113
100
AcDbEntity
  8
A10-C-v1-MM_adobe
 62
7
100
AcDbSpline
 70
8
 71
3
 72
8
 73
4
 74
0
 40
0
 40
0
 40
0
 40
0
 40
1
 40
1
 40
1
 40
1
 10
28.639771
 20
20.284099
 30
0.0
 10
28.654229
 20
20.299585
 30
0.0
 10
28.673785
 20
20.307974
 30
0.0
 10
28.694132
 20
20.307974
 30
0.0
  0
LWPOLYLINE
  5
114
100
AcDbEntity
  8
A10-C-v1-MM_adobe
 62
7
100
AcDbPolyline
 90
2
 70
0
 10
28.682089
 20
16.986979
 30
0.0
 10
28.303756
 20
17.388451
 30
0.0
  0
SPLINE
  5
115
100
AcDbEntity
  8
A10-C-v1-MM_adobe
 62
7
100
AcDbSpline
 70
8
 71
3
 72
8
 73
4
 74
0
 40
0
 40
0
 40
0
 40
0
 40
1
 40
1
 40
1
 40
1
 10
30.935249
 20
20.308024
 30
0.0
 10
30.955624
 20
20.308024
 30
0.0
 10
30.975151
 20
20.299635
 30
0.0
 10
30.989582
 20
20.284093
 30
0.0
  0
LWPOLYLINE
  5
116
100
AcDbEntity
  8
A10-C-v1-MM_adobe
 62
7
100
AcDbPolyline
 90
2
 70
0
 10
28.238946
 20
17.446126
 30
0.0
 10
28.238946
 20
19.824946
 30
0.0
  0
LWPOLYLINE
  5
117
100
AcDbEntity
  8
A10-C-v1-MM_adobe
 62
7
100
AcDbPolyline
 90
2
 70
0
 10
28.694132
 20
20.308024
 30
0.0
 10
30.935243
 20
20.308024
 30
0.0
  0
LWPOLYLINE
  5
118
100
AcDbEntity
  8
A10-C-v1-MM_adobe
 62
7
100
AcDbPolyline
 90
2
 70
0
 10
30.989583
 20
20.284099
 30
0.0
 10
31.367889
 20
19.882571
 30
0.0
  0
LWPOLYLINE
  5
119
100
AcDbEntity
  8
A10-C-v1-MM_adobe
 62
7
100
AcDbPolyline
 90
2
 70
0
 10
31.372206
 20
19.888997
 30
0.0
 10
31.372206
 20
17.372664
 30
0.0
  0
LWPOLYLINE
  5
11a
100
AcDbEntity
  8
A10-C-v1-MM_adobe
 62
7
100
AcDbPolyline
 90
2
 70
0
 10
28.261515
 20
19.882568
 30
0.0
 10
28.639765
 20
20.284096
 30
0.0
  0
LWPOLYLINE
  5
11b
100
AcDbEntity
  8
A10-C-v1-MM_adobe
 62
7
100
AcDbPolyline
 90
2
 70
0
 10
31.372206
 20
17.372667
 30
0.0
 10
31.031789
 20
16.986972
 30
0.0
  0
SPLINE
  5
11c
100
AcDbEntity
  8
A10-C-v1-MM_adobe
 62
7
100
AcDbSpline
 70
8
 71
3
 72
8
 73
4
 74
0
 40
0
 40
0
 40
0
 40
0
 40
1
 40
1
 40
1
 40
1
 10
34.541883
 20
20.977160
 30
0.0
 10
35.006731
 20
20.977160
 30
0.0
 10
35.436258
 20
21.225368
 30
0.0
 10
35.668675
 20
21.628285
 30
0.0
  0
SPLINE
  5
11d
100
AcDbEntity
  8
A10-C-v1-MM_adobe
 62
7
100
AcDbSpline
 70
8
 71
3
 72
8
 73
4
 74
0
 40
0
 40
0
 40
0
 40
0
 40
1
 40
1
 40
1
 40
1
 10
35.668674
 20
21.628282
 30
0.0
 10
35.901063
 20
22.031171
 30
0.0
 10
35.901063
 20
22.527532
 30
0.0
 10
35.668674
 20
22.930449
 30
0.0
  0
SPLINE
  5
11e
100
AcDbEntity
  8
A10-C-v1-MM_adobe
 62
7
100
AcDbSpline
 70
8
 71
3
 72
8
 73
4
 74
0
 40
0
 40
0
 40
0
 40
0
 40
1
 40
1
 40
1
 40
1
 10
35.668674
 20
22.930447
 30
0.0
 10
35.436257
 20
23.333336
 30
0.0
 10
35.006729
 20
23.581544
 30
0.0
 10
34.541882
 20
23.581544
 30
0.0
  0
SPLINE
  5
11f
100
AcDbEntity
  8
A10-C-v1-MM_adobe
 62
7
100
AcDbSpline
 70
8
 71
3
 72
8
 73
4
 74
0
 40
0
 40
0
 40
0
 40
0
 40
1
 40
1
 40
1
 40
1
 10
34.541883
 20
23.581550
 30
0.0
 10
34.077064
 20
23.581550
 30
0.0
 10
33.647536
 20
23.333342
 30
0.0
 10
33.415119
 20
22.930453
 30
0.0
  0
SPLINE
  5
120
100
AcDbEntity
  8
A10-C-v1-MM_adobe
 62
7
100
AcDbSpline
 70
8
 71
3
 72
8
 73
4
 74
0
 40
0
 40
0
 40
0
 40
0
 40
1
 40
1
 40
1
 40
1
 10
33.415121
 20
22.930447
 30
0.0
 10
33.182732
 20
22.527531
 30
0.0
 10
33.182732
 20
22.031169
 30
0.0
 10
33.415121
 20
21.628281
 30
0.0
  0
SPLINE
  5
121
100
AcDbEntity
  8
A10-C-v1-MM_adobe
 62
7
100
AcDbSpline
 70
8
 71
3
 72
8
 73
4
 74
0
 40
0
 40
0
 40
0
 40
0
 40
1
 40
1
 40
1
 40
1
 10
33.415121
 20
21.628282
 30
0.0
 10
33.647537
 20
21.225365
 30
0.0
 10
34.077065
 20
20.977157
 30
0.0
 10
34.541885
 20
20.977157
 30
0.0
  0
SPLINE
  5
122
100
AcDbEntity
  8
A10-C-v1-MM_adobe
 62
7
100
AcDbSpline
 70
8
 71
3
 72
8
 73
4
 74
0
 40
0
 40
0
 40
0
 40
0
 40
1
 40
1
 40
1
 40
1
 10
31.652994
 20
20.991049
 30
0.0
 10
32.117842
 20
20.991049
 30
0.0
 10
32.547369
 20
21.239257
 30
0.0
 10
32.779786
 20
21.642174
 30
0.0
  0
SPLINE
  5
123
100
AcDbEntity
  8
A10-C-v1-MM_adobe
 62
7
100
AcDbSpline
 70
8
 71
3
 72
8
 73
4
 74
0
 40
0
 40
0
 40
0
 40
0
 40
1
 40
1
 40
1
 40
1
 10
32.779785
 20
21.642171
 30
0.0
 10
33.012174
 20
22.045060
 30
0.0
 10
33.012174
 20
22.541421
 30
0.0
 10
32.779785
 20
22.944338
 30
0.0
  0
SPLINE
  5
124
100
AcDbEntity
  8
A10-C-v1-MM_adobe
 62
7
100
AcDbSpline
 70
8
 71
3
 72
8
 73
4
 74
0
 40
0
 40
0
 40
0
 40
0
 40
1
 40
1
 40
1
 40
1
 10
32.779785
 20
22.944336
 30
0.0
 10
32.547368
 20
23.347225
 30
0.0
 10
32.117840
 20
23.595433
 30
0.0
 10
31.652993
 20
23.595433
 30
0.0
  0
SPLINE
  5
125
100
AcDbEntity
  8
A10-C-v1-MM_adobe
 62
7
100
AcDbSpline
 70
8
 71
3
 72
8
 73
4
 74
0
 40
0
 40
0
 40
0
 40
0
 40
1
 40
1
 40
1
 40
1
 10
31.652994
 20
23.595439
 30
0.0
 10
31.188175
 20
23.595439
 30
0.0
 10
30.758647
 20
23.347231
 30
0.0
 10
30.526244
 20
22.944342
 30
0.0
  0
SPLINE
  5
126
100
AcDbEntity
  8
A10-C-v1-MM_adobe
 62
7
100
AcDbSpline
 70
8
 71
3
 72
8
 73
4
 74
0
 40
0
 40
0
 40
0
 40
0
 40
1
 40
1
 40
1
 40
1
 10
30.526244
 20
22.944336
 30
0.0
 10
30.293856
 20
22.541419
 30
0.0
 10
30.293856
 20
22.045058
 30
0.0
 10
30.526244
 20
21.642169
 30
0.0
  0
SPLINE
  5
127
100
AcDbEntity
  8
A10-C-v1-MM_adobe
 62
7
100
AcDbSpline
 70
8
 71
3
 72
8
 73
4
 74
0
 40
0
 40
0
 40
0
 40
0
 40
1
 40
1
 40
1
 40
1
 10
30.526244
 20
21.642171
 30
0.0
 10
30.758647
 20
21.239254
 30
0.0
 10
31.188175
 20
20.991046
 30
0.0
 10
31.652994
 20
20.991046
 30
0.0
  0
SPLINE
  5
128
100
AcDbEntity
  8
A10-C-v1-MM_adobe
 62
7
100
AcDbSpline
 70
8
 71
3
 72
8
 73
4
 74
0
 40
0
 40
0
 40
0
 40
0
 40
1
 40
1
 40
1
 40
1
 10
29.991197
 20
13.707899
 30
0.0
 10
29.990906
 20
13.575704
 30
0.0
 10
30.113183
 20
13.468371
 30
0.0
 10
30.264308
 20
13.468024
 30
0.0
  0
LWPOLYLINE
  5
129
100
AcDbEntity
  8
A10-C-v1-MM_adobe
 62
7
100
AcDbPolyline
 90
6
 70
0
 10
25.002722
 20
20.429611
 30
0.0
 10
27.889681
 20
20.429611
 30
0.0
 10
27.889681
 20
16.766708
 30
0.0
 10
25.002722
 20
16.766708
 30
0.0
 10
25.002722
 20
20.429611
 30
0.0
 10
25.002722
 20
20.429611
 30
0.0
  0
SPLINE
  5
12a
100
AcDbEntity
  8
A10-C-v1-MM_adobe
 62
7
100
AcDbSpline
 70
8
 71
3
 72
8
 73
4
 74
0
 40
0
 40
0
 40
0
 40
0
 40
1
 40
1
 40
1
 40
1
 10
29.802749
 20
20.853950
 30
0.0
 10
29.938415
 20
20.853672
 30
0.0
 10
30.048540
 20
20.940464
 30
0.0
 10
30.048790
 20
21.047769
 30
0.0
  0
LWPOLYLINE
  5
12b
100
AcDbEntity
  8
A10-C-v1-MM_adobe
 62
7
100
AcDbPolyline
 90
2
 70
0
 10
22.959649
 20
20.867324
 30
0.0
 10
29.802746
 20
20.853949
 30
0.0
  0
SPLINE
  5
12c
100
AcDbEntity
  8
A10-C-v1-MM_adobe
 62
7
100
AcDbSpline
 70
8
 71
3
 72
8
 73
4
 74
0
 40
0
 40
0
 40
0
 40
0
 40
1
 40
1
 40
1
 40
1
 10
30.286256
 20
23.716776
 30
0.0
 10
30.150617
 20
23.717026
 30
0.0
 10
30.040464
 20
23.630221
 30
0.0
 10
30.040214
 20
23.522846
 30
0.0
  0
SPLINE
  5
12d
100
AcDbEntity
  8
A10-C-v1-MM_adobe
 62
7
100
AcDbSpline
 70
8
 71
3
 72
8
 73
4
 74
0
 40
0
 40
0
 40
0
 40
0
 40
1
 40
1
 40
1
 40
1
 10
22.649699
 20
16.564208
 30
0.0
 10
22.649476
 20
16.456847
 30
0.0
 10
22.759213
 20
16.369653
 30
0.0
 10
22.894893
 20
16.369389
 30
0.0
  0
LWPOLYLINE
  5
12e
100
AcDbEntity
  8
A10-C-v1-MM_adobe
 62
7
100
AcDbPolyline
 90
2
 70
0
 10
35.809679
 20
13.457383
 30
0.0
 10
30.264304
 20
13.468050
 30
0.0
  0
LWPOLYLINE
  5
12f
100
AcDbEntity
  8
A10-C-v1-MM_adobe
 62
7
100
AcDbPolyline
 90
2
 70
0
 10
22.635810
 20
16.564236
 30
0.0
 10
22.644629
 20
20.659583
 30
0.0
  0
LWPOLYLINE
  5
130
100
AcDbEntity
  8
A10-C-v1-MM_adobe
 62
7
100
AcDbPolyline
 90
2
 70
0
 10
30.034899
 20
21.047771
 30
0.0
 10
30.040329
 20
23.570840
 30
0.0
  0
SPLINE
  5
131
100
AcDbEntity
  8
A10-C-v1-MM_adobe
 62
7
100
AcDbSpline
 70
8
 71
3
 72
8
 73
4
 74
0
 40
0
 40
0
 40
0
 40
0
 40
1
 40
1
 40
1
 40
1
 10
35.767036
 20
13.453885
 30
0.0
 10
35.960203
 20
13.453482
 30
0.0
 10
36.116967
 20
13.539246
 30
0.0
 10
36.117217
 20
13.645399
 30
0.0
  0
LWPOLYLINE
  5
132
100
AcDbEntity
  8
A10-C-v1-MM_adobe
 62
7
100
AcDbPolyline
 90
2
 70
0
 10
29.994425
 20
13.709608
 30
0.0
 10
29.999744
 20
16.171664
 30
0.0
  0
LWPOLYLINE
  5
133
100
AcDbEntity
  8
A10-C-v1-MM_adobe
 62
7
100
AcDbPolyline
 90
2
 70
0
 10
30.258450
 20
23.720981
 30
0.0
 10
35.811436
 20
23.744661
 30
0.0
  0
SPLINE
  5
134
100
AcDbEntity
  8
A10-C-v1-MM_adobe
 62
7
100
AcDbSpline
 70
8
 71
3
 72
8
 73
4
 74
0
 40
0
 40
0
 40
0
 40
0
 40
1
 40
1
 40
1
 40
1
 10
36.114529
 20
23.547289
 30
0.0
 10
36.114765
 20
23.656289
 30
0.0
 10
35.955001
 20
23.744942
 30
0.0
 10
35.757682
 20
23.745317
 30
0.0
  0
SPLINE
  5
135
100
AcDbEntity
  8
A10-C-v1-MM_adobe
 62
7
100
AcDbSpline
 70
8
 71
3
 72
8
 73
4
 74
0
 40
0
 40
0
 40
0
 40
0
 40
1
 40
1
 40
1
 40
1
 10
22.904093
 20
20.853435
 30
0.0
 10
22.768399
 20
20.853713
 30
0.0
 10
22.658301
 20
20.766921
 30
0.0
 10
22.658079
 20
20.659560
 30
0.0
  0
SPLINE
  5
136
100
AcDbEntity
  8
A10-C-v1-MM_adobe
 62
7
100
AcDbSpline
 70
8
 71
3
 72
8
 73
4
 74
0
 40
0
 40
0
 40
0
 40
0
 40
1
 40
1
 40
1
 40
1
 10
30.010972
 20
16.161133
 30
0.0
 10
30.011222
 20
16.268453
 30
0.0
 10
29.901403
 20
16.355689
 30
0.0
 10
29.765750
 20
16.355925
 30
0.0
  0
LWPOLYLINE
  5
137
100
AcDbEntity
  8
A10-C-v1-MM_adobe
 62
7
100
AcDbPolyline
 90
2
 70
0
 10
29.765747
 20
16.355931
 30
0.0
 10
22.894900
 20
16.369389
 30
0.0
  0
SPLINE
  5
138
100
AcDbEntity
  8
A10-C-v1-MM_adobe
 62
7
100
AcDbSpline
 70
8
 71
3
 72
8
 73
4
 74
0
 40
0
 40
0
 40
0
 40
0
 40
1
 40
1
 40
1
 40
1
 10
34.607232
 20
13.589843
 30
0.0
 10
35.072079
 20
13.589843
 30
0.0
 10
35.446051
 20
13.838051
 30
0.0
 10
35.678468
 20
14.240968
 30
0.0
  0
SPLINE
  5
139
100
AcDbEntity
  8
A10-C-v1-MM_adobe
 62
7
100
AcDbSpline
 70
8
 71
3
 72
8
 73
4
 74
0
 40
0
 40
0
 40
0
 40
0
 40
1
 40
1
 40
1
 40
1
 10
35.678467
 20
14.240967
 30
0.0
 10
35.910856
 20
14.643856
 30
0.0
 10
35.910856
 20
15.140217
 30
0.0
 10
35.678467
 20
15.543133
 30
0.0
  0
SPLINE
  5
13a
100
AcDbEntity
  8
A10-C-v1-MM_adobe
 62
7
100
AcDbSpline
 70
8
 71
3
 72
8
 73
4
 74
0
 40
0
 40
0
 40
0
 40
0
 40
1
 40
1
 40
1
 40
1
 10
35.678467
 20
15.543132
 30
0.0
 10
35.446050
 20
15.946021
 30
0.0
 10
35.016522
 20
16.194229
 30
0.0
 10
34.551675
 20
16.194229
 30
0.0
  0
SPLINE
  5
13b
100
AcDbEntity
  8
A10-C-v1-MM_adobe
 62
7
100
AcDbSpline
 70
8
 71
3
 72
8
 73
4
 74
0
 40
0
 40
0
 40
0
 40
0
 40
1
 40
1
 40
1
 40
1
 10
34.551676
 20
16.194228
 30
0.0
 10
34.086857
 20
16.194228
 30
0.0
 10
33.657329
 20
15.946019
 30
0.0
 10
33.424912
 20
15.543131
 30
0.0
  0
SPLINE
  5
13c
100
AcDbEntity
  8
A10-C-v1-MM_adobe
 62
7
100
AcDbSpline
 70
8
 71
3
 72
8
 73
4
 74
0
 40
0
 40
0
 40
0
 40
0
 40
1
 40
1
 40
1
 40
1
 10
33.424914
 20
15.543132
 30
0.0
 10
33.192525
 20
15.140215
 30
0.0
 10
33.192525
 20
14.643854
 30
0.0
 10
33.424914
 20
14.240965
 30
0.0
  0
SPLINE
  5
13d
100
AcDbEntity
  8
A10-C-v1-MM_adobe
 62
7
100
AcDbSpline
 70
8
 71
3
 72
8
 73
4
 74
0
 40
0
 40
0
 40
0
 40
0
 40
1
 40
1
 40
1
 40
1
 10
33.424914
 20
14.240967
 30
0.0
 10
33.657331
 20
13.838050
 30
0.0
 10
34.142414
 20
13.589842
 30
0.0
 10
34.607233
 20
13.589842
 30
0.0
  0
SPLINE
  5
13e
100
AcDbEntity
  8
A10-C-v1-MM_adobe
 62
7
100
AcDbSpline
 70
8
 71
3
 72
8
 73
4
 74
0
 40
0
 40
0
 40
0
 40
0
 40
1
 40
1
 40
1
 40
1
 10
31.718343
 20
13.603732
 30
0.0
 10
32.183190
 20
13.603732
 30
0.0
 10
32.557163
 20
13.851940
 30
0.0
 10
32.789579
 20
14.254857
 30
0.0
  0
SPLINE
  5
13f
100
AcDbEntity
  8
A10-C-v1-MM_adobe
 62
7
100
AcDbSpline
 70
8
 71
3
 72
8
 73
4
 74
0
 40
0
 40
0
 40
0
 40
0
 40
1
 40
1
 40
1
 40
1
 10
32.789578
 20
14.254856
 30
0.0
 10
33.021967
 20
14.657744
 30
0.0
 10
33.021967
 20
15.154106
 30
0.0
 10
32.789578
 20
15.557022
 30
0.0
  0
SPLINE
  5
140
100
AcDbEntity
  8
A10-C-v1-MM_adobe
 62
7
100
AcDbSpline
 70
8
 71
3
 72
8
 73
4
 74
0
 40
0
 40
0
 40
0
 40
0
 40
1
 40
1
 40
1
 40
1
 10
32.789578
 20
15.557021
 30
0.0
 10
32.557161
 20
15.959910
 30
0.0
 10
32.127633
 20
16.208118
 30
0.0
 10
31.662786
 20
16.208118
 30
0.0
  0
SPLINE
  5
141
100
AcDbEntity
  8
A10-C-v1-MM_adobe
 62
7
100
AcDbSpline
 70
8
 71
3
 72
8
 73
4
 74
0
 40
0
 40
0
 40
0
 40
0
 40
1
 40
1
 40
1
 40
1
 10
31.662788
 20
16.208117
 30
0.0
 10
31.197968
 20
16.208117
 30
0.0
 10
30.768440
 20
15.959908
 30
0.0
 10
30.536037
 20
15.557019
 30
0.0
  0
SPLINE
  5
142
100
AcDbEntity
  8
A10-C-v1-MM_adobe
 62
7
100
AcDbSpline
 70
8
 71
3
 72
8
 73
4
 74
0
 40
0
 40
0
 40
0
 40
0
 40
1
 40
1
 40
1
 40
1
 10
30.536038
 20
15.557021
 30
0.0
 10
30.303649
 20
15.154104
 30
0.0
 10
30.303649
 20
14.657743
 30
0.0
 10
30.536038
 20
14.254854
 30
0.0
  0
SPLINE
  5
143
100
AcDbEntity
  8
A10-C-v1-MM_adobe
 62
7
100
AcDbSpline
 70
8
 71
3
 72
8
 73
4
 74
0
 40
0
 40
0
 40
0
 40
0
 40
1
 40
1
 40
1
 40
1
 10
30.536038
 20
14.254856
 30
0.0
 10
30.768440
 20
13.851939
 30
0.0
 10
31.253524
 20
13.603731
 30
0.0
 10
31.718343
 20
13.603731
 30
0.0
  0
SPLINE
  5
144
100
AcDbEntity
  8
A10-C-v1-MM_adobe
 62
7
100
AcDbSpline
 70
8
 71
3
 72
8
 73
4
 74
0
 40
0
 40
0
 40
0
 40
0
 40
1
 40
1
 40
1
 40
1
 10
26.938585
 20
4.535360
 30
0.0
 10
26.938696
 20
4.811235
 30
0.0
 10
26.768668
 20
5.066290
 30
0.0
 10
26.492390
 20
5.204235
 30
0.0
  0
SPLINE
  5
145
100
AcDbEntity
  8
A10-C-v1-MM_adobe
 62
7
100
AcDbSpline
 70
8
 71
3
 72
8
 73
4
 74
0
 40
0
 40
0
 40
0
 40
0
 40
1
 40
1
 40
1
 40
1
 10
26.492390
 20
5.204238
 30
0.0
 10
26.216057
 20
5.342224
 30
0.0
 10
25.875682
 20
5.342224
 30
0.0
 10
25.599335
 20
5.204238
 30
0.0
  0
SPLINE
  5
146
100
AcDbEntity
  8
A10-C-v1-MM_adobe
 62
7
100
AcDbSpline
 70
8
 71
3
 72
8
 73
4
 74
0
 40
0
 40
0
 40
0
 40
0
 40
1
 40
1
 40
1
 40
1
 10
25.599338
 20
5.204238
 30
0.0
 10
25.323115
 20
5.066279
 30
0.0
 10
25.152963
 20
4.811238
 30
0.0
 10
25.153199
 20
4.535363
 30
0.0
  0
SPLINE
  5
147
100
AcDbEntity
  8
A10-C-v1-MM_adobe
 62
7
100
AcDbSpline
 70
8
 71
3
 72
8
 73
4
 74
0
 40
0
 40
0
 40
0
 40
0
 40
1
 40
1
 40
1
 40
1
 10
25.153199
 20
4.535360
 30
0.0
 10
25.153504
 20
4.109221
 30
0.0
 10
25.553060
 20
3.763901
 30
0.0
 10
26.045838
 20
3.763901
 30
0.0
  0
SPLINE
  5
148
100
AcDbEntity
  8
A10-C-v1-MM_adobe
 62
7
100
AcDbSpline
 70
8
 71
3
 72
8
 73
4
 74
0
 40
0
 40
0
 40
0
 40
0
 40
1
 40
1
 40
1
 40
1
 10
26.045831
 20
3.763903
 30
0.0
 10
26.538733
 20
3.763903
 30
0.0
 10
26.938275
 20
4.109222
 30
0.0
 10
26.938581
 20
4.535361
 30
0.0
  0
SPLINE
  5
149
100
AcDbEntity
  8
A10-C-v1-MM_adobe
 62
7
100
AcDbSpline
 70
8
 71
3
 72
8
 73
4
 74
0
 40
0
 40
0
 40
0
 40
0
 40
1
 40
1
 40
1
 40
1
 10
28.865397
 20
6.183322
 30
0.0
 10
28.865397
 20
6.459100
 30
0.0
 10
28.695231
 20
6.713933
 30
0.0
 10
28.419064
 20
6.851836
 30
0.0
  0
SPLINE
  5
14a
100
AcDbEntity
  8
A10-C-v1-MM_adobe
 62
7
100
AcDbSpline
 70
8
 71
3
 72
8
 73
4
 74
0
 40
0
 40
0
 40
0
 40
0
 40
1
 40
1
 40
1
 40
1
 10
28.419068
 20
6.851833
 30
0.0
 10
28.142846
 20
6.989764
 30
0.0
 10
27.802540
 20
6.989764
 30
0.0
 10
27.526374
 20
6.851833
 30
0.0
  0
SPLINE
  5
14b
100
AcDbEntity
  8
A10-C-v1-MM_adobe
 62
7
100
AcDbSpline
 70
8
 71
3
 72
8
 73
4
 74
0
 40
0
 40
0
 40
0
 40
0
 40
1
 40
1
 40
1
 40
1
 10
27.526367
 20
6.851833
 30
0.0
 10
27.250158
 20
6.713931
 30
0.0
 10
27.080006
 20
6.459111
 30
0.0
 10
27.080006
 20
6.183319
 30
0.0
  0
SPLINE
  5
14c
100
AcDbEntity
  8
A10-C-v1-MM_adobe
 62
7
100
AcDbSpline
 70
8
 71
3
 72
8
 73
4
 74
0
 40
0
 40
0
 40
0
 40
0
 40
1
 40
1
 40
1
 40
1
 10
27.080010
 20
6.183322
 30
0.0
 10
27.080010
 20
5.907503
 30
0.0
 10
27.250163
 20
5.652683
 30
0.0
 10
27.526371
 20
5.514808
 30
0.0
  0
SPLINE
  5
14d
100
AcDbEntity
  8
A10-C-v1-MM_adobe
 62
7
100
AcDbSpline
 70
8
 71
3
 72
8
 73
4
 74
0
 40
0
 40
0
 40
0
 40
0
 40
1
 40
1
 40
1
 40
1
 10
27.526367
 20
5.514811
 30
0.0
 10
27.802547
 20
5.376908
 30
0.0
 10
28.142853
 20
5.376908
 30
0.0
 10
28.419061
 20
5.514811
 30
0.0
  0
SPLINE
  5
14e
100
AcDbEntity
  8
A10-C-v1-MM_adobe
 62
7
100
AcDbSpline
 70
8
 71
3
 72
8
 73
4
 74
0
 40
0
 40
0
 40
0
 40
0
 40
1
 40
1
 40
1
 40
1
 10
28.419068
 20
5.514811
 30
0.0
 10
28.695221
 20
5.652686
 30
0.0
 10
28.865401
 20
5.907492
 30
0.0
 10
28.865401
 20
6.183325
 30
0.0
  0
SPLINE
  5
14f
100
AcDbEntity
  8
A10-C-v1-MM_adobe
 62
7
100
AcDbSpline
 70
8
 71
3
 72
8
 73
4
 74
0
 40
0
 40
0
 40
0
 40
0
 40
1
 40
1
 40
1
 40
1
 10
26.938585
 20
6.183322
 30
0.0
 10
26.938696
 20
6.459197
 30
0.0
 10
26.768668
 20
6.714225
 30
0.0
 10
26.492390
 20
6.852197
 30
0.0
  0
SPLINE
  5
150
100
AcDbEntity
  8
A10-C-v1-MM_adobe
 62
7
100
AcDbSpline
 70
8
 71
3
 72
8
 73
4
 74
0
 40
0
 40
0
 40
0
 40
0
 40
1
 40
1
 40
1
 40
1
 10
26.492390
 20
6.852200
 30
0.0
 10
26.216057
 20
6.990214
 30
0.0
 10
25.875682
 20
6.990214
 30
0.0
 10
25.599335
 20
6.852200
 30
0.0
  0
SPLINE
  5
151
100
AcDbEntity
  8
A10-C-v1-MM_adobe
 62
7
100
AcDbSpline
 70
8
 71
3
 72
8
 73
4
 74
0
 40
0
 40
0
 40
0
 40
0
 40
1
 40
1
 40
1
 40
1
 10
25.599338
 20
6.852200
 30
0.0
 10
25.323115
 20
6.714214
 30
0.0
 10
25.152963
 20
6.459200
 30
0.0
 10
25.153199
 20
6.183325
 30
0.0
  0
SPLINE
  5
152
100
AcDbEntity
  8
A10-C-v1-MM_adobe
 62
7
100
AcDbSpline
 70
8
 71
3
 72
8
 73
4
 74
0
 40
0
 40
0
 40
0
 40
0
 40
1
 40
1
 40
1
 40
1
 10
25.153199
 20
6.183322
 30
0.0
 10
25.153504
 20
5.757156
 30
0.0
 10
25.553060
 20
5.411822
 30
0.0
 10
26.045838
 20
5.411822
 30
0.0
  0
SPLINE
  5
153
100
AcDbEntity
  8
A10-C-v1-MM_adobe
 62
7
100
AcDbSpline
 70
8
 71
3
 72
8
 73
4
 74
0
 40
0
 40
0
 40
0
 40
0
 40
1
 40
1
 40
1
 40
1
 10
26.045831
 20
5.411825
 30
0.0
 10
26.538733
 20
5.411825
 30
0.0
 10
26.938275
 20
5.757158
 30
0.0
 10
26.938581
 20
6.183325
 30
0.0
  0
SPLINE
  5
154
100
AcDbEntity
  8
A10-C-v1-MM_adobe
 62
7
100
AcDbSpline
 70
8
 71
3
 72
8
 73
4
 74
0
 40
0
 40
0
 40
0
 40
0
 40
1
 40
1
 40
1
 40
1
 10
25.019911
 20
6.183322
 30
0.0
 10
25.019911
 20
6.459100
 30
0.0
 10
24.849703
 20
6.713933
 30
0.0
 10
24.573536
 20
6.851836
 30
0.0
  0
SPLINE
  5
155
100
AcDbEntity
  8
A10-C-v1-MM_adobe
 62
7
100
AcDbSpline
 70
8
 71
3
 72
8
 73
4
 74
0
 40
0
 40
0
 40
0
 40
0
 40
1
 40
1
 40
1
 40
1
 10
24.573540
 20
6.851833
 30
0.0
 10
24.297332
 20
6.989764
 30
0.0
 10
23.956999
 20
6.989764
 30
0.0
 10
23.680874
 20
6.851833
 30
0.0
  0
SPLINE
  5
156
100
AcDbEntity
  8
A10-C-v1-MM_adobe
 62
7
100
AcDbSpline
 70
8
 71
3
 72
8
 73
4
 74
0
 40
0
 40
0
 40
0
 40
0
 40
1
 40
1
 40
1
 40
1
 10
23.680868
 20
6.851833
 30
0.0
 10
23.404660
 20
6.713931
 30
0.0
 10
23.234535
 20
6.459111
 30
0.0
 10
23.234535
 20
6.183319
 30
0.0
  0
SPLINE
  5
157
100
AcDbEntity
  8
A10-C-v1-MM_adobe
 62
7
100
AcDbSpline
 70
8
 71
3
 72
8
 73
4
 74
0
 40
0
 40
0
 40
0
 40
0
 40
1
 40
1
 40
1
 40
1
 10
23.234538
 20
6.183322
 30
0.0
 10
23.234538
 20
5.907503
 30
0.0
 10
23.404663
 20
5.652683
 30
0.0
 10
23.680871
 20
5.514808
 30
0.0
  0
SPLINE
  5
158
100
AcDbEntity
  8
A10-C-v1-MM_adobe
 62
7
100
AcDbSpline
 70
8
 71
3
 72
8
 73
4
 74
0
 40
0
 40
0
 40
0
 40
0
 40
1
 40
1
 40
1
 40
1
 10
23.680868
 20
5.514811
 30
0.0
 10
23.957007
 20
5.376908
 30
0.0
 10
24.297340
 20
5.376908
 30
0.0
 10
24.573535
 20
5.514811
 30
0.0
  0
SPLINE
  5
159
100
AcDbEntity
  8
A10-C-v1-MM_adobe
 62
7
100
AcDbSpline
 70
8
 71
3
 72
8
 73
4
 74
0
 40
0
 40
0
 40
0
 40
0
 40
1
 40
1
 40
1
 40
1
 10
24.573540
 20
5.514811
 30
0.0
 10
24.849707
 20
5.652686
 30
0.0
 10
25.019915
 20
5.907492
 30
0.0
 10
25.019915
 20
6.183325
 30
0.0
  0
SPLINE
  5
15a
100
AcDbEntity
  8
A10-C-v1-MM_adobe
 62
7
100
AcDbSpline
 70
8
 71
3
 72
8
 73
4
 74
0
 40
0
 40
0
 40
0
 40
0
 40
1
 40
1
 40
1
 40
1
 10
23.082153
 20
6.183322
 30
0.0
 10
23.082153
 20
6.459100
 30
0.0
 10
22.912000
 20
6.713933
 30
0.0
 10
22.635806
 20
6.851836
 30
0.0
  0
SPLINE
  5
15b
100
AcDbEntity
  8
A10-C-v1-MM_adobe
 62
7
100
AcDbSpline
 70
8
 71
3
 72
8
 73
4
 74
0
 40
0
 40
0
 40
0
 40
0
 40
1
 40
1
 40
1
 40
1
 10
22.635810
 20
6.851833
 30
0.0
 10
22.359574
 20
6.989764
 30
0.0
 10
22.019310
 20
6.989764
 30
0.0
 10
21.743115
 20
6.851833
 30
0.0
  0
SPLINE
  5
15c
100
AcDbEntity
  8
A10-C-v1-MM_adobe
 62
7
100
AcDbSpline
 70
8
 71
3
 72
8
 73
4
 74
0
 40
0
 40
0
 40
0
 40
0
 40
1
 40
1
 40
1
 40
1
 10
21.743110
 20
6.851833
 30
0.0
 10
21.466874
 20
6.713931
 30
0.0
 10
21.296776
 20
6.459111
 30
0.0
 10
21.296776
 20
6.183319
 30
0.0
  0
SPLINE
  5
15d
100
AcDbEntity
  8
A10-C-v1-MM_adobe
 62
7
100
AcDbSpline
 70
8
 71
3
 72
8
 73
4
 74
0
 40
0
 40
0
 40
0
 40
0
 40
1
 40
1
 40
1
 40
1
 10
21.296781
 20
6.183322
 30
0.0
 10
21.296781
 20
5.907503
 30
0.0
 10
21.466878
 20
5.652683
 30
0.0
 10
21.743114
 20
5.514808
 30
0.0
  0
SPLINE
  5
15e
100
AcDbEntity
  8
A10-C-v1-MM_adobe
 62
7
100
AcDbSpline
 70
8
 71
3
 72
8
 73
4
 74
0
 40
0
 40
0
 40
0
 40
0
 40
1
 40
1
 40
1
 40
1
 10
21.743110
 20
5.514811
 30
0.0
 10
22.019290
 20
5.376908
 30
0.0
 10
22.359582
 20
5.376908
 30
0.0
 10
22.635804
 20
5.514811
 30
0.0
  0
SPLINE
  5
15f
100
AcDbEntity
  8
A10-C-v1-MM_adobe
 62
7
100
AcDbSpline
 70
8
 71
3
 72
8
 73
4
 74
0
 40
0
 40
0
 40
0
 40
0
 40
1
 40
1
 40
1
 40
1
 10
22.635810
 20
5.514811
 30
0.0
 10
22.912004
 20
5.652686
 30
0.0
 10
23.082157
 20
5.907492
 30
0.0
 10
23.082157
 20
6.183325
 30
0.0
  0
SPLINE
  5
160
100
AcDbEntity
  8
A10-C-v1-MM_adobe
 62
7
100
AcDbSpline
 70
8
 71
3
 72
8
 73
4
 74
0
 40
0
 40
0
 40
0
 40
0
 40
1
 40
1
 40
1
 40
1
 10
28.865397
 20
2.900825
 30
0.0
 10
28.865397
 20
3.176631
 30
0.0
 10
28.695231
 20
3.431422
 30
0.0
 10
28.419064
 20
3.569381
 30
0.0
  0
SPLINE
  5
161
100
AcDbEntity
  8
A10-C-v1-MM_adobe
 62
7
100
AcDbSpline
 70
8
 71
3
 72
8
 73
4
 74
0
 40
0
 40
0
 40
0
 40
0
 40
1
 40
1
 40
1
 40
1
 10
28.419068
 20
3.569376
 30
0.0
 10
28.142846
 20
3.707265
 30
0.0
 10
27.802540
 20
3.707265
 30
0.0
 10
27.526374
 20
3.569376
 30
0.0
  0
SPLINE
  5
162
100
AcDbEntity
  8
A10-C-v1-MM_adobe
 62
7
100
AcDbSpline
 70
8
 71
3
 72
8
 73
4
 74
0
 40
0
 40
0
 40
0
 40
0
 40
1
 40
1
 40
1
 40
1
 10
27.526367
 20
3.569376
 30
0.0
 10
27.250158
 20
3.431418
 30
0.0
 10
27.080006
 20
3.176640
 30
0.0
 10
27.080006
 20
2.900821
 30
0.0
  0
SPLINE
  5
163
100
AcDbEntity
  8
A10-C-v1-MM_adobe
 62
7
100
AcDbSpline
 70
8
 71
3
 72
8
 73
4
 74
0
 40
0
 40
0
 40
0
 40
0
 40
1
 40
1
 40
1
 40
1
 10
27.080010
 20
2.900825
 30
0.0
 10
27.080010
 20
2.625047
 30
0.0
 10
27.250163
 20
2.370186
 30
0.0
 10
27.526371
 20
2.232325
 30
0.0
  0
SPLINE
  5
164
100
AcDbEntity
  8
A10-C-v1-MM_adobe
 62
7
100
AcDbSpline
 70
8
 71
3
 72
8
 73
4
 74
0
 40
0
 40
0
 40
0
 40
0
 40
1
 40
1
 40
1
 40
1
 10
27.526367
 20
2.232326
 30
0.0
 10
27.802547
 20
2.094396
 30
0.0
 10
28.142853
 20
2.094396
 30
0.0
 10
28.419061
 20
2.232326
 30
0.0
  0
SPLINE
  5
165
100
AcDbEntity
  8
A10-C-v1-MM_adobe
 62
7
100
AcDbSpline
 70
8
 71
3
 72
8
 73
4
 74
0
 40
0
 40
0
 40
0
 40
0
 40
1
 40
1
 40
1
 40
1
 10
28.419068
 20
2.232326
 30
0.0
 10
28.695221
 20
2.370215
 30
0.0
 10
28.865401
 20
2.625035
 30
0.0
 10
28.865401
 20
2.900826
 30
0.0
  0
SPLINE
  5
166
100
AcDbEntity
  8
A10-C-v1-MM_adobe
 62
7
100
AcDbSpline
 70
8
 71
3
 72
8
 73
4
 74
0
 40
0
 40
0
 40
0
 40
0
 40
1
 40
1
 40
1
 40
1
 10
26.938585
 20
2.900825
 30
0.0
 10
26.938696
 20
3.176728
 30
0.0
 10
26.768668
 20
3.431700
 30
0.0
 10
26.492390
 20
3.569686
 30
0.0
  0
SPLINE
  5
167
100
AcDbEntity
  8
A10-C-v1-MM_adobe
 62
7
100
AcDbSpline
 70
8
 71
3
 72
8
 73
4
 74
0
 40
0
 40
0
 40
0
 40
0
 40
1
 40
1
 40
1
 40
1
 10
26.492390
 20
3.569689
 30
0.0
 10
26.216057
 20
3.707689
 30
0.0
 10
25.875682
 20
3.707689
 30
0.0
 10
25.599335
 20
3.569689
 30
0.0
  0
SPLINE
  5
168
100
AcDbEntity
  8
A10-C-v1-MM_adobe
 62
7
100
AcDbSpline
 70
8
 71
3
 72
8
 73
4
 74
0
 40
0
 40
0
 40
0
 40
0
 40
1
 40
1
 40
1
 40
1
 10
25.599338
 20
3.569689
 30
0.0
 10
25.323115
 20
3.431689
 30
0.0
 10
25.152963
 20
3.176731
 30
0.0
 10
25.153199
 20
2.900828
 30
0.0
  0
SPLINE
  5
169
100
AcDbEntity
  8
A10-C-v1-MM_adobe
 62
7
100
AcDbSpline
 70
8
 71
3
 72
8
 73
4
 74
0
 40
0
 40
0
 40
0
 40
0
 40
1
 40
1
 40
1
 40
1
 10
25.153199
 20
2.900825
 30
0.0
 10
25.153504
 20
2.474658
 30
0.0
 10
25.553060
 20
2.129269
 30
0.0
 10
26.045838
 20
2.129269
 30
0.0
  0
SPLINE
  5
16a
100
AcDbEntity
  8
A10-C-v1-MM_adobe
 62
7
100
AcDbSpline
 70
8
 71
3
 72
8
 73
4
 74
0
 40
0
 40
0
 40
0
 40
0
 40
1
 40
1
 40
1
 40
1
 10
26.045831
 20
2.129272
 30
0.0
 10
26.538733
 20
2.129272
 30
0.0
 10
26.938275
 20
2.474661
 30
0.0
 10
26.938581
 20
2.900828
 30
0.0
  0
SPLINE
  5
16b
100
AcDbEntity
  8
A10-C-v1-MM_adobe
 62
7
100
AcDbSpline
 70
8
 71
3
 72
8
 73
4
 74
0
 40
0
 40
0
 40
0
 40
0
 40
1
 40
1
 40
1
 40
1
 10
25.019911
 20
2.900825
 30
0.0
 10
25.019911
 20
3.176631
 30
0.0
 10
24.849703
 20
3.431422
 30
0.0
 10
24.573536
 20
3.569381
 30
0.0
  0
SPLINE
  5
16c
100
AcDbEntity
  8
A10-C-v1-MM_adobe
 62
7
100
AcDbSpline
 70
8
 71
3
 72
8
 73
4
 74
0
 40
0
 40
0
 40
0
 40
0
 40
1
 40
1
 40
1
 40
1
 10
24.573540
 20
3.569376
 30
0.0
 10
24.297332
 20
3.707265
 30
0.0
 10
23.956999
 20
3.707265
 30
0.0
 10
23.680874
 20
3.569376
 30
0.0
  0
SPLINE
  5
16d
100
AcDbEntity
  8
A10-C-v1-MM_adobe
 62
7
100
AcDbSpline
 70
8
 71
3
 72
8
 73
4
 74
0
 40
0
 40
0
 40
0
 40
0
 40
1
 40
1
 40
1
 40
1
 10
23.680868
 20
3.569376
 30
0.0
 10
23.404660
 20
3.431418
 30
0.0
 10
23.234535
 20
3.176640
 30
0.0
 10
23.234535
 20
2.900821
 30
0.0
  0
SPLINE
  5
16e
100
AcDbEntity
  8
A10-C-v1-MM_adobe
 62
7
100
AcDbSpline
 70
8
 71
3
 72
8
 73
4
 74
0
 40
0
 40
0
 40
0
 40
0
 40
1
 40
1
 40
1
 40
1
 10
23.234538
 20
2.900825
 30
0.0
 10
23.234538
 20
2.625047
 30
0.0
 10
23.404663
 20
2.370186
 30
0.0
 10
23.680871
 20
2.232325
 30
0.0
  0
SPLINE
  5
16f
100
AcDbEntity
  8
A10-C-v1-MM_adobe
 62
7
100
AcDbSpline
 70
8
 71
3
 72
8
 73
4
 74
0
 40
0
 40
0
 40
0
 40
0
 40
1
 40
1
 40
1
 40
1
 10
23.680868
 20
2.232326
 30
0.0
 10
23.957007
 20
2.094396
 30
0.0
 10
24.297340
 20
2.094396
 30
0.0
 10
24.573535
 20
2.232326
 30
0.0
  0
SPLINE
  5
170
100
AcDbEntity
  8
A10-C-v1-MM_adobe
 62
7
100
AcDbSpline
 70
8
 71
3
 72
8
 73
4
 74
0
 40
0
 40
0
 40
0
 40
0
 40
1
 40
1
 40
1
 40
1
 10
24.573540
 20
2.232326
 30
0.0
 10
24.849707
 20
2.370215
 30
0.0
 10
25.019915
 20
2.625035
 30
0.0
 10
25.019915
 20
2.900826
 30
0.0
  0
SPLINE
  5
171
100
AcDbEntity
  8
A10-C-v1-MM_adobe
 62
7
100
AcDbSpline
 70
8
 71
3
 72
8
 73
4
 74
0
 40
0
 40
0
 40
0
 40
0
 40
1
 40
1
 40
1
 40
1
 10
23.082153
 20
2.900825
 30
0.0
 10
23.082153
 20
3.176631
 30
0.0
 10
22.912000
 20
3.431422
 30
0.0
 10
22.635806
 20
3.569381
 30
0.0
  0
SPLINE
  5
172
100
AcDbEntity
  8
A10-C-v1-MM_adobe
 62
7
100
AcDbSpline
 70
8
 71
3
 72
8
 73
4
 74
0
 40
0
 40
0
 40
0
 40
0
 40
1
 40
1
 40
1
 40
1
 10
22.635810
 20
3.569376
 30
0.0
 10
22.359574
 20
3.707265
 30
0.0
 10
22.019310
 20
3.707265
 30
0.0
 10
21.743115
 20
3.569376
 30
0.0
  0
SPLINE
  5
173
100
AcDbEntity
  8
A10-C-v1-MM_adobe
 62
7
100
AcDbSpline
 70
8
 71
3
 72
8
 73
4
 74
0
 40
0
 40
0
 40
0
 40
0
 40
1
 40
1
 40
1
 40
1
 10
21.743110
 20
3.569376
 30
0.0
 10
21.466874
 20
3.431418
 30
0.0
 10
21.296776
 20
3.176640
 30
0.0
 10
21.296776
 20
2.900821
 30
0.0
  0
SPLINE
  5
174
100
AcDbEntity
  8
A10-C-v1-MM_adobe
 62
7
100
AcDbSpline
 70
8
 71
3
 72
8
 73
4
 74
0
 40
0
 40
0
 40
0
 40
0
 40
1
 40
1
 40
1
 40
1
 10
21.296781
 20
2.900825
 30
0.0
 10
21.296781
 20
2.625047
 30
0.0
 10
21.466878
 20
2.370186
 30
0.0
 10
21.743114
 20
2.232325
 30
0.0
  0
SPLINE
  5
175
100
AcDbEntity
  8
A10-C-v1-MM_adobe
 62
7
100
AcDbSpline
 70
8
 71
3
 72
8
 73
4
 74
0
 40
0
 40
0
 40
0
 40
0
 40
1
 40
1
 40
1
 40
1
 10
21.743110
 20
2.232326
 30
0.0
 10
22.019290
 20
2.094396
 30
0.0
 10
22.359582
 20
2.094396
 30
0.0
 10
22.635804
 20
2.232326
 30
0.0
  0
SPLINE
  5
176
100
AcDbEntity
  8
A10-C-v1-MM_adobe
 62
7
100
AcDbSpline
 70
8
 71
3
 72
8
 73
4
 74
0
 40
0
 40
0
 40
0
 40
0
 40
1
 40
1
 40
1
 40
1
 10
22.635810
 20
2.232326
 30
0.0
 10
22.912004
 20
2.370215
 30
0.0
 10
23.082157
 20
2.625035
 30
0.0
 10
23.082157
 20
2.900826
 30
0.0
  0
SPLINE
  5
177
100
AcDbEntity
  8
A10-C-v1-MM_adobe
 62
7
100
AcDbSpline
 70
8
 71
3
 72
8
 73
4
 74
0
 40
0
 40
0
 40
0
 40
0
 40
1
 40
1
 40
1
 40
1
 10
28.865397
 20
4.535360
 30
0.0
 10
28.865397
 20
4.811138
 30
0.0
 10
28.695231
 20
5.065999
 30
0.0
 10
28.419064
 20
5.203860
 30
0.0
  0
SPLINE
  5
178
100
AcDbEntity
  8
A10-C-v1-MM_adobe
 62
7
100
AcDbSpline
 70
8
 71
3
 72
8
 73
4
 74
0
 40
0
 40
0
 40
0
 40
0
 40
1
 40
1
 40
1
 40
1
 10
28.419068
 20
5.203857
 30
0.0
 10
28.142846
 20
5.341774
 30
0.0
 10
27.802540
 20
5.341774
 30
0.0
 10
27.526374
 20
5.203857
 30
0.0
  0
SPLINE
  5
179
100
AcDbEntity
  8
A10-C-v1-MM_adobe
 62
7
100
AcDbSpline
 70
8
 71
3
 72
8
 73
4
 74
0
 40
0
 40
0
 40
0
 40
0
 40
1
 40
1
 40
1
 40
1
 10
27.526367
 20
5.203857
 30
0.0
 10
27.250158
 20
5.065996
 30
0.0
 10
27.080006
 20
4.811149
 30
0.0
 10
27.080006
 20
4.535357
 30
0.0
  0
SPLINE
  5
17a
100
AcDbEntity
  8
A10-C-v1-MM_adobe
 62
7
100
AcDbSpline
 70
8
 71
3
 72
8
 73
4
 74
0
 40
0
 40
0
 40
0
 40
0
 40
1
 40
1
 40
1
 40
1
 10
27.080010
 20
4.535360
 30
0.0
 10
27.080010
 20
4.259568
 30
0.0
 10
27.250163
 20
4.004749
 30
0.0
 10
27.526371
 20
3.866804
 30
0.0
  0
SPLINE
  5
17b
100
AcDbEntity
  8
A10-C-v1-MM_adobe
 62
7
100
AcDbSpline
 70
8
 71
3
 72
8
 73
4
 74
0
 40
0
 40
0
 40
0
 40
0
 40
1
 40
1
 40
1
 40
1
 10
27.526367
 20
3.866808
 30
0.0
 10
27.802547
 20
3.728961
 30
0.0
 10
28.142853
 20
3.728961
 30
0.0
 10
28.419061
 20
3.866808
 30
0.0
  0
SPLINE
  5
17c
100
AcDbEntity
  8
A10-C-v1-MM_adobe
 62
7
100
AcDbSpline
 70
8
 71
3
 72
8
 73
4
 74
0
 40
0
 40
0
 40
0
 40
0
 40
1
 40
1
 40
1
 40
1
 10
28.419068
 20
3.866808
 30
0.0
 10
28.695221
 20
4.004753
 30
0.0
 10
28.865401
 20
4.259558
 30
0.0
 10
28.865401
 20
4.535364
 30
0.0
  0
SPLINE
  5
17d
100
AcDbEntity
  8
A10-C-v1-MM_adobe
 62
7
100
AcDbSpline
 70
8
 71
3
 72
8
 73
4
 74
0
 40
0
 40
0
 40
0
 40
0
 40
1
 40
1
 40
1
 40
1
 10
25.019911
 20
4.535360
 30
0.0
 10
25.019911
 20
4.811138
 30
0.0
 10
24.849703
 20
5.065999
 30
0.0
 10
24.573536
 20
5.203860
 30
0.0
  0
SPLINE
  5
17e
100
AcDbEntity
  8
A10-C-v1-MM_adobe
 62
7
100
AcDbSpline
 70
8
 71
3
 72
8
 73
4
 74
0
 40
0
 40
0
 40
0
 40
0
 40
1
 40
1
 40
1
 40
1
 10
24.573540
 20
5.203857
 30
0.0
 10
24.297332
 20
5.341774
 30
0.0
 10
23.956999
 20
5.341774
 30
0.0
 10
23.680874
 20
5.203857
 30
0.0
  0
SPLINE
  5
17f
100
AcDbEntity
  8
A10-C-v1-MM_adobe
 62
7
100
AcDbSpline
 70
8
 71
3
 72
8
 73
4
 74
0
 40
0
 40
0
 40
0
 40
0
 40
1
 40
1
 40
1
 40
1
 10
23.680868
 20
5.203857
 30
0.0
 10
23.404660
 20
5.065996
 30
0.0
 10
23.234535
 20
4.811149
 30
0.0
 10
23.234535
 20
4.535357
 30
0.0
  0
SPLINE
  5
180
100
AcDbEntity
  8
A10-C-v1-MM_adobe
 62
7
100
AcDbSpline
 70
8
 71
3
 72
8
 73
4
 74
0
 40
0
 40
0
 40
0
 40
0
 40
1
 40
1
 40
1
 40
1
 10
23.234538
 20
4.535360
 30
0.0
 10
23.234538
 20
4.259568
 30
0.0
 10
23.404663
 20
4.004749
 30
0.0
 10
23.680871
 20
3.866804
 30
0.0
  0
SPLINE
  5
181
100
AcDbEntity
  8
A10-C-v1-MM_adobe
 62
7
100
AcDbSpline
 70
8
 71
3
 72
8
 73
4
 74
0
 40
0
 40
0
 40
0
 40
0
 40
1
 40
1
 40
1
 40
1
 10
23.680868
 20
3.866808
 30
0.0
 10
23.957007
 20
3.728961
 30
0.0
 10
24.297340
 20
3.728961
 30
0.0
 10
24.573535
 20
3.866808
 30
0.0
  0
SPLINE
  5
182
100
AcDbEntity
  8
A10-C-v1-MM_adobe
 62
7
100
AcDbSpline
 70
8
 71
3
 72
8
 73
4
 74
0
 40
0
 40
0
 40
0
 40
0
 40
1
 40
1
 40
1
 40
1
 10
24.573540
 20
3.866808
 30
0.0
 10
24.849707
 20
4.004753
 30
0.0
 10
25.019915
 20
4.259558
 30
0.0
 10
25.019915
 20
4.535364
 30
0.0
  0
SPLINE
  5
183
100
AcDbEntity
  8
A10-C-v1-MM_adobe
 62
7
100
AcDbSpline
 70
8
 71
3
 72
8
 73
4
 74
0
 40
0
 40
0
 40
0
 40
0
 40
1
 40
1
 40
1
 40
1
 10
23.082153
 20
4.535360
 30
0.0
 10
23.082153
 20
4.811138
 30
0.0
 10
22.912000
 20
5.065999
 30
0.0
 10
22.635806
 20
5.203860
 30
0.0
  0
SPLINE
  5
184
100
AcDbEntity
  8
A10-C-v1-MM_adobe
 62
7
100
AcDbSpline
 70
8
 71
3
 72
8
 73
4
 74
0
 40
0
 40
0
 40
0
 40
0
 40
1
 40
1
 40
1
 40
1
 10
22.635810
 20
5.203857
 30
0.0
 10
22.359574
 20
5.341774
 30
0.0
 10
22.019310
 20
5.341774
 30
0.0
 10
21.743115
 20
5.203857
 30
0.0
  0
SPLINE
  5
185
100
AcDbEntity
  8
A10-C-v1-MM_adobe
 62
7
100
AcDbSpline
 70
8
 71
3
 72
8
 73
4
 74
0
 40
0
 40
0
 40
0
 40
0
 40
1
 40
1
 40
1
 40
1
 10
21.743110
 20
5.203857
 30
0.0
 10
21.466874
 20
5.065996
 30
0.0
 10
21.296776
 20
4.811149
 30
0.0
 10
21.296776
 20
4.535357
 30
0.0
  0
SPLINE
  5
186
100
AcDbEntity
  8
A10-C-v1-MM_adobe
 62
7
100
AcDbSpline
 70
8
 71
3
 72
8
 73
4
 74
0
 40
0
 40
0
 40
0
 40
0
 40
1
 40
1
 40
1
 40
1
 10
21.296781
 20
4.535360
 30
0.0
 10
21.296781
 20
4.259568
 30
0.0
 10
21.466878
 20
4.004749
 30
0.0
 10
21.743114
 20
3.866804
 30
0.0
  0
SPLINE
  5
187
100
AcDbEntity
  8
A10-C-v1-MM_adobe
 62
7
100
AcDbSpline
 70
8
 71
3
 72
8
 73
4
 74
0
 40
0
 40
0
 40
0
 40
0
 40
1
 40
1
 40
1
 40
1
 10
21.743110
 20
3.866808
 30
0.0
 10
22.019290
 20
3.728961
 30
0.0
 10
22.359582
 20
3.728961
 30
0.0
 10
22.635804
 20
3.866808
 30
0.0
  0
SPLINE
  5
188
100
AcDbEntity
  8
A10-C-v1-MM_adobe
 62
7
100
AcDbSpline
 70
8
 71
3
 72
8
 73
4
 74
0
 40
0
 40
0
 40
0
 40
0
 40
1
 40
1
 40
1
 40
1
 10
22.635810
 20
3.866808
 30
0.0
 10
22.912004
 20
4.004753
 30
0.0
 10
23.082157
 20
4.259558
 30
0.0
 10
23.082157
 20
4.535364
 30
0.0
  0
SPLINE
  5
189
100
AcDbEntity
  8
A10-C-v1-MM_adobe
 62
7
100
AcDbSpline
 70
8
 71
3
 72
8
 73
4
 74
0
 40
0
 40
0
 40
0
 40
0
 40
1
 40
1
 40
1
 40
1
 10
16.279432
 20
6.726426
 30
0.0
 10
16.289140
 20
6.716274
 30
0.0
 10
16.294307
 20
6.702482
 30
0.0
 10
16.294307
 20
6.688190
 30
0.0
  0
SPLINE
  5
18a
100
AcDbEntity
  8
A10-C-v1-MM_adobe
 62
7
100
AcDbSpline
 70
8
 71
3
 72
8
 73
4
 74
0
 40
0
 40
0
 40
0
 40
0
 40
1
 40
1
 40
1
 40
1
 10
16.294311
 20
5.110488
 30
0.0
 10
16.294311
 20
5.096238
 30
0.0
 10
16.289144
 20
5.082418
 30
0.0
 10
16.279436
 20
5.072293
 30
0.0
  0
LWPOLYLINE
  5
18b
100
AcDbEntity
  8
A10-C-v1-MM_adobe
 62
7
100
AcDbPolyline
 90
2
 70
0
 10
36.110446
 20
23.561368
 30
0.0
 10
36.110446
 20
13.645618
 30
0.0
  0
SPLINE
  5
18c
100
AcDbEntity
  8
A10-C-v1-MM_adobe
 62
7
100
AcDbSpline
 70
8
 71
3
 72
8
 73
4
 74
0
 40
0
 40
0
 40
0
 40
0
 40
1
 40
1
 40
1
 40
1
 10
16.029867
 20
4.796604
 30
0.0
 10
16.020214
 20
4.786410
 30
0.0
 10
16.007756
 20
4.760326
 30
0.0
 10
15.994033
 20
4.760326
 30
0.0
  0
SPLINE
  5
18d
100
AcDbEntity
  8
A10-C-v1-MM_adobe
 62
7
100
AcDbSpline
 70
8
 71
3
 72
8
 73
4
 74
0
 40
0
 40
0
 40
0
 40
0
 40
1
 40
1
 40
1
 40
1
 10
14.515218
 20
4.760322
 30
0.0
 10
14.501885
 20
4.760322
 30
0.0
 10
14.488913
 20
4.766031
 30
0.0
 10
14.479260
 20
4.776225
 30
0.0
  0
LWPOLYLINE
  5
18e
100
AcDbEntity
  8
A10-C-v1-MM_adobe
 62
7
100
AcDbPolyline
 90
2
 70
0
 10
16.294311
 20
6.688192
 30
0.0
 10
16.294311
 20
5.110483
 30
0.0
  0
SPLINE
  5
18f
100
AcDbEntity
  8
A10-C-v1-MM_adobe
 62
7
100
AcDbSpline
 70
8
 71
3
 72
8
 73
4
 74
0
 40
0
 40
0
 40
0
 40
0
 40
1
 40
1
 40
1
 40
1
 10
14.229804
 20
5.042521
 30
0.0
 10
14.220193
 20
5.052674
 30
0.0
 10
14.214957
 20
5.066438
 30
0.0
 10
14.214957
 20
5.080785
 30
0.0
  0
LWPOLYLINE
  5
190
100
AcDbEntity
  8
A10-C-v1-MM_adobe
 62
7
100
AcDbPolyline
 90
2
 70
0
 10
16.279432
 20
5.072293
 30
0.0
 10
16.029863
 20
4.796599
 30
0.0
  0
SPLINE
  5
191
100
AcDbEntity
  8
A10-C-v1-MM_adobe
 62
7
100
AcDbSpline
 70
8
 71
3
 72
8
 73
4
 74
0
 40
0
 40
0
 40
0
 40
0
 40
1
 40
1
 40
1
 40
1
 10
14.214925
 20
6.658447
 30
0.0
 10
14.214925
 20
6.672781
 30
0.0
 10
14.220119
 20
6.686531
 30
0.0
 10
14.229800
 20
6.696697
 30
0.0
  0
LWPOLYLINE
  5
192
100
AcDbEntity
  8
A10-C-v1-MM_adobe
 62
7
100
AcDbPolyline
 90
2
 70
0
 10
15.994032
 20
4.760322
 30
0.0
 10
14.515213
 20
4.760322
 30
0.0
  0
LWPOLYLINE
  5
193
100
AcDbEntity
  8
A10-C-v1-MM_adobe
 62
7
100
AcDbPolyline
 90
2
 70
0
 10
14.214925
 20
5.080783
 30
0.0
 10
14.214925
 20
6.658450
 30
0.0
  0
LWPOLYLINE
  5
194
100
AcDbEntity
  8
A10-C-v1-MM_adobe
 62
7
100
AcDbPolyline
 90
2
 70
0
 10
14.229804
 20
6.696696
 30
0.0
 10
14.479415
 20
6.963029
 30
0.0
  0
LWPOLYLINE
  5
195
100
AcDbEntity
  8
A10-C-v1-MM_adobe
 62
7
100
AcDbPolyline
 90
2
 70
0
 10
14.475396
 20
6.966051
 30
0.0
 10
16.039674
 20
6.966051
 30
0.0
  0
SPLINE
  5
196
100
AcDbEntity
  8
A10-C-v1-MM_adobe
 62
7
100
AcDbSpline
 70
8
 71
3
 72
8
 73
4
 74
0
 40
0
 40
0
 40
0
 40
0
 40
1
 40
1
 40
1
 40
1
 10
13.960735
 20
6.668972
 30
0.0
 10
13.970388
 20
6.658833
 30
0.0
 10
13.975568
 20
6.645042
 30
0.0
 10
13.975568
 20
6.630722
 30
0.0
  0
LWPOLYLINE
  5
197
100
AcDbEntity
  8
A10-C-v1-MM_adobe
 62
7
100
AcDbPolyline
 90
2
 70
0
 10
14.479411
 20
4.776218
 30
0.0
 10
14.229800
 20
5.042524
 30
0.0
  0
SPLINE
  5
198
100
AcDbEntity
  8
A10-C-v1-MM_adobe
 62
7
100
AcDbSpline
 70
8
 71
3
 72
8
 73
4
 74
0
 40
0
 40
0
 40
0
 40
0
 40
1
 40
1
 40
1
 40
1
 10
13.975586
 20
5.053060
 30
0.0
 10
13.975586
 20
5.038740
 30
0.0
 10
13.970433
 20
5.024963
 30
0.0
 10
13.960781
 20
5.014838
 30
0.0
  0
LWPOLYLINE
  5
199
100
AcDbEntity
  8
A10-C-v1-MM_adobe
 62
7
100
AcDbPolyline
 90
2
 70
0
 10
16.039672
 20
6.966051
 30
0.0
 10
16.279436
 20
6.726426
 30
0.0
  0
SPLINE
  5
19a
100
AcDbEntity
  8
A10-C-v1-MM_adobe
 62
7
100
AcDbSpline
 70
8
 71
3
 72
8
 73
4
 74
0
 40
0
 40
0
 40
0
 40
0
 40
1
 40
1
 40
1
 40
1
 10
13.711140
 20
4.748535
 30
0.0
 10
13.701501
 20
4.738340
 30
0.0
 10
13.688904
 20
4.732660
 30
0.0
 10
13.675140
 20
4.732660
 30
0.0
  0
SPLINE
  5
19b
100
AcDbEntity
  8
A10-C-v1-MM_adobe
 62
7
100
AcDbSpline
 70
8
 71
3
 72
8
 73
4
 74
0
 40
0
 40
0
 40
0
 40
0
 40
1
 40
1
 40
1
 40
1
 10
12.196506
 20
4.732667
 30
0.0
 10
12.183158
 20
4.732667
 30
0.0
 10
12.170172
 20
4.738333
 30
0.0
 10
12.160519
 20
4.748542
 30
0.0
  0
LWPOLYLINE
  5
19c
100
AcDbEntity
  8
A10-C-v1-MM_adobe
 62
7
100
AcDbPolyline
 90
2
 70
0
 10
13.975586
 20
6.630724
 30
0.0
 10
13.975586
 20
5.053057
 30
0.0
  0
SPLINE
  5
19d
100
AcDbEntity
  8
A10-C-v1-MM_adobe
 62
7
100
AcDbSpline
 70
8
 71
3
 72
8
 73
4
 74
0
 40
0
 40
0
 40
0
 40
0
 40
1
 40
1
 40
1
 40
1
 10
11.911106
 20
5.014839
 30
0.0
 10
11.901439
 20
5.024964
 30
0.0
 10
11.896272
 20
5.038742
 30
0.0
 10
11.896272
 20
5.053061
 30
0.0
  0
LWPOLYLINE
  5
19e
100
AcDbEntity
  8
A10-C-v1-MM_adobe
 62
7
100
AcDbPolyline
 90
2
 70
0
 10
13.960735
 20
5.014839
 30
0.0
 10
13.711138
 20
4.748533
 30
0.0
  0
SPLINE
  5
19f
100
AcDbEntity
  8
A10-C-v1-MM_adobe
 62
7
100
AcDbSpline
 70
8
 71
3
 72
8
 73
4
 74
0
 40
0
 40
0
 40
0
 40
0
 40
1
 40
1
 40
1
 40
1
 10
11.896267
 20
6.630724
 30
0.0
 10
11.896267
 20
6.645113
 30
0.0
 10
11.901433
 20
6.658849
 30
0.0
 10
11.911100
 20
6.668974
 30
0.0
  0
LWPOLYLINE
  5
1a0
100
AcDbEntity
  8
A10-C-v1-MM_adobe
 62
7
100
AcDbPolyline
 90
2
 70
0
 10
13.675293
 20
4.732667
 30
0.0
 10
12.196501
 20
4.732667
 30
0.0
  0
SPLINE
  5
1a1
100
AcDbEntity
  8
A10-C-v1-MM_adobe
 62
7
100
AcDbSpline
 70
8
 71
3
 72
8
 73
4
 74
0
 40
0
 40
0
 40
0
 40
0
 40
1
 40
1
 40
1
 40
1
 10
12.160658
 20
6.935303
 30
0.0
 10
12.170297
 20
6.945428
 30
0.0
 10
12.182936
 20
6.951122
 30
0.0
 10
12.196658
 20
6.951122
 30
0.0
  0
LWPOLYLINE
  5
1a2
100
AcDbEntity
  8
A10-C-v1-MM_adobe
 62
7
100
AcDbPolyline
 90
2
 70
0
 10
11.896267
 20
5.053060
 30
0.0
 10
11.896267
 20
6.630726
 30
0.0
  0
SPLINE
  5
1a3
100
AcDbEntity
  8
A10-C-v1-MM_adobe
 62
7
100
AcDbSpline
 70
8
 71
3
 72
8
 73
4
 74
0
 40
0
 40
0
 40
0
 40
0
 40
1
 40
1
 40
1
 40
1
 10
13.675293
 20
6.951118
 30
0.0
 10
13.688654
 20
6.951118
 30
0.0
 10
13.701626
 20
6.945438
 30
0.0
 10
13.711307
 20
6.935285
 30
0.0
  0
LWPOLYLINE
  5
1a4
100
AcDbEntity
  8
A10-C-v1-MM_adobe
 62
7
100
AcDbPolyline
 90
2
 70
0
 10
11.911106
 20
6.668972
 30
0.0
 10
12.160661
 20
6.935306
 30
0.0
  0
LWPOLYLINE
  5
1a5
100
AcDbEntity
  8
A10-C-v1-MM_adobe
 62
7
100
AcDbPolyline
 90
2
 70
0
 10
12.198324
 20
6.952582
 30
0.0
 10
13.675296
 20
6.952582
 30
0.0
  0
SPLINE
  5
1a6
100
AcDbEntity
  8
A10-C-v1-MM_adobe
 62
7
100
AcDbSpline
 70
8
 71
3
 72
8
 73
4
 74
0
 40
0
 40
0
 40
0
 40
0
 40
1
 40
1
 40
1
 40
1
 10
16.275242
 20
4.150486
 30
0.0
 10
16.284881
 20
4.140375
 30
0.0
 10
16.290103
 20
4.126583
 30
0.0
 10
16.290103
 20
4.112264
 30
0.0
  0
LWPOLYLINE
  5
1a7
100
AcDbEntity
  8
A10-C-v1-MM_adobe
 62
7
100
AcDbPolyline
 90
2
 70
0
 10
12.160658
 20
4.748535
 30
0.0
 10
11.911103
 20
5.014840
 30
0.0
  0
SPLINE
  5
1a8
100
AcDbEntity
  8
A10-C-v1-MM_adobe
 62
7
100
AcDbSpline
 70
8
 71
3
 72
8
 73
4
 74
0
 40
0
 40
0
 40
0
 40
0
 40
1
 40
1
 40
1
 40
1
 10
16.290107
 20
2.534532
 30
0.0
 10
16.290107
 20
2.520240
 30
0.0
 10
16.284885
 20
2.506476
 30
0.0
 10
16.275246
 20
2.496365
 30
0.0
  0
LWPOLYLINE
  5
1a9
100
AcDbEntity
  8
A10-C-v1-MM_adobe
 62
7
100
AcDbPolyline
 90
2
 70
0
 10
13.711140
 20
6.935303
 30
0.0
 10
13.960738
 20
6.668969
 30
0.0
  0
SPLINE
  5
1aa
100
AcDbEntity
  8
A10-C-v1-MM_adobe
 62
7
100
AcDbSpline
 70
8
 71
3
 72
8
 73
4
 74
0
 40
0
 40
0
 40
0
 40
0
 40
1
 40
1
 40
1
 40
1
 10
16.025649
 20
2.200250
 30
0.0
 10
16.016037
 20
2.190111
 30
0.0
 10
16.003413
 20
2.184431
 30
0.0
 10
15.989663
 20
2.184431
 30
0.0
  0
SPLINE
  5
1ab
100
AcDbEntity
  8
A10-C-v1-MM_adobe
 62
7
100
AcDbSpline
 70
8
 71
3
 72
8
 73
4
 74
0
 40
0
 40
0
 40
0
 40
0
 40
1
 40
1
 40
1
 40
1
 10
14.511026
 20
2.184435
 30
0.0
 10
14.497665
 20
2.184435
 30
0.0
 10
14.484693
 20
2.190101
 30
0.0
 10
14.475068
 20
2.200254
 30
0.0
  0
LWPOLYLINE
  5
1ac
100
AcDbEntity
  8
A10-C-v1-MM_adobe
 62
7
100
AcDbPolyline
 90
2
 70
0
 10
16.290107
 20
4.112264
 30
0.0
 10
16.290107
 20
2.534528
 30
0.0
  0
SPLINE
  5
1ad
100
AcDbEntity
  8
A10-C-v1-MM_adobe
 62
7
100
AcDbSpline
 70
8
 71
3
 72
8
 73
4
 74
0
 40
0
 40
0
 40
0
 40
0
 40
1
 40
1
 40
1
 40
1
 10
14.225558
 20
2.466607
 30
0.0
 10
14.215906
 20
2.476732
 30
0.0
 10
14.210739
 20
2.490454
 30
0.0
 10
14.210739
 20
2.504787
 30
0.0
  0
LWPOLYLINE
  5
1ae
100
AcDbEntity
  8
A10-C-v1-MM_adobe
 62
7
100
AcDbPolyline
 90
2
 70
0
 10
16.275242
 20
2.496365
 30
0.0
 10
16.025644
 20
2.200254
 30
0.0
  0
SPLINE
  5
1af
100
AcDbEntity
  8
A10-C-v1-MM_adobe
 62
7
100
AcDbSpline
 70
8
 71
3
 72
8
 73
4
 74
0
 40
0
 40
0
 40
0
 40
0
 40
1
 40
1
 40
1
 40
1
 10
14.210735
 20
4.082519
 30
0.0
 10
14.210735
 20
4.096839
 30
0.0
 10
14.215901
 20
4.110589
 30
0.0
 10
14.225554
 20
4.120728
 30
0.0
  0
LWPOLYLINE
  5
1b0
100
AcDbEntity
  8
A10-C-v1-MM_adobe
 62
7
100
AcDbPolyline
 90
2
 70
0
 10
15.989760
 20
2.184435
 30
0.0
 10
14.511024
 20
2.184435
 30
0.0
  0
SPLINE
  5
1b1
100
AcDbEntity
  8
A10-C-v1-MM_adobe
 62
7
100
AcDbSpline
 70
8
 71
3
 72
8
 73
4
 74
0
 40
0
 40
0
 40
0
 40
0
 40
1
 40
1
 40
1
 40
1
 10
14.475165
 20
4.387058
 30
0.0
 10
14.484818
 20
4.397197
 30
0.0
 10
14.497485
 20
4.402947
 30
0.0
 10
14.511179
 20
4.402947
 30
0.0
  0
LWPOLYLINE
  5
1b2
100
AcDbEntity
  8
A10-C-v1-MM_adobe
 62
7
100
AcDbPolyline
 90
2
 70
0
 10
14.210735
 20
2.504787
 30
0.0
 10
14.210735
 20
4.082524
 30
0.0
  0
SPLINE
  5
1b3
100
AcDbEntity
  8
A10-C-v1-MM_adobe
 62
7
100
AcDbSpline
 70
8
 71
3
 72
8
 73
4
 74
0
 40
0
 40
0
 40
0
 40
0
 40
1
 40
1
 40
1
 40
1
 10
15.989760
 20
4.402940
 30
0.0
 10
16.003163
 20
4.402940
 30
0.0
 10
16.016135
 20
4.397204
 30
0.0
 10
16.025788
 20
4.387051
 30
0.0
  0
LWPOLYLINE
  5
1b4
100
AcDbEntity
  8
A10-C-v1-MM_adobe
 62
7
100
AcDbPolyline
 90
2
 70
0
 10
14.225558
 20
4.120728
 30
0.0
 10
14.475169
 20
4.387061
 30
0.0
  0
LWPOLYLINE
  5
1b5
100
AcDbEntity
  8
A10-C-v1-MM_adobe
 62
7
100
AcDbPolyline
 90
2
 70
0
 10
14.511026
 20
4.402940
 30
0.0
 10
15.989762
 20
4.402940
 30
0.0
  0
SPLINE
  5
1b6
100
AcDbEntity
  8
A10-C-v1-MM_adobe
 62
7
100
AcDbSpline
 70
8
 71
3
 72
8
 73
4
 74
0
 40
0
 40
0
 40
0
 40
0
 40
1
 40
1
 40
1
 40
1
 10
13.968913
 20
4.120796
 30
0.0
 10
13.978551
 20
4.110601
 30
0.0
 10
13.983774
 20
4.096879
 30
0.0
 10
13.983774
 20
4.082532
 30
0.0
  0
LWPOLYLINE
  5
1b7
100
AcDbEntity
  8
A10-C-v1-MM_adobe
 62
7
100
AcDbPolyline
 90
2
 70
0
 10
14.475165
 20
2.200250
 30
0.0
 10
14.225554
 20
2.466611
 30
0.0
  0
SPLINE
  5
1b8
100
AcDbEntity
  8
A10-C-v1-MM_adobe
 62
7
100
AcDbSpline
 70
8
 71
3
 72
8
 73
4
 74
0
 40
0
 40
0
 40
0
 40
0
 40
1
 40
1
 40
1
 40
1
 10
13.983778
 20
2.504883
 30
0.0
 10
13.983778
 20
2.490550
 30
0.0
 10
13.978556
 20
2.476814
 30
0.0
 10
13.968917
 20
2.466606
 30
0.0
  0
LWPOLYLINE
  5
1b9
100
AcDbEntity
  8
A10-C-v1-MM_adobe
 62
7
100
AcDbPolyline
 90
2
 70
0
 10
16.025783
 20
4.387058
 30
0.0
 10
16.275242
 20
4.150489
 30
0.0
  0
SPLINE
  5
1ba
100
AcDbEntity
  8
A10-C-v1-MM_adobe
 62
7
100
AcDbSpline
 70
8
 71
3
 72
8
 73
4
 74
0
 40
0
 40
0
 40
0
 40
0
 40
1
 40
1
 40
1
 40
1
 10
13.719306
 20
2.200304
 30
0.0
 10
13.709667
 20
2.190179
 30
0.0
 10
13.697014
 20
2.184429
 30
0.0
 10
13.683278
 20
2.184429
 30
0.0
  0
SPLINE
  5
1bb
100
AcDbEntity
  8
A10-C-v1-MM_adobe
 62
7
100
AcDbSpline
 70
8
 71
3
 72
8
 73
4
 74
0
 40
0
 40
0
 40
0
 40
0
 40
1
 40
1
 40
1
 40
1
 10
12.204725
 20
2.184435
 30
0.0
 10
12.191350
 20
2.184435
 30
0.0
 10
12.178364
 20
2.190171
 30
0.0
 10
12.168739
 20
2.200310
 30
0.0
  0
LWPOLYLINE
  5
1bc
100
AcDbEntity
  8
A10-C-v1-MM_adobe
 62
7
100
AcDbPolyline
 90
2
 70
0
 10
13.983778
 20
4.082533
 30
0.0
 10
13.983778
 20
2.504839
 30
0.0
  0
SPLINE
  5
1bd
100
AcDbEntity
  8
A10-C-v1-MM_adobe
 62
7
100
AcDbSpline
 70
8
 71
3
 72
8
 73
4
 74
0
 40
0
 40
0
 40
0
 40
0
 40
1
 40
1
 40
1
 40
1
 10
11.919217
 20
2.466607
 30
0.0
 10
11.909564
 20
2.476801
 30
0.0
 10
11.904411
 20
2.490551
 30
0.0
 10
11.904411
 20
2.504885
 30
0.0
  0
LWPOLYLINE
  5
1be
100
AcDbEntity
  8
A10-C-v1-MM_adobe
 62
7
100
AcDbPolyline
 90
2
 70
0
 10
13.968913
 20
2.466607
 30
0.0
 10
13.719301
 20
2.200301
 30
0.0
  0
SPLINE
  5
1bf
100
AcDbEntity
  8
A10-C-v1-MM_adobe
 62
7
100
AcDbSpline
 70
8
 71
3
 72
8
 73
4
 74
0
 40
0
 40
0
 40
0
 40
0
 40
1
 40
1
 40
1
 40
1
 10
11.904406
 20
4.082533
 30
0.0
 10
11.904406
 20
4.096881
 30
0.0
 10
11.909558
 20
4.110644
 30
0.0
 10
11.919211
 20
4.120797
 30
0.0
  0
LWPOLYLINE
  5
1c0
100
AcDbEntity
  8
A10-C-v1-MM_adobe
 62
7
100
AcDbPolyline
 90
2
 70
0
 10
13.683431
 20
2.184435
 30
0.0
 10
12.204722
 20
2.184435
 30
0.0
  0
SPLINE
  5
1c1
100
AcDbEntity
  8
A10-C-v1-MM_adobe
 62
7
100
AcDbSpline
 70
8
 71
3
 72
8
 73
4
 74
0
 40
0
 40
0
 40
0
 40
0
 40
1
 40
1
 40
1
 40
1
 10
12.168864
 20
4.387112
 30
0.0
 10
12.178489
 20
4.397238
 30
0.0
 10
12.191142
 20
4.402946
 30
0.0
 10
12.204864
 20
4.402946
 30
0.0
  0
LWPOLYLINE
  5
1c2
100
AcDbEntity
  8
A10-C-v1-MM_adobe
 62
7
100
AcDbPolyline
 90
2
 70
0
 10
11.904406
 20
2.504883
 30
0.0
 10
11.904406
 20
4.082536
 30
0.0
  0
SPLINE
  5
1c3
100
AcDbEntity
  8
A10-C-v1-MM_adobe
 62
7
100
AcDbSpline
 70
8
 71
3
 72
8
 73
4
 74
0
 40
0
 40
0
 40
0
 40
0
 40
1
 40
1
 40
1
 40
1
 10
13.683431
 20
4.402940
 30
0.0
 10
13.696778
 20
4.402940
 30
0.0
 10
13.709778
 20
4.397246
 30
0.0
 10
13.719472
 20
4.387107
 30
0.0
  0
LWPOLYLINE
  5
1c4
100
AcDbEntity
  8
A10-C-v1-MM_adobe
 62
7
100
AcDbPolyline
 90
2
 70
0
 10
11.919217
 20
4.120796
 30
0.0
 10
12.168869
 20
4.387115
 30
0.0
  0
LWPOLYLINE
  5
1c5
100
AcDbEntity
  8
A10-C-v1-MM_adobe
 62
7
100
AcDbPolyline
 90
2
 70
0
 10
12.204725
 20
4.402940
 30
0.0
 10
13.683433
 20
4.402940
 30
0.0
  0
LWPOLYLINE
  5
1c6
100
AcDbEntity
  8
A10-C-v1-MM_adobe
 62
7
100
AcDbPolyline
 90
2
 70
0
 10
12.168864
 20
2.200304
 30
0.0
 10
11.919211
 20
2.466610
 30
0.0
  0
SPLINE
  5
1c7
100
AcDbEntity
  8
A10-C-v1-MM_adobe
 62
7
100
AcDbSpline
 70
8
 71
3
 72
8
 73
4
 74
0
 40
0
 40
0
 40
0
 40
0
 40
1
 40
1
 40
1
 40
1
 10
20.540758
 20
12.485738
 30
0.0
 10
20.558036
 20
12.467710
 30
0.0
 10
20.567231
 20
12.443238
 30
0.0
 10
20.567231
 20
12.417835
 30
0.0
  0
SPLINE
  5
1c8
100
AcDbEntity
  8
A10-C-v1-MM_adobe
 62
7
100
AcDbSpline
 70
8
 71
3
 72
8
 73
4
 74
0
 40
0
 40
0
 40
0
 40
0
 40
1
 40
1
 40
1
 40
1
 10
20.567233
 20
9.616150
 30
0.0
 10
20.567233
 20
9.590817
 30
0.0
 10
20.558039
 20
9.566289
 30
0.0
 10
20.540761
 20
9.548289
 30
0.0
  0
LWPOLYLINE
  5
1c9
100
AcDbEntity
  8
A10-C-v1-MM_adobe
 62
7
100
AcDbPolyline
 90
2
 70
0
 10
13.719306
 20
4.387112
 30
0.0
 10
13.968917
 20
4.120793
 30
0.0
  0
SPLINE
  5
1ca
100
AcDbEntity
  8
A10-C-v1-MM_adobe
 62
7
100
AcDbSpline
 70
8
 71
3
 72
8
 73
4
 74
0
 40
0
 40
0
 40
0
 40
0
 40
1
 40
1
 40
1
 40
1
 10
20.096354
 20
9.058729
 30
0.0
 10
20.079132
 20
9.040618
 30
0.0
 10
20.056715
 20
9.030549
 30
0.0
 10
20.032271
 20
9.030549
 30
0.0
  0
SPLINE
  5
1cb
100
AcDbEntity
  8
A10-C-v1-MM_adobe
 62
7
100
AcDbSpline
 70
8
 71
3
 72
8
 73
4
 74
0
 40
0
 40
0
 40
0
 40
0
 40
1
 40
1
 40
1
 40
1
 10
17.399360
 20
8.994303
 30
0.0
 10
17.375554
 20
8.994303
 30
0.0
 10
17.352485
 20
9.004442
 30
0.0
 10
17.335276
 20
9.022525
 30
0.0
  0
LWPOLYLINE
  5
1cc
100
AcDbEntity
  8
A10-C-v1-MM_adobe
 62
7
100
AcDbPolyline
 90
2
 70
0
 10
20.567233
 20
12.417840
 30
0.0
 10
20.567233
 20
9.616146
 30
0.0
  0
SPLINE
  5
1cd
100
AcDbEntity
  8
A10-C-v1-MM_adobe
 62
7
100
AcDbSpline
 70
8
 71
3
 72
8
 73
4
 74
0
 40
0
 40
0
 40
0
 40
0
 40
1
 40
1
 40
1
 40
1
 10
16.891100
 20
9.495415
 30
0.0
 10
16.873961
 20
9.513471
 30
0.0
 10
16.864656
 20
9.537915
 30
0.0
 10
16.864656
 20
9.563374
 30
0.0
  0
LWPOLYLINE
  5
1ce
100
AcDbEntity
  8
A10-C-v1-MM_adobe
 62
7
100
AcDbPolyline
 90
2
 70
0
 10
20.540758
 20
9.548286
 30
0.0
 10
20.096356
 20
9.075342
 30
0.0
  0
SPLINE
  5
1cf
100
AcDbEntity
  8
A10-C-v1-MM_adobe
 62
7
100
AcDbSpline
 70
8
 71
3
 72
8
 73
4
 74
0
 40
0
 40
0
 40
0
 40
0
 40
1
 40
1
 40
1
 40
1
 10
16.864583
 20
12.365038
 30
0.0
 10
16.864583
 20
12.390510
 30
0.0
 10
16.873875
 20
12.414899
 30
0.0
 10
16.891097
 20
12.432968
 30
0.0
  0
LWPOLYLINE
  5
1d0
100
AcDbEntity
  8
A10-C-v1-MM_adobe
 62
7
100
AcDbPolyline
 90
2
 70
0
 10
20.032525
 20
8.994303
 30
0.0
 10
17.399358
 20
8.994303
 30
0.0
  0
LWPOLYLINE
  5
1d1
100
AcDbEntity
  8
A10-C-v1-MM_adobe
 62
7
100
AcDbPolyline
 90
2
 70
0
 10
16.864583
 20
9.563375
 30
0.0
 10
16.864583
 20
12.365042
 30
0.0
  0
LWPOLYLINE
  5
1d2
100
AcDbEntity
  8
A10-C-v1-MM_adobe
 62
7
100
AcDbPolyline
 90
2
 70
0
 10
16.891100
 20
12.432963
 30
0.0
 10
17.335544
 20
12.905907
 30
0.0
  0
LWPOLYLINE
  5
1d3
100
AcDbEntity
  8
A10-C-v1-MM_adobe
 62
7
100
AcDbPolyline
 90
2
 70
0
 10
17.328438
 20
12.911268
 30
0.0
 10
20.113854
 20
12.911268
 30
0.0
  0
LWPOLYLINE
  5
1d4
100
AcDbEntity
  8
A10-C-v1-MM_adobe
 62
7
100
AcDbPolyline
 90
2
 70
0
 10
17.335544
 20
9.022529
 30
0.0
 10
16.891100
 20
9.495418
 30
0.0
  0
SPLINE
  5
1d5
100
AcDbEntity
  8
A10-C-v1-MM_adobe
 62
7
100
AcDbSpline
 70
8
 71
3
 72
8
 73
4
 74
0
 40
0
 40
0
 40
0
 40
0
 40
1
 40
1
 40
1
 40
1
 10
20.336317
 20
8.290371
 30
0.0
 10
20.351914
 20
8.275954
 30
0.0
 10
20.360219
 20
8.256371
 30
0.0
 10
20.360219
 20
8.236065
 30
0.0
  0
SPLINE
  5
1d6
100
AcDbEntity
  8
A10-C-v1-MM_adobe
 62
7
100
AcDbSpline
 70
8
 71
3
 72
8
 73
4
 74
0
 40
0
 40
0
 40
0
 40
0
 40
1
 40
1
 40
1
 40
1
 10
20.360215
 20
5.994940
 30
0.0
 10
20.360215
 20
5.974663
 30
0.0
 10
20.351910
 20
5.955038
 30
0.0
 10
20.336313
 20
5.940649
 30
0.0
  0
LWPOLYLINE
  5
1d7
100
AcDbEntity
  8
A10-C-v1-MM_adobe
 62
7
100
AcDbPolyline
 90
2
 70
0
 10
20.113851
 20
12.911268
 30
0.0
 10
20.540754
 20
12.485740
 30
0.0
  0
SPLINE
  5
1d8
100
AcDbEntity
  8
A10-C-v1-MM_adobe
 62
7
100
AcDbSpline
 70
8
 71
3
 72
8
 73
4
 74
0
 40
0
 40
0
 40
0
 40
0
 40
1
 40
1
 40
1
 40
1
 10
19.934856
 20
5.549032
 30
0.0
 10
19.919272
 20
5.534546
 30
0.0
 10
19.899036
 20
5.526490
 30
0.0
 10
19.876939
 20
5.526490
 30
0.0
  0
SPLINE
  5
1d9
100
AcDbEntity
  8
A10-C-v1-MM_adobe
 62
7
100
AcDbSpline
 70
8
 71
3
 72
8
 73
4
 74
0
 40
0
 40
0
 40
0
 40
0
 40
1
 40
1
 40
1
 40
1
 10
17.498358
 20
5.497504
 30
0.0
 10
17.476872
 20
5.497504
 30
0.0
 10
17.456039
 20
5.505615
 30
0.0
 10
17.440469
 20
5.520087
 30
0.0
  0
LWPOLYLINE
  5
1da
100
AcDbEntity
  8
A10-C-v1-MM_adobe
 62
7
100
AcDbPolyline
 90
2
 70
0
 10
20.360215
 20
8.236064
 30
0.0
 10
20.360215
 20
5.994939
 30
0.0
  0
SPLINE
  5
1db
100
AcDbEntity
  8
A10-C-v1-MM_adobe
 62
7
100
AcDbSpline
 70
8
 71
3
 72
8
 73
4
 74
0
 40
0
 40
0
 40
0
 40
0
 40
1
 40
1
 40
1
 40
1
 10
17.039199
 20
5.898343
 30
0.0
 10
17.023726
 20
5.912801
 30
0.0
 10
17.015338
 20
5.932343
 30
0.0
 10
17.015338
 20
5.952704
 30
0.0
  0
LWPOLYLINE
  5
1dc
100
AcDbEntity
  8
A10-C-v1-MM_adobe
 62
7
100
AcDbPolyline
 90
2
 70
0
 10
20.336317
 20
5.940647
 30
0.0
 10
19.934858
 20
5.562314
 30
0.0
  0
SPLINE
  5
1dd
100
AcDbEntity
  8
A10-C-v1-MM_adobe
 62
7
100
AcDbSpline
 70
8
 71
3
 72
8
 73
4
 74
0
 40
0
 40
0
 40
0
 40
0
 40
1
 40
1
 40
1
 40
1
 10
17.015272
 20
8.193828
 30
0.0
 10
17.015272
 20
8.214203
 30
0.0
 10
17.023661
 20
8.233717
 30
0.0
 10
17.039203
 20
8.248161
 30
0.0
  0
LWPOLYLINE
  5
1de
100
AcDbEntity
  8
A10-C-v1-MM_adobe
 62
7
100
AcDbPolyline
 90
2
 70
0
 10
19.877183
 20
5.497504
 30
0.0
 10
17.498364
 20
5.497504
 30
0.0
  0
LWPOLYLINE
  5
1df
100
AcDbEntity
  8
A10-C-v1-MM_adobe
 62
7
100
AcDbPolyline
 90
2
 70
0
 10
17.015272
 20
5.952704
 30
0.0
 10
17.015272
 20
8.193829
 30
0.0
  0
LWPOLYLINE
  5
1e0
100
AcDbEntity
  8
A10-C-v1-MM_adobe
 62
7
100
AcDbPolyline
 90
2
 70
0
 10
17.039199
 20
8.248156
 30
0.0
 10
17.440726
 20
8.626475
 30
0.0
  0
LWPOLYLINE
  5
1e1
100
AcDbEntity
  8
A10-C-v1-MM_adobe
 62
7
100
AcDbPolyline
 90
2
 70
0
 10
17.434299
 20
8.630764
 30
0.0
 10
19.950646
 20
8.630764
 30
0.0
  0
LWPOLYLINE
  5
1e2
100
AcDbEntity
  8
A10-C-v1-MM_adobe
 62
7
100
AcDbPolyline
 90
2
 70
0
 10
17.440728
 20
5.520088
 30
0.0
 10
17.039200
 20
5.898338
 30
0.0
  0
LWPOLYLINE
  5
1e3
100
AcDbEntity
  8
A10-C-v1-MM_adobe
 62
7
100
AcDbPolyline
 90
2
 70
0
 10
19.950643
 20
8.630764
 30
0.0
 10
20.336324
 20
8.290375
 30
0.0
  0
LWPOLYLINE
  5
1e4
100
AcDbEntity
  8
A10-C-v1-MM_adobe
 62
7
100
AcDbPolyline
 90
6
 70
0
 10
20.556583
 20
2.261292
 30
0.0
 10
16.893694
 20
2.261292
 30
0.0
 10
16.893694
 20
5.148236
 30
0.0
 10
20.556583
 20
5.148236
 30
0.0
 10
20.556583
 20
2.261292
 30
0.0
 10
20.556583
 20
2.261292
 30
0.0
  0
LWPOLYLINE
  5
1e5
100
AcDbEntity
  8
A10-C-v1-MM_adobe
 62
7
100
AcDbPolyline
 90
6
 70
0
 10
12.218542
 20
7.918653
 30
0.0
 10
11.355167
 20
7.918653
 30
0.0
 10
11.355167
 20
7.580694
 30
0.0
 10
12.218542
 20
7.580694
 30
0.0
 10
12.218542
 20
7.918653
 30
0.0
 10
12.218542
 20
7.918653
 30
0.0
  0
LWPOLYLINE
  5
1e6
100
AcDbEntity
  8
A10-C-v1-MM_adobe
 62
7
100
AcDbPolyline
 90
6
 70
0
 10
13.369000
 20
7.589750
 30
0.0
 10
12.505611
 20
7.589750
 30
0.0
 10
12.505611
 20
7.927681
 30
0.0
 10
13.369000
 20
7.927681
 30
0.0
 10
13.369000
 20
7.589750
 30
0.0
 10
13.369000
 20
7.589750
 30
0.0
  0
LWPOLYLINE
  5
1e7
100
AcDbEntity
  8
A10-C-v1-MM_adobe
 62
7
100
AcDbPolyline
 90
6
 70
0
 10
25.003764
 20
7.916778
 30
0.0
 10
24.140403
 20
7.916778
 30
0.0
 10
24.140403
 20
7.578833
 30
0.0
 10
25.003764
 20
7.578833
 30
0.0
 10
25.003764
 20
7.916778
 30
0.0
 10
25.003764
 20
7.916778
 30
0.0
  0
SPLINE
  5
1e8
100
AcDbEntity
  8
A10-C-v1-MM_adobe
 62
7
100
AcDbSpline
 70
8
 71
3
 72
8
 73
4
 74
0
 40
0
 40
0
 40
0
 40
0
 40
1
 40
1
 40
1
 40
1
 10
11.353000
 20
4.543497
 30
0.0
 10
11.353000
 20
4.716442
 30
0.0
 10
11.250944
 20
4.876247
 30
0.0
 10
11.085375
 20
4.962733
 30
0.0
  0
SPLINE
  5
1e9
100
AcDbEntity
  8
A10-C-v1-MM_adobe
 62
7
100
AcDbSpline
 70
8
 71
3
 72
8
 73
4
 74
0
 40
0
 40
0
 40
0
 40
0
 40
1
 40
1
 40
1
 40
1
 10
11.085382
 20
4.962728
 30
0.0
 10
10.919743
 20
5.049214
 30
0.0
 10
10.715715
 20
5.049214
 30
0.0
 10
10.550132
 20
4.962728
 30
0.0
  0
SPLINE
  5
1ea
100
AcDbEntity
  8
A10-C-v1-MM_adobe
 62
7
100
AcDbSpline
 70
8
 71
3
 72
8
 73
4
 74
0
 40
0
 40
0
 40
0
 40
0
 40
1
 40
1
 40
1
 40
1
 10
10.550131
 20
4.962728
 30
0.0
 10
10.384519
 20
4.876242
 30
0.0
 10
10.282519
 20
4.716450
 30
0.0
 10
10.282519
 20
4.543492
 30
0.0
  0
SPLINE
  5
1eb
100
AcDbEntity
  8
A10-C-v1-MM_adobe
 62
7
100
AcDbSpline
 70
8
 71
3
 72
8
 73
4
 74
0
 40
0
 40
0
 40
0
 40
0
 40
1
 40
1
 40
1
 40
1
 10
10.282525
 20
4.543497
 30
0.0
 10
10.282525
 20
4.370539
 30
0.0
 10
10.384525
 20
4.210747
 30
0.0
 10
10.550136
 20
4.124289
 30
0.0
  0
SPLINE
  5
1ec
100
AcDbEntity
  8
A10-C-v1-MM_adobe
 62
7
100
AcDbSpline
 70
8
 71
3
 72
8
 73
4
 74
0
 40
0
 40
0
 40
0
 40
0
 40
1
 40
1
 40
1
 40
1
 10
10.550131
 20
4.124294
 30
0.0
 10
10.715714
 20
4.037794
 30
0.0
 10
10.919742
 20
4.037794
 30
0.0
 10
11.085381
 20
4.124294
 30
0.0
  0
SPLINE
  5
1ed
100
AcDbEntity
  8
A10-C-v1-MM_adobe
 62
7
100
AcDbSpline
 70
8
 71
3
 72
8
 73
4
 74
0
 40
0
 40
0
 40
0
 40
0
 40
1
 40
1
 40
1
 40
1
 10
11.085382
 20
4.124294
 30
0.0
 10
11.250951
 20
4.210753
 30
0.0
 10
11.353007
 20
4.370531
 30
0.0
 10
11.353007
 20
4.543503
 30
0.0
  0
SPLINE
  5
1ee
100
AcDbEntity
  8
A10-C-v1-MM_adobe
 62
7
100
AcDbSpline
 70
8
 71
3
 72
8
 73
4
 74
0
 40
0
 40
0
 40
0
 40
0
 40
1
 40
1
 40
1
 40
1
 10
10.126872
 20
4.557386
 30
0.0
 10
10.126872
 20
4.730331
 30
0.0
 10
10.024858
 20
4.890136
 30
0.0
 10
9.859247
 20
4.976622
 30
0.0
  0
SPLINE
  5
1ef
100
AcDbEntity
  8
A10-C-v1-MM_adobe
 62
7
100
AcDbSpline
 70
8
 71
3
 72
8
 73
4
 74
0
 40
0
 40
0
 40
0
 40
0
 40
1
 40
1
 40
1
 40
1
 10
9.859253
 20
4.976617
 30
0.0
 10
9.693656
 20
5.063103
 30
0.0
 10
9.489628
 20
5.063103
 30
0.0
 10
9.324017
 20
4.976617
 30
0.0
  0
SPLINE
  5
1f0
100
AcDbEntity
  8
A10-C-v1-MM_adobe
 62
7
100
AcDbSpline
 70
8
 71
3
 72
8
 73
4
 74
0
 40
0
 40
0
 40
0
 40
0
 40
1
 40
1
 40
1
 40
1
 10
9.324015
 20
4.976617
 30
0.0
 10
9.158390
 20
4.890131
 30
0.0
 10
9.056390
 20
4.730339
 30
0.0
 10
9.056390
 20
4.557381
 30
0.0
  0
SPLINE
  5
1f1
100
AcDbEntity
  8
A10-C-v1-MM_adobe
 62
7
100
AcDbSpline
 70
8
 71
3
 72
8
 73
4
 74
0
 40
0
 40
0
 40
0
 40
0
 40
1
 40
1
 40
1
 40
1
 10
9.056396
 20
4.557386
 30
0.0
 10
9.056396
 20
4.384428
 30
0.0
 10
9.158396
 20
4.224636
 30
0.0
 10
9.324021
 20
4.138178
 30
0.0
  0
SPLINE
  5
1f2
100
AcDbEntity
  8
A10-C-v1-MM_adobe
 62
7
100
AcDbSpline
 70
8
 71
3
 72
8
 73
4
 74
0
 40
0
 40
0
 40
0
 40
0
 40
1
 40
1
 40
1
 40
1
 10
9.324015
 20
4.138183
 30
0.0
 10
9.489613
 20
4.051683
 30
0.0
 10
9.693654
 20
4.051683
 30
0.0
 10
9.859251
 20
4.138183
 30
0.0
  0
SPLINE
  5
1f3
100
AcDbEntity
  8
A10-C-v1-MM_adobe
 62
7
100
AcDbSpline
 70
8
 71
3
 72
8
 73
4
 74
0
 40
0
 40
0
 40
0
 40
0
 40
1
 40
1
 40
1
 40
1
 10
9.859253
 20
4.138183
 30
0.0
 10
10.024864
 20
4.224642
 30
0.0
 10
10.126878
 20
4.384419
 30
0.0
 10
10.126878
 20
4.557392
 30
0.0
  0
SPLINE
  5
1f4
100
AcDbEntity
  8
A10-C-v1-MM_adobe
 62
7
100
AcDbSpline
 70
8
 71
3
 72
8
 73
4
 74
0
 40
0
 40
0
 40
0
 40
0
 40
1
 40
1
 40
1
 40
1
 10
11.428440
 20
6.327054
 30
0.0
 10
11.428440
 20
6.738624
 30
0.0
 10
11.190940
 20
7.118943
 30
0.0
 10
10.805399
 20
7.324735
 30
0.0
  0
SPLINE
  5
1f5
100
AcDbEntity
  8
A10-C-v1-MM_adobe
 62
7
100
AcDbSpline
 70
8
 71
3
 72
8
 73
4
 74
0
 40
0
 40
0
 40
0
 40
0
 40
1
 40
1
 40
1
 40
1
 10
10.805393
 20
7.324735
 30
0.0
 10
10.419865
 20
7.530540
 30
0.0
 10
9.944865
 20
7.530540
 30
0.0
 10
9.559324
 20
7.324735
 30
0.0
  0
SPLINE
  5
1f6
100
AcDbEntity
  8
A10-C-v1-MM_adobe
 62
7
100
AcDbSpline
 70
8
 71
3
 72
8
 73
4
 74
0
 40
0
 40
0
 40
0
 40
0
 40
1
 40
1
 40
1
 40
1
 10
9.559326
 20
7.324735
 30
0.0
 10
9.173729
 20
7.118943
 30
0.0
 10
8.936285
 20
6.738624
 30
0.0
 10
8.936285
 20
6.327054
 30
0.0
  0
SPLINE
  5
1f7
100
AcDbEntity
  8
A10-C-v1-MM_adobe
 62
7
100
AcDbSpline
 70
8
 71
3
 72
8
 73
4
 74
0
 40
0
 40
0
 40
0
 40
0
 40
1
 40
1
 40
1
 40
1
 10
8.936279
 20
6.327054
 30
0.0
 10
8.936279
 20
5.915401
 30
0.0
 10
9.173737
 20
5.535110
 30
0.0
 10
9.559321
 20
5.329374
 30
0.0
  0
SPLINE
  5
1f8
100
AcDbEntity
  8
A10-C-v1-MM_adobe
 62
7
100
AcDbSpline
 70
8
 71
3
 72
8
 73
4
 74
0
 40
0
 40
0
 40
0
 40
0
 40
1
 40
1
 40
1
 40
1
 10
9.559326
 20
5.329372
 30
0.0
 10
9.944840
 20
5.123594
 30
0.0
 10
10.419868
 20
5.123594
 30
0.0
 10
10.805396
 20
5.329372
 30
0.0
  0
SPLINE
  5
1f9
100
AcDbEntity
  8
A10-C-v1-MM_adobe
 62
7
100
AcDbSpline
 70
8
 71
3
 72
8
 73
4
 74
0
 40
0
 40
0
 40
0
 40
0
 40
1
 40
1
 40
1
 40
1
 10
10.805393
 20
5.329372
 30
0.0
 10
11.190949
 20
5.535108
 30
0.0
 10
11.428435
 20
5.915400
 30
0.0
 10
11.428435
 20
6.327053
 30
0.0
  0
SPLINE
  5
1fa
100
AcDbEntity
  8
A10-C-v1-MM_adobe
 62
7
100
AcDbSpline
 70
8
 71
3
 72
8
 73
4
 74
0
 40
0
 40
0
 40
0
 40
0
 40
1
 40
1
 40
1
 40
1
 10
10.319065
 20
2.957411
 30
0.0
 10
10.319176
 20
3.224883
 30
0.0
 10
10.174829
 20
3.472133
 30
0.0
 10
9.940371
 20
3.605897
 30
0.0
  0
SPLINE
  5
1fb
100
AcDbEntity
  8
A10-C-v1-MM_adobe
 62
7
100
AcDbSpline
 70
8
 71
3
 72
8
 73
4
 74
0
 40
0
 40
0
 40
0
 40
0
 40
1
 40
1
 40
1
 40
1
 10
9.940375
 20
3.605903
 30
0.0
 10
9.705861
 20
3.739722
 30
0.0
 10
9.416958
 20
3.739722
 30
0.0
 10
9.182458
 20
3.605903
 30
0.0
  0
SPLINE
  5
1fc
100
AcDbEntity
  8
A10-C-v1-MM_adobe
 62
7
100
AcDbSpline
 70
8
 71
3
 72
8
 73
4
 74
0
 40
0
 40
0
 40
0
 40
0
 40
1
 40
1
 40
1
 40
1
 10
9.182454
 20
3.605903
 30
0.0
 10
8.948024
 20
3.472125
 30
0.0
 10
8.803607
 20
3.224875
 30
0.0
 10
8.803788
 20
2.957417
 30
0.0
  0
SPLINE
  5
1fd
100
AcDbEntity
  8
A10-C-v1-MM_adobe
 62
7
100
AcDbSpline
 70
8
 71
3
 72
8
 73
4
 74
0
 40
0
 40
0
 40
0
 40
0
 40
1
 40
1
 40
1
 40
1
 10
8.803792
 20
2.957411
 30
0.0
 10
8.804069
 20
2.544217
 30
0.0
 10
9.143181
 20
2.209439
 30
0.0
 10
9.561389
 20
2.209439
 30
0.0
  0
SPLINE
  5
1fe
100
AcDbEntity
  8
A10-C-v1-MM_adobe
 62
7
100
AcDbSpline
 70
8
 71
3
 72
8
 73
4
 74
0
 40
0
 40
0
 40
0
 40
0
 40
1
 40
1
 40
1
 40
1
 10
9.561388
 20
2.209446
 30
0.0
 10
9.979693
 20
2.209446
 30
0.0
 10
10.318776
 20
2.544224
 30
0.0
 10
10.319068
 20
2.957418
 30
0.0
  0
LWPOLYLINE
  5
1ff
100
AcDbEntity
  8
A10-C-v1-MM_adobe
 62
7
100
AcDbPolyline
 90
6
 70
0
 10
26.082014
 20
7.582597
 30
0.0
 10
25.218625
 20
7.582597
 30
0.0
 10
25.218625
 20
7.920528
 30
0.0
 10
26.082014
 20
7.920528
 30
0.0
 10
26.082014
 20
7.582597
 30
0.0
 10
26.082014
 20
7.582597
 30
0.0
  0
LWPOLYLINE
  5
200
100
AcDbEntity
  8
A10-C-v1-MM_adobe
 62
7
100
AcDbPolyline
 90
6
 70
0
 10
10.526931
 20
2.404819
 30
0.0
 10
10.864875
 20
2.404819
 30
0.0
 10
10.864875
 20
3.268181
 30
0.0
 10
10.526931
 20
3.268181
 30
0.0
 10
10.526931
 20
2.404819
 30
0.0
 10
10.526931
 20
2.404819
 30
0.0
  0
LWPOLYLINE
  5
201
100
AcDbEntity
  8
A10-C-v1-MM_adobe
 62
7
100
AcDbPolyline
 90
6
 70
0
 10
11.652778
 20
2.413611
 30
0.0
 10
11.314847
 20
2.413611
 30
0.0
 10
11.314847
 20
3.277000
 30
0.0
 10
11.652778
 20
3.277000
 30
0.0
 10
11.652778
 20
2.413611
 30
0.0
 10
11.652778
 20
2.413611
 30
0.0
  0
SPLINE
  5
202
100
AcDbEntity
  8
A10-C-v1-MM_adobe
 62
7
100
AcDbSpline
 70
8
 71
3
 72
8
 73
4
 74
0
 40
0
 40
0
 40
0
 40
0
 40
1
 40
1
 40
1
 40
1
 10
28.609864
 20
14.593167
 30
0.0
 10
27.815711
 20
15.428806
 30
0.0
 10
26.385336
 20
15.874069
 30
0.0
 10
24.487850
 20
15.876306
 30
0.0
  0
LWPOLYLINE
  5
203
100
AcDbEntity
  8
A10-C-v1-MM_adobe
 62
7
100
AcDbPolyline
 90
6
 70
0
 10
10.921347
 20
2.722958
 30
0.0
 10
11.259292
 20
2.722958
 30
0.0
 10
11.259292
 20
3.586319
 30
0.0
 10
10.921347
 20
3.586319
 30
0.0
 10
10.921347
 20
2.722958
 30
0.0
 10
10.921347
 20
2.722958
 30
0.0
  0
SPLINE
  5
204
100
AcDbEntity
  8
A10-C-v1-MM_adobe
 62
7
100
AcDbSpline
 70
8
 71
3
 72
8
 73
4
 74
0
 40
0
 40
0
 40
0
 40
0
 40
1
 40
1
 40
1
 40
1
 10
13.100817
 20
15.876465
 30
0.0
 10
11.456400
 20
15.944326
 30
0.0
 10
9.621094
 20
15.371118
 30
0.0
 10
8.977247
 20
14.588521
 30
0.0
  0
LWPOLYLINE
  5
205
100
AcDbEntity
  8
A10-C-v1-MM_adobe
 62
7
100
AcDbPolyline
 90
3
 70
0
 10
37.217028
 20
0.178982
 30
0.0
 10
37.217028
 20
2.543774
 30
0.0
 10
28.631292
 20
14.566172
 30
0.0
  0
LWPOLYLINE
  5
206
100
AcDbEntity
  8
A10-C-v1-MM_adobe
 62
7
100
AcDbPolyline
 90
2
 70
0
 10
24.487819
 20
15.876303
 30
0.0
 10
13.108583
 20
15.876303
 30
0.0
  0
SPLINE
  5
207
100
AcDbEntity
  8
A10-C-v1-MM_adobe
 62
7
100
AcDbSpline
 70
8
 71
3
 72
8
 73
4
 74
0
 40
0
 40
0
 40
0
 40
0
 40
1
 40
1
 40
1
 40
1
 10
28.704346
 20
0.141872
 30
0.0
 10
28.684138
 20
0.149067
 30
0.0
 10
28.662679
 20
0.152775
 30
0.0
 10
28.641151
 20
0.152775
 30
0.0
  0
SPLINE
  5
208
100
AcDbEntity
  8
A10-C-v1-MM_adobe
 62
7
100
AcDbSpline
 70
8
 71
3
 72
8
 73
4
 74
0
 40
0
 40
0
 40
0
 40
0
 40
1
 40
1
 40
1
 40
1
 10
28.704346
 20
0.141872
 30
0.0
 10
28.708346
 20
0.140428
 30
0.0
 10
28.712596
 20
0.139594
 30
0.0
 10
28.717124
 20
0.139594
 30
0.0
  0
LWPOLYLINE
  5
209
100
AcDbEntity
  8
A10-C-v1-MM_adobe
 62
7
100
AcDbPolyline
 90
2
 70
0
 10
8.965169
 20
14.572192
 30
0.0
 10
0.408503
 20
2.771886
 30
0.0
  0
SPLINE
  5
20a
100
AcDbEntity
  8
A10-C-v1-MM_adobe
 62
7
100
AcDbSpline
 70
8
 71
3
 72
8
 73
4
 74
0
 40
0
 40
0
 40
0
 40
0
 40
1
 40
1
 40
1
 40
1
 10
37.178549
 20
0.139662
 30
0.0
 10
37.188646
 20
0.139662
 30
0.0
 10
37.198465
 20
0.143801
 30
0.0
 10
37.205757
 20
0.151163
 30
0.0
  0
SPLINE
  5
20b
100
AcDbEntity
  8
A10-C-v1-MM_adobe
 62
7
100
AcDbSpline
 70
8
 71
3
 72
8
 73
4
 74
0
 40
0
 40
0
 40
0
 40
0
 40
1
 40
1
 40
1
 40
1
 10
37.205757
 20
0.151164
 30
0.0
 10
37.212924
 20
0.158539
 30
0.0
 10
37.216910
 20
0.168539
 30
0.0
 10
37.216910
 20
0.178914
 30
0.0
  0
LWPOLYLINE
  5
20c
100
AcDbEntity
  8
A10-C-v1-MM_adobe
 62
7
100
AcDbPolyline
 90
2
 70
0
 10
0.413940
 20
0.139662
 30
0.0
 10
8.829565
 20
0.139662
 30
0.0
  0
LWPOLYLINE
  5
20d
100
AcDbEntity
  8
A10-C-v1-MM_adobe
 62
7
100
AcDbPolyline
 90
2
 70
0
 10
8.842367
 20
0.138889
 30
0.0
 10
28.641158
 20
0.138889
 30
0.0
  0
LWPOLYLINE
  5
20e
100
AcDbEntity
  8
A10-C-v1-MM_adobe
 62
7
100
AcDbPolyline
 90
2
 70
0
 10
28.717000
 20
0.139662
 30
0.0
 10
37.178542
 20
0.139662
 30
0.0
  0
SPLINE
  5
20f
100
AcDbEntity
  8
A10-C-v1-MM_adobe
 62
7
100
AcDbSpline
 70
8
 71
3
 72
8
 73
4
 74
0
 40
0
 40
0
 40
0
 40
0
 40
1
 40
1
 40
1
 40
1
 10
16.337918
 20
11.812418
 30
0.0
 10
16.337918
 20
12.277265
 30
0.0
 10
16.089710
 20
12.706793
 30
0.0
 10
15.686793
 20
12.939210
 30
0.0
  0
SPLINE
  5
210
100
AcDbEntity
  8
A10-C-v1-MM_adobe
 62
7
100
AcDbSpline
 70
8
 71
3
 72
8
 73
4
 74
0
 40
0
 40
0
 40
0
 40
0
 40
1
 40
1
 40
1
 40
1
 10
15.686794
 20
12.939208
 30
0.0
 10
15.283906
 20
13.171597
 30
0.0
 10
14.787544
 20
13.171597
 30
0.0
 10
14.384628
 20
12.939208
 30
0.0
  0
SPLINE
  5
211
100
AcDbEntity
  8
A10-C-v1-MM_adobe
 62
7
100
AcDbSpline
 70
8
 71
3
 72
8
 73
4
 74
0
 40
0
 40
0
 40
0
 40
0
 40
1
 40
1
 40
1
 40
1
 10
14.384631
 20
12.939208
 30
0.0
 10
13.981742
 20
12.706792
 30
0.0
 10
13.733533
 20
12.277264
 30
0.0
 10
13.733533
 20
11.812417
 30
0.0
  0
SPLINE
  5
212
100
AcDbEntity
  8
A10-C-v1-MM_adobe
 62
7
100
AcDbSpline
 70
8
 71
3
 72
8
 73
4
 74
0
 40
0
 40
0
 40
0
 40
0
 40
1
 40
1
 40
1
 40
1
 10
13.733535
 20
11.812418
 30
0.0
 10
13.733535
 20
11.347585
 30
0.0
 10
13.981743
 20
10.918071
 30
0.0
 10
14.384632
 20
10.685654
 30
0.0
  0
SPLINE
  5
213
100
AcDbEntity
  8
A10-C-v1-MM_adobe
 62
7
100
AcDbSpline
 70
8
 71
3
 72
8
 73
4
 74
0
 40
0
 40
0
 40
0
 40
0
 40
1
 40
1
 40
1
 40
1
 10
14.384631
 20
10.685656
 30
0.0
 10
14.787547
 20
10.453267
 30
0.0
 10
15.283908
 20
10.453267
 30
0.0
 10
15.686797
 20
10.685656
 30
0.0
  0
SPLINE
  5
214
100
AcDbEntity
  8
A10-C-v1-MM_adobe
 62
7
100
AcDbSpline
 70
8
 71
3
 72
8
 73
4
 74
0
 40
0
 40
0
 40
0
 40
0
 40
1
 40
1
 40
1
 40
1
 10
15.686794
 20
10.685656
 30
0.0
 10
16.089711
 20
10.918072
 30
0.0
 10
16.337919
 20
11.347586
 30
0.0
 10
16.337919
 20
11.812419
 30
0.0
  0
SPLINE
  5
215
100
AcDbEntity
  8
A10-C-v1-MM_adobe
 62
7
100
AcDbSpline
 70
8
 71
3
 72
8
 73
4
 74
0
 40
0
 40
0
 40
0
 40
0
 40
1
 40
1
 40
1
 40
1
 10
23.725247
 20
11.822211
 30
0.0
 10
23.725247
 20
12.287058
 30
0.0
 10
23.477039
 20
12.716586
 30
0.0
 10
23.074122
 20
12.949003
 30
0.0
  0
SPLINE
  5
216
100
AcDbEntity
  8
A10-C-v1-MM_adobe
 62
7
100
AcDbSpline
 70
8
 71
3
 72
8
 73
4
 74
0
 40
0
 40
0
 40
0
 40
0
 40
1
 40
1
 40
1
 40
1
 10
23.074124
 20
12.949001
 30
0.0
 10
22.671235
 20
13.181390
 30
0.0
 10
22.174874
 20
13.181390
 30
0.0
 10
21.771957
 20
12.949001
 30
0.0
  0
SPLINE
  5
217
100
AcDbEntity
  8
A10-C-v1-MM_adobe
 62
7
100
AcDbSpline
 70
8
 71
3
 72
8
 73
4
 74
0
 40
0
 40
0
 40
0
 40
0
 40
1
 40
1
 40
1
 40
1
 10
21.771960
 20
12.949001
 30
0.0
 10
21.369071
 20
12.716585
 30
0.0
 10
21.120863
 20
12.287057
 30
0.0
 10
21.120863
 20
11.822210
 30
0.0
  0
SPLINE
  5
218
100
AcDbEntity
  8
A10-C-v1-MM_adobe
 62
7
100
AcDbSpline
 70
8
 71
3
 72
8
 73
4
 74
0
 40
0
 40
0
 40
0
 40
0
 40
1
 40
1
 40
1
 40
1
 10
21.120863
 20
11.822211
 30
0.0
 10
21.120863
 20
11.357378
 30
0.0
 10
21.369071
 20
10.927864
 30
0.0
 10
21.771960
 20
10.695447
 30
0.0
  0
SPLINE
  5
219
100
AcDbEntity
  8
A10-C-v1-MM_adobe
 62
7
100
AcDbSpline
 70
8
 71
3
 72
8
 73
4
 74
0
 40
0
 40
0
 40
0
 40
0
 40
1
 40
1
 40
1
 40
1
 10
21.771960
 20
10.695449
 30
0.0
 10
22.174876
 20
10.463060
 30
0.0
 10
22.671238
 20
10.463060
 30
0.0
 10
23.074126
 20
10.695449
 30
0.0
  0
SPLINE
  5
21a
100
AcDbEntity
  8
A10-C-v1-MM_adobe
 62
7
100
AcDbSpline
 70
8
 71
3
 72
8
 73
4
 74
0
 40
0
 40
0
 40
0
 40
0
 40
1
 40
1
 40
1
 40
1
 10
23.074124
 20
10.695449
 30
0.0
 10
23.477040
 20
10.927865
 30
0.0
 10
23.725249
 20
11.357379
 30
0.0
 10
23.725249
 20
11.822213
 30
0.0
  0
SPLINE
  5
21b
100
AcDbEntity
  8
A10-C-v1-MM_adobe
 62
7
100
AcDbSpline
 70
8
 71
3
 72
8
 73
4
 74
0
 40
0
 40
0
 40
0
 40
0
 40
1
 40
1
 40
1
 40
1
 10
23.711358
 20
8.933322
 30
0.0
 10
23.711358
 20
9.398169
 30
0.0
 10
23.463150
 20
9.827697
 30
0.0
 10
23.060233
 20
10.060114
 30
0.0
  0
SPLINE
  5
21c
100
AcDbEntity
  8
A10-C-v1-MM_adobe
 62
7
100
AcDbSpline
 70
8
 71
3
 72
8
 73
4
 74
0
 40
0
 40
0
 40
0
 40
0
 40
1
 40
1
 40
1
 40
1
 10
23.060235
 20
10.060113
 30
0.0
 10
22.657346
 20
10.292501
 30
0.0
 10
22.160985
 20
10.292501
 30
0.0
 10
21.758068
 20
10.060113
 30
0.0
  0
SPLINE
  5
21d
100
AcDbEntity
  8
A10-C-v1-MM_adobe
 62
7
100
AcDbSpline
 70
8
 71
3
 72
8
 73
4
 74
0
 40
0
 40
0
 40
0
 40
0
 40
1
 40
1
 40
1
 40
1
 10
21.758071
 20
10.060113
 30
0.0
 10
21.355182
 20
9.827696
 30
0.0
 10
21.106974
 20
9.398168
 30
0.0
 10
21.106974
 20
8.933321
 30
0.0
  0
SPLINE
  5
21e
100
AcDbEntity
  8
A10-C-v1-MM_adobe
 62
7
100
AcDbSpline
 70
8
 71
3
 72
8
 73
4
 74
0
 40
0
 40
0
 40
0
 40
0
 40
1
 40
1
 40
1
 40
1
 10
21.106974
 20
8.933322
 30
0.0
 10
21.106974
 20
8.468489
 30
0.0
 10
21.355182
 20
8.038975
 30
0.0
 10
21.758071
 20
7.806558
 30
0.0
  0
SPLINE
  5
21f
100
AcDbEntity
  8
A10-C-v1-MM_adobe
 62
7
100
AcDbSpline
 70
8
 71
3
 72
8
 73
4
 74
0
 40
0
 40
0
 40
0
 40
0
 40
1
 40
1
 40
1
 40
1
 10
21.758071
 20
7.806560
 30
0.0
 10
22.160988
 20
7.574171
 30
0.0
 10
22.657349
 20
7.574171
 30
0.0
 10
23.060238
 20
7.806560
 30
0.0
  0
SPLINE
  5
220
100
AcDbEntity
  8
A10-C-v1-MM_adobe
 62
7
100
AcDbSpline
 70
8
 71
3
 72
8
 73
4
 74
0
 40
0
 40
0
 40
0
 40
0
 40
1
 40
1
 40
1
 40
1
 10
23.060235
 20
7.806560
 30
0.0
 10
23.463151
 20
8.038976
 30
0.0
 10
23.711360
 20
8.468490
 30
0.0
 10
23.711360
 20
8.933324
 30
0.0
  0
SPLINE
  5
221
100
AcDbEntity
  8
A10-C-v1-MM_adobe
 62
7
100
AcDbSpline
 70
8
 71
3
 72
8
 73
4
 74
0
 40
0
 40
0
 40
0
 40
0
 40
1
 40
1
 40
1
 40
1
 10
16.324029
 20
8.923529
 30
0.0
 10
16.324029
 20
9.388376
 30
0.0
 10
16.075821
 20
9.817904
 30
0.0
 10
15.672904
 20
10.050321
 30
0.0
  0
SPLINE
  5
222
100
AcDbEntity
  8
A10-C-v1-MM_adobe
 62
7
100
AcDbSpline
 70
8
 71
3
 72
8
 73
4
 74
0
 40
0
 40
0
 40
0
 40
0
 40
1
 40
1
 40
1
 40
1
 10
15.672906
 20
10.050319
 30
0.0
 10
15.270017
 20
10.282708
 30
0.0
 10
14.773656
 20
10.282708
 30
0.0
 10
14.370739
 20
10.050319
 30
0.0
  0
SPLINE
  5
223
100
AcDbEntity
  8
A10-C-v1-MM_adobe
 62
7
100
AcDbSpline
 70
8
 71
3
 72
8
 73
4
 74
0
 40
0
 40
0
 40
0
 40
0
 40
1
 40
1
 40
1
 40
1
 10
14.370742
 20
10.050319
 30
0.0
 10
13.967853
 20
9.817903
 30
0.0
 10
13.719644
 20
9.388375
 30
0.0
 10
13.719644
 20
8.923528
 30
0.0
  0
SPLINE
  5
224
100
AcDbEntity
  8
A10-C-v1-MM_adobe
 62
7
100
AcDbSpline
 70
8
 71
3
 72
8
 73
4
 74
0
 40
0
 40
0
 40
0
 40
0
 40
1
 40
1
 40
1
 40
1
 10
13.719646
 20
8.923529
 30
0.0
 10
13.719646
 20
8.458696
 30
0.0
 10
13.967854
 20
8.029182
 30
0.0
 10
14.370743
 20
7.796765
 30
0.0
  0
SPLINE
  5
225
100
AcDbEntity
  8
A10-C-v1-MM_adobe
 62
7
100
AcDbSpline
 70
8
 71
3
 72
8
 73
4
 74
0
 40
0
 40
0
 40
0
 40
0
 40
1
 40
1
 40
1
 40
1
 10
14.370742
 20
7.796767
 30
0.0
 10
14.773658
 20
7.564378
 30
0.0
 10
15.270019
 20
7.564378
 30
0.0
 10
15.672908
 20
7.796767
 30
0.0
  0
SPLINE
  5
226
100
AcDbEntity
  8
A10-C-v1-MM_adobe
 62
7
100
AcDbSpline
 70
8
 71
3
 72
8
 73
4
 74
0
 40
0
 40
0
 40
0
 40
0
 40
1
 40
1
 40
1
 40
1
 10
15.672906
 20
7.796767
 30
0.0
 10
16.075822
 20
8.029183
 30
0.0
 10
16.324031
 20
8.458697
 30
0.0
 10
16.324031
 20
8.923531
 30
0.0
  0
SPLINE
  5
227
100
AcDbEntity
  8
A10-C-v1-MM_adobe
 62
7
100
AcDbSpline
 70
8
 71
3
 72
8
 73
4
 74
0
 40
0
 40
0
 40
0
 40
0
 40
1
 40
1
 40
1
 40
1
 10
1.372775
 20
20.395631
 30
0.0
 10
1.390789
 20
20.412908
 30
0.0
 10
1.415261
 20
20.422103
 30
0.0
 10
1.440678
 20
20.422103
 30
0.0
  0
SPLINE
  5
228
100
AcDbEntity
  8
A10-C-v1-MM_adobe
 62
7
100
AcDbSpline
 70
8
 71
3
 72
8
 73
4
 74
0
 40
0
 40
0
 40
0
 40
0
 40
1
 40
1
 40
1
 40
1
 10
4.242350
 20
20.422106
 30
0.0
 10
4.267683
 20
20.422106
 30
0.0
 10
4.292211
 20
20.412911
 30
0.0
 10
4.310225
 20
20.395633
 30
0.0
  0
LWPOLYLINE
  5
229
100
AcDbEntity
  8
A10-C-v1-MM_adobe
 62
7
100
AcDbPolyline
 90
2
 70
0
 10
0.413940
 20
0.139662
 30
0.0
 10
0.413940
 20
2.699065
 30
0.0
  0
SPLINE
  5
22a
100
AcDbEntity
  8
A10-C-v1-MM_adobe
 62
7
100
AcDbSpline
 70
8
 71
3
 72
8
 73
4
 74
0
 40
0
 40
0
 40
0
 40
0
 40
1
 40
1
 40
1
 40
1
 10
4.799778
 20
19.951240
 30
0.0
 10
4.817903
 20
19.934018
 30
0.0
 10
4.827958
 20
19.911588
 30
0.0
 10
4.827958
 20
19.887143
 30
0.0
  0
SPLINE
  5
22b
100
AcDbEntity
  8
A10-C-v1-MM_adobe
 62
7
100
AcDbSpline
 70
8
 71
3
 72
8
 73
4
 74
0
 40
0
 40
0
 40
0
 40
0
 40
1
 40
1
 40
1
 40
1
 10
4.864204
 20
17.254246
 30
0.0
 10
4.864204
 20
17.230426
 30
0.0
 10
4.854065
 20
17.207371
 30
0.0
 10
4.835968
 20
17.190149
 30
0.0
  0
LWPOLYLINE
  5
22c
100
AcDbEntity
  8
A10-C-v1-MM_adobe
 62
7
100
AcDbPolyline
 90
2
 70
0
 10
1.440674
 20
20.422106
 30
0.0
 10
4.242354
 20
20.422106
 30
0.0
  0
SPLINE
  5
22d
100
AcDbEntity
  8
A10-C-v1-MM_adobe
 62
7
100
AcDbSpline
 70
8
 71
3
 72
8
 73
4
 74
0
 40
0
 40
0
 40
0
 40
0
 40
1
 40
1
 40
1
 40
1
 10
4.363092
 20
16.745972
 30
0.0
 10
4.345022
 20
16.728833
 30
0.0
 10
4.320578
 20
16.719528
 30
0.0
 10
4.295133
 20
16.719528
 30
0.0
  0
LWPOLYLINE
  5
22e
100
AcDbEntity
  8
A10-C-v1-MM_adobe
 62
7
100
AcDbPolyline
 90
2
 70
0
 10
4.310221
 20
20.395631
 30
0.0
 10
4.783179
 20
19.951242
 30
0.0
  0
SPLINE
  5
22f
100
AcDbEntity
  8
A10-C-v1-MM_adobe
 62
7
100
AcDbSpline
 70
8
 71
3
 72
8
 73
4
 74
0
 40
0
 40
0
 40
0
 40
0
 40
1
 40
1
 40
1
 40
1
 10
1.493463
 20
16.719469
 30
0.0
 10
1.467990
 20
16.719469
 30
0.0
 10
1.443601
 20
16.728747
 30
0.0
 10
1.425532
 20
16.745969
 30
0.0
  0
LWPOLYLINE
  5
230
100
AcDbEntity
  8
A10-C-v1-MM_adobe
 62
7
100
AcDbPolyline
 90
2
 70
0
 10
4.864204
 20
19.887411
 30
0.0
 10
4.864204
 20
17.254244
 30
0.0
  0
LWPOLYLINE
  5
231
100
AcDbEntity
  8
A10-C-v1-MM_adobe
 62
7
100
AcDbPolyline
 90
2
 70
0
 10
4.295139
 20
16.719469
 30
0.0
 10
1.493458
 20
16.719469
 30
0.0
  0
LWPOLYLINE
  5
232
100
AcDbEntity
  8
A10-C-v1-MM_adobe
 62
7
100
AcDbPolyline
 90
2
 70
0
 10
1.425538
 20
16.745972
 30
0.0
 10
0.952579
 20
17.190417
 30
0.0
  0
LWPOLYLINE
  5
233
100
AcDbEntity
  8
A10-C-v1-MM_adobe
 62
7
100
AcDbPolyline
 90
2
 70
0
 10
0.947239
 20
17.183308
 30
0.0
 10
0.947239
 20
19.968739
 30
0.0
  0
LWPOLYLINE
  5
234
100
AcDbEntity
  8
A10-C-v1-MM_adobe
 62
7
100
AcDbPolyline
 90
2
 70
0
 10
4.835965
 20
17.190417
 30
0.0
 10
4.363090
 20
16.745972
 30
0.0
  0
SPLINE
  5
235
100
AcDbEntity
  8
A10-C-v1-MM_adobe
 62
7
100
AcDbSpline
 70
8
 71
3
 72
8
 73
4
 74
0
 40
0
 40
0
 40
0
 40
0
 40
1
 40
1
 40
1
 40
1
 10
5.568142
 20
20.191203
 30
0.0
 10
5.582544
 20
20.206800
 30
0.0
 10
5.602128
 20
20.215106
 30
0.0
 10
5.622447
 20
20.215106
 30
0.0
  0
SPLINE
  5
236
100
AcDbEntity
  8
A10-C-v1-MM_adobe
 62
7
100
AcDbSpline
 70
8
 71
3
 72
8
 73
4
 74
0
 40
0
 40
0
 40
0
 40
0
 40
1
 40
1
 40
1
 40
1
 10
7.863567
 20
20.215101
 30
0.0
 10
7.883831
 20
20.215101
 30
0.0
 10
7.903469
 20
20.206796
 30
0.0
 10
7.917844
 20
20.191199
 30
0.0
  0
LWPOLYLINE
  5
237
100
AcDbEntity
  8
A10-C-v1-MM_adobe
 62
7
100
AcDbPolyline
 90
2
 70
0
 10
0.947239
 20
19.968736
 30
0.0
 10
1.372781
 20
20.395625
 30
0.0
  0
SPLINE
  5
238
100
AcDbEntity
  8
A10-C-v1-MM_adobe
 62
7
100
AcDbSpline
 70
8
 71
3
 72
8
 73
4
 74
0
 40
0
 40
0
 40
0
 40
0
 40
1
 40
1
 40
1
 40
1
 10
8.309475
 20
19.789728
 30
0.0
 10
8.323961
 20
19.774158
 30
0.0
 10
8.332017
 20
19.753922
 30
0.0
 10
8.332017
 20
19.731811
 30
0.0
  0
SPLINE
  5
239
100
AcDbEntity
  8
A10-C-v1-MM_adobe
 62
7
100
AcDbSpline
 70
8
 71
3
 72
8
 73
4
 74
0
 40
0
 40
0
 40
0
 40
0
 40
1
 40
1
 40
1
 40
1
 10
8.360989
 20
17.353231
 30
0.0
 10
8.360989
 20
17.331744
 30
0.0
 10
8.352878
 20
17.310911
 30
0.0
 10
8.338419
 20
17.295342
 30
0.0
  0
LWPOLYLINE
  5
23a
100
AcDbEntity
  8
A10-C-v1-MM_adobe
 62
7
100
AcDbPolyline
 90
2
 70
0
 10
5.622450
 20
20.215101
 30
0.0
 10
7.863561
 20
20.215101
 30
0.0
  0
SPLINE
  5
23b
100
AcDbEntity
  8
A10-C-v1-MM_adobe
 62
7
100
AcDbSpline
 70
8
 71
3
 72
8
 73
4
 74
0
 40
0
 40
0
 40
0
 40
0
 40
1
 40
1
 40
1
 40
1
 10
7.960164
 20
16.894083
 30
0.0
 10
7.945706
 20
16.878597
 30
0.0
 10
7.926150
 20
16.870208
 30
0.0
 10
7.905803
 20
16.870208
 30
0.0
  0
LWPOLYLINE
  5
23c
100
AcDbEntity
  8
A10-C-v1-MM_adobe
 62
7
100
AcDbPolyline
 90
2
 70
0
 10
7.917847
 20
20.191203
 30
0.0
 10
8.296181
 20
19.789731
 30
0.0
  0
SPLINE
  5
23d
100
AcDbEntity
  8
A10-C-v1-MM_adobe
 62
7
100
AcDbSpline
 70
8
 71
3
 72
8
 73
4
 74
0
 40
0
 40
0
 40
0
 40
0
 40
1
 40
1
 40
1
 40
1
 10
5.664686
 20
16.870158
 30
0.0
 10
5.644311
 20
16.870158
 30
0.0
 10
5.624783
 20
16.878547
 30
0.0
 10
5.610353
 20
16.894089
 30
0.0
  0
LWPOLYLINE
  5
23e
100
AcDbEntity
  8
A10-C-v1-MM_adobe
 62
7
100
AcDbPolyline
 90
2
 70
0
 10
8.360989
 20
19.732056
 30
0.0
 10
8.360989
 20
17.353236
 30
0.0
  0
LWPOLYLINE
  5
23f
100
AcDbEntity
  8
A10-C-v1-MM_adobe
 62
7
100
AcDbPolyline
 90
2
 70
0
 10
7.905803
 20
16.870158
 30
0.0
 10
5.664692
 20
16.870158
 30
0.0
  0
LWPOLYLINE
  5
240
100
AcDbEntity
  8
A10-C-v1-MM_adobe
 62
7
100
AcDbPolyline
 90
2
 70
0
 10
5.610351
 20
16.894083
 30
0.0
 10
5.232046
 20
17.295611
 30
0.0
  0
LWPOLYLINE
  5
241
100
AcDbEntity
  8
A10-C-v1-MM_adobe
 62
7
100
AcDbPolyline
 90
2
 70
0
 10
5.227729
 20
17.289185
 30
0.0
 10
5.227729
 20
19.805518
 30
0.0
  0
LWPOLYLINE
  5
242
100
AcDbEntity
  8
A10-C-v1-MM_adobe
 62
7
100
AcDbPolyline
 90
2
 70
0
 10
8.338419
 20
17.295614
 30
0.0
 10
7.960169
 20
16.894086
 30
0.0
  0
LWPOLYLINE
  5
243
100
AcDbEntity
  8
A10-C-v1-MM_adobe
 62
7
100
AcDbPolyline
 90
2
 70
0
 10
5.227729
 20
19.805515
 30
0.0
 10
5.568146
 20
20.191210
 30
0.0
  0
SPLINE
  5
244
100
AcDbEntity
  8
A10-C-v1-MM_adobe
 62
7
100
AcDbSpline
 70
8
 71
3
 72
8
 73
4
 74
0
 40
0
 40
0
 40
0
 40
0
 40
1
 40
1
 40
1
 40
1
 10
2.058051
 20
16.201022
 30
0.0
 10
1.593204
 20
16.201022
 30
0.0
 10
1.163676
 20
15.952814
 30
0.0
 10
0.931260
 20
15.549897
 30
0.0
  0
SPLINE
  5
245
100
AcDbEntity
  8
A10-C-v1-MM_adobe
 62
7
100
AcDbSpline
 70
8
 71
3
 72
8
 73
4
 74
0
 40
0
 40
0
 40
0
 40
0
 40
1
 40
1
 40
1
 40
1
 10
0.931261
 20
15.549900
 30
0.0
 10
0.698872
 20
15.147011
 30
0.0
 10
0.698872
 20
14.650650
 30
0.0
 10
0.931261
 20
14.247747
 30
0.0
  0
SPLINE
  5
246
100
AcDbEntity
  8
A10-C-v1-MM_adobe
 62
7
100
AcDbSpline
 70
8
 71
3
 72
8
 73
4
 74
0
 40
0
 40
0
 40
0
 40
0
 40
1
 40
1
 40
1
 40
1
 10
0.931261
 20
14.247742
 30
0.0
 10
1.163678
 20
13.844853
 30
0.0
 10
1.593206
 20
13.596644
 30
0.0
 10
2.058053
 20
13.596644
 30
0.0
  0
SPLINE
  5
247
100
AcDbEntity
  8
A10-C-v1-MM_adobe
 62
7
100
AcDbSpline
 70
8
 71
3
 72
8
 73
4
 74
0
 40
0
 40
0
 40
0
 40
0
 40
1
 40
1
 40
1
 40
1
 10
2.058051
 20
13.596646
 30
0.0
 10
2.522871
 20
13.596646
 30
0.0
 10
2.952399
 20
13.844854
 30
0.0
 10
3.184815
 20
14.247743
 30
0.0
  0
SPLINE
  5
248
100
AcDbEntity
  8
A10-C-v1-MM_adobe
 62
7
100
AcDbSpline
 70
8
 71
3
 72
8
 73
4
 74
0
 40
0
 40
0
 40
0
 40
0
 40
1
 40
1
 40
1
 40
1
 10
3.184814
 20
14.247742
 30
0.0
 10
3.417203
 20
14.650658
 30
0.0
 10
3.417203
 20
15.147019
 30
0.0
 10
3.184814
 20
15.549894
 30
0.0
  0
SPLINE
  5
249
100
AcDbEntity
  8
A10-C-v1-MM_adobe
 62
7
100
AcDbSpline
 70
8
 71
3
 72
8
 73
4
 74
0
 40
0
 40
0
 40
0
 40
0
 40
1
 40
1
 40
1
 40
1
 10
3.184814
 20
15.549900
 30
0.0
 10
2.952397
 20
15.952817
 30
0.0
 10
2.522869
 20
16.201025
 30
0.0
 10
2.058050
 20
16.201025
 30
0.0
  0
SPLINE
  5
24a
100
AcDbEntity
  8
A10-C-v1-MM_adobe
 62
7
100
AcDbSpline
 70
8
 71
3
 72
8
 73
4
 74
0
 40
0
 40
0
 40
0
 40
0
 40
1
 40
1
 40
1
 40
1
 10
3.497626
 20
23.470296
 30
0.0
 10
3.497918
 20
23.602476
 30
0.0
 10
3.375640
 20
23.709824
 30
0.0
 10
3.224515
 20
23.710171
 30
0.0
  0
LWPOLYLINE
  5
24b
100
AcDbEntity
  8
A10-C-v1-MM_adobe
 62
7
100
AcDbPolyline
 90
6
 70
0
 10
11.597208
 20
16.748569
 30
0.0
 10
8.710250
 20
16.748569
 30
0.0
 10
8.710250
 20
20.411472
 30
0.0
 10
11.597208
 20
20.411472
 30
0.0
 10
11.597208
 20
16.748569
 30
0.0
 10
11.597208
 20
16.748569
 30
0.0
  0
SPLINE
  5
24c
100
AcDbEntity
  8
A10-C-v1-MM_adobe
 62
7
100
AcDbSpline
 70
8
 71
3
 72
8
 73
4
 74
0
 40
0
 40
0
 40
0
 40
0
 40
1
 40
1
 40
1
 40
1
 10
3.727743
 20
16.324232
 30
0.0
 10
3.592076
 20
16.324510
 30
0.0
 10
3.481951
 20
16.237718
 30
0.0
 10
3.481701
 20
16.130413
 30
0.0
  0
LWPOLYLINE
  5
24d
100
AcDbEntity
  8
A10-C-v1-MM_adobe
 62
7
100
AcDbPolyline
 90
2
 70
0
 10
13.695801
 20
16.304525
 30
0.0
 10
3.727746
 20
16.324289
 30
0.0
  0
SPLINE
  5
24e
100
AcDbEntity
  8
A10-C-v1-MM_adobe
 62
7
100
AcDbSpline
 70
8
 71
3
 72
8
 73
4
 74
0
 40
0
 40
0
 40
0
 40
0
 40
1
 40
1
 40
1
 40
1
 10
3.244236
 20
13.461419
 30
0.0
 10
3.379875
 20
13.461169
 30
0.0
 10
3.490028
 20
13.547975
 30
0.0
 10
3.490278
 20
13.655350
 30
0.0
  0
SPLINE
  5
24f
100
AcDbEntity
  8
A10-C-v1-MM_adobe
 62
7
100
AcDbSpline
 70
8
 71
3
 72
8
 73
4
 74
0
 40
0
 40
0
 40
0
 40
0
 40
1
 40
1
 40
1
 40
1
 10
13.950236
 20
20.613974
 30
0.0
 10
13.950458
 20
20.721335
 30
0.0
 10
13.840722
 20
20.808543
 30
0.0
 10
13.705042
 20
20.808793
 30
0.0
  0
LWPOLYLINE
  5
250
100
AcDbEntity
  8
A10-C-v1-MM_adobe
 62
7
100
AcDbPolyline
 90
2
 70
0
 10
0.710340
 20
23.728435
 30
0.0
 10
3.224521
 20
23.723990
 30
0.0
  0
LWPOLYLINE
  5
251
100
AcDbEntity
  8
A10-C-v1-MM_adobe
 62
7
100
AcDbPolyline
 90
2
 70
0
 10
13.964125
 20
20.613946
 30
0.0
 10
13.955306
 20
16.518599
 30
0.0
  0
LWPOLYLINE
  5
252
100
AcDbEntity
  8
A10-C-v1-MM_adobe
 62
7
100
AcDbPolyline
 90
2
 70
0
 10
3.495592
 20
16.130411
 30
0.0
 10
3.490161
 20
13.607356
 30
0.0
  0
SPLINE
  5
253
100
AcDbEntity
  8
A10-C-v1-MM_adobe
 62
7
100
AcDbSpline
 70
8
 71
3
 72
8
 73
4
 74
0
 40
0
 40
0
 40
0
 40
0
 40
1
 40
1
 40
1
 40
1
 10
0.832900
 20
23.724311
 30
0.0
 10
0.639733
 20
23.724714
 30
0.0
 10
0.482969
 20
23.638950
 30
0.0
 10
0.482719
 20
23.532797
 30
0.0
  0
LWPOLYLINE
  5
254
100
AcDbEntity
  8
A10-C-v1-MM_adobe
 62
7
100
AcDbPolyline
 90
2
 70
0
 10
3.494399
 20
23.468574
 30
0.0
 10
3.489079
 20
21.006518
 30
0.0
  0
LWPOLYLINE
  5
255
100
AcDbEntity
  8
A10-C-v1-MM_adobe
 62
7
100
AcDbPolyline
 90
2
 70
0
 10
3.255453
 20
13.446771
 30
0.0
 10
0.747106
 20
13.436951
 30
0.0
  0
SPLINE
  5
256
100
AcDbEntity
  8
A10-C-v1-MM_adobe
 62
7
100
AcDbSpline
 70
8
 71
3
 72
8
 73
4
 74
0
 40
0
 40
0
 40
0
 40
0
 40
1
 40
1
 40
1
 40
1
 10
0.485406
 20
13.630907
 30
0.0
 10
0.485169
 20
13.521907
 30
0.0
 10
0.644933
 20
13.433240
 30
0.0
 10
0.842253
 20
13.432879
 30
0.0
  0
SPLINE
  5
257
100
AcDbEntity
  8
A10-C-v1-MM_adobe
 62
7
100
AcDbSpline
 70
8
 71
3
 72
8
 73
4
 74
0
 40
0
 40
0
 40
0
 40
0
 40
1
 40
1
 40
1
 40
1
 10
13.695842
 20
16.324761
 30
0.0
 10
13.831536
 20
16.324469
 30
0.0
 10
13.941633
 20
16.411261
 30
0.0
 10
13.941856
 20
16.518622
 30
0.0
  0
SPLINE
  5
258
100
AcDbEntity
  8
A10-C-v1-MM_adobe
 62
7
100
AcDbSpline
 70
8
 71
3
 72
8
 73
4
 74
0
 40
0
 40
0
 40
0
 40
0
 40
1
 40
1
 40
1
 40
1
 10
3.477851
 20
21.017063
 30
0.0
 10
3.477601
 20
20.909729
 30
0.0
 10
3.587421
 20
20.822493
 30
0.0
 10
3.723074
 20
20.822257
 30
0.0
  0
LWPOLYLINE
  5
259
100
AcDbEntity
  8
A10-C-v1-MM_adobe
 62
7
100
AcDbPolyline
 90
2
 70
0
 10
3.723076
 20
20.822307
 30
0.0
 10
13.705021
 20
20.802474
 30
0.0
  0
SPLINE
  5
25a
100
AcDbEntity
  8
A10-C-v1-MM_adobe
 62
7
100
AcDbSpline
 70
8
 71
3
 72
8
 73
4
 74
0
 40
0
 40
0
 40
0
 40
0
 40
1
 40
1
 40
1
 40
1
 10
1.992703
 20
23.588351
 30
0.0
 10
1.527856
 20
23.588351
 30
0.0
 10
1.153883
 20
23.340143
 30
0.0
 10
0.921467
 20
22.937226
 30
0.0
  0
SPLINE
  5
25b
100
AcDbEntity
  8
A10-C-v1-MM_adobe
 62
7
100
AcDbSpline
 70
8
 71
3
 72
8
 73
4
 74
0
 40
0
 40
0
 40
0
 40
0
 40
1
 40
1
 40
1
 40
1
 10
0.921468
 20
22.937229
 30
0.0
 10
0.689079
 20
22.534340
 30
0.0
 10
0.689079
 20
22.037979
 30
0.0
 10
0.921468
 20
21.635063
 30
0.0
  0
SPLINE
  5
25c
100
AcDbEntity
  8
A10-C-v1-MM_adobe
 62
7
100
AcDbSpline
 70
8
 71
3
 72
8
 73
4
 74
0
 40
0
 40
0
 40
0
 40
0
 40
1
 40
1
 40
1
 40
1
 10
0.921468
 20
21.635064
 30
0.0
 10
1.153885
 20
21.232175
 30
0.0
 10
1.583413
 20
20.983967
 30
0.0
 10
2.048260
 20
20.983967
 30
0.0
  0
SPLINE
  5
25d
100
AcDbEntity
  8
A10-C-v1-MM_adobe
 62
7
100
AcDbSpline
 70
8
 71
3
 72
8
 73
4
 74
0
 40
0
 40
0
 40
0
 40
0
 40
1
 40
1
 40
1
 40
1
 10
2.048258
 20
20.983968
 30
0.0
 10
2.513078
 20
20.983968
 30
0.0
 10
2.942606
 20
21.232176
 30
0.0
 10
3.175022
 20
21.635065
 30
0.0
  0
SPLINE
  5
25e
100
AcDbEntity
  8
A10-C-v1-MM_adobe
 62
7
100
AcDbSpline
 70
8
 71
3
 72
8
 73
4
 74
0
 40
0
 40
0
 40
0
 40
0
 40
1
 40
1
 40
1
 40
1
 10
3.175022
 20
21.635064
 30
0.0
 10
3.407411
 20
22.037981
 30
0.0
 10
3.407411
 20
22.534342
 30
0.0
 10
3.175022
 20
22.937231
 30
0.0
  0
SPLINE
  5
25f
100
AcDbEntity
  8
A10-C-v1-MM_adobe
 62
7
100
AcDbSpline
 70
8
 71
3
 72
8
 73
4
 74
0
 40
0
 40
0
 40
0
 40
0
 40
1
 40
1
 40
1
 40
1
 10
3.175022
 20
22.937229
 30
0.0
 10
2.942606
 20
23.340146
 30
0.0
 10
2.457522
 20
23.588354
 30
0.0
 10
1.992703
 20
23.588354
 30
0.0
  0
SPLINE
  5
260
100
AcDbEntity
  8
A10-C-v1-MM_adobe
 62
7
100
AcDbSpline
 70
8
 71
3
 72
8
 73
4
 74
0
 40
0
 40
0
 40
0
 40
0
 40
1
 40
1
 40
1
 40
1
 10
12.097358
 20
20.063490
 30
0.0
 10
12.097358
 20
20.078713
 30
0.0
 10
12.102983
 20
20.093601
 30
0.0
 10
12.113067
 20
20.104254
 30
0.0
  0
SPLINE
  5
261
100
AcDbEntity
  8
A10-C-v1-MM_adobe
 62
7
100
AcDbSpline
 70
8
 71
3
 72
8
 73
4
 74
0
 40
0
 40
0
 40
0
 40
0
 40
1
 40
1
 40
1
 40
1
 10
12.113064
 20
20.104254
 30
0.0
 10
12.123119
 20
20.115060
 30
0.0
 10
12.136731
 20
20.121074
 30
0.0
 10
12.150967
 20
20.121074
 30
0.0
  0
SPLINE
  5
262
100
AcDbEntity
  8
A10-C-v1-MM_adobe
 62
7
100
AcDbSpline
 70
8
 71
3
 72
8
 73
4
 74
0
 40
0
 40
0
 40
0
 40
0
 40
1
 40
1
 40
1
 40
1
 10
12.280681
 20
20.121161
 30
0.0
 10
12.291097
 20
20.121161
 30
0.0
 10
12.301264
 20
20.124342
 30
0.0
 10
12.310000
 20
20.130689
 30
0.0
  0
SPLINE
  5
263
100
AcDbEntity
  8
A10-C-v1-MM_adobe
 62
7
100
AcDbSpline
 70
8
 71
3
 72
8
 73
4
 74
0
 40
0
 40
0
 40
0
 40
0
 40
1
 40
1
 40
1
 40
1
 10
12.310004
 20
20.130547
 30
0.0
 10
12.325185
 20
20.141325
 30
0.0
 10
12.334324
 20
20.159381
 30
0.0
 10
12.334324
 20
20.178867
 30
0.0
  0
SPLINE
  5
264
100
AcDbEntity
  8
A10-C-v1-MM_adobe
 62
7
100
AcDbSpline
 70
8
 71
3
 72
8
 73
4
 74
0
 40
0
 40
0
 40
0
 40
0
 40
1
 40
1
 40
1
 40
1
 10
12.334324
 20
20.323093
 30
0.0
 10
12.334324
 20
20.338301
 30
0.0
 10
12.339963
 20
20.353190
 30
0.0
 10
12.350018
 20
20.363885
 30
0.0
  0
SPLINE
  5
265
100
AcDbEntity
  8
A10-C-v1-MM_adobe
 62
7
100
AcDbSpline
 70
8
 71
3
 72
8
 73
4
 74
0
 40
0
 40
0
 40
0
 40
0
 40
1
 40
1
 40
1
 40
1
 10
12.350017
 20
20.363864
 30
0.0
 10
12.360058
 20
20.374656
 30
0.0
 10
12.373697
 20
20.380669
 30
0.0
 10
12.387919
 20
20.380669
 30
0.0
  0
LWPOLYLINE
  5
266
100
AcDbEntity
  8
A10-C-v1-MM_adobe
 62
7
100
AcDbPolyline
 90
2
 70
0
 10
0.489489
 20
13.616828
 30
0.0
 10
0.489489
 20
23.532564
 30
0.0
  0
SPLINE
  5
267
100
AcDbEntity
  8
A10-C-v1-MM_adobe
 62
7
100
AcDbSpline
 70
8
 71
3
 72
8
 73
4
 74
0
 40
0
 40
0
 40
0
 40
0
 40
1
 40
1
 40
1
 40
1
 10
13.149442
 20
20.380764
 30
0.0
 10
13.163664
 20
20.380764
 30
0.0
 10
13.177289
 20
20.374736
 30
0.0
 10
13.187344
 20
20.363958
 30
0.0
  0
SPLINE
  5
268
100
AcDbEntity
  8
A10-C-v1-MM_adobe
 62
7
100
AcDbSpline
 70
8
 71
3
 72
8
 73
4
 74
0
 40
0
 40
0
 40
0
 40
0
 40
1
 40
1
 40
1
 40
1
 10
13.187338
 20
20.363864
 30
0.0
 10
13.197393
 20
20.353114
 30
0.0
 10
13.203060
 20
20.338531
 30
0.0
 10
13.203060
 20
20.323086
 30
0.0
  0
LWPOLYLINE
  5
269
100
AcDbEntity
  8
A10-C-v1-MM_adobe
 62
7
100
AcDbPolyline
 90
2
 70
0
 10
12.150960
 20
20.121161
 30
0.0
 10
12.280682
 20
20.121161
 30
0.0
  0
SPLINE
  5
26a
100
AcDbEntity
  8
A10-C-v1-MM_adobe
 62
7
100
AcDbSpline
 70
8
 71
3
 72
8
 73
4
 74
0
 40
0
 40
0
 40
0
 40
0
 40
1
 40
1
 40
1
 40
1
 10
13.203043
 20
20.178860
 30
0.0
 10
13.203043
 20
20.175679
 30
0.0
 10
13.203210
 20
20.174124
 30
0.0
 10
13.203501
 20
20.171596
 30
0.0
  0
SPLINE
  5
26b
100
AcDbEntity
  8
A10-C-v1-MM_adobe
 62
7
100
AcDbSpline
 70
8
 71
3
 72
8
 73
4
 74
0
 40
0
 40
0
 40
0
 40
0
 40
1
 40
1
 40
1
 40
1
 10
13.203464
 20
20.171515
 30
0.0
 10
13.206908
 20
20.142682
 30
0.0
 10
13.229686
 20
20.121168
 30
0.0
 10
13.256672
 20
20.121168
 30
0.0
  0
LWPOLYLINE
  5
26c
100
AcDbEntity
  8
A10-C-v1-MM_adobe
 62
7
100
AcDbPolyline
 90
2
 70
0
 10
12.387926
 20
20.380764
 30
0.0
 10
13.149440
 20
20.380764
 30
0.0
  0
SPLINE
  5
26d
100
AcDbEntity
  8
A10-C-v1-MM_adobe
 62
7
100
AcDbSpline
 70
8
 71
3
 72
8
 73
4
 74
0
 40
0
 40
0
 40
0
 40
0
 40
1
 40
1
 40
1
 40
1
 10
13.383979
 20
20.121161
 30
0.0
 10
13.398187
 20
20.121161
 30
0.0
 10
13.411854
 20
20.115147
 30
0.0
 10
13.421896
 20
20.104383
 30
0.0
  0
SPLINE
  5
26e
100
AcDbEntity
  8
A10-C-v1-MM_adobe
 62
7
100
AcDbSpline
 70
8
 71
3
 72
8
 73
4
 74
0
 40
0
 40
0
 40
0
 40
0
 40
1
 40
1
 40
1
 40
1
 10
13.421903
 20
20.104254
 30
0.0
 10
13.431972
 20
20.093504
 30
0.0
 10
13.437611
 20
20.078601
 30
0.0
 10
13.437611
 20
20.063490
 30
0.0
  0
LWPOLYLINE
  5
26f
100
AcDbEntity
  8
A10-C-v1-MM_adobe
 62
7
100
AcDbPolyline
 90
2
 70
0
 10
13.203043
 20
20.323093
 30
0.0
 10
13.203043
 20
20.178857
 30
0.0
  0
SPLINE
  5
270
100
AcDbEntity
  8
A10-C-v1-MM_adobe
 62
7
100
AcDbSpline
 70
8
 71
3
 72
8
 73
4
 74
0
 40
0
 40
0
 40
0
 40
0
 40
1
 40
1
 40
1
 40
1
 10
13.437608
 20
17.135715
 30
0.0
 10
13.437608
 20
17.120493
 30
0.0
 10
13.431969
 20
17.105618
 30
0.0
 10
13.421872
 20
17.094938
 30
0.0
  0
SPLINE
  5
271
100
AcDbEntity
  8
A10-C-v1-MM_adobe
 62
7
100
AcDbSpline
 70
8
 71
3
 72
8
 73
4
 74
0
 40
0
 40
0
 40
0
 40
0
 40
1
 40
1
 40
1
 40
1
 10
13.421903
 20
17.094943
 30
0.0
 10
13.411847
 20
17.084165
 30
0.0
 10
13.398194
 20
17.078138
 30
0.0
 10
13.383986
 20
17.078138
 30
0.0
  0
LWPOLYLINE
  5
272
100
AcDbEntity
  8
A10-C-v1-MM_adobe
 62
7
100
AcDbPolyline
 90
2
 70
0
 10
13.256674
 20
20.121161
 30
0.0
 10
13.383979
 20
20.121161
 30
0.0
  0
SPLINE
  5
273
100
AcDbEntity
  8
A10-C-v1-MM_adobe
 62
7
100
AcDbSpline
 70
8
 71
3
 72
8
 73
4
 74
0
 40
0
 40
0
 40
0
 40
0
 40
1
 40
1
 40
1
 40
1
 10
13.256674
 20
17.077989
 30
0.0
 10
13.249424
 20
17.077989
 30
0.0
 10
13.242229
 20
17.074836
 30
0.0
 10
13.235549
 20
17.073253
 30
0.0
  0
SPLINE
  5
274
100
AcDbEntity
  8
A10-C-v1-MM_adobe
 62
7
100
AcDbSpline
 70
8
 71
3
 72
8
 73
4
 74
0
 40
0
 40
0
 40
0
 40
0
 40
1
 40
1
 40
1
 40
1
 10
13.235542
 20
17.073351
 30
0.0
 10
13.215819
 20
17.064157
 30
0.0
 10
13.203042
 20
17.043268
 30
0.0
 10
13.203042
 20
17.020338
 30
0.0
  0
LWPOLYLINE
  5
275
100
AcDbEntity
  8
A10-C-v1-MM_adobe
 62
7
100
AcDbPolyline
 90
2
 70
0
 10
13.437608
 20
20.063490
 30
0.0
 10
13.437608
 20
17.135713
 30
0.0
  0
SPLINE
  5
276
100
AcDbEntity
  8
A10-C-v1-MM_adobe
 62
7
100
AcDbSpline
 70
8
 71
3
 72
8
 73
4
 74
0
 40
0
 40
0
 40
0
 40
0
 40
1
 40
1
 40
1
 40
1
 10
13.203043
 20
16.837267
 30
0.0
 10
13.203043
 20
16.822044
 30
0.0
 10
13.197418
 20
16.807169
 30
0.0
 10
13.187335
 20
16.796489
 30
0.0
  0
SPLINE
  5
277
100
AcDbEntity
  8
A10-C-v1-MM_adobe
 62
7
100
AcDbSpline
 70
8
 71
3
 72
8
 73
4
 74
0
 40
0
 40
0
 40
0
 40
0
 40
1
 40
1
 40
1
 40
1
 10
13.187338
 20
16.796489
 30
0.0
 10
13.177296
 20
16.785711
 30
0.0
 10
13.163671
 20
16.779683
 30
0.0
 10
13.149435
 20
16.779683
 30
0.0
  0
LWPOLYLINE
  5
278
100
AcDbEntity
  8
A10-C-v1-MM_adobe
 62
7
100
AcDbPolyline
 90
2
 70
0
 10
13.383979
 20
17.077989
 30
0.0
 10
13.256674
 20
17.077989
 30
0.0
  0
SPLINE
  5
279
100
AcDbEntity
  8
A10-C-v1-MM_adobe
 62
7
100
AcDbSpline
 70
8
 71
3
 72
8
 73
4
 74
0
 40
0
 40
0
 40
0
 40
0
 40
1
 40
1
 40
1
 40
1
 10
12.387926
 20
16.779554
 30
0.0
 10
12.373704
 20
16.779554
 30
0.0
 10
12.360051
 20
16.785596
 30
0.0
 10
12.350024
 20
16.796346
 30
0.0
  0
SPLINE
  5
27a
100
AcDbEntity
  8
A10-C-v1-MM_adobe
 62
7
100
AcDbSpline
 70
8
 71
3
 72
8
 73
4
 74
0
 40
0
 40
0
 40
0
 40
0
 40
1
 40
1
 40
1
 40
1
 10
12.350017
 20
16.796489
 30
0.0
 10
12.339961
 20
16.807239
 30
0.0
 10
12.334281
 20
16.821836
 30
0.0
 10
12.334281
 20
16.837267
 30
0.0
  0
LWPOLYLINE
  5
27b
100
AcDbEntity
  8
A10-C-v1-MM_adobe
 62
7
100
AcDbPolyline
 90
2
 70
0
 10
13.203043
 20
17.020332
 30
0.0
 10
13.203043
 20
16.837263
 30
0.0
  0
SPLINE
  5
27c
100
AcDbEntity
  8
A10-C-v1-MM_adobe
 62
7
100
AcDbSpline
 70
8
 71
3
 72
8
 73
4
 74
0
 40
0
 40
0
 40
0
 40
0
 40
1
 40
1
 40
1
 40
1
 10
12.334324
 20
17.020332
 30
0.0
 10
12.334324
 20
17.035554
 30
0.0
 10
12.328671
 20
17.050443
 30
0.0
 10
12.318588
 20
17.061124
 30
0.0
  0
SPLINE
  5
27d
100
AcDbEntity
  8
A10-C-v1-MM_adobe
 62
7
100
AcDbSpline
 70
8
 71
3
 72
8
 73
4
 74
0
 40
0
 40
0
 40
0
 40
0
 40
1
 40
1
 40
1
 40
1
 10
12.318617
 20
17.061117
 30
0.0
 10
12.308561
 20
17.071894
 30
0.0
 10
12.294908
 20
17.077908
 30
0.0
 10
12.280686
 20
17.077908
 30
0.0
  0
LWPOLYLINE
  5
27e
100
AcDbEntity
  8
A10-C-v1-MM_adobe
 62
7
100
AcDbPolyline
 90
2
 70
0
 10
13.149442
 20
16.779554
 30
0.0
 10
12.387928
 20
16.779554
 30
0.0
  0
SPLINE
  5
27f
100
AcDbEntity
  8
A10-C-v1-MM_adobe
 62
7
100
AcDbSpline
 70
8
 71
3
 72
8
 73
4
 74
0
 40
0
 40
0
 40
0
 40
0
 40
1
 40
1
 40
1
 40
1
 10
12.150960
 20
17.077989
 30
0.0
 10
12.136738
 20
17.077989
 30
0.0
 10
12.123113
 20
17.084044
 30
0.0
 10
12.113057
 20
17.094808
 30
0.0
  0
SPLINE
  5
280
100
AcDbEntity
  8
A10-C-v1-MM_adobe
 62
7
100
AcDbSpline
 70
8
 71
3
 72
8
 73
4
 74
0
 40
0
 40
0
 40
0
 40
0
 40
1
 40
1
 40
1
 40
1
 10
12.113064
 20
17.094943
 30
0.0
 10
12.102994
 20
17.105693
 30
0.0
 10
12.097314
 20
17.120276
 30
0.0
 10
12.097314
 20
17.135721
 30
0.0
  0
LWPOLYLINE
  5
281
100
AcDbEntity
  8
A10-C-v1-MM_adobe
 62
7
100
AcDbPolyline
 90
2
 70
0
 10
12.334324
 20
20.178860
 30
0.0
 10
12.334324
 20
20.323096
 30
0.0
  0
LWPOLYLINE
  5
282
100
AcDbEntity
  8
A10-C-v1-MM_adobe
 62
7
100
AcDbPolyline
 90
2
 70
0
 10
12.280681
 20
17.077989
 30
0.0
 10
12.150958
 20
17.077989
 30
0.0
  0
LWPOLYLINE
  5
283
100
AcDbEntity
  8
A10-C-v1-MM_adobe
 62
7
100
AcDbPolyline
 90
2
 70
0
 10
12.334324
 20
16.837267
 30
0.0
 10
12.334324
 20
17.020336
 30
0.0
  0
SPLINE
  5
284
100
AcDbEntity
  8
A10-C-v1-MM_adobe
 62
7
100
AcDbSpline
 70
8
 71
3
 72
8
 73
4
 74
0
 40
0
 40
0
 40
0
 40
0
 40
1
 40
1
 40
1
 40
1
 10
17.133789
 20
21.914794
 30
0.0
 10
17.115775
 20
21.897517
 30
0.0
 10
17.091303
 20
21.888322
 30
0.0
 10
17.065886
 20
21.888322
 30
0.0
  0
SPLINE
  5
285
100
AcDbEntity
  8
A10-C-v1-MM_adobe
 62
7
100
AcDbSpline
 70
8
 71
3
 72
8
 73
4
 74
0
 40
0
 40
0
 40
0
 40
0
 40
1
 40
1
 40
1
 40
1
 10
14.264214
 20
21.888319
 30
0.0
 10
14.238881
 20
21.888319
 30
0.0
 10
14.214353
 20
21.897514
 30
0.0
 10
14.196339
 20
21.914792
 30
0.0
  0
LWPOLYLINE
  5
286
100
AcDbEntity
  8
A10-C-v1-MM_adobe
 62
7
100
AcDbPolyline
 90
2
 70
0
 10
12.097358
 20
17.135715
 30
0.0
 10
12.097358
 20
20.063493
 30
0.0
  0
SPLINE
  5
287
100
AcDbEntity
  8
A10-C-v1-MM_adobe
 62
7
100
AcDbSpline
 70
8
 71
3
 72
8
 73
4
 74
0
 40
0
 40
0
 40
0
 40
0
 40
1
 40
1
 40
1
 40
1
 10
13.706788
 20
22.359185
 30
0.0
 10
13.688663
 20
22.376407
 30
0.0
 10
13.678607
 20
22.398838
 30
0.0
 10
13.678607
 20
22.423282
 30
0.0
  0
SPLINE
  5
288
100
AcDbEntity
  8
A10-C-v1-MM_adobe
 62
7
100
AcDbSpline
 70
8
 71
3
 72
8
 73
4
 74
0
 40
0
 40
0
 40
0
 40
0
 40
1
 40
1
 40
1
 40
1
 10
13.642361
 20
25.056179
 30
0.0
 10
13.642361
 20
25.079999
 30
0.0
 10
13.652500
 20
25.103054
 30
0.0
 10
13.670597
 20
25.120276
 30
0.0
  0
LWPOLYLINE
  5
289
100
AcDbEntity
  8
A10-C-v1-MM_adobe
 62
7
100
AcDbPolyline
 90
2
 70
0
 10
17.065890
 20
21.888319
 30
0.0
 10
14.264210
 20
21.888319
 30
0.0
  0
SPLINE
  5
28a
100
AcDbEntity
  8
A10-C-v1-MM_adobe
 62
7
100
AcDbSpline
 70
8
 71
3
 72
8
 73
4
 74
0
 40
0
 40
0
 40
0
 40
0
 40
1
 40
1
 40
1
 40
1
 10
14.143474
 20
25.564453
 30
0.0
 10
14.161543
 20
25.581592
 30
0.0
 10
14.185988
 20
25.590897
 30
0.0
 10
14.211432
 20
25.590897
 30
0.0
  0
LWPOLYLINE
  5
28b
100
AcDbEntity
  8
A10-C-v1-MM_adobe
 62
7
100
AcDbPolyline
 90
2
 70
0
 10
14.196343
 20
21.914794
 30
0.0
 10
13.723385
 20
22.359183
 30
0.0
  0
SPLINE
  5
28c
100
AcDbEntity
  8
A10-C-v1-MM_adobe
 62
7
100
AcDbSpline
 70
8
 71
3
 72
8
 73
4
 74
0
 40
0
 40
0
 40
0
 40
0
 40
1
 40
1
 40
1
 40
1
 10
17.013103
 20
25.590956
 30
0.0
 10
17.038575
 20
25.590956
 30
0.0
 10
17.062964
 20
25.581678
 30
0.0
 10
17.081033
 20
25.564456
 30
0.0
  0
LWPOLYLINE
  5
28d
100
AcDbEntity
  8
A10-C-v1-MM_adobe
 62
7
100
AcDbPolyline
 90
2
 70
0
 10
13.642361
 20
22.423014
 30
0.0
 10
13.642361
 20
25.056181
 30
0.0
  0
LWPOLYLINE
  5
28e
100
AcDbEntity
  8
A10-C-v1-MM_adobe
 62
7
100
AcDbPolyline
 90
2
 70
0
 10
14.211426
 20
25.590956
 30
0.0
 10
17.013107
 20
25.590956
 30
0.0
  0
LWPOLYLINE
  5
28f
100
AcDbEntity
  8
A10-C-v1-MM_adobe
 62
7
100
AcDbPolyline
 90
2
 70
0
 10
17.081028
 20
25.564453
 30
0.0
 10
17.553986
 20
25.120008
 30
0.0
  0
LWPOLYLINE
  5
290
100
AcDbEntity
  8
A10-C-v1-MM_adobe
 62
7
100
AcDbPolyline
 90
2
 70
0
 10
17.559326
 20
25.127115
 30
0.0
 10
17.559326
 20
22.341685
 30
0.0
  0
LWPOLYLINE
  5
291
100
AcDbEntity
  8
A10-C-v1-MM_adobe
 62
7
100
AcDbPolyline
 90
2
 70
0
 10
13.670600
 20
25.120008
 30
0.0
 10
14.143475
 20
25.564453
 30
0.0
  0
SPLINE
  5
292
100
AcDbEntity
  8
A10-C-v1-MM_adobe
 62
7
100
AcDbSpline
 70
8
 71
3
 72
8
 73
4
 74
0
 40
0
 40
0
 40
0
 40
0
 40
1
 40
1
 40
1
 40
1
 10
12.938422
 20
22.119222
 30
0.0
 10
12.924019
 20
22.103625
 30
0.0
 10
12.904436
 20
22.095319
 30
0.0
 10
12.884117
 20
22.095319
 30
0.0
  0
SPLINE
  5
293
100
AcDbEntity
  8
A10-C-v1-MM_adobe
 62
7
100
AcDbSpline
 70
8
 71
3
 72
8
 73
4
 74
0
 40
0
 40
0
 40
0
 40
0
 40
1
 40
1
 40
1
 40
1
 10
10.642999
 20
22.095324
 30
0.0
 10
10.622735
 20
22.095324
 30
0.0
 10
10.603096
 20
22.103629
 30
0.0
 10
10.588721
 20
22.119226
 30
0.0
  0
LWPOLYLINE
  5
294
100
AcDbEntity
  8
A10-C-v1-MM_adobe
 62
7
100
AcDbPolyline
 90
2
 70
0
 10
17.559326
 20
22.341689
 30
0.0
 10
17.133785
 20
21.914800
 30
0.0
  0
SPLINE
  5
295
100
AcDbEntity
  8
A10-C-v1-MM_adobe
 62
7
100
AcDbSpline
 70
8
 71
3
 72
8
 73
4
 74
0
 40
0
 40
0
 40
0
 40
0
 40
1
 40
1
 40
1
 40
1
 10
10.197089
 20
22.520697
 30
0.0
 10
10.182603
 20
22.536267
 30
0.0
 10
10.174547
 20
22.556503
 30
0.0
 10
10.174547
 20
22.578614
 30
0.0
  0
SPLINE
  5
296
100
AcDbEntity
  8
A10-C-v1-MM_adobe
 62
7
100
AcDbSpline
 70
8
 71
3
 72
8
 73
4
 74
0
 40
0
 40
0
 40
0
 40
0
 40
1
 40
1
 40
1
 40
1
 10
10.145575
 20
24.957194
 30
0.0
 10
10.145575
 20
24.978681
 30
0.0
 10
10.153686
 20
24.999514
 30
0.0
 10
10.168144
 20
25.015083
 30
0.0
  0
LWPOLYLINE
  5
297
100
AcDbEntity
  8
A10-C-v1-MM_adobe
 62
7
100
AcDbPolyline
 90
2
 70
0
 10
12.884114
 20
22.095324
 30
0.0
 10
10.643003
 20
22.095324
 30
0.0
  0
SPLINE
  5
298
100
AcDbEntity
  8
A10-C-v1-MM_adobe
 62
7
100
AcDbSpline
 70
8
 71
3
 72
8
 73
4
 74
0
 40
0
 40
0
 40
0
 40
0
 40
1
 40
1
 40
1
 40
1
 10
10.546400
 20
25.416342
 30
0.0
 10
10.560858
 20
25.431828
 30
0.0
 10
10.580414
 20
25.440217
 30
0.0
 10
10.600761
 20
25.440217
 30
0.0
  0
LWPOLYLINE
  5
299
100
AcDbEntity
  8
A10-C-v1-MM_adobe
 62
7
100
AcDbPolyline
 90
2
 70
0
 10
10.588718
 20
22.119222
 30
0.0
 10
10.210385
 20
22.520694
 30
0.0
  0
SPLINE
  5
29a
100
AcDbEntity
  8
A10-C-v1-MM_adobe
 62
7
100
AcDbSpline
 70
8
 71
3
 72
8
 73
4
 74
0
 40
0
 40
0
 40
0
 40
0
 40
1
 40
1
 40
1
 40
1
 10
12.841878
 20
25.440267
 30
0.0
 10
12.862253
 20
25.440267
 30
0.0
 10
12.881781
 20
25.431878
 30
0.0
 10
12.896211
 20
25.416336
 30
0.0
  0
LWPOLYLINE
  5
29b
100
AcDbEntity
  8
A10-C-v1-MM_adobe
 62
7
100
AcDbPolyline
 90
2
 70
0
 10
10.145575
 20
22.578369
 30
0.0
 10
10.145575
 20
24.957189
 30
0.0
  0
LWPOLYLINE
  5
29c
100
AcDbEntity
  8
A10-C-v1-MM_adobe
 62
7
100
AcDbPolyline
 90
2
 70
0
 10
10.600763
 20
25.440267
 30
0.0
 10
12.841874
 20
25.440267
 30
0.0
  0
LWPOLYLINE
  5
29d
100
AcDbEntity
  8
A10-C-v1-MM_adobe
 62
7
100
AcDbPolyline
 90
2
 70
0
 10
12.896213
 20
25.416342
 30
0.0
 10
13.274518
 20
25.014814
 30
0.0
  0
LWPOLYLINE
  5
29e
100
AcDbEntity
  8
A10-C-v1-MM_adobe
 62
7
100
AcDbPolyline
 90
2
 70
0
 10
13.278836
 20
25.021240
 30
0.0
 10
13.278836
 20
22.504907
 30
0.0
  0
LWPOLYLINE
  5
29f
100
AcDbEntity
  8
A10-C-v1-MM_adobe
 62
7
100
AcDbPolyline
 90
2
 70
0
 10
10.168144
 20
25.014811
 30
0.0
 10
10.546394
 20
25.416339
 30
0.0
  0
LWPOLYLINE
  5
2a0
100
AcDbEntity
  8
A10-C-v1-MM_adobe
 62
7
100
AcDbPolyline
 90
2
 70
0
 10
13.278836
 20
22.504910
 30
0.0
 10
12.938419
 20
22.119215
 30
0.0
  0
LWPOLYLINE
  5
2a1
100
AcDbEntity
  8
A10-C-v1-MM_adobe
 62
7
100
AcDbPolyline
 90
6
 70
0
 10
6.909361
 20
25.561847
 30
0.0
 10
9.796319
 20
25.561847
 30
0.0
 10
9.796319
 20
21.898944
 30
0.0
 10
6.909361
 20
21.898944
 30
0.0
 10
6.909361
 20
25.561847
 30
0.0
 10
6.909361
 20
25.561847
 30
0.0
  0
LWPOLYLINE
  5
2a2
100
AcDbEntity
  8
A10-C-v1-MM_adobe
 62
7
100
AcDbPolyline
 90
2
 70
0
 10
4.810764
 20
26.005900
 30
0.0
 10
14.778819
 20
25.986136
 30
0.0
  0
SPLINE
  5
2a3
100
AcDbEntity
  8
A10-C-v1-MM_adobe
 62
7
100
AcDbSpline
 70
8
 71
3
 72
8
 73
4
 74
0
 40
0
 40
0
 40
0
 40
0
 40
1
 40
1
 40
1
 40
1
 10
4.556329
 20
21.696451
 30
0.0
 10
4.556107
 20
21.589090
 30
0.0
 10
4.665843
 20
21.501882
 30
0.0
 10
4.801524
 20
21.501632
 30
0.0
  0
LWPOLYLINE
  5
2a4
100
AcDbEntity
  8
A10-C-v1-MM_adobe
 62
7
100
AcDbPolyline
 90
2
 70
0
 10
17.796224
 20
21.484728
 30
0.0
 10
14.783349
 20
21.490214
 30
0.0
  0
SPLINE
  5
2a5
100
AcDbEntity
  8
A10-C-v1-MM_adobe
 62
7
100
AcDbSpline
 70
8
 71
3
 72
8
 73
4
 74
0
 40
0
 40
0
 40
0
 40
0
 40
1
 40
1
 40
1
 40
1
 10
17.673665
 20
21.488892
 30
0.0
 10
17.866832
 20
21.488489
 30
0.0
 10
18.023596
 20
21.574253
 30
0.0
 10
18.023846
 20
21.680406
 30
0.0
  0
LWPOLYLINE
  5
2a6
100
AcDbEntity
  8
A10-C-v1-MM_adobe
 62
7
100
AcDbPolyline
 90
2
 70
0
 10
4.542440
 20
21.696479
 30
0.0
 10
4.551260
 20
25.791826
 30
0.0
  0
LWPOLYLINE
  5
2a7
100
AcDbEntity
  8
A10-C-v1-MM_adobe
 62
7
100
AcDbPolyline
 90
2
 70
0
 10
14.783963
 20
25.986363
 30
0.0
 10
17.759449
 20
25.998293
 30
0.0
  0
SPLINE
  5
2a8
100
AcDbEntity
  8
A10-C-v1-MM_adobe
 62
7
100
AcDbSpline
 70
8
 71
3
 72
8
 73
4
 74
0
 40
0
 40
0
 40
0
 40
0
 40
1
 40
1
 40
1
 40
1
 10
18.021158
 20
25.804525
 30
0.0
 10
18.021394
 20
25.913525
 30
0.0
 10
17.861631
 20
26.002178
 30
0.0
 10
17.664311
 20
26.002553
 30
0.0
  0
SPLINE
  5
2a9
100
AcDbEntity
  8
A10-C-v1-MM_adobe
 62
7
100
AcDbSpline
 70
8
 71
3
 72
8
 73
4
 74
0
 40
0
 40
0
 40
0
 40
0
 40
1
 40
1
 40
1
 40
1
 10
4.810724
 20
25.985664
 30
0.0
 10
4.675029
 20
25.985956
 30
0.0
 10
4.564932
 20
25.899164
 30
0.0
 10
4.564710
 20
25.791803
 30
0.0
  0
LWPOLYLINE
  5
2aa
100
AcDbEntity
  8
A10-C-v1-MM_adobe
 62
7
100
AcDbPolyline
 90
2
 70
0
 10
14.783488
 20
21.488118
 30
0.0
 10
4.801543
 20
21.507951
 30
0.0
  0
SPLINE
  5
2ab
100
AcDbEntity
  8
A10-C-v1-MM_adobe
 62
7
100
AcDbSpline
 70
8
 71
3
 72
8
 73
4
 74
0
 40
0
 40
0
 40
0
 40
0
 40
1
 40
1
 40
1
 40
1
 10
6.651992
 20
22.086669
 30
0.0
 10
6.651992
 20
22.069753
 30
0.0
 10
6.644533
 20
22.053183
 30
0.0
 10
6.631214
 20
22.041336
 30
0.0
  0
SPLINE
  5
2ac
100
AcDbEntity
  8
A10-C-v1-MM_adobe
 62
7
100
AcDbSpline
 70
8
 71
3
 72
8
 73
4
 74
0
 40
0
 40
0
 40
0
 40
0
 40
1
 40
1
 40
1
 40
1
 10
6.631225
 20
22.041342
 30
0.0
 10
6.617933
 20
22.029328
 30
0.0
 10
6.599919
 20
22.022647
 30
0.0
 10
6.581114
 20
22.022647
 30
0.0
  0
SPLINE
  5
2ad
100
AcDbEntity
  8
A10-C-v1-MM_adobe
 62
7
100
AcDbSpline
 70
8
 71
3
 72
8
 73
4
 74
0
 40
0
 40
0
 40
0
 40
0
 40
1
 40
1
 40
1
 40
1
 10
6.409586
 20
22.022549
 30
0.0
 10
6.395822
 20
22.022549
 30
0.0
 10
6.382378
 20
22.019007
 30
0.0
 10
6.370822
 20
22.011951
 30
0.0
  0
SPLINE
  5
2ae
100
AcDbEntity
  8
A10-C-v1-MM_adobe
 62
7
100
AcDbSpline
 70
8
 71
3
 72
8
 73
4
 74
0
 40
0
 40
0
 40
0
 40
0
 40
1
 40
1
 40
1
 40
1
 10
6.370822
 20
22.012106
 30
0.0
 10
6.350767
 20
22.000133
 30
0.0
 10
6.338683
 20
21.980050
 30
0.0
 10
6.338683
 20
21.958397
 30
0.0
  0
SPLINE
  5
2af
100
AcDbEntity
  8
A10-C-v1-MM_adobe
 62
7
100
AcDbSpline
 70
8
 71
3
 72
8
 73
4
 74
0
 40
0
 40
0
 40
0
 40
0
 40
1
 40
1
 40
1
 40
1
 10
6.338678
 20
21.798028
 30
0.0
 10
6.338678
 20
21.781111
 30
0.0
 10
6.331206
 20
21.764556
 30
0.0
 10
6.317914
 20
21.752667
 30
0.0
  0
SPLINE
  5
2b0
100
AcDbEntity
  8
A10-C-v1-MM_adobe
 62
7
100
AcDbSpline
 70
8
 71
3
 72
8
 73
4
 74
0
 40
0
 40
0
 40
0
 40
0
 40
1
 40
1
 40
1
 40
1
 10
6.317925
 20
21.752692
 30
0.0
 10
6.304647
 20
21.740706
 30
0.0
 10
6.286606
 20
21.734011
 30
0.0
 10
6.267800
 20
21.734011
 30
0.0
  0
LWPOLYLINE
  5
2b1
100
AcDbEntity
  8
A10-C-v1-MM_adobe
 62
7
100
AcDbPolyline
 90
2
 70
0
 10
18.017076
 20
25.818414
 30
0.0
 10
18.017076
 20
21.730400
 30
0.0
  0
SPLINE
  5
2b2
100
AcDbEntity
  8
A10-C-v1-MM_adobe
 62
7
100
AcDbSpline
 70
8
 71
3
 72
8
 73
4
 74
0
 40
0
 40
0
 40
0
 40
0
 40
1
 40
1
 40
1
 40
1
 10
5.260932
 20
21.733907
 30
0.0
 10
5.242113
 20
21.733907
 30
0.0
 10
5.224113
 20
21.740601
 30
0.0
 10
5.210821
 20
21.752601
 30
0.0
  0
SPLINE
  5
2b3
100
AcDbEntity
  8
A10-C-v1-MM_adobe
 62
7
100
AcDbSpline
 70
8
 71
3
 72
8
 73
4
 74
0
 40
0
 40
0
 40
0
 40
0
 40
1
 40
1
 40
1
 40
1
 10
5.210815
 20
21.752692
 30
0.0
 10
5.197538
 20
21.764650
 30
0.0
 10
5.190037
 20
21.780872
 30
0.0
 10
5.190037
 20
21.798025
 30
0.0
  0
LWPOLYLINE
  5
2b4
100
AcDbEntity
  8
A10-C-v1-MM_adobe
 62
7
100
AcDbPolyline
 90
2
 70
0
 10
6.581108
 20
22.022549
 30
0.0
 10
6.409581
 20
22.022549
 30
0.0
  0
SPLINE
  5
2b5
100
AcDbEntity
  8
A10-C-v1-MM_adobe
 62
7
100
AcDbSpline
 70
8
 71
3
 72
8
 73
4
 74
0
 40
0
 40
0
 40
0
 40
0
 40
1
 40
1
 40
1
 40
1
 10
5.190050
 20
21.958394
 30
0.0
 10
5.190050
 20
21.961922
 30
0.0
 10
5.189842
 20
21.963658
 30
0.0
 10
5.189439
 20
21.966478
 30
0.0
  0
SPLINE
  5
2b6
100
AcDbEntity
  8
A10-C-v1-MM_adobe
 62
7
100
AcDbSpline
 70
8
 71
3
 72
8
 73
4
 74
0
 40
0
 40
0
 40
0
 40
0
 40
1
 40
1
 40
1
 40
1
 10
5.189494
 20
21.966560
 30
0.0
 10
5.184953
 20
21.998615
 30
0.0
 10
5.154828
 20
22.022546
 30
0.0
 10
5.119147
 20
22.022546
 30
0.0
  0
LWPOLYLINE
  5
2b7
100
AcDbEntity
  8
A10-C-v1-MM_adobe
 62
7
100
AcDbPolyline
 90
2
 70
0
 10
6.267794
 20
21.733907
 30
0.0
 10
5.260933
 20
21.733907
 30
0.0
  0
SPLINE
  5
2b8
100
AcDbEntity
  8
A10-C-v1-MM_adobe
 62
7
100
AcDbSpline
 70
8
 71
3
 72
8
 73
4
 74
0
 40
0
 40
0
 40
0
 40
0
 40
1
 40
1
 40
1
 40
1
 10
4.950819
 20
22.022549
 30
0.0
 10
4.932014
 20
22.022549
 30
0.0
 10
4.913972
 20
22.029215
 30
0.0
 10
4.900681
 20
22.041201
 30
0.0
  0
SPLINE
  5
2b9
100
AcDbEntity
  8
A10-C-v1-MM_adobe
 62
7
100
AcDbSpline
 70
8
 71
3
 72
8
 73
4
 74
0
 40
0
 40
0
 40
0
 40
0
 40
1
 40
1
 40
1
 40
1
 10
4.859008
 20
22.041342
 30
0.0
 10
4.845703
 20
22.053286
 30
0.0
 10
4.838244
 20
22.069869
 30
0.0
 10
4.838244
 20
22.086675
 30
0.0
  0
LWPOLYLINE
  5
2ba
100
AcDbEntity
  8
A10-C-v1-MM_adobe
 62
7
100
AcDbPolyline
 90
2
 70
0
 10
5.190050
 20
21.798028
 30
0.0
 10
5.190050
 20
21.958389
 30
0.0
  0
SPLINE
  5
2bb
100
AcDbEntity
  8
A10-C-v1-MM_adobe
 62
7
100
AcDbSpline
 70
8
 71
3
 72
8
 73
4
 74
0
 40
0
 40
0
 40
0
 40
0
 40
1
 40
1
 40
1
 40
1
 10
4.838243
 20
25.341899
 30
0.0
 10
4.838243
 20
25.358815
 30
0.0
 10
4.845701
 20
25.375371
 30
0.0
 10
4.859049
 20
25.387232
 30
0.0
  0
SPLINE
  5
2bc
100
AcDbEntity
  8
A10-C-v1-MM_adobe
 62
7
100
AcDbSpline
 70
8
 71
3
 72
8
 73
4
 74
0
 40
0
 40
0
 40
0
 40
0
 40
1
 40
1
 40
1
 40
1
 10
4.900675
 20
25.387228
 30
0.0
 10
4.913967
 20
25.399214
 30
0.0
 10
4.932022
 20
25.405922
 30
0.0
 10
4.950814
 20
25.405922
 30
0.0
  0
LWPOLYLINE
  5
2bd
100
AcDbEntity
  8
A10-C-v1-MM_adobe
 62
7
100
AcDbPolyline
 90
2
 70
0
 10
5.119140
 20
22.022549
 30
0.0
 10
4.950821
 20
22.022549
 30
0.0
  0
SPLINE
  5
2be
100
AcDbEntity
  8
A10-C-v1-MM_adobe
 62
7
100
AcDbSpline
 70
8
 71
3
 72
8
 73
4
 74
0
 40
0
 40
0
 40
0
 40
0
 40
1
 40
1
 40
1
 40
1
 10
5.119140
 20
25.406081
 30
0.0
 10
5.128724
 20
25.406081
 30
0.0
 10
5.138238
 20
25.409581
 30
0.0
 10
5.147085
 20
25.411344
 30
0.0
  0
SPLINE
  5
2bf
100
AcDbEntity
  8
A10-C-v1-MM_adobe
 62
7
100
AcDbSpline
 70
8
 71
3
 72
8
 73
4
 74
0
 40
0
 40
0
 40
0
 40
0
 40
1
 40
1
 40
1
 40
1
 10
5.147081
 20
25.411235
 30
0.0
 10
5.173150
 20
25.421457
 30
0.0
 10
5.190053
 20
25.444693
 30
0.0
 10
5.190053
 20
25.470193
 30
0.0
  0
LWPOLYLINE
  5
2c0
100
AcDbEntity
  8
A10-C-v1-MM_adobe
 62
7
100
AcDbPolyline
 90
2
 70
0
 10
4.838243
 20
22.086669
 30
0.0
 10
4.838243
 20
25.341892
 30
0.0
  0
SPLINE
  5
2c1
100
AcDbEntity
  8
A10-C-v1-MM_adobe
 62
7
100
AcDbSpline
 70
8
 71
3
 72
8
 73
4
 74
0
 40
0
 40
0
 40
0
 40
0
 40
1
 40
1
 40
1
 40
1
 10
5.190050
 20
25.673726
 30
0.0
 10
5.190050
 20
25.690643
 30
0.0
 10
5.197481
 20
25.707185
 30
0.0
 10
5.210814
 20
25.719074
 30
0.0
  0
SPLINE
  5
2c2
100
AcDbEntity
  8
A10-C-v1-MM_adobe
 62
7
100
AcDbSpline
 70
8
 71
3
 72
8
 73
4
 74
0
 40
0
 40
0
 40
0
 40
0
 40
1
 40
1
 40
1
 40
1
 10
5.210815
 20
25.719068
 30
0.0
 10
5.224093
 20
25.731054
 30
0.0
 10
5.242107
 20
25.737763
 30
0.0
 10
5.260926
 20
25.737763
 30
0.0
  0
LWPOLYLINE
  5
2c3
100
AcDbEntity
  8
A10-C-v1-MM_adobe
 62
7
100
AcDbPolyline
 90
2
 70
0
 10
4.950819
 20
25.406081
 30
0.0
 10
5.119139
 20
25.406081
 30
0.0
  0
SPLINE
  5
2c4
100
AcDbEntity
  8
A10-C-v1-MM_adobe
 62
7
100
AcDbSpline
 70
8
 71
3
 72
8
 73
4
 74
0
 40
0
 40
0
 40
0
 40
0
 40
1
 40
1
 40
1
 40
1
 10
6.267794
 20
25.737894
 30
0.0
 10
6.286600
 20
25.737894
 30
0.0
 10
6.304642
 20
25.731186
 30
0.0
 10
6.317919
 20
25.719214
 30
0.0
  0
SPLINE
  5
2c5
100
AcDbEntity
  8
A10-C-v1-MM_adobe
 62
7
100
AcDbSpline
 70
8
 71
3
 72
8
 73
4
 74
0
 40
0
 40
0
 40
0
 40
0
 40
1
 40
1
 40
1
 40
1
 10
6.317925
 20
25.719068
 30
0.0
 10
6.331203
 20
25.707110
 30
0.0
 10
6.338717
 20
25.690888
 30
0.0
 10
6.338717
 20
25.673721
 30
0.0
  0
LWPOLYLINE
  5
2c6
100
AcDbEntity
  8
A10-C-v1-MM_adobe
 62
7
100
AcDbPolyline
 90
2
 70
0
 10
5.190050
 20
25.470188
 30
0.0
 10
5.190050
 20
25.673729
 30
0.0
  0
SPLINE
  5
2c7
100
AcDbEntity
  8
A10-C-v1-MM_adobe
 62
7
100
AcDbSpline
 70
8
 71
3
 72
8
 73
4
 74
0
 40
0
 40
0
 40
0
 40
0
 40
1
 40
1
 40
1
 40
1
 10
6.338678
 20
25.470188
 30
0.0
 10
6.338678
 20
25.453271
 30
0.0
 10
6.346150
 20
25.436701
 30
0.0
 10
6.359483
 20
25.424840
 30
0.0
  0
SPLINE
  5
2c8
100
AcDbEntity
  8
A10-C-v1-MM_adobe
 62
7
100
AcDbSpline
 70
8
 71
3
 72
8
 73
4
 74
0
 40
0
 40
0
 40
0
 40
0
 40
1
 40
1
 40
1
 40
1
 10
6.359429
 20
25.424846
 30
0.0
 10
6.372735
 20
25.412860
 30
0.0
 10
6.390790
 20
25.406165
 30
0.0
 10
6.409582
 20
25.406165
 30
0.0
  0
LWPOLYLINE
  5
2c9
100
AcDbEntity
  8
A10-C-v1-MM_adobe
 62
7
100
AcDbPolyline
 90
2
 70
0
 10
5.260932
 20
25.737894
 30
0.0
 10
6.267793
 20
25.737894
 30
0.0
  0
SPLINE
  5
2ca
100
AcDbEntity
  8
A10-C-v1-MM_adobe
 62
7
100
AcDbSpline
 70
8
 71
3
 72
8
 73
4
 74
0
 40
0
 40
0
 40
0
 40
0
 40
1
 40
1
 40
1
 40
1
 10
6.581108
 20
25.406081
 30
0.0
 10
6.599914
 20
25.406081
 30
0.0
 10
6.617928
 20
25.399358
 30
0.0
 10
6.631219
 20
25.387386
 30
0.0
  0
SPLINE
  5
2cb
100
AcDbEntity
  8
A10-C-v1-MM_adobe
 62
7
100
AcDbSpline
 70
8
 71
3
 72
8
 73
4
 74
0
 40
0
 40
0
 40
0
 40
0
 40
1
 40
1
 40
1
 40
1
 10
6.631225
 20
25.387228
 30
0.0
 10
6.644517
 20
25.375283
 30
0.0
 10
6.652031
 20
25.359061
 30
0.0
 10
6.652031
 20
25.341894
 30
0.0
  0
LWPOLYLINE
  5
2cc
100
AcDbEntity
  8
A10-C-v1-MM_adobe
 62
7
100
AcDbPolyline
 90
2
 70
0
 10
6.338678
 20
21.958394
 30
0.0
 10
6.338678
 20
21.798033
 30
0.0
  0
LWPOLYLINE
  5
2cd
100
AcDbEntity
  8
A10-C-v1-MM_adobe
 62
7
100
AcDbPolyline
 90
2
 70
0
 10
6.409586
 20
25.406081
 30
0.0
 10
6.581114
 20
25.406081
 30
0.0
  0
LWPOLYLINE
  5
2ce
100
AcDbEntity
  8
A10-C-v1-MM_adobe
 62
7
100
AcDbPolyline
 90
2
 70
0
 10
6.338678
 20
25.673726
 30
0.0
 10
6.338678
 20
25.470185
 30
0.0
  0
SPLINE
  5
2cf
100
AcDbEntity
  8
A10-C-v1-MM_adobe
 62
7
100
AcDbSpline
 70
8
 71
3
 72
8
 73
4
 74
0
 40
0
 40
0
 40
0
 40
0
 40
1
 40
1
 40
1
 40
1
 10
39.926486
 20
18.679429
 30
0.0
 10
39.926542
 20
18.669096
 30
0.0
 10
39.926597
 20
18.659249
 30
0.0
 10
39.922722
 20
18.651943
 30
0.0
  0
SPLINE
  5
2d0
100
AcDbEntity
  8
A10-C-v1-MM_adobe
 62
7
100
AcDbSpline
 70
8
 71
3
 72
8
 73
4
 74
0
 40
0
 40
0
 40
0
 40
0
 40
1
 40
1
 40
1
 40
1
 10
39.922635
 20
18.651937
 30
0.0
 10
39.918760
 20
18.644646
 30
0.0
 10
39.916815
 20
18.640562
 30
0.0
 10
39.913260
 20
18.640535
 30
0.0
  0
LWPOLYLINE
  5
2d1
100
AcDbEntity
  8
A10-C-v1-MM_adobe
 62
7
100
AcDbPolyline
 90
2
 70
0
 10
6.651992
 20
25.341899
 30
0.0
 10
6.651992
 20
22.086676
 30
0.0
  0
SPLINE
  5
2d2
100
AcDbEntity
  8
A10-C-v1-MM_adobe
 62
7
100
AcDbSpline
 70
8
 71
3
 72
8
 73
4
 74
0
 40
0
 40
0
 40
0
 40
0
 40
1
 40
1
 40
1
 40
1
 10
39.824029
 20
18.640136
 30
0.0
 10
39.823890
 20
18.640136
 30
0.0
 10
39.823751
 20
18.640136
 30
0.0
 10
39.823654
 20
18.640122
 30
0.0
  0
SPLINE
  5
2d3
100
AcDbEntity
  8
A10-C-v1-MM_adobe
 62
7
100
AcDbSpline
 70
8
 71
3
 72
8
 73
4
 74
0
 40
0
 40
0
 40
0
 40
0
 40
1
 40
1
 40
1
 40
1
 10
39.823594
 20
18.640124
 30
0.0
 10
39.816539
 20
18.639263
 30
0.0
 10
39.810706
 20
18.622193
 30
0.0
 10
39.810803
 20
18.601207
 30
0.0
  0
LWPOLYLINE
  5
2d4
100
AcDbEntity
  8
A10-C-v1-MM_adobe
 62
7
100
AcDbPolyline
 90
2
 70
0
 10
39.901178
 20
24.130588
 30
0.0
 10
39.926483
 20
18.679435
 30
0.0
  0
SPLINE
  5
2d5
100
AcDbEntity
  8
A10-C-v1-MM_adobe
 62
7
100
AcDbSpline
 70
8
 71
3
 72
8
 73
4
 74
0
 40
0
 40
0
 40
0
 40
0
 40
1
 40
1
 40
1
 40
1
 10
39.812175
 20
18.290596
 30
0.0
 10
39.812161
 20
18.290193
 30
0.0
 10
39.812175
 20
18.289415
 30
0.0
 10
39.812175
 20
18.289054
 30
0.0
  0
SPLINE
  5
2d6
100
AcDbEntity
  8
A10-C-v1-MM_adobe
 62
7
100
AcDbSpline
 70
8
 71
3
 72
8
 73
4
 74
0
 40
0
 40
0
 40
0
 40
0
 40
1
 40
1
 40
1
 40
1
 10
39.812175
 20
18.289049
 30
0.0
 10
39.812175
 20
18.286340
 30
0.0
 10
39.811897
 20
18.283868
 30
0.0
 10
39.812203
 20
18.281938
 30
0.0
  0
SPLINE
  5
2d7
100
AcDbEntity
  8
A10-C-v1-MM_adobe
 62
7
100
AcDbSpline
 70
8
 71
3
 72
8
 73
4
 74
0
 40
0
 40
0
 40
0
 40
0
 40
1
 40
1
 40
1
 40
1
 10
39.811265
 20
18.281928
 30
0.0
 10
39.811279
 20
18.280011
 30
0.0
 10
39.811279
 20
18.278817
 30
0.0
 10
39.807363
 20
18.278803
 30
0.0
  0
LWPOLYLINE
  5
2d8
100
AcDbEntity
  8
A10-C-v1-MM_adobe
 62
7
100
AcDbPolyline
 90
2
 70
0
 10
39.913140
 20
18.640531
 30
0.0
 10
39.824029
 20
18.640142
 30
0.0
  0
SPLINE
  5
2d9
100
AcDbEntity
  8
A10-C-v1-MM_adobe
 62
7
100
AcDbSpline
 70
8
 71
3
 72
8
 73
4
 74
0
 40
0
 40
0
 40
0
 40
0
 40
1
 40
1
 40
1
 40
1
 10
36.937608
 20
18.265679
 30
0.0
 10
36.937581
 20
18.269443
 30
0.0
 10
36.937567
 20
18.273276
 30
0.0
 10
36.937553
 20
18.277263
 30
0.0
  0
LWPOLYLINE
  5
2da
100
AcDbEntity
  8
A10-C-v1-MM_adobe
 62
7
100
AcDbPolyline
 90
2
 70
0
 10
39.810724
 20
18.601210
 30
0.0
 10
39.812168
 20
18.290599
 30
0.0
  0
SPLINE
  5
2db
100
AcDbEntity
  8
A10-C-v1-MM_adobe
 62
7
100
AcDbSpline
 70
8
 71
3
 72
8
 73
4
 74
0
 40
0
 40
0
 40
0
 40
0
 40
1
 40
1
 40
1
 40
1
 10
36.936714
 20
18.587850
 30
0.0
 10
36.936658
 20
18.598156
 30
0.0
 10
36.936617
 20
18.607989
 30
0.0
 10
36.932658
 20
18.615294
 30
0.0
  0
SPLINE
  5
2dc
100
AcDbEntity
  8
A10-C-v1-MM_adobe
 62
7
100
AcDbSpline
 70
8
 71
3
 72
8
 73
4
 74
0
 40
0
 40
0
 40
0
 40
0
 40
1
 40
1
 40
1
 40
1
 10
36.932617
 20
18.615289
 30
0.0
 10
36.928672
 20
18.622581
 30
0.0
 10
36.926644
 20
18.626664
 30
0.0
 10
36.923144
 20
18.626650
 30
0.0
  0
SPLINE
  5
2dd
100
AcDbEntity
  8
A10-C-v1-MM_adobe
 62
7
100
AcDbSpline
 70
8
 71
3
 72
8
 73
4
 74
0
 40
0
 40
0
 40
0
 40
0
 40
1
 40
1
 40
1
 40
1
 10
36.833889
 20
18.626235
 30
0.0
 10
36.829972
 20
18.626221
 30
0.0
 10
36.826792
 20
18.630304
 30
0.0
 10
36.824389
 20
18.637526
 30
0.0
  0
SPLINE
  5
2de
100
AcDbEntity
  8
A10-C-v1-MM_adobe
 62
7
100
AcDbSpline
 70
8
 71
3
 72
8
 73
4
 74
0
 40
0
 40
0
 40
0
 40
0
 40
1
 40
1
 40
1
 40
1
 10
36.824274
 20
18.637546
 30
0.0
 10
36.820315
 20
18.644824
 30
0.0
 10
36.820260
 20
18.654671
 30
0.0
 10
36.820204
 20
18.665018
 30
0.0
  0
LWPOLYLINE
  5
2df
100
AcDbEntity
  8
A10-C-v1-MM_adobe
 62
7
100
AcDbPolyline
 90
2
 70
0
 10
39.873358
 20
18.279311
 30
0.0
 10
37.002122
 20
18.265978
 30
0.0
  0
SPLINE
  5
2e0
100
AcDbEntity
  8
A10-C-v1-MM_adobe
 62
7
100
AcDbSpline
 70
8
 71
3
 72
8
 73
4
 74
0
 40
0
 40
0
 40
0
 40
0
 40
1
 40
1
 40
1
 40
1
 10
36.794894
 20
24.116171
 30
0.0
 10
36.794853
 20
24.126449
 30
0.0
 10
36.794797
 20
24.136296
 30
0.0
 10
36.798714
 20
24.143601
 30
0.0
  0
SPLINE
  5
2e1
100
AcDbEntity
  8
A10-C-v1-MM_adobe
 62
7
100
AcDbSpline
 70
8
 71
3
 72
8
 73
4
 74
0
 40
0
 40
0
 40
0
 40
0
 40
1
 40
1
 40
1
 40
1
 10
36.798719
 20
24.143554
 30
0.0
 10
36.802622
 20
24.150929
 30
0.0
 10
36.804553
 20
24.155026
 30
0.0
 10
36.808053
 20
24.155054
 30
0.0
  0
LWPOLYLINE
  5
2e2
100
AcDbEntity
  8
A10-C-v1-MM_adobe
 62
7
100
AcDbPolyline
 90
2
 70
0
 10
36.938151
 20
18.277249
 30
0.0
 10
36.936707
 20
18.587846
 30
0.0
  0
LWPOLYLINE
  5
2e3
100
AcDbEntity
  8
A10-C-v1-MM_adobe
 62
7
100
AcDbPolyline
 90
2
 70
0
 10
36.820204
 20
18.665013
 30
0.0
 10
36.794899
 20
24.116165
 30
0.0
  0
SPLINE
  5
2e4
100
AcDbEntity
  8
A10-C-v1-MM_adobe
 62
7
100
AcDbSpline
 70
8
 71
3
 72
8
 73
4
 74
0
 40
0
 40
0
 40
0
 40
0
 40
1
 40
1
 40
1
 40
1
 10
36.897908
 20
24.155476
 30
0.0
 10
36.904992
 20
24.156240
 30
0.0
 10
36.910756
 20
24.173560
 30
0.0
 10
36.910658
 20
24.194365
 30
0.0
  0
LWPOLYLINE
  5
2e5
100
AcDbEntity
  8
A10-C-v1-MM_adobe
 62
7
100
AcDbPolyline
 90
2
 70
0
 10
36.897339
 20
24.155464
 30
0.0
 10
36.897714
 20
24.155478
 30
0.0
  0
LWPOLYLINE
  5
2e6
100
AcDbEntity
  8
A10-C-v1-MM_adobe
 62
7
100
AcDbPolyline
 90
2
 70
0
 10
36.923014
 20
18.626654
 30
0.0
 10
36.833889
 20
18.626237
 30
0.0
  0
SPLINE
  5
2e7
100
AcDbEntity
  8
A10-C-v1-MM_adobe
 62
7
100
AcDbSpline
 70
8
 71
3
 72
8
 73
4
 74
0
 40
0
 40
0
 40
0
 40
0
 40
1
 40
1
 40
1
 40
1
 10
36.909233
 20
24.504964
 30
0.0
 10
36.909219
 20
24.505353
 30
0.0
 10
36.909206
 20
24.505825
 30
0.0
 10
36.909219
 20
24.506547
 30
0.0
  0
SPLINE
  5
2e8
100
AcDbEntity
  8
A10-C-v1-MM_adobe
 62
7
100
AcDbSpline
 70
8
 71
3
 72
8
 73
4
 74
0
 40
0
 40
0
 40
0
 40
0
 40
1
 40
1
 40
1
 40
1
 10
36.909221
 20
24.506483
 30
0.0
 10
36.909193
 20
24.509178
 30
0.0
 10
36.909526
 20
24.511706
 30
0.0
 10
36.909179
 20
24.513581
 30
0.0
  0
SPLINE
  5
2e9
100
AcDbEntity
  8
A10-C-v1-MM_adobe
 62
7
100
AcDbSpline
 70
8
 71
3
 72
8
 73
4
 74
0
 40
0
 40
0
 40
0
 40
0
 40
1
 40
1
 40
1
 40
1
 10
36.910129
 20
24.513576
 30
0.0
 10
36.910115
 20
24.515507
 30
0.0
 10
36.910115
 20
24.516688
 30
0.0
 10
36.914046
 20
24.516715
 30
0.0
  0
SPLINE
  5
2ea
100
AcDbEntity
  8
A10-C-v1-MM_adobe
 62
7
100
AcDbSpline
 70
8
 71
3
 72
8
 73
4
 74
0
 40
0
 40
0
 40
0
 40
0
 40
1
 40
1
 40
1
 40
1
 10
39.783772
 20
24.529893
 30
0.0
 10
39.783411
 20
24.526074
 30
0.0
 10
39.783814
 20
24.522213
 30
0.0
 10
39.783828
 20
24.518240
 30
0.0
  0
LWPOLYLINE
  5
2eb
100
AcDbEntity
  8
A10-C-v1-MM_adobe
 62
7
100
AcDbPolyline
 90
2
 70
0
 10
36.808214
 20
24.155057
 30
0.0
 10
36.897339
 20
24.155460
 30
0.0
  0
SPLINE
  5
2ec
100
AcDbEntity
  8
A10-C-v1-MM_adobe
 62
7
100
AcDbSpline
 70
8
 71
3
 72
8
 73
4
 74
0
 40
0
 40
0
 40
0
 40
0
 40
1
 40
1
 40
1
 40
1
 10
39.784694
 20
24.207710
 30
0.0
 10
39.784722
 20
24.197376
 30
0.0
 10
39.784778
 20
24.187501
 30
0.0
 10
39.788694
 20
24.180238
 30
0.0
  0
SPLINE
  5
2ed
100
AcDbEntity
  8
A10-C-v1-MM_adobe
 62
7
100
AcDbSpline
 70
8
 71
3
 72
8
 73
4
 74
0
 40
0
 40
0
 40
0
 40
0
 40
1
 40
1
 40
1
 40
1
 10
39.788764
 20
24.180243
 30
0.0
 10
39.792708
 20
24.172993
 30
0.0
 10
39.794722
 20
24.168938
 30
0.0
 10
39.798250
 20
24.168951
 30
0.0
  0
LWPOLYLINE
  5
2ee
100
AcDbEntity
  8
A10-C-v1-MM_adobe
 62
7
100
AcDbPolyline
 90
2
 70
0
 10
36.912585
 20
24.516561
 30
0.0
 10
39.783779
 20
24.529894
 30
0.0
  0
SPLINE
  5
2ef
100
AcDbEntity
  8
A10-C-v1-MM_adobe
 62
7
100
AcDbSpline
 70
8
 71
3
 72
8
 73
4
 74
0
 40
0
 40
0
 40
0
 40
0
 40
1
 40
1
 40
1
 40
1
 10
39.887478
 20
24.169353
 30
0.0
 10
39.891436
 20
24.169381
 30
0.0
 10
39.894575
 20
24.165269
 30
0.0
 10
39.896978
 20
24.157950
 30
0.0
  0
SPLINE
  5
2f0
100
AcDbEntity
  8
A10-C-v1-MM_adobe
 62
7
100
AcDbSpline
 70
8
 71
3
 72
8
 73
4
 74
0
 40
0
 40
0
 40
0
 40
0
 40
1
 40
1
 40
1
 40
1
 10
39.897081
 20
24.157946
 30
0.0
 10
39.901081
 20
24.150724
 30
0.0
 10
39.901122
 20
24.140876
 30
0.0
 10
39.901178
 20
24.130585
 30
0.0
  0
LWPOLYLINE
  5
2f1
100
AcDbEntity
  8
A10-C-v1-MM_adobe
 62
7
100
AcDbPolyline
 90
2
 70
0
 10
39.783244
 20
24.518283
 30
0.0
 10
39.784689
 20
24.207714
 30
0.0
  0
LWPOLYLINE
  5
2f2
100
AcDbEntity
  8
A10-C-v1-MM_adobe
 62
7
100
AcDbPolyline
 90
2
 70
0
 10
36.910658
 20
24.194363
 30
0.0
 10
36.909228
 20
24.504932
 30
0.0
  0
LWPOLYLINE
  5
2f3
100
AcDbEntity
  8
A10-C-v1-MM_adobe
 62
7
100
AcDbPolyline
 90
2
 70
0
 10
39.798353
 20
24.168946
 30
0.0
 10
39.887478
 20
24.169349
 30
0.0
  0
LWPOLYLINE
  5
2f4
100
AcDbEntity
  8
A10-C-v1-MM_adobe
 62
7
100
AcDbPolyline
 90
11
 70
0
 10
36.846910
 20
17.866129
 30
0.0
 10
36.870729
 20
12.737935
 30
0.0
 10
36.960549
 20
12.650435
 30
0.0
 10
38.940451
 20
12.659629
 30
0.0
 10
39.014215
 20
12.698435
 30
0.0
 10
39.711951
 20
13.717337
 30
0.0
 10
39.727076
 20
13.766810
 30
0.0
 10
39.707979
 20
17.879421
 30
0.0
 10
39.618187
 20
17.966963
 30
0.0
 10
36.935785
 20
17.954504
 30
0.0
 10
36.846785
 20
17.866129
 30
0.0
  0
SPLINE
  5
2f5
100
AcDbEntity
  8
A10-C-v1-MM_adobe
 62
7
100
AcDbSpline
 70
8
 71
3
 72
8
 73
4
 74
0
 40
0
 40
0
 40
0
 40
0
 40
1
 40
1
 40
1
 40
1
 10
23.586914
 20
23.834147
 30
0.0
 10
23.574358
 20
23.821425
 30
0.0
 10
23.557317
 20
23.814606
 30
0.0
 10
23.539636
 20
23.814619
 30
0.0
  0
SPLINE
  5
2f6
100
AcDbEntity
  8
A10-C-v1-MM_adobe
 62
7
100
AcDbSpline
 70
8
 71
3
 72
8
 73
4
 74
0
 40
0
 40
0
 40
0
 40
0
 40
1
 40
1
 40
1
 40
1
 10
21.589247
 20
23.815443
 30
0.0
 10
21.571539
 20
23.815443
 30
0.0
 10
21.554497
 20
23.822263
 30
0.0
 10
21.541997
 20
23.834957
 30
0.0
  0
LWPOLYLINE
  5
2f7
100
AcDbEntity
  8
A10-C-v1-MM_adobe
 62
7
100
AcDbPolyline
 90
11
 70
0
 10
40.929918
 20
11.527710
 30
0.0
 10
40.906446
 20
4.572321
 30
0.0
 10
40.755099
 20
4.453585
 30
0.0
 10
37.412432
 20
4.464876
 30
0.0
 10
37.287835
 20
4.517501
 30
0.0
 10
36.106557
 20
5.898946
 30
0.0
 10
36.080863
 20
5.966085
 30
0.0
 10
36.099696
 20
11.544001
 30
0.0
 10
36.251015
 20
11.662765
 30
0.0
 10
40.779543
 20
11.647474
 30
0.0
 10
40.930140
 20
11.527710
 30
0.0
  0
SPLINE
  5
2f8
100
AcDbEntity
  8
A10-C-v1-MM_adobe
 62
7
100
AcDbSpline
 70
8
 71
3
 72
8
 73
4
 74
0
 40
0
 40
0
 40
0
 40
0
 40
1
 40
1
 40
1
 40
1
 10
21.212932
 20
24.163629
 30
0.0
 10
21.200335
 20
24.176338
 30
0.0
 10
21.193335
 20
24.192907
 30
0.0
 10
21.193335
 20
24.211004
 30
0.0
  0
SPLINE
  5
2f9
100
AcDbEntity
  8
A10-C-v1-MM_adobe
 62
7
100
AcDbSpline
 70
8
 71
3
 72
8
 73
4
 74
0
 40
0
 40
0
 40
0
 40
0
 40
1
 40
1
 40
1
 40
1
 10
21.194200
 20
26.156819
 30
0.0
 10
21.194200
 20
26.174361
 30
0.0
 10
21.201214
 20
26.191458
 30
0.0
 10
21.213825
 20
26.204153
 30
0.0
  0
LWPOLYLINE
  5
2fa
100
AcDbEntity
  8
A10-C-v1-MM_adobe
 62
7
100
AcDbPolyline
 90
2
 70
0
 10
23.539632
 20
23.814589
 30
0.0
 10
21.589243
 20
23.815450
 30
0.0
  0
SPLINE
  5
2fb
100
AcDbEntity
  8
A10-C-v1-MM_adobe
 62
7
100
AcDbSpline
 70
8
 71
3
 72
8
 73
4
 74
0
 40
0
 40
0
 40
0
 40
0
 40
1
 40
1
 40
1
 40
1
 10
21.543186
 20
26.532226
 30
0.0
 10
21.555686
 20
26.544963
 30
0.0
 10
21.572742
 20
26.551754
 30
0.0
 10
21.590436
 20
26.551754
 30
0.0
  0
LWPOLYLINE
  5
2fc
100
AcDbEntity
  8
A10-C-v1-MM_adobe
 62
7
100
AcDbPolyline
 90
2
 70
0
 10
21.541992
 20
23.835042
 30
0.0
 10
21.212936
 20
24.163625
 30
0.0
  0
SPLINE
  5
2fd
100
AcDbEntity
  8
A10-C-v1-MM_adobe
 62
7
100
AcDbSpline
 70
8
 71
3
 72
8
 73
4
 74
0
 40
0
 40
0
 40
0
 40
0
 40
1
 40
1
 40
1
 40
1
 10
23.540826
 20
26.550890
 30
0.0
 10
23.558563
 20
26.550890
 30
0.0
 10
23.575604
 20
26.544071
 30
0.0
 10
23.588104
 20
26.531335
 30
0.0
  0
LWPOLYLINE
  5
2fe
100
AcDbEntity
  8
A10-C-v1-MM_adobe
 62
7
100
AcDbPolyline
 90
2
 70
0
 10
21.193332
 20
24.210789
 30
0.0
 10
21.194193
 20
26.156817
 30
0.0
  0
SPLINE
  5
2ff
100
AcDbEntity
  8
A10-C-v1-MM_adobe
 62
7
100
AcDbSpline
 70
8
 71
3
 72
8
 73
4
 74
0
 40
0
 40
0
 40
0
 40
0
 40
1
 40
1
 40
1
 40
1
 10
23.917196
 20
26.202772
 30
0.0
 10
23.929724
 20
26.190092
 30
0.0
 10
23.936738
 20
26.173439
 30
0.0
 10
23.936738
 20
26.155397
 30
0.0
  0
LWPOLYLINE
  5
300
100
AcDbEntity
  8
A10-C-v1-MM_adobe
 62
7
100
AcDbPolyline
 90
2
 70
0
 10
21.590440
 20
26.551758
 30
0.0
 10
23.540829
 20
26.550897
 30
0.0
  0
SPLINE
  5
301
100
AcDbEntity
  8
A10-C-v1-MM_adobe
 62
7
100
AcDbSpline
 70
8
 71
3
 72
8
 73
4
 74
0
 40
0
 40
0
 40
0
 40
0
 40
1
 40
1
 40
1
 40
1
 10
23.935872
 20
24.209581
 30
0.0
 10
23.935872
 20
24.192011
 30
0.0
 10
23.928831
 20
24.174942
 30
0.0
 10
23.916289
 20
24.162247
 30
0.0
  0
LWPOLYLINE
  5
302
100
AcDbEntity
  8
A10-C-v1-MM_adobe
 62
7
100
AcDbPolyline
 90
2
 70
0
 10
23.588108
 20
26.531332
 30
0.0
 10
23.917192
 20
26.202776
 30
0.0
  0
LWPOLYLINE
  5
303
100
AcDbEntity
  8
A10-C-v1-MM_adobe
 62
7
100
AcDbPolyline
 90
2
 70
0
 10
23.938531
 20
26.153213
 30
0.0
 10
23.937669
 20
24.209601
 30
0.0
  0
LWPOLYLINE
  5
304
100
AcDbEntity
  8
A10-C-v1-MM_adobe
 62
7
100
AcDbPolyline
 90
2
 70
0
 10
21.213826
 20
26.203979
 30
0.0
 10
21.543188
 20
26.532229
 30
0.0
  0
SPLINE
  5
305
100
AcDbEntity
  8
A10-C-v1-MM_adobe
 62
7
100
AcDbSpline
 70
8
 71
3
 72
8
 73
4
 74
0
 40
0
 40
0
 40
0
 40
0
 40
1
 40
1
 40
1
 40
1
 10
22.624172
 20
23.881225
 30
0.0
 10
23.089019
 20
23.881003
 30
0.0
 10
23.463089
 20
24.129058
 30
0.0
 10
23.695686
 20
24.531878
 30
0.0
  0
SPLINE
  5
306
100
AcDbEntity
  8
A10-C-v1-MM_adobe
 62
7
100
AcDbSpline
 70
8
 71
3
 72
8
 73
4
 74
0
 40
0
 40
0
 40
0
 40
0
 40
1
 40
1
 40
1
 40
1
 10
23.695692
 20
24.531874
 30
0.0
 10
23.928247
 20
24.934651
 30
0.0
 10
23.928469
 20
25.431026
 30
0.0
 10
23.696261
 20
25.834040
 30
0.0
  0
SPLINE
  5
307
100
AcDbEntity
  8
A10-C-v1-MM_adobe
 62
7
100
AcDbSpline
 70
8
 71
3
 72
8
 73
4
 74
0
 40
0
 40
0
 40
0
 40
0
 40
1
 40
1
 40
1
 40
1
 10
23.696263
 20
25.834039
 30
0.0
 10
23.464026
 20
26.237039
 30
0.0
 10
23.034596
 20
26.485442
 30
0.0
 10
22.569763
 20
26.485636
 30
0.0
  0
SPLINE
  5
308
100
AcDbEntity
  8
A10-C-v1-MM_adobe
 62
7
100
AcDbSpline
 70
8
 71
3
 72
8
 73
4
 74
0
 40
0
 40
0
 40
0
 40
0
 40
1
 40
1
 40
1
 40
1
 10
22.569757
 20
26.485636
 30
0.0
 10
22.104924
 20
26.485831
 30
0.0
 10
21.675313
 20
26.237817
 30
0.0
 10
21.442715
 20
25.835025
 30
0.0
  0
SPLINE
  5
309
100
AcDbEntity
  8
A10-C-v1-MM_adobe
 62
7
100
AcDbSpline
 70
8
 71
3
 72
8
 73
4
 74
0
 40
0
 40
0
 40
0
 40
0
 40
1
 40
1
 40
1
 40
1
 10
21.442708
 20
25.835029
 30
0.0
 10
21.210139
 20
25.432224
 30
0.0
 10
21.209917
 20
24.935863
 30
0.0
 10
21.442139
 20
24.532863
 30
0.0
  0
SPLINE
  5
30a
100
AcDbEntity
  8
A10-C-v1-MM_adobe
 62
7
100
AcDbSpline
 70
8
 71
3
 72
8
 73
4
 74
0
 40
0
 40
0
 40
0
 40
0
 40
1
 40
1
 40
1
 40
1
 10
21.442139
 20
24.532864
 30
0.0
 10
21.674389
 20
24.129836
 30
0.0
 10
22.159347
 20
23.881433
 30
0.0
 10
22.624167
 20
23.881225
 30
0.0
  0
SPLINE
  5
30b
100
AcDbEntity
  8
A10-C-v1-MM_adobe
 62
7
100
AcDbSpline
 70
8
 71
3
 72
8
 73
4
 74
0
 40
0
 40
0
 40
0
 40
0
 40
1
 40
1
 40
1
 40
1
 10
20.698039
 20
23.863186
 30
0.0
 10
20.685483
 20
23.850478
 30
0.0
 10
20.668428
 20
23.843658
 30
0.0
 10
20.650761
 20
23.843658
 30
0.0
  0
SPLINE
  5
30c
100
AcDbEntity
  8
A10-C-v1-MM_adobe
 62
7
100
AcDbSpline
 70
8
 71
3
 72
8
 73
4
 74
0
 40
0
 40
0
 40
0
 40
0
 40
1
 40
1
 40
1
 40
1
 10
18.700358
 20
23.844496
 30
0.0
 10
18.682664
 20
23.844496
 30
0.0
 10
18.665608
 20
23.851301
 30
0.0
 10
18.653122
 20
23.864010
 30
0.0
  0
LWPOLYLINE
  5
30d
100
AcDbEntity
  8
A10-C-v1-MM_adobe
 62
7
100
AcDbPolyline
 90
2
 70
0
 10
23.916300
 20
24.162435
 30
0.0
 10
23.586911
 20
23.834143
 30
0.0
  0
SPLINE
  5
30e
100
AcDbEntity
  8
A10-C-v1-MM_adobe
 62
7
100
AcDbSpline
 70
8
 71
3
 72
8
 73
4
 74
0
 40
0
 40
0
 40
0
 40
0
 40
1
 40
1
 40
1
 40
1
 10
18.324056
 20
24.192668
 30
0.0
 10
18.311472
 20
24.205390
 30
0.0
 10
18.304444
 20
24.221960
 30
0.0
 10
18.304472
 20
24.240057
 30
0.0
  0
SPLINE
  5
30f
100
AcDbEntity
  8
A10-C-v1-MM_adobe
 62
7
100
AcDbSpline
 70
8
 71
3
 72
8
 73
4
 74
0
 40
0
 40
0
 40
0
 40
0
 40
1
 40
1
 40
1
 40
1
 10
18.305311
 20
26.185872
 30
0.0
 10
18.305325
 20
26.203400
 30
0.0
 10
18.312367
 20
26.220511
 30
0.0
 10
18.324950
 20
26.233206
 30
0.0
  0
LWPOLYLINE
  5
310
100
AcDbEntity
  8
A10-C-v1-MM_adobe
 62
7
100
AcDbPolyline
 90
2
 70
0
 10
20.650757
 20
23.843628
 30
0.0
 10
18.700354
 20
23.844489
 30
0.0
  0
SPLINE
  5
311
100
AcDbEntity
  8
A10-C-v1-MM_adobe
 62
7
100
AcDbSpline
 70
8
 71
3
 72
8
 73
4
 74
0
 40
0
 40
0
 40
0
 40
0
 40
1
 40
1
 40
1
 40
1
 10
18.654297
 20
26.561279
 30
0.0
 10
18.666811
 20
26.574001
 30
0.0
 10
18.683853
 20
26.580821
 30
0.0
 10
18.701561
 20
26.580793
 30
0.0
  0
LWPOLYLINE
  5
312
100
AcDbEntity
  8
A10-C-v1-MM_adobe
 62
7
100
AcDbPolyline
 90
2
 70
0
 10
18.653131
 20
23.864082
 30
0.0
 10
18.324061
 20
24.192665
 30
0.0
  0
SPLINE
  5
313
100
AcDbEntity
  8
A10-C-v1-MM_adobe
 62
7
100
AcDbSpline
 70
8
 71
3
 72
8
 73
4
 74
0
 40
0
 40
0
 40
0
 40
0
 40
1
 40
1
 40
1
 40
1
 10
20.651964
 20
26.579943
 30
0.0
 10
20.669686
 20
26.579943
 30
0.0
 10
20.686728
 20
26.573124
 30
0.0
 10
20.699228
 20
26.560388
 30
0.0
  0
LWPOLYLINE
  5
314
100
AcDbEntity
  8
A10-C-v1-MM_adobe
 62
7
100
AcDbPolyline
 90
2
 70
0
 10
18.304457
 20
24.239842
 30
0.0
 10
18.305318
 20
26.185869
 30
0.0
  0
SPLINE
  5
315
100
AcDbEntity
  8
A10-C-v1-MM_adobe
 62
7
100
AcDbSpline
 70
8
 71
3
 72
8
 73
4
 74
0
 40
0
 40
0
 40
0
 40
0
 40
1
 40
1
 40
1
 40
1
 10
21.028321
 20
26.231825
 30
0.0
 10
21.040849
 20
26.219131
 30
0.0
 10
21.047876
 20
26.202506
 30
0.0
 10
21.047863
 20
26.184450
 30
0.0
  0
LWPOLYLINE
  5
316
100
AcDbEntity
  8
A10-C-v1-MM_adobe
 62
7
100
AcDbPolyline
 90
2
 70
0
 10
18.701565
 20
26.580797
 30
0.0
 10
20.651968
 20
26.579936
 30
0.0
  0
SPLINE
  5
317
100
AcDbEntity
  8
A10-C-v1-MM_adobe
 62
7
100
AcDbSpline
 70
8
 71
3
 72
8
 73
4
 74
0
 40
0
 40
0
 40
0
 40
0
 40
1
 40
1
 40
1
 40
1
 10
21.046997
 20
24.238633
 30
0.0
 10
21.046983
 20
24.221064
 30
0.0
 10
21.039956
 20
24.203981
 30
0.0
 10
21.027414
 20
24.191286
 30
0.0
  0
LWPOLYLINE
  5
318
100
AcDbEntity
  8
A10-C-v1-MM_adobe
 62
7
100
AcDbPolyline
 90
2
 70
0
 10
20.699232
 20
26.560385
 30
0.0
 10
21.028315
 20
26.231829
 30
0.0
  0
LWPOLYLINE
  5
319
100
AcDbEntity
  8
A10-C-v1-MM_adobe
 62
7
100
AcDbPolyline
 90
2
 70
0
 10
21.049656
 20
26.182251
 30
0.0
 10
21.048794
 20
24.238640
 30
0.0
  0
LWPOLYLINE
  5
31a
100
AcDbEntity
  8
A10-C-v1-MM_adobe
 62
7
100
AcDbPolyline
 90
2
 70
0
 10
18.324951
 20
26.233032
 30
0.0
 10
18.654299
 20
26.561282
 30
0.0
  0
SPLINE
  5
31b
100
AcDbEntity
  8
A10-C-v1-MM_adobe
 62
7
100
AcDbSpline
 70
8
 71
3
 72
8
 73
4
 74
0
 40
0
 40
0
 40
0
 40
0
 40
1
 40
1
 40
1
 40
1
 10
19.735297
 20
23.910278
 30
0.0
 10
20.200144
 20
23.910069
 30
0.0
 10
20.574214
 20
24.158125
 30
0.0
 10
20.806811
 20
24.560931
 30
0.0
  0
SPLINE
  5
31c
100
AcDbEntity
  8
A10-C-v1-MM_adobe
 62
7
100
AcDbSpline
 70
8
 71
3
 72
8
 73
4
 74
0
 40
0
 40
0
 40
0
 40
0
 40
1
 40
1
 40
1
 40
1
 10
20.806817
 20
24.560926
 30
0.0
 10
21.039386
 20
24.963704
 30
0.0
 10
21.039608
 20
25.460079
 30
0.0
 10
20.807386
 20
25.863079
 30
0.0
  0
SPLINE
  5
31d
100
AcDbEntity
  8
A10-C-v1-MM_adobe
 62
7
100
AcDbSpline
 70
8
 71
3
 72
8
 73
4
 74
0
 40
0
 40
0
 40
0
 40
0
 40
1
 40
1
 40
1
 40
1
 10
20.807386
 20
25.863078
 30
0.0
 10
20.575136
 20
26.266078
 30
0.0
 10
20.145719
 20
26.514467
 30
0.0
 10
19.680886
 20
26.514675
 30
0.0
  0
SPLINE
  5
31e
100
AcDbEntity
  8
A10-C-v1-MM_adobe
 62
7
100
AcDbSpline
 70
8
 71
3
 72
8
 73
4
 74
0
 40
0
 40
0
 40
0
 40
0
 40
1
 40
1
 40
1
 40
1
 10
19.680881
 20
26.514675
 30
0.0
 10
19.216047
 20
26.514883
 30
0.0
 10
18.786436
 20
26.266842
 30
0.0
 10
18.553853
 20
25.864078
 30
0.0
  0
SPLINE
  5
31f
100
AcDbEntity
  8
A10-C-v1-MM_adobe
 62
7
100
AcDbSpline
 70
8
 71
3
 72
8
 73
4
 74
0
 40
0
 40
0
 40
0
 40
0
 40
1
 40
1
 40
1
 40
1
 10
18.553847
 20
25.864082
 30
0.0
 10
18.321264
 20
25.461263
 30
0.0
 10
18.321056
 20
24.964915
 30
0.0
 10
18.553278
 20
24.561915
 30
0.0
  0
SPLINE
  5
320
100
AcDbEntity
  8
A10-C-v1-MM_adobe
 62
7
100
AcDbSpline
 70
8
 71
3
 72
8
 73
4
 74
0
 40
0
 40
0
 40
0
 40
0
 40
1
 40
1
 40
1
 40
1
 10
18.553276
 20
24.561917
 30
0.0
 10
18.785512
 20
24.158889
 30
0.0
 10
19.270457
 20
23.910472
 30
0.0
 10
19.735290
 20
23.910278
 30
0.0
  0
SPLINE
  5
321
100
AcDbEntity
  8
A10-C-v1-MM_adobe
 62
7
100
AcDbSpline
 70
8
 71
3
 72
8
 73
4
 74
0
 40
0
 40
0
 40
0
 40
0
 40
1
 40
1
 40
1
 40
1
 10
28.982585
 20
23.755411
 30
0.0
 10
29.447446
 20
23.755217
 30
0.0
 10
29.821515
 20
24.003258
 30
0.0
 10
30.054112
 20
24.406078
 30
0.0
  0
SPLINE
  5
322
100
AcDbEntity
  8
A10-C-v1-MM_adobe
 62
7
100
AcDbSpline
 70
8
 71
3
 72
8
 73
4
 74
0
 40
0
 40
0
 40
0
 40
0
 40
1
 40
1
 40
1
 40
1
 10
30.054118
 20
24.406074
 30
0.0
 10
30.286687
 20
24.808851
 30
0.0
 10
30.286910
 20
25.305213
 30
0.0
 10
30.054688
 20
25.708240
 30
0.0
  0
SPLINE
  5
323
100
AcDbEntity
  8
A10-C-v1-MM_adobe
 62
7
100
AcDbSpline
 70
8
 71
3
 72
8
 73
4
 74
0
 40
0
 40
0
 40
0
 40
0
 40
1
 40
1
 40
1
 40
1
 10
30.054688
 20
25.708239
 30
0.0
 10
29.822451
 20
26.111211
 30
0.0
 10
29.393021
 20
26.359614
 30
0.0
 10
28.928188
 20
26.359808
 30
0.0
  0
SPLINE
  5
324
100
AcDbEntity
  8
A10-C-v1-MM_adobe
 62
7
100
AcDbSpline
 70
8
 71
3
 72
8
 73
4
 74
0
 40
0
 40
0
 40
0
 40
0
 40
1
 40
1
 40
1
 40
1
 10
28.928182
 20
26.359810
 30
0.0
 10
28.463349
 20
26.360032
 30
0.0
 10
28.033738
 20
26.111990
 30
0.0
 10
27.801140
 20
25.709213
 30
0.0
  0
SPLINE
  5
325
100
AcDbEntity
  8
A10-C-v1-MM_adobe
 62
7
100
AcDbSpline
 70
8
 71
3
 72
8
 73
4
 74
0
 40
0
 40
0
 40
0
 40
0
 40
1
 40
1
 40
1
 40
1
 10
27.801133
 20
25.709215
 30
0.0
 10
27.568578
 20
25.306424
 30
0.0
 10
27.568356
 20
24.810049
 30
0.0
 10
27.800564
 20
24.407063
 30
0.0
  0
SPLINE
  5
326
100
AcDbEntity
  8
A10-C-v1-MM_adobe
 62
7
100
AcDbSpline
 70
8
 71
3
 72
8
 73
4
 74
0
 40
0
 40
0
 40
0
 40
0
 40
1
 40
1
 40
1
 40
1
 10
27.800564
 20
24.407064
 30
0.0
 10
28.032800
 20
24.004036
 30
0.0
 10
28.517772
 20
23.755619
 30
0.0
 10
28.982578
 20
23.755411
 30
0.0
  0
SPLINE
  5
327
100
AcDbEntity
  8
A10-C-v1-MM_adobe
 62
7
100
AcDbSpline
 70
8
 71
3
 72
8
 73
4
 74
0
 40
0
 40
0
 40
0
 40
0
 40
1
 40
1
 40
1
 40
1
 10
27.028686
 20
23.737386
 30
0.0
 10
27.016117
 20
23.724678
 30
0.0
 10
26.999075
 20
23.717858
 30
0.0
 10
26.981394
 20
23.717858
 30
0.0
  0
SPLINE
  5
328
100
AcDbEntity
  8
A10-C-v1-MM_adobe
 62
7
100
AcDbSpline
 70
8
 71
3
 72
8
 73
4
 74
0
 40
0
 40
0
 40
0
 40
0
 40
1
 40
1
 40
1
 40
1
 10
25.031006
 20
23.718696
 30
0.0
 10
25.013311
 20
23.718696
 30
0.0
 10
24.996256
 20
23.725501
 30
0.0
 10
24.983769
 20
23.738224
 30
0.0
  0
LWPOLYLINE
  5
329
100
AcDbEntity
  8
A10-C-v1-MM_adobe
 62
7
100
AcDbPolyline
 90
2
 70
0
 10
21.027425
 20
24.191488
 30
0.0
 10
20.698036
 20
23.863182
 30
0.0
  0
SPLINE
  5
32a
100
AcDbEntity
  8
A10-C-v1-MM_adobe
 62
7
100
AcDbSpline
 70
8
 71
3
 72
8
 73
4
 74
0
 40
0
 40
0
 40
0
 40
0
 40
1
 40
1
 40
1
 40
1
 10
24.654704
 20
24.066868
 30
0.0
 10
24.642121
 20
24.079590
 30
0.0
 10
24.635107
 20
24.096146
 30
0.0
 10
24.635121
 20
24.114257
 30
0.0
  0
SPLINE
  5
32b
100
AcDbEntity
  8
A10-C-v1-MM_adobe
 62
7
100
AcDbSpline
 70
8
 71
3
 72
8
 73
4
 74
0
 40
0
 40
0
 40
0
 40
0
 40
1
 40
1
 40
1
 40
1
 10
24.635960
 20
26.060072
 30
0.0
 10
24.635960
 20
26.077614
 30
0.0
 10
24.643015
 20
26.094711
 30
0.0
 10
24.655599
 20
26.107406
 30
0.0
  0
LWPOLYLINE
  5
32c
100
AcDbEntity
  8
A10-C-v1-MM_adobe
 62
7
100
AcDbPolyline
 90
2
 70
0
 10
26.981392
 20
23.717828
 30
0.0
 10
25.031003
 20
23.718689
 30
0.0
  0
SPLINE
  5
32d
100
AcDbEntity
  8
A10-C-v1-MM_adobe
 62
7
100
AcDbSpline
 70
8
 71
3
 72
8
 73
4
 74
0
 40
0
 40
0
 40
0
 40
0
 40
1
 40
1
 40
1
 40
1
 10
24.984958
 20
26.435479
 30
0.0
 10
24.997458
 20
26.448201
 30
0.0
 10
25.014514
 20
26.455007
 30
0.0
 10
25.032222
 20
26.454993
 30
0.0
  0
LWPOLYLINE
  5
32e
100
AcDbEntity
  8
A10-C-v1-MM_adobe
 62
7
100
AcDbPolyline
 90
2
 70
0
 10
24.983765
 20
23.738294
 30
0.0
 10
24.654710
 20
24.066864
 30
0.0
  0
SPLINE
  5
32f
100
AcDbEntity
  8
A10-C-v1-MM_adobe
 62
7
100
AcDbSpline
 70
8
 71
3
 72
8
 73
4
 74
0
 40
0
 40
0
 40
0
 40
0
 40
1
 40
1
 40
1
 40
1
 10
26.982599
 20
26.454142
 30
0.0
 10
27.000349
 20
26.454142
 30
0.0
 10
27.017390
 20
26.447322
 30
0.0
 10
27.029863
 20
26.434586
 30
0.0
  0
LWPOLYLINE
  5
330
100
AcDbEntity
  8
A10-C-v1-MM_adobe
 62
7
100
AcDbPolyline
 90
2
 70
0
 10
24.635118
 20
24.114040
 30
0.0
 10
24.635965
 20
26.060068
 30
0.0
  0
SPLINE
  5
331
100
AcDbEntity
  8
A10-C-v1-MM_adobe
 62
7
100
AcDbSpline
 70
8
 71
3
 72
8
 73
4
 74
0
 40
0
 40
0
 40
0
 40
0
 40
1
 40
1
 40
1
 40
1
 10
27.358968
 20
26.106039
 30
0.0
 10
27.371496
 20
26.093331
 30
0.0
 10
27.378496
 20
26.076692
 30
0.0
 10
27.378496
 20
26.058650
 30
0.0
  0
LWPOLYLINE
  5
332
100
AcDbEntity
  8
A10-C-v1-MM_adobe
 62
7
100
AcDbPolyline
 90
2
 70
0
 10
25.032226
 20
26.454997
 30
0.0
 10
26.982601
 20
26.454136
 30
0.0
  0
SPLINE
  5
333
100
AcDbEntity
  8
A10-C-v1-MM_adobe
 62
7
100
AcDbSpline
 70
8
 71
3
 72
8
 73
4
 74
0
 40
0
 40
0
 40
0
 40
0
 40
1
 40
1
 40
1
 40
1
 10
27.377644
 20
24.112847
 30
0.0
 10
27.377644
 20
24.095264
 30
0.0
 10
27.370603
 20
24.078194
 30
0.0
 10
27.358047
 20
24.065486
 30
0.0
  0
LWPOLYLINE
  5
334
100
AcDbEntity
  8
A10-C-v1-MM_adobe
 62
7
100
AcDbPolyline
 90
2
 70
0
 10
27.029867
 20
26.434583
 30
0.0
 10
27.358964
 20
26.106042
 30
0.0
  0
LWPOLYLINE
  5
335
100
AcDbEntity
  8
A10-C-v1-MM_adobe
 62
7
100
AcDbPolyline
 90
2
 70
0
 10
27.380290
 20
26.056464
 30
0.0
 10
27.379429
 20
24.112839
 30
0.0
  0
LWPOLYLINE
  5
336
100
AcDbEntity
  8
A10-C-v1-MM_adobe
 62
7
100
AcDbPolyline
 90
2
 70
0
 10
24.655599
 20
26.107232
 30
0.0
 10
24.984960
 20
26.435482
 30
0.0
  0
SPLINE
  5
337
100
AcDbEntity
  8
A10-C-v1-MM_adobe
 62
7
100
AcDbSpline
 70
8
 71
3
 72
8
 73
4
 74
0
 40
0
 40
0
 40
0
 40
0
 40
1
 40
1
 40
1
 40
1
 10
26.065944
 20
23.784478
 30
0.0
 10
26.530792
 20
23.784283
 30
0.0
 10
26.904861
 20
24.032325
 30
0.0
 10
27.137444
 20
24.435131
 30
0.0
  0
SPLINE
  5
338
100
AcDbEntity
  8
A10-C-v1-MM_adobe
 62
7
100
AcDbSpline
 70
8
 71
3
 72
8
 73
4
 74
0
 40
0
 40
0
 40
0
 40
0
 40
1
 40
1
 40
1
 40
1
 10
27.137451
 20
24.435126
 30
0.0
 10
27.370035
 20
24.837918
 30
0.0
 10
27.370257
 20
25.334279
 30
0.0
 10
27.138035
 20
25.737293
 30
0.0
  0
SPLINE
  5
339
100
AcDbEntity
  8
A10-C-v1-MM_adobe
 62
7
100
AcDbSpline
 70
8
 71
3
 72
8
 73
4
 74
0
 40
0
 40
0
 40
0
 40
0
 40
1
 40
1
 40
1
 40
1
 10
27.138035
 20
25.737292
 30
0.0
 10
26.905785
 20
26.140278
 30
0.0
 10
26.476368
 20
26.388681
 30
0.0
 10
26.011535
 20
26.388875
 30
0.0
  0
SPLINE
  5
33a
100
AcDbEntity
  8
A10-C-v1-MM_adobe
 62
7
100
AcDbSpline
 70
8
 71
3
 72
8
 73
4
 74
0
 40
0
 40
0
 40
0
 40
0
 40
1
 40
1
 40
1
 40
1
 10
26.011529
 20
26.388875
 30
0.0
 10
25.546696
 20
26.389097
 30
0.0
 10
25.117085
 20
26.141056
 30
0.0
 10
24.884501
 20
25.738278
 30
0.0
  0
SPLINE
  5
33b
100
AcDbEntity
  8
A10-C-v1-MM_adobe
 62
7
100
AcDbSpline
 70
8
 71
3
 72
8
 73
4
 74
0
 40
0
 40
0
 40
0
 40
0
 40
1
 40
1
 40
1
 40
1
 10
24.884494
 20
25.738282
 30
0.0
 10
24.651925
 20
25.335463
 30
0.0
 10
24.651703
 20
24.839115
 30
0.0
 10
24.883925
 20
24.436101
 30
0.0
  0
SPLINE
  5
33c
100
AcDbEntity
  8
A10-C-v1-MM_adobe
 62
7
100
AcDbSpline
 70
8
 71
3
 72
8
 73
4
 74
0
 40
0
 40
0
 40
0
 40
0
 40
1
 40
1
 40
1
 40
1
 10
24.883925
 20
24.436103
 30
0.0
 10
25.116161
 20
24.033103
 30
0.0
 10
25.601106
 20
23.784672
 30
0.0
 10
26.065939
 20
23.784478
 30
0.0
  0
SPLINE
  5
33d
100
AcDbEntity
  8
A10-C-v1-MM_adobe
 62
7
100
AcDbSpline
 70
8
 71
3
 72
8
 73
4
 74
0
 40
0
 40
0
 40
0
 40
0
 40
1
 40
1
 40
1
 40
1
 10
28.991917
 20
23.611369
 30
0.0
 10
29.507611
 20
23.611147
 30
0.0
 10
29.922583
 20
23.887439
 30
0.0
 10
30.180583
 20
24.336175
 30
0.0
  0
SPLINE
  5
33e
100
AcDbEntity
  8
A10-C-v1-MM_adobe
 62
7
100
AcDbSpline
 70
8
 71
3
 72
8
 73
4
 74
0
 40
0
 40
0
 40
0
 40
0
 40
1
 40
1
 40
1
 40
1
 10
30.180583
 20
24.336168
 30
0.0
 10
30.438597
 20
24.784876
 30
0.0
 10
30.438847
 20
25.337793
 30
0.0
 10
30.181236
 20
25.786738
 30
0.0
  0
SPLINE
  5
33f
100
AcDbEntity
  8
A10-C-v1-MM_adobe
 62
7
100
AcDbSpline
 70
8
 71
3
 72
8
 73
4
 74
0
 40
0
 40
0
 40
0
 40
0
 40
1
 40
1
 40
1
 40
1
 10
30.181233
 20
25.786743
 30
0.0
 10
29.923608
 20
26.235646
 30
0.0
 10
29.447261
 20
26.512354
 30
0.0
 10
28.931594
 20
26.512604
 30
0.0
  0
SPLINE
  5
340
100
AcDbEntity
  8
A10-C-v1-MM_adobe
 62
7
100
AcDbSpline
 70
8
 71
3
 72
8
 73
4
 74
0
 40
0
 40
0
 40
0
 40
0
 40
1
 40
1
 40
1
 40
1
 10
28.931600
 20
26.512600
 30
0.0
 10
28.415947
 20
26.512836
 30
0.0
 10
27.939364
 20
26.236544
 30
0.0
 10
27.681336
 20
25.787836
 30
0.0
  0
SPLINE
  5
341
100
AcDbEntity
  8
A10-C-v1-MM_adobe
 62
7
100
AcDbSpline
 70
8
 71
3
 72
8
 73
4
 74
0
 40
0
 40
0
 40
0
 40
0
 40
1
 40
1
 40
1
 40
1
 10
27.695231
 20
25.787842
 30
0.0
 10
27.437231
 20
25.339119
 30
0.0
 10
27.436981
 20
24.786175
 30
0.0
 10
27.694578
 20
24.337272
 30
0.0
  0
SPLINE
  5
342
100
AcDbEntity
  8
A10-C-v1-MM_adobe
 62
7
100
AcDbSpline
 70
8
 71
3
 72
8
 73
4
 74
0
 40
0
 40
0
 40
0
 40
0
 40
1
 40
1
 40
1
 40
1
 10
27.680692
 20
24.337281
 30
0.0
 10
27.938344
 20
23.888336
 30
0.0
 10
28.476303
 20
23.611586
 30
0.0
 10
28.991914
 20
23.611364
 30
0.0
  0
SPLINE
  5
343
100
AcDbEntity
  8
A10-C-v1-MM_adobe
 62
7
100
AcDbSpline
 70
8
 71
3
 72
8
 73
4
 74
0
 40
0
 40
0
 40
0
 40
0
 40
1
 40
1
 40
1
 40
1
 10
21.710721
 20
21.690599
 30
0.0
 10
21.723443
 20
21.678057
 30
0.0
 10
21.730276
 20
21.661015
 30
0.0
 10
21.730276
 20
21.643321
 30
0.0
  0
SPLINE
  5
344
100
AcDbEntity
  8
A10-C-v1-MM_adobe
 62
7
100
AcDbSpline
 70
8
 71
3
 72
8
 73
4
 74
0
 40
0
 40
0
 40
0
 40
0
 40
1
 40
1
 40
1
 40
1
 10
21.730306
 20
19.692932
 30
0.0
 10
21.730306
 20
19.675238
 30
0.0
 10
21.723500
 20
19.658196
 30
0.0
 10
21.710806
 20
19.645696
 30
0.0
  0
LWPOLYLINE
  5
345
100
AcDbEntity
  8
A10-C-v1-MM_adobe
 62
7
100
AcDbPolyline
 90
2
 70
0
 10
27.358074
 20
24.065687
 30
0.0
 10
27.028685
 20
23.737382
 30
0.0
  0
SPLINE
  5
346
100
AcDbEntity
  8
A10-C-v1-MM_adobe
 62
7
100
AcDbSpline
 70
8
 71
3
 72
8
 73
4
 74
0
 40
0
 40
0
 40
0
 40
0
 40
1
 40
1
 40
1
 40
1
 10
21.382283
 20
19.316467
 30
0.0
 10
21.369575
 20
19.303883
 30
0.0
 10
21.353006
 20
19.296856
 30
0.0
 10
21.334908
 20
19.296856
 30
0.0
  0
SPLINE
  5
347
100
AcDbEntity
  8
A10-C-v1-MM_adobe
 62
7
100
AcDbSpline
 70
8
 71
3
 72
8
 73
4
 74
0
 40
0
 40
0
 40
0
 40
0
 40
1
 40
1
 40
1
 40
1
 10
19.389092
 20
19.296854
 30
0.0
 10
19.371550
 20
19.296854
 30
0.0
 10
19.354453
 20
19.303882
 30
0.0
 10
19.341744
 20
19.316465
 30
0.0
  0
LWPOLYLINE
  5
348
100
AcDbEntity
  8
A10-C-v1-MM_adobe
 62
7
100
AcDbPolyline
 90
2
 70
0
 10
21.730306
 20
21.643317
 30
0.0
 10
21.730306
 20
19.692928
 30
0.0
  0
SPLINE
  5
349
100
AcDbEntity
  8
A10-C-v1-MM_adobe
 62
7
100
AcDbSpline
 70
8
 71
3
 72
8
 73
4
 74
0
 40
0
 40
0
 40
0
 40
0
 40
1
 40
1
 40
1
 40
1
 10
19.013536
 20
19.645690
 30
0.0
 10
19.000800
 20
19.658190
 30
0.0
 10
18.993994
 20
19.675232
 30
0.0
 10
18.993994
 20
19.692926
 30
0.0
  0
LWPOLYLINE
  5
34a
100
AcDbEntity
  8
A10-C-v1-MM_adobe
 62
7
100
AcDbPolyline
 90
2
 70
0
 10
21.710721
 20
19.645690
 30
0.0
 10
21.382290
 20
19.316468
 30
0.0
  0
SPLINE
  5
34b
100
AcDbEntity
  8
A10-C-v1-MM_adobe
 62
7
100
AcDbSpline
 70
8
 71
3
 72
8
 73
4
 74
0
 40
0
 40
0
 40
0
 40
0
 40
1
 40
1
 40
1
 40
1
 10
18.993992
 20
21.643317
 30
0.0
 10
18.993992
 20
21.661067
 30
0.0
 10
19.000797
 20
21.678094
 30
0.0
 10
19.013533
 20
21.690594
 30
0.0
  0
LWPOLYLINE
  5
34c
100
AcDbEntity
  8
A10-C-v1-MM_adobe
 62
7
100
AcDbPolyline
 90
2
 70
0
 10
21.335124
 20
19.296854
 30
0.0
 10
19.389096
 20
19.296854
 30
0.0
  0
SPLINE
  5
34d
100
AcDbEntity
  8
A10-C-v1-MM_adobe
 62
7
100
AcDbSpline
 70
8
 71
3
 72
8
 73
4
 74
0
 40
0
 40
0
 40
0
 40
0
 40
1
 40
1
 40
1
 40
1
 10
19.341932
 20
22.019850
 30
0.0
 10
19.354626
 20
22.032378
 30
0.0
 10
19.371265
 20
22.039392
 30
0.0
 10
19.389293
 20
22.039392
 30
0.0
  0
LWPOLYLINE
  5
34e
100
AcDbEntity
  8
A10-C-v1-MM_adobe
 62
7
100
AcDbPolyline
 90
2
 70
0
 10
18.993992
 20
19.692932
 30
0.0
 10
18.993992
 20
21.643321
 30
0.0
  0
SPLINE
  5
34f
100
AcDbEntity
  8
A10-C-v1-MM_adobe
 62
7
100
AcDbSpline
 70
8
 71
3
 72
8
 73
4
 74
0
 40
0
 40
0
 40
0
 40
0
 40
1
 40
1
 40
1
 40
1
 10
21.335124
 20
22.039394
 30
0.0
 10
21.352693
 20
22.039394
 30
0.0
 10
21.369763
 20
22.032381
 30
0.0
 10
21.382485
 20
22.019839
 30
0.0
  0
LWPOLYLINE
  5
350
100
AcDbEntity
  8
A10-C-v1-MM_adobe
 62
7
100
AcDbPolyline
 90
2
 70
0
 10
19.013536
 20
21.690599
 30
0.0
 10
19.341939
 20
22.019849
 30
0.0
  0
LWPOLYLINE
  5
351
100
AcDbEntity
  8
A10-C-v1-MM_adobe
 62
7
100
AcDbPolyline
 90
2
 70
0
 10
19.391493
 20
22.041199
 30
0.0
 10
21.335118
 20
22.041199
 30
0.0
  0
LWPOLYLINE
  5
352
100
AcDbEntity
  8
A10-C-v1-MM_adobe
 62
7
100
AcDbPolyline
 90
2
 70
0
 10
19.341932
 20
19.316467
 30
0.0
 10
19.013529
 20
19.645689
 30
0.0
  0
SPLINE
  5
353
100
AcDbEntity
  8
A10-C-v1-MM_adobe
 62
7
100
AcDbSpline
 70
8
 71
3
 72
8
 73
4
 74
0
 40
0
 40
0
 40
0
 40
0
 40
1
 40
1
 40
1
 40
1
 10
21.664063
 20
20.727844
 30
0.0
 10
21.664063
 20
21.192692
 30
0.0
 10
21.415854
 20
21.566664
 30
0.0
 10
21.012938
 20
21.799081
 30
0.0
  0
SPLINE
  5
354
100
AcDbEntity
  8
A10-C-v1-MM_adobe
 62
7
100
AcDbSpline
 70
8
 71
3
 72
8
 73
4
 74
0
 40
0
 40
0
 40
0
 40
0
 40
1
 40
1
 40
1
 40
1
 10
21.012939
 20
21.799079
 30
0.0
 10
20.610050
 20
22.031468
 30
0.0
 10
20.113689
 20
22.031468
 30
0.0
 10
19.710772
 20
21.799079
 30
0.0
  0
SPLINE
  5
355
100
AcDbEntity
  8
A10-C-v1-MM_adobe
 62
7
100
AcDbSpline
 70
8
 71
3
 72
8
 73
4
 74
0
 40
0
 40
0
 40
0
 40
0
 40
1
 40
1
 40
1
 40
1
 10
19.710775
 20
21.799079
 30
0.0
 10
19.307886
 20
21.566663
 30
0.0
 10
19.059678
 20
21.137135
 30
0.0
 10
19.059678
 20
20.672288
 30
0.0
  0
SPLINE
  5
356
100
AcDbEntity
  8
A10-C-v1-MM_adobe
 62
7
100
AcDbSpline
 70
8
 71
3
 72
8
 73
4
 74
0
 40
0
 40
0
 40
0
 40
0
 40
1
 40
1
 40
1
 40
1
 10
19.059679
 20
20.672289
 30
0.0
 10
19.059679
 20
20.207442
 30
0.0
 10
19.307888
 20
19.777942
 30
0.0
 10
19.710776
 20
19.545525
 30
0.0
  0
SPLINE
  5
357
100
AcDbEntity
  8
A10-C-v1-MM_adobe
 62
7
100
AcDbSpline
 70
8
 71
3
 72
8
 73
4
 74
0
 40
0
 40
0
 40
0
 40
0
 40
1
 40
1
 40
1
 40
1
 10
19.710775
 20
19.545525
 30
0.0
 10
20.113692
 20
19.313136
 30
0.0
 10
20.610053
 20
19.313136
 30
0.0
 10
21.012942
 20
19.545525
 30
0.0
  0
SPLINE
  5
358
100
AcDbEntity
  8
A10-C-v1-MM_adobe
 62
7
100
AcDbSpline
 70
8
 71
3
 72
8
 73
4
 74
0
 40
0
 40
0
 40
0
 40
0
 40
1
 40
1
 40
1
 40
1
 10
21.012939
 20
19.545525
 30
0.0
 10
21.415856
 20
19.777942
 30
0.0
 10
21.664064
 20
20.262997
 30
0.0
 10
21.664064
 20
20.727844
 30
0.0
  0
SPLINE
  5
359
100
AcDbEntity
  8
A10-C-v1-MM_adobe
 62
7
100
AcDbSpline
 70
8
 71
3
 72
8
 73
4
 74
0
 40
0
 40
0
 40
0
 40
0
 40
1
 40
1
 40
1
 40
1
 10
21.682943
 20
18.801710
 30
0.0
 10
21.695665
 20
18.789168
 30
0.0
 10
21.702499
 20
18.772126
 30
0.0
 10
21.702499
 20
18.754432
 30
0.0
  0
SPLINE
  5
35a
100
AcDbEntity
  8
A10-C-v1-MM_adobe
 62
7
100
AcDbSpline
 70
8
 71
3
 72
8
 73
4
 74
0
 40
0
 40
0
 40
0
 40
0
 40
1
 40
1
 40
1
 40
1
 10
21.702528
 20
16.804043
 30
0.0
 10
21.702528
 20
16.786349
 30
0.0
 10
21.695722
 20
16.769307
 30
0.0
 10
21.683028
 20
16.756807
 30
0.0
  0
LWPOLYLINE
  5
35b
100
AcDbEntity
  8
A10-C-v1-MM_adobe
 62
7
100
AcDbPolyline
 90
2
 70
0
 10
21.382283
 20
22.019850
 30
0.0
 10
21.710714
 20
21.690600
 30
0.0
  0
SPLINE
  5
35c
100
AcDbEntity
  8
A10-C-v1-MM_adobe
 62
7
100
AcDbSpline
 70
8
 71
3
 72
8
 73
4
 74
0
 40
0
 40
0
 40
0
 40
0
 40
1
 40
1
 40
1
 40
1
 10
21.354506
 20
16.427578
 30
0.0
 10
21.341797
 20
16.414994
 30
0.0
 10
21.325228
 20
16.407967
 30
0.0
 10
21.307131
 20
16.407967
 30
0.0
  0
SPLINE
  5
35d
100
AcDbEntity
  8
A10-C-v1-MM_adobe
 62
7
100
AcDbSpline
 70
8
 71
3
 72
8
 73
4
 74
0
 40
0
 40
0
 40
0
 40
0
 40
1
 40
1
 40
1
 40
1
 10
19.361314
 20
16.407965
 30
0.0
 10
19.343772
 20
16.407965
 30
0.0
 10
19.326675
 20
16.414993
 30
0.0
 10
19.313967
 20
16.427576
 30
0.0
  0
LWPOLYLINE
  5
35e
100
AcDbEntity
  8
A10-C-v1-MM_adobe
 62
7
100
AcDbPolyline
 90
2
 70
0
 10
21.702528
 20
18.754428
 30
0.0
 10
21.702528
 20
16.804039
 30
0.0
  0
SPLINE
  5
35f
100
AcDbEntity
  8
A10-C-v1-MM_adobe
 62
7
100
AcDbSpline
 70
8
 71
3
 72
8
 73
4
 74
0
 40
0
 40
0
 40
0
 40
0
 40
1
 40
1
 40
1
 40
1
 10
18.985758
 20
16.756801
 30
0.0
 10
18.973022
 20
16.769301
 30
0.0
 10
18.966217
 20
16.786343
 30
0.0
 10
18.966217
 20
16.804038
 30
0.0
  0
LWPOLYLINE
  5
360
100
AcDbEntity
  8
A10-C-v1-MM_adobe
 62
7
100
AcDbPolyline
 90
2
 70
0
 10
21.682943
 20
16.756801
 30
0.0
 10
21.354513
 20
16.427579
 30
0.0
  0
SPLINE
  5
361
100
AcDbEntity
  8
A10-C-v1-MM_adobe
 62
7
100
AcDbSpline
 70
8
 71
3
 72
8
 73
4
 74
0
 40
0
 40
0
 40
0
 40
0
 40
1
 40
1
 40
1
 40
1
 10
18.966214
 20
18.754428
 30
0.0
 10
18.966214
 20
18.772178
 30
0.0
 10
18.973019
 20
18.789206
 30
0.0
 10
18.985756
 20
18.801706
 30
0.0
  0
LWPOLYLINE
  5
362
100
AcDbEntity
  8
A10-C-v1-MM_adobe
 62
7
100
AcDbPolyline
 90
2
 70
0
 10
21.307346
 20
16.407965
 30
0.0
 10
19.361318
 20
16.407965
 30
0.0
  0
SPLINE
  5
363
100
AcDbEntity
  8
A10-C-v1-MM_adobe
 62
7
100
AcDbSpline
 70
8
 71
3
 72
8
 73
4
 74
0
 40
0
 40
0
 40
0
 40
0
 40
1
 40
1
 40
1
 40
1
 10
19.314154
 20
19.130961
 30
0.0
 10
19.326849
 20
19.143489
 30
0.0
 10
19.343487
 20
19.150503
 30
0.0
 10
19.361515
 20
19.150503
 30
0.0
  0
LWPOLYLINE
  5
364
100
AcDbEntity
  8
A10-C-v1-MM_adobe
 62
7
100
AcDbPolyline
 90
2
 70
0
 10
18.966214
 20
16.804043
 30
0.0
 10
18.966214
 20
18.754432
 30
0.0
  0
SPLINE
  5
365
100
AcDbEntity
  8
A10-C-v1-MM_adobe
 62
7
100
AcDbSpline
 70
8
 71
3
 72
8
 73
4
 74
0
 40
0
 40
0
 40
0
 40
0
 40
1
 40
1
 40
1
 40
1
 10
21.307346
 20
19.150506
 30
0.0
 10
21.324915
 20
19.150506
 30
0.0
 10
21.341985
 20
19.143492
 30
0.0
 10
21.354707
 20
19.130950
 30
0.0
  0
LWPOLYLINE
  5
366
100
AcDbEntity
  8
A10-C-v1-MM_adobe
 62
7
100
AcDbPolyline
 90
2
 70
0
 10
18.985758
 20
18.801710
 30
0.0
 10
19.314161
 20
19.130960
 30
0.0
  0
LWPOLYLINE
  5
367
100
AcDbEntity
  8
A10-C-v1-MM_adobe
 62
7
100
AcDbPolyline
 90
2
 70
0
 10
19.363715
 20
19.152310
 30
0.0
 10
21.307340
 20
19.152310
 30
0.0
  0
LWPOLYLINE
  5
368
100
AcDbEntity
  8
A10-C-v1-MM_adobe
 62
7
100
AcDbPolyline
 90
2
 70
0
 10
19.314154
 20
16.427578
 30
0.0
 10
18.985751
 20
16.756800
 30
0.0
  0
SPLINE
  5
369
100
AcDbEntity
  8
A10-C-v1-MM_adobe
 62
7
100
AcDbSpline
 70
8
 71
3
 72
8
 73
4
 74
0
 40
0
 40
0
 40
0
 40
0
 40
1
 40
1
 40
1
 40
1
 10
21.636285
 20
17.838956
 30
0.0
 10
21.636285
 20
18.303803
 30
0.0
 10
21.388076
 20
18.677775
 30
0.0
 10
20.985160
 20
18.910192
 30
0.0
  0
SPLINE
  5
36a
100
AcDbEntity
  8
A10-C-v1-MM_adobe
 62
7
100
AcDbSpline
 70
8
 71
3
 72
8
 73
4
 74
0
 40
0
 40
0
 40
0
 40
0
 40
1
 40
1
 40
1
 40
1
 10
20.985161
 20
18.910190
 30
0.0
 10
20.582272
 20
19.142579
 30
0.0
 10
20.085911
 20
19.142579
 30
0.0
 10
19.682994
 20
18.910190
 30
0.0
  0
SPLINE
  5
36b
100
AcDbEntity
  8
A10-C-v1-MM_adobe
 62
7
100
AcDbSpline
 70
8
 71
3
 72
8
 73
4
 74
0
 40
0
 40
0
 40
0
 40
0
 40
1
 40
1
 40
1
 40
1
 10
19.682997
 20
18.910190
 30
0.0
 10
19.280108
 20
18.677774
 30
0.0
 10
19.031900
 20
18.248246
 30
0.0
 10
19.031900
 20
17.783399
 30
0.0
  0
SPLINE
  5
36c
100
AcDbEntity
  8
A10-C-v1-MM_adobe
 62
7
100
AcDbSpline
 70
8
 71
3
 72
8
 73
4
 74
0
 40
0
 40
0
 40
0
 40
0
 40
1
 40
1
 40
1
 40
1
 10
19.031901
 20
17.783400
 30
0.0
 10
19.031901
 20
17.318553
 30
0.0
 10
19.280110
 20
16.889053
 30
0.0
 10
19.682999
 20
16.656636
 30
0.0
  0
SPLINE
  5
36d
100
AcDbEntity
  8
A10-C-v1-MM_adobe
 62
7
100
AcDbSpline
 70
8
 71
3
 72
8
 73
4
 74
0
 40
0
 40
0
 40
0
 40
0
 40
1
 40
1
 40
1
 40
1
 10
19.682997
 20
16.656636
 30
0.0
 10
20.085914
 20
16.424247
 30
0.0
 10
20.582275
 20
16.424247
 30
0.0
 10
20.985164
 20
16.656636
 30
0.0
  0
SPLINE
  5
36e
100
AcDbEntity
  8
A10-C-v1-MM_adobe
 62
7
100
AcDbSpline
 70
8
 71
3
 72
8
 73
4
 74
0
 40
0
 40
0
 40
0
 40
0
 40
1
 40
1
 40
1
 40
1
 10
20.985161
 20
16.656636
 30
0.0
 10
21.388078
 20
16.889053
 30
0.0
 10
21.636286
 20
17.374108
 30
0.0
 10
21.636286
 20
17.838956
 30
0.0
  0
LWPOLYLINE
  5
36f
100
AcDbEntity
  8
A10-C-v1-MM_adobe
 62
7
100
AcDbPolyline
 90
2
 70
0
 10
21.354506
 20
19.130961
 30
0.0
 10
21.682936
 20
18.801711
 30
0.0
  0
LWPOLYLINE
  5
370
100
AcDbEntity
  8
A10-C-v1-MM_adobe
 62
7
100
AcDbPolyline
 90
6
 70
0
 10
12.985389
 20
8.817208
 30
0.0
 10
8.733097
 20
8.817208
 30
0.0
 10
8.733097
 20
13.054972
 30
0.0
 10
12.985389
 20
13.054972
 30
0.0
 10
12.985389
 20
8.817208
 30
0.0
 10
12.985389
 20
8.817208
 30
0.0
  0
LWPOLYLINE
  5
371
100
AcDbEntity
  8
A10-C-v1-MM_adobe
 62
7
100
AcDbPolyline
 90
6
 70
0
 10
28.841639
 20
8.812389
 30
0.0
 10
24.589361
 20
8.812389
 30
0.0
 10
24.589361
 20
13.050153
 30
0.0
 10
28.841639
 20
13.050153
 30
0.0
 10
28.841639
 20
8.812389
 30
0.0
 10
28.841639
 20
8.812389
 30
0.0
  0
ENDSEC
  0
SECTION
  2
OBJECTS
  0
DICTIONARY
  5
C
330
0
100
AcDbDictionary
  3
ACAD_GROUP
350
D
  3
ACAD_MLINESTYLE
350
17
  0
DICTIONARY
  5
D
330
C
100
AcDbDictionary
  0
DICTIONARY
  5
1A
330
C
100
AcDbDictionary
  0
DICTIONARY
  5
17
330
C
100
AcDbDictionary
  3
STANDARD
350
18
  0
DICTIONARY
  5
19
330
C
100
AcDbDictionary
  0
ENDSEC
  0
EOF
