ISO-10303-21;
HEADER;
/* Generated by software containing ST-Developer
 * from STEP Tools, Inc. (www.steptools.com) 
 */

FILE_DESCRIPTION(
/* description */ (''),
/* implementation_level */ '2;1');

FILE_NAME(
/* name */ 
'C:\\Users\\MI\\Desktop\\Inventor Projects\\guillotine\\PULLEYX.stp',
/* time_stamp */ '2015-10-21T19:43:59-04:00',
/* author */ ('MI'),
/* organization */ (''),
/* preprocessor_version */ 'ST-DEVELOPER v15.2',
/* originating_system */ 'Autodesk Inventor 2014',
/* authorisation */ '');

FILE_SCHEMA (('AUTOMOTIVE_DESIGN { 1 0 10303 214 3 1 1 }'));
ENDSEC;

DATA;
#10=SHAPE_REPRESENTATION_RELATIONSHIP('SRR','None',#192,#11);
#11=ADVANCED_BREP_SHAPE_REPRESENTATION($,(#102),#180);
#12=STYLED_ITEM($,(#200),#102);
#13=PLANE($,#118);
#14=PLANE($,#119);
#15=TOROIDAL_SURFACE($,#110,0.3125,0.125);
#16=TOROIDAL_SURFACE($,#114,0.3125,0.125);
#17=FACE_BOUND($,#34,.T.);
#18=FACE_BOUND($,#36,.T.);
#19=FACE_BOUND($,#38,.T.);
#20=FACE_BOUND($,#40,.T.);
#21=FACE_BOUND($,#42,.T.);
#22=FACE_BOUND($,#44,.T.);
#23=FACE_BOUND($,#45,.T.);
#24=FACE_BOUND($,#46,.T.);
#25=FACE_BOUND($,#47,.T.);
#26=FACE_BOUND($,#48,.T.);
#27=FACE_OUTER_BOUND($,#33,.T.);
#28=FACE_OUTER_BOUND($,#35,.T.);
#29=FACE_OUTER_BOUND($,#37,.T.);
#30=FACE_OUTER_BOUND($,#39,.T.);
#31=FACE_OUTER_BOUND($,#41,.T.);
#32=FACE_OUTER_BOUND($,#43,.T.);
#33=EDGE_LOOP($,(#73));
#34=EDGE_LOOP($,(#74));
#35=EDGE_LOOP($,(#75));
#36=EDGE_LOOP($,(#76));
#37=EDGE_LOOP($,(#77));
#38=EDGE_LOOP($,(#78));
#39=EDGE_LOOP($,(#79));
#40=EDGE_LOOP($,(#80));
#41=EDGE_LOOP($,(#81));
#42=EDGE_LOOP($,(#82));
#43=EDGE_LOOP($,(#83));
#44=EDGE_LOOP($,(#84));
#45=EDGE_LOOP($,(#85));
#46=EDGE_LOOP($,(#86));
#47=EDGE_LOOP($,(#87));
#48=EDGE_LOOP($,(#88));
#49=CIRCLE($,#105,0.13);
#50=CIRCLE($,#106,0.13);
#51=CIRCLE($,#108,0.25);
#52=CIRCLE($,#109,0.25);
#53=CIRCLE($,#111,0.1875);
#54=CIRCLE($,#113,0.1875);
#55=CIRCLE($,#115,0.25);
#56=CIRCLE($,#117,0.25);
#57=VERTEX_POINT($,#156);
#58=VERTEX_POINT($,#158);
#59=VERTEX_POINT($,#161);
#60=VERTEX_POINT($,#163);
#61=VERTEX_POINT($,#166);
#62=VERTEX_POINT($,#169);
#63=VERTEX_POINT($,#172);
#64=VERTEX_POINT($,#175);
#65=EDGE_CURVE($,#57,#57,#49,.T.);
#66=EDGE_CURVE($,#58,#58,#50,.T.);
#67=EDGE_CURVE($,#59,#59,#51,.T.);
#68=EDGE_CURVE($,#60,#60,#52,.T.);
#69=EDGE_CURVE($,#61,#61,#53,.T.);
#70=EDGE_CURVE($,#62,#62,#54,.T.);
#71=EDGE_CURVE($,#63,#63,#55,.T.);
#72=EDGE_CURVE($,#64,#64,#56,.T.);
#73=ORIENTED_EDGE($,*,*,#65,.F.);
#74=ORIENTED_EDGE($,*,*,#66,.F.);
#75=ORIENTED_EDGE($,*,*,#67,.F.);
#76=ORIENTED_EDGE($,*,*,#68,.T.);
#77=ORIENTED_EDGE($,*,*,#69,.F.);
#78=ORIENTED_EDGE($,*,*,#67,.T.);
#79=ORIENTED_EDGE($,*,*,#70,.F.);
#80=ORIENTED_EDGE($,*,*,#69,.T.);
#81=ORIENTED_EDGE($,*,*,#71,.F.);
#82=ORIENTED_EDGE($,*,*,#70,.T.);
#83=ORIENTED_EDGE($,*,*,#72,.F.);
#84=ORIENTED_EDGE($,*,*,#71,.T.);
#85=ORIENTED_EDGE($,*,*,#66,.T.);
#86=ORIENTED_EDGE($,*,*,#72,.T.);
#87=ORIENTED_EDGE($,*,*,#65,.T.);
#88=ORIENTED_EDGE($,*,*,#68,.F.);
#89=CYLINDRICAL_SURFACE($,#104,0.13);
#90=CYLINDRICAL_SURFACE($,#107,0.25);
#91=CYLINDRICAL_SURFACE($,#112,0.1875);
#92=CYLINDRICAL_SURFACE($,#116,0.25);
#93=ADVANCED_FACE($,(#27,#17),#89,.F.);
#94=ADVANCED_FACE($,(#28,#18),#90,.T.);
#95=ADVANCED_FACE($,(#29,#19),#15,.F.);
#96=ADVANCED_FACE($,(#30,#20),#91,.T.);
#97=ADVANCED_FACE($,(#31,#21),#16,.F.);
#98=ADVANCED_FACE($,(#32,#22),#92,.T.);
#99=ADVANCED_FACE($,(#23,#24),#13,.T.);
#100=ADVANCED_FACE($,(#25,#26),#14,.T.);
#101=CLOSED_SHELL($,(#93,#94,#95,#96,#97,#98,#99,#100));
#102=MANIFOLD_SOLID_BREP('Solid1',#101);
#103=AXIS2_PLACEMENT_3D('placement',#154,#120,#121);
#104=AXIS2_PLACEMENT_3D($,#155,#122,#123);
#105=AXIS2_PLACEMENT_3D($,#157,#124,#125);
#106=AXIS2_PLACEMENT_3D($,#159,#126,#127);
#107=AXIS2_PLACEMENT_3D($,#160,#128,#129);
#108=AXIS2_PLACEMENT_3D($,#162,#130,#131);
#109=AXIS2_PLACEMENT_3D($,#164,#132,#133);
#110=AXIS2_PLACEMENT_3D($,#165,#134,#135);
#111=AXIS2_PLACEMENT_3D($,#167,#136,#137);
#112=AXIS2_PLACEMENT_3D($,#168,#138,#139);
#113=AXIS2_PLACEMENT_3D($,#170,#140,#141);
#114=AXIS2_PLACEMENT_3D($,#171,#142,#143);
#115=AXIS2_PLACEMENT_3D($,#173,#144,#145);
#116=AXIS2_PLACEMENT_3D($,#174,#146,#147);
#117=AXIS2_PLACEMENT_3D($,#176,#148,#149);
#118=AXIS2_PLACEMENT_3D($,#177,#150,#151);
#119=AXIS2_PLACEMENT_3D($,#178,#152,#153);
#120=DIRECTION('axis',(0.,0.,1.));
#121=DIRECTION('refdir',(1.,0.,0.));
#122=DIRECTION('center_axis',(0.,1.,0.));
#123=DIRECTION('ref_axis',(-1.,0.,0.));
#124=DIRECTION('center_axis',(0.,1.,0.));
#125=DIRECTION('ref_axis',(-1.,0.,0.));
#126=DIRECTION('center_axis',(0.,-1.,0.));
#127=DIRECTION('ref_axis',(-1.,0.,0.));
#128=DIRECTION('center_axis',(0.,1.,0.));
#129=DIRECTION('ref_axis',(0.,0.,1.));
#130=DIRECTION('center_axis',(0.,1.,0.));
#131=DIRECTION('ref_axis',(1.,0.,0.));
#132=DIRECTION('center_axis',(0.,1.,0.));
#133=DIRECTION('ref_axis',(1.,0.,0.));
#134=DIRECTION('center_axis',(0.,1.,0.));
#135=DIRECTION('ref_axis',(0.,0.,1.));
#136=DIRECTION('center_axis',(0.,1.,0.));
#137=DIRECTION('ref_axis',(1.,0.,0.));
#138=DIRECTION('center_axis',(0.,1.,0.));
#139=DIRECTION('ref_axis',(0.,0.,1.));
#140=DIRECTION('center_axis',(0.,1.,0.));
#141=DIRECTION('ref_axis',(1.,0.,0.));
#142=DIRECTION('center_axis',(0.,1.,0.));
#143=DIRECTION('ref_axis',(0.,0.,1.));
#144=DIRECTION('center_axis',(0.,1.,0.));
#145=DIRECTION('ref_axis',(1.,0.,0.));
#146=DIRECTION('center_axis',(0.,1.,0.));
#147=DIRECTION('ref_axis',(0.,0.,1.));
#148=DIRECTION('center_axis',(0.,1.,0.));
#149=DIRECTION('ref_axis',(1.,0.,0.));
#150=DIRECTION('center_axis',(0.,1.,0.));
#151=DIRECTION('ref_axis',(0.,0.,1.));
#152=DIRECTION('center_axis',(0.,-1.,0.));
#153=DIRECTION('ref_axis',(0.,0.,-1.));
#154=CARTESIAN_POINT('',(0.,0.,0.));
#155=CARTESIAN_POINT('Origin',(0.,-0.125,0.));
#156=CARTESIAN_POINT('',(0.13,0.,-1.59204083889156E-017));
#157=CARTESIAN_POINT('Origin',(0.,0.,0.));
#158=CARTESIAN_POINT('',(-0.13,0.375,0.));
#159=CARTESIAN_POINT('Origin',(0.,0.375,0.));
#160=CARTESIAN_POINT('Origin',(0.,0.03125,0.));
#161=CARTESIAN_POINT('',(0.,0.0625,0.25));
#162=CARTESIAN_POINT('Origin',(0.,0.0625,0.));
#163=CARTESIAN_POINT('',(0.,0.,0.25));
#164=CARTESIAN_POINT('Origin',(0.,0.,0.));
#165=CARTESIAN_POINT('Origin',(0.,0.170753175473055,0.));
#166=CARTESIAN_POINT('',(0.,0.170753175473055,0.1875));
#167=CARTESIAN_POINT('Origin',(0.,0.170753175473055,0.));
#168=CARTESIAN_POINT('Origin',(0.,0.1875,0.));
#169=CARTESIAN_POINT('',(0.,0.204246824526945,0.1875));
#170=CARTESIAN_POINT('Origin',(0.,0.204246824526945,0.));
#171=CARTESIAN_POINT('Origin',(0.,0.204246824526945,0.));
#172=CARTESIAN_POINT('',(0.,0.3125,0.25));
#173=CARTESIAN_POINT('Origin',(0.,0.3125,0.));
#174=CARTESIAN_POINT('Origin',(0.,0.34375,0.));
#175=CARTESIAN_POINT('',(0.,0.375,0.25));
#176=CARTESIAN_POINT('Origin',(0.,0.375,0.));
#177=CARTESIAN_POINT('Origin',(0.,0.375,0.));
#178=CARTESIAN_POINT('Origin',(0.,0.,0.25));
#179=UNCERTAINTY_MEASURE_WITH_UNIT(LENGTH_MEASURE(0.000393700787401575),
#181,'DISTANCE_ACCURACY_VALUE',
'Maximum model space distance between geometric entities at asserted c
onnectivities');
#180=(
GEOMETRIC_REPRESENTATION_CONTEXT(3)
GLOBAL_UNCERTAINTY_ASSIGNED_CONTEXT((#179))
GLOBAL_UNIT_ASSIGNED_CONTEXT((#181,#187,#184))
REPRESENTATION_CONTEXT('','3D')
);
#181=(
CONVERSION_BASED_UNIT('__CONSTANT UNIT inch',#183)
LENGTH_UNIT()
NAMED_UNIT(#186)
);
#182=(
LENGTH_UNIT()
NAMED_UNIT(*)
SI_UNIT(.MILLI.,.METRE.)
);
#183=LENGTH_MEASURE_WITH_UNIT(LENGTH_MEASURE(25.4),#182);
#184=(
NAMED_UNIT(*)
SI_UNIT($,.STERADIAN.)
SOLID_ANGLE_UNIT()
);
#185=DIMENSIONAL_EXPONENTS(0.,0.,0.,0.,0.,0.,0.);
#186=DIMENSIONAL_EXPONENTS(1.,0.,0.,0.,0.,0.,0.);
#187=(
CONVERSION_BASED_UNIT('degree',#189)
NAMED_UNIT(#185)
PLANE_ANGLE_UNIT()
);
#188=(
NAMED_UNIT(*)
PLANE_ANGLE_UNIT()
SI_UNIT($,.RADIAN.)
);
#189=PLANE_ANGLE_MEASURE_WITH_UNIT(PLANE_ANGLE_MEASURE(0.01745329252),#188);
#190=SHAPE_DEFINITION_REPRESENTATION(#191,#192);
#191=PRODUCT_DEFINITION_SHAPE('',$,#194);
#192=SHAPE_REPRESENTATION('',(#103),#180);
#193=PRODUCT_DEFINITION_CONTEXT('3D Mechanical Parts',#197,'design');
#194=PRODUCT_DEFINITION('PULLEY','PULLEY',#195,#193);
#195=PRODUCT_DEFINITION_FORMATION('',$,#199);
#196=APPLICATION_PROTOCOL_DEFINITION('international standard',
'automotive_design',2009,#197);
#197=APPLICATION_CONTEXT(
'Core Data for Automotive Mechanical Design Process');
#198=PRODUCT_CONTEXT('3D Mechanical Parts',#197,'mechanical');
#199=PRODUCT('PULLEY','PULLEY',$,(#198));
#200=PRESENTATION_STYLE_ASSIGNMENT((#201));
#201=SURFACE_STYLE_USAGE(.BOTH.,#202);
#202=SURFACE_SIDE_STYLE($,(#203));
#203=SURFACE_STYLE_FILL_AREA(#204);
#204=FILL_AREA_STYLE($,(#205));
#205=FILL_AREA_STYLE_COLOUR($,#206);
#206=COLOUR_RGB('',0.749019607843137,0.749019607843137,0.749019607843137);
ENDSEC;
END-ISO-10303-21;
