  0
SECTION
  2
HEADER
  9
$ACADVER
  1
AC1018
  9
$ACADMAINTVER
 70
     0
  9
$DWGCODEPAGE
  3
ANSI_1252
  9
$INSBASE
 10
0.0
 20
0.0
 30
0.0
  9
$EXTMIN
 10
1.000000000000000E+20
 20
1.000000000000000E+20
 30
1.000000000000000E+20
  9
$EXTMAX
 10
-1.000000000000000E+20
 20
-1.000000000000000E+20
 30
-1.000000000000000E+20
  9
$LIMMIN
 10
0.0
 20
0.0
  9
$LIMMAX
 10
12.0
 20
9.0
  9
$ORTHOMODE
 70
     0
  9
$REGENMODE
 70
     1
  9
$FILLMODE
 70
     1
  9
$QTEXTMODE
 70
     0
  9
$MIRRTEXT
 70
     1
  9
$LTSCALE
 40
1.0
  9
$ATTMODE
 70
     1
  9
$TEXTSIZE
 40
0.2
  9
$TRACEWID
 40
0.05
  9
$TEXTSTYLE
  7
Standard
  9
$CLAYER
  8
0
  9
$CELTYPE
  6
ByLayer
  9
$CECOLOR
 62
   256
  9
$CELTSCALE
 40
1.0
  9
$DISPSILH
 70
     0
  9
$DIMSCALE
 40
1.0
  9
$DIMASZ
 40
0.18
  9
$DIMEXO
 40
0.0625
  9
$DIMDLI
 40
0.38
  9
$DIMRND
 40
0.0
  9
$DIMDLE
 40
0.0
  9
$DIMEXE
 40
0.18
  9
$DIMTP
 40
0.0
  9
$DIMTM
 40
0.0
  9
$DIMTXT
 40
0.18
  9
$DIMCEN
 40
0.09
  9
$DIMTSZ
 40
0.0
  9
$DIMTOL
 70
     0
  9
$DIMLIM
 70
     0
  9
$DIMTIH
 70
     1
  9
$DIMTOH
 70
     1
  9
$DIMSE1
 70
     0
  9
$DIMSE2
 70
     0
  9
$DIMTAD
 70
     0
  9
$DIMZIN
 70
     0
  9
$DIMBLK
  1

  9
$DIMASO
 70
     1
  9
$DIMSHO
 70
     1
  9
$DIMPOST
  1

  9
$DIMAPOST
  1

  9
$DIMALT
 70
     0
  9
$DIMALTD
 70
     2
  9
$DIMALTF
 40
25.4
  9
$DIMLFAC
 40
1.0
  9
$DIMTOFL
 70
     0
  9
$DIMTVP
 40
0.0
  9
$DIMTIX
 70
     0
  9
$DIMSOXD
 70
     0
  9
$DIMSAH
 70
     0
  9
$DIMBLK1
  1

  9
$DIMBLK2
  1

  9
$DIMSTYLE
  2
Standard
  9
$DIMCLRD
 70
     0
  9
$DIMCLRE
 70
     0
  9
$DIMCLRT
 70
     0
  9
$DIMTFAC
 40
1.0
  9
$DIMGAP
 40
0.09
  9
$DIMJUST
 70
     0
  9
$DIMSD1
 70
     0
  9
$DIMSD2
 70
     0
  9
$DIMTOLJ
 70
     1
  9
$DIMTZIN
 70
     0
  9
$DIMALTZ
 70
     0
  9
$DIMALTTZ
 70
     0
  9
$DIMUPT
 70
     0
  9
$DIMDEC
 70
     4
  9
$DIMTDEC
 70
     4
  9
$DIMALTU
 70
     2
  9
$DIMALTTD
 70
     2
  9
$DIMTXSTY
  7
Standard
  9
$DIMAUNIT
 70
     0
  9
$DIMADEC
 70
     0
  9
$DIMALTRND
 40
0.0
  9
$DIMAZIN
 70
     0
  9
$DIMDSEP
 70
    46
  9
$DIMATFIT
 70
     3
  9
$DIMFRAC
 70
     0
  9
$DIMLDRBLK
  1

  9
$DIMLUNIT
 70
     2
  9
$DIMLWD
 70
    -2
  9
$DIMLWE
 70
    -2
  9
$DIMTMOVE
 70
     0
  9
$LUNITS
 70
     2
  9
$LUPREC
 70
     4
  9
$SKETCHINC
 40
0.1
  9
$FILLETRAD
 40
0.5
  9
$AUNITS
 70
     0
  9
$AUPREC
 70
     0
  9
$MENU
  1
.
  9
$ELEVATION
 40
0.0
  9
$PELEVATION
 40
0.0
  9
$THICKNESS
 40
0.0
  9
$LIMCHECK
 70
     0
  9
$CHAMFERA
 40
0.5
  9
$CHAMFERB
 40
0.5
  9
$CHAMFERC
 40
1.0
  9
$CHAMFERD
 40
0.0
  9
$SKPOLY
 70
     0
  9
$TDCREATE
 40
2459210.716115486
  9
$TDUCREATE
 40
2459211.049448819
  9
$TDUPDATE
 40
2459210.716115498
  9
$TDUUPDATE
 40
2459211.049448831
  9
$TDINDWG
 40
0.0000000116
  9
$TDUSRTIMER
 40
0.0000000116
  9
$USRTIMER
 70
     1
  9
$ANGBASE
 50
0.0
  9
$ANGDIR
 70
     0
  9
$PDMODE
 70
     0
  9
$PDSIZE
 40
0.0
  9
$PLINEWID
 40
0.0
  9
$SPLFRAME
 70
     0
  9
$SPLINETYPE
 70
     6
  9
$SPLINESEGS
 70
     8
  9
$HANDSEED
  5
33B
  9
$SURFTAB1
 70
     6
  9
$SURFTAB2
 70
     6
  9
$SURFTYPE
 70
     6
  9
$SURFU
 70
     6
  9
$SURFV
 70
     6
  9
$UCSBASE
  2

  9
$UCSNAME
  2

  9
$UCSORG
 10
0.0
 20
0.0
 30
0.0
  9
$UCSXDIR
 10
1.0
 20
0.0
 30
0.0
  9
$UCSYDIR
 10
0.0
 20
1.0
 30
0.0
  9
$UCSORTHOREF
  2

  9
$UCSORTHOVIEW
 70
     0
  9
$UCSORGTOP
 10
0.0
 20
0.0
 30
0.0
  9
$UCSORGBOTTOM
 10
0.0
 20
0.0
 30
0.0
  9
$UCSORGLEFT
 10
0.0
 20
0.0
 30
0.0
  9
$UCSORGRIGHT
 10
0.0
 20
0.0
 30
0.0
  9
$UCSORGFRONT
 10
0.0
 20
0.0
 30
0.0
  9
$UCSORGBACK
 10
0.0
 20
0.0
 30
0.0
  9
$PUCSBASE
  2

  9
$PUCSNAME
  2

  9
$PUCSORG
 10
0.0
 20
0.0
 30
0.0
  9
$PUCSXDIR
 10
1.0
 20
0.0
 30
0.0
  9
$PUCSYDIR
 10
0.0
 20
1.0
 30
0.0
  9
$PUCSORTHOREF
  2

  9
$PUCSORTHOVIEW
 70
     0
  9
$PUCSORGTOP
 10
0.0
 20
0.0
 30
0.0
  9
$PUCSORGBOTTOM
 10
0.0
 20
0.0
 30
0.0
  9
$PUCSORGLEFT
 10
0.0
 20
0.0
 30
0.0
  9
$PUCSORGRIGHT
 10
0.0
 20
0.0
 30
0.0
  9
$PUCSORGFRONT
 10
0.0
 20
0.0
 30
0.0
  9
$PUCSORGBACK
 10
0.0
 20
0.0
 30
0.0
  9
$USERI1
 70
     0
  9
$USERI2
 70
     0
  9
$USERI3
 70
     0
  9
$USERI4
 70
     0
  9
$USERI5
 70
     0
  9
$USERR1
 40
0.0
  9
$USERR2
 40
0.0
  9
$USERR3
 40
0.0
  9
$USERR4
 40
0.0
  9
$USERR5
 40
0.0
  9
$WORLDVIEW
 70
     1
  9
$SHADEDGE
 70
     3
  9
$SHADEDIF
 70
    70
  9
$TILEMODE
 70
     1
  9
$MAXACTVP
 70
    64
  9
$PINSBASE
 10
0.0
 20
0.0
 30
0.0
  9
$PLIMCHECK
 70
     0
  9
$PEXTMIN
 10
1.000000000000000E+20
 20
1.000000000000000E+20
 30
1.000000000000000E+20
  9
$PEXTMAX
 10
-1.000000000000000E+20
 20
-1.000000000000000E+20
 30
-1.000000000000000E+20
  9
$PLIMMIN
 10
0.0
 20
0.0
  9
$PLIMMAX
 10
12.0
 20
9.0
  9
$UNITMODE
 70
     0
  9
$VISRETAIN
 70
     1
  9
$PLINEGEN
 70
     0
  9
$PSLTSCALE
 70
     1
  9
$TREEDEPTH
 70
  3020
  9
$CMLSTYLE
  2
Standard
  9
$CMLJUST
 70
     0
  9
$CMLSCALE
 40
1.0
  9
$PROXYGRAPHICS
 70
     1
  9
$MEASUREMENT
 70
     0
  9
$CELWEIGHT
370
    -1
  9
$ENDCAPS
280
     0
  9
$JOINSTYLE
280
     0
  9
$LWDISPLAY
290
     1
  9
$INSUNITS
 70
     1
  9
$HYPERLINKBASE
  1

  9
$STYLESHEET
  1

  9
$XEDIT
290
     1
  9
$CEPSNTYPE
380
     0
  9
$PSTYLEMODE
290
     1
  9
$FINGERPRINTGUID
  2
{7F341F2D-2E2E-404C-91E7-5B04A94BD403}
  9
$VERSIONGUID
  2
{FAEB1C32-E019-11D5-929B-00C0DF256EC4}
  9
$EXTNAMES
290
     1
  9
$PSVPSCALE
 40
0.0
  9
$OLESTARTUP
290
     0
  9
$SORTENTS
280
   127
  9
$INDEXCTL
280
     0
  9
$HIDETEXT
280
     1
  9
$XCLIPFRAME
290
     0
  9
$HALOGAP
280
     0
  9
$OBSCOLOR
 70
   257
  9
$OBSLTYPE
280
     0
  9
$INTERSECTIONDISPLAY
280
     0
  9
$INTERSECTIONCOLOR
 70
   257
  9
$DIMASSOC
280
     2
  9
$PROJECTNAME
  1

  0
ENDSEC
  0
SECTION
  2
CLASSES
  0
CLASS
  1
ACDBDICTIONARYWDFLT
  2
AcDbDictionaryWithDefault
  3
ObjectDBX Classes
 90
        0
 91
        3
280
     0
281
     0
  0
CLASS
  1
VISUALSTYLE
  2
AcDbVisualStyle
  3
ObjectDBX Classes
 90
     4095
 91
        3
280
     0
281
     0
  0
ENDSEC
  0
SECTION
  2
TABLES
  0
TABLE
  2
VPORT
  5
8
330
0
100
AcDbSymbolTable
 70
     1
  0
VPORT
  5
29
330
8
100
AcDbSymbolTableRecord
100
AcDbViewportTableRecord
  2
*Active
 70
     0
 10
0.0
 20
0.0
 11
1.0
 21
1.0
 12
0.0
 22
0.0
 13
0.0
 23
0.0
 14
0.5
 24
0.5
 15
0.5
 25
0.5
 16
0.0
 26
0.0
 36
1.0
 17
300.0299207149231
 27
23.61440700364501
 37
0.0
 40
242.899213263928
 41
1.219391879816979
 42
50.0
 43
0.0
 44
0.0
 50
0.0
 51
0.0
 71
     0
 72
   100
 73
     1
 74
     3
 75
     0
 76
     0
 77
     0
 78
     0
281
     0
 65
     1
110
0.0
120
0.0
130
0.0
111
1.0
121
0.0
131
0.0
112
0.0
122
1.0
132
0.0
 79
     0
146
0.0
  0
ENDTAB
  0
TABLE
  2
LTYPE
  5
5
330
0
100
AcDbSymbolTable
 70
     1
  0
LTYPE
  5
14
330
5
100
AcDbSymbolTableRecord
100
AcDbLinetypeTableRecord
  2
ByBlock
 70
     0
  3

 72
    65
 73
     0
 40
0.0
  0
LTYPE
  5
15
330
5
100
AcDbSymbolTableRecord
100
AcDbLinetypeTableRecord
  2
ByLayer
 70
     0
  3

 72
    65
 73
     0
 40
0.0
  0
LTYPE
  5
16
330
5
100
AcDbSymbolTableRecord
100
AcDbLinetypeTableRecord
  2
Continuous
 70
     0
  3
Solid line
 72
    65
 73
     0
 40
0.0
  0
ENDTAB
  0
TABLE
  2
LAYER
  5
2
330
0
100
AcDbSymbolTable
 70
     2
  0
LAYER
  5
10
330
2
100
AcDbSymbolTableRecord
100
AcDbLayerTableRecord
  2
0
 70
     0
 62
     7
  6
Continuous
370
    -3
390
F
  0
LAYER
  5
3B
330
2
100
AcDbSymbolTableRecord
100
AcDbLayerTableRecord
  2
Layer 1
 70
     0
 62
     7
  6
Continuous
370
    -3
390
F
  0
ENDTAB
  0
TABLE
  2
STYLE
  5
3
330
0
100
AcDbSymbolTable
 70
     1
  0
STYLE
  5
11
330
3
100
AcDbSymbolTableRecord
100
AcDbTextStyleTableRecord
  2
Standard
 70
     0
 40
0.0
 41
1.0
 50
0.0
 71
     0
 42
0.2
  3
txt
  4

  0
ENDTAB
  0
TABLE
  2
VIEW
  5
6
330
0
100
AcDbSymbolTable
 70
     0
  0
ENDTAB
  0
TABLE
  2
UCS
  5
7
330
0
100
AcDbSymbolTable
 70
     0
  0
ENDTAB
  0
TABLE
  2
APPID
  5
9
330
0
100
AcDbSymbolTable
 70
     1
  0
APPID
  5
12
330
9
100
AcDbSymbolTableRecord
100
AcDbRegAppTableRecord
  2
ACAD
 70
     0
  0
ENDTAB
  0
TABLE
  2
DIMSTYLE
  5
A
330
0
100
AcDbSymbolTable
 70
     1
100
AcDbDimStyleTable
  0
DIMSTYLE
105
27
330
A
100
AcDbSymbolTableRecord
100
AcDbDimStyleTableRecord
  2
Standard
 70
     0
340
11
  0
ENDTAB
  0
TABLE
  2
BLOCK_RECORD
  5
1
330
0
100
AcDbSymbolTable
 70
    80
  0
BLOCK_RECORD
  5
1F
330
1
100
AcDbSymbolTableRecord
100
AcDbBlockTableRecord
  2
*Model_Space
340
22
  0
BLOCK_RECORD
  5
1B
330
1
100
AcDbSymbolTableRecord
100
AcDbBlockTableRecord
  2
*Paper_Space
340
1E
  0
BLOCK_RECORD
  5
23
330
1
100
AcDbSymbolTableRecord
100
AcDbBlockTableRecord
  2
*Paper_Space0
340
26
  0
BLOCK_RECORD
  5
3C
330
1
100
AcDbSymbolTableRecord
100
AcDbBlockTableRecord
  2
block 2
340
0
102
{BLKREFS
331
3D
102
}
  0
BLOCK_RECORD
  5
40
330
1
100
AcDbSymbolTableRecord
100
AcDbBlockTableRecord
  2
block 3
340
0
102
{BLKREFS
331
41
102
}
  0
BLOCK_RECORD
  5
45
330
1
100
AcDbSymbolTableRecord
100
AcDbBlockTableRecord
  2
block 4
340
0
102
{BLKREFS
331
46
102
}
  0
BLOCK_RECORD
  5
50
330
1
100
AcDbSymbolTableRecord
100
AcDbBlockTableRecord
  2
block 5
340
0
102
{BLKREFS
331
51
102
}
  0
BLOCK_RECORD
  5
54
330
1
100
AcDbSymbolTableRecord
100
AcDbBlockTableRecord
  2
block 6
340
0
102
{BLKREFS
331
55
102
}
  0
BLOCK_RECORD
  5
59
330
1
100
AcDbSymbolTableRecord
100
AcDbBlockTableRecord
  2
block 7
340
0
102
{BLKREFS
331
5A
102
}
  0
BLOCK_RECORD
  5
5E
330
1
100
AcDbSymbolTableRecord
100
AcDbBlockTableRecord
  2
block 8
340
0
102
{BLKREFS
331
5F
102
}
  0
BLOCK_RECORD
  5
69
330
1
100
AcDbSymbolTableRecord
100
AcDbBlockTableRecord
  2
block 9
340
0
102
{BLKREFS
331
6A
102
}
  0
BLOCK_RECORD
  5
74
330
1
100
AcDbSymbolTableRecord
100
AcDbBlockTableRecord
  2
block 10
340
0
102
{BLKREFS
331
75
102
}
  0
BLOCK_RECORD
  5
79
330
1
100
AcDbSymbolTableRecord
100
AcDbBlockTableRecord
  2
block 11
340
0
102
{BLKREFS
331
7A
102
}
  0
BLOCK_RECORD
  5
7D
330
1
100
AcDbSymbolTableRecord
100
AcDbBlockTableRecord
  2
block 12
340
0
102
{BLKREFS
331
7E
102
}
  0
BLOCK_RECORD
  5
82
330
1
100
AcDbSymbolTableRecord
100
AcDbBlockTableRecord
  2
block 13
340
0
102
{BLKREFS
331
83
102
}
  0
BLOCK_RECORD
  5
8D
330
1
100
AcDbSymbolTableRecord
100
AcDbBlockTableRecord
  2
block 14
340
0
102
{BLKREFS
331
8E
102
}
  0
BLOCK_RECORD
  5
98
330
1
100
AcDbSymbolTableRecord
100
AcDbBlockTableRecord
  2
block 15
340
0
102
{BLKREFS
331
99
102
}
  0
BLOCK_RECORD
  5
9D
330
1
100
AcDbSymbolTableRecord
100
AcDbBlockTableRecord
  2
block 16
340
0
102
{BLKREFS
331
9E
102
}
  0
BLOCK_RECORD
  5
A2
330
1
100
AcDbSymbolTableRecord
100
AcDbBlockTableRecord
  2
block 17
340
0
102
{BLKREFS
331
A3
102
}
  0
BLOCK_RECORD
  5
A6
330
1
100
AcDbSymbolTableRecord
100
AcDbBlockTableRecord
  2
block 18
340
0
102
{BLKREFS
331
A7
102
}
  0
BLOCK_RECORD
  5
AB
330
1
100
AcDbSymbolTableRecord
100
AcDbBlockTableRecord
  2
block 19
340
0
102
{BLKREFS
331
AC
102
}
  0
BLOCK_RECORD
  5
B0
330
1
100
AcDbSymbolTableRecord
100
AcDbBlockTableRecord
  2
block 20
340
0
102
{BLKREFS
331
B1
102
}
  0
BLOCK_RECORD
  5
D3
330
1
100
AcDbSymbolTableRecord
100
AcDbBlockTableRecord
  2
block 21
340
0
102
{BLKREFS
331
D4
102
}
  0
BLOCK_RECORD
  5
EE
330
1
100
AcDbSymbolTableRecord
100
AcDbBlockTableRecord
  2
block 22
340
0
102
{BLKREFS
331
EF
102
}
  0
BLOCK_RECORD
  5
109
330
1
100
AcDbSymbolTableRecord
100
AcDbBlockTableRecord
  2
block 23
340
0
102
{BLKREFS
331
10A
102
}
  0
BLOCK_RECORD
  5
12C
330
1
100
AcDbSymbolTableRecord
100
AcDbBlockTableRecord
  2
block 24
340
0
102
{BLKREFS
331
12D
102
}
  0
BLOCK_RECORD
  5
130
330
1
100
AcDbSymbolTableRecord
100
AcDbBlockTableRecord
  2
block 25
340
0
102
{BLKREFS
331
131
102
}
  0
BLOCK_RECORD
  5
135
330
1
100
AcDbSymbolTableRecord
100
AcDbBlockTableRecord
  2
block 26
340
0
102
{BLKREFS
331
136
102
}
  0
BLOCK_RECORD
  5
13A
330
1
100
AcDbSymbolTableRecord
100
AcDbBlockTableRecord
  2
block 27
340
0
102
{BLKREFS
331
13B
102
}
  0
BLOCK_RECORD
  5
13F
330
1
100
AcDbSymbolTableRecord
100
AcDbBlockTableRecord
  2
block 28
340
0
102
{BLKREFS
331
140
102
}
  0
BLOCK_RECORD
  5
144
330
1
100
AcDbSymbolTableRecord
100
AcDbBlockTableRecord
  2
block 29
340
0
102
{BLKREFS
331
145
102
}
  0
BLOCK_RECORD
  5
149
330
1
100
AcDbSymbolTableRecord
100
AcDbBlockTableRecord
  2
block 30
340
0
102
{BLKREFS
331
14A
102
}
  0
BLOCK_RECORD
  5
14E
330
1
100
AcDbSymbolTableRecord
100
AcDbBlockTableRecord
  2
block 31
340
0
102
{BLKREFS
331
14F
102
}
  0
BLOCK_RECORD
  5
171
330
1
100
AcDbSymbolTableRecord
100
AcDbBlockTableRecord
  2
block 32
340
0
102
{BLKREFS
331
172
102
}
  0
BLOCK_RECORD
  5
194
330
1
100
AcDbSymbolTableRecord
100
AcDbBlockTableRecord
  2
block 33
340
0
102
{BLKREFS
331
195
102
}
  0
BLOCK_RECORD
  5
1A2
330
1
100
AcDbSymbolTableRecord
100
AcDbBlockTableRecord
  2
block 34
340
0
102
{BLKREFS
331
1A3
102
}
  0
BLOCK_RECORD
  5
1A7
330
1
100
AcDbSymbolTableRecord
100
AcDbBlockTableRecord
  2
block 35
340
0
102
{BLKREFS
331
1A8
102
}
  0
BLOCK_RECORD
  5
1AB
330
1
100
AcDbSymbolTableRecord
100
AcDbBlockTableRecord
  2
block 36
340
0
102
{BLKREFS
331
1AC
102
}
  0
BLOCK_RECORD
  5
1B6
330
1
100
AcDbSymbolTableRecord
100
AcDbBlockTableRecord
  2
block 37
340
0
102
{BLKREFS
331
1B7
102
}
  0
BLOCK_RECORD
  5
1D1
330
1
100
AcDbSymbolTableRecord
100
AcDbBlockTableRecord
  2
block 38
340
0
102
{BLKREFS
331
1D2
102
}
  0
BLOCK_RECORD
  5
1DC
330
1
100
AcDbSymbolTableRecord
100
AcDbBlockTableRecord
  2
block 39
340
0
102
{BLKREFS
331
1DD
102
}
  0
BLOCK_RECORD
  5
1EF
330
1
100
AcDbSymbolTableRecord
100
AcDbBlockTableRecord
  2
block 40
340
0
102
{BLKREFS
331
1F0
102
}
  0
BLOCK_RECORD
  5
1F3
330
1
100
AcDbSymbolTableRecord
100
AcDbBlockTableRecord
  2
block 41
340
0
102
{BLKREFS
331
1F4
102
}
  0
BLOCK_RECORD
  5
1F8
330
1
100
AcDbSymbolTableRecord
100
AcDbBlockTableRecord
  2
block 42
340
0
102
{BLKREFS
331
1F9
102
}
  0
BLOCK_RECORD
  5
20F
330
1
100
AcDbSymbolTableRecord
100
AcDbBlockTableRecord
  2
block 43
340
0
102
{BLKREFS
331
210
102
}
  0
BLOCK_RECORD
  5
21D
330
1
100
AcDbSymbolTableRecord
100
AcDbBlockTableRecord
  2
block 44
340
0
102
{BLKREFS
331
21E
102
}
  0
BLOCK_RECORD
  5
221
330
1
100
AcDbSymbolTableRecord
100
AcDbBlockTableRecord
  2
block 45
340
0
102
{BLKREFS
331
222
102
}
  0
BLOCK_RECORD
  5
226
330
1
100
AcDbSymbolTableRecord
100
AcDbBlockTableRecord
  2
block 46
340
0
102
{BLKREFS
331
227
102
}
  0
BLOCK_RECORD
  5
23D
330
1
100
AcDbSymbolTableRecord
100
AcDbBlockTableRecord
  2
block 47
340
0
102
{BLKREFS
331
23E
102
}
  0
BLOCK_RECORD
  5
241
330
1
100
AcDbSymbolTableRecord
100
AcDbBlockTableRecord
  2
block 48
340
0
102
{BLKREFS
331
242
102
}
  0
BLOCK_RECORD
  5
249
330
1
100
AcDbSymbolTableRecord
100
AcDbBlockTableRecord
  2
block 49
340
0
102
{BLKREFS
331
24A
102
}
  0
BLOCK_RECORD
  5
251
330
1
100
AcDbSymbolTableRecord
100
AcDbBlockTableRecord
  2
block 50
340
0
102
{BLKREFS
331
252
102
}
  0
BLOCK_RECORD
  5
259
330
1
100
AcDbSymbolTableRecord
100
AcDbBlockTableRecord
  2
block 51
340
0
102
{BLKREFS
331
25A
102
}
  0
BLOCK_RECORD
  5
261
330
1
100
AcDbSymbolTableRecord
100
AcDbBlockTableRecord
  2
block 52
340
0
102
{BLKREFS
331
262
102
}
  0
BLOCK_RECORD
  5
269
330
1
100
AcDbSymbolTableRecord
100
AcDbBlockTableRecord
  2
block 53
340
0
102
{BLKREFS
331
26A
102
}
  0
BLOCK_RECORD
  5
271
330
1
100
AcDbSymbolTableRecord
100
AcDbBlockTableRecord
  2
block 54
340
0
102
{BLKREFS
331
272
102
}
  0
BLOCK_RECORD
  5
279
330
1
100
AcDbSymbolTableRecord
100
AcDbBlockTableRecord
  2
block 55
340
0
102
{BLKREFS
331
27A
102
}
  0
BLOCK_RECORD
  5
281
330
1
100
AcDbSymbolTableRecord
100
AcDbBlockTableRecord
  2
block 56
340
0
102
{BLKREFS
331
282
102
}
  0
BLOCK_RECORD
  5
289
330
1
100
AcDbSymbolTableRecord
100
AcDbBlockTableRecord
  2
block 57
340
0
102
{BLKREFS
331
28A
102
}
  0
BLOCK_RECORD
  5
291
330
1
100
AcDbSymbolTableRecord
100
AcDbBlockTableRecord
  2
block 58
340
0
102
{BLKREFS
331
292
102
}
  0
BLOCK_RECORD
  5
299
330
1
100
AcDbSymbolTableRecord
100
AcDbBlockTableRecord
  2
block 59
340
0
102
{BLKREFS
331
29A
102
}
  0
BLOCK_RECORD
  5
2A1
330
1
100
AcDbSymbolTableRecord
100
AcDbBlockTableRecord
  2
block 60
340
0
102
{BLKREFS
331
2A2
102
}
  0
BLOCK_RECORD
  5
2A9
330
1
100
AcDbSymbolTableRecord
100
AcDbBlockTableRecord
  2
block 61
340
0
102
{BLKREFS
331
2AA
102
}
  0
BLOCK_RECORD
  5
2B1
330
1
100
AcDbSymbolTableRecord
100
AcDbBlockTableRecord
  2
block 62
340
0
102
{BLKREFS
331
2B2
102
}
  0
BLOCK_RECORD
  5
2B9
330
1
100
AcDbSymbolTableRecord
100
AcDbBlockTableRecord
  2
block 63
340
0
102
{BLKREFS
331
2BA
102
}
  0
BLOCK_RECORD
  5
2C1
330
1
100
AcDbSymbolTableRecord
100
AcDbBlockTableRecord
  2
block 64
340
0
102
{BLKREFS
331
2C2
102
}
  0
BLOCK_RECORD
  5
2C9
330
1
100
AcDbSymbolTableRecord
100
AcDbBlockTableRecord
  2
block 65
340
0
102
{BLKREFS
331
2CA
102
}
  0
BLOCK_RECORD
  5
2D1
330
1
100
AcDbSymbolTableRecord
100
AcDbBlockTableRecord
  2
block 66
340
0
102
{BLKREFS
331
2D2
102
}
  0
BLOCK_RECORD
  5
2D9
330
1
100
AcDbSymbolTableRecord
100
AcDbBlockTableRecord
  2
block 67
340
0
102
{BLKREFS
331
2DA
102
}
  0
BLOCK_RECORD
  5
2E1
330
1
100
AcDbSymbolTableRecord
100
AcDbBlockTableRecord
  2
block 68
340
0
102
{BLKREFS
331
2E2
102
}
  0
BLOCK_RECORD
  5
2E9
330
1
100
AcDbSymbolTableRecord
100
AcDbBlockTableRecord
  2
block 69
340
0
102
{BLKREFS
331
2EA
102
}
  0
BLOCK_RECORD
  5
2F1
330
1
100
AcDbSymbolTableRecord
100
AcDbBlockTableRecord
  2
block 70
340
0
102
{BLKREFS
331
2F2
102
}
  0
BLOCK_RECORD
  5
2F9
330
1
100
AcDbSymbolTableRecord
100
AcDbBlockTableRecord
  2
block 71
340
0
102
{BLKREFS
331
2FA
102
}
  0
BLOCK_RECORD
  5
2FE
330
1
100
AcDbSymbolTableRecord
100
AcDbBlockTableRecord
  2
block 72
340
0
102
{BLKREFS
331
2FF
102
}
  0
BLOCK_RECORD
  5
303
330
1
100
AcDbSymbolTableRecord
100
AcDbBlockTableRecord
  2
block 73
340
0
102
{BLKREFS
331
304
102
}
  0
BLOCK_RECORD
  5
308
330
1
100
AcDbSymbolTableRecord
100
AcDbBlockTableRecord
  2
block 74
340
0
102
{BLKREFS
331
309
102
}
  0
BLOCK_RECORD
  5
30D
330
1
100
AcDbSymbolTableRecord
100
AcDbBlockTableRecord
  2
block 75
340
0
102
{BLKREFS
331
30E
102
}
  0
BLOCK_RECORD
  5
312
330
1
100
AcDbSymbolTableRecord
100
AcDbBlockTableRecord
  2
block 76
340
0
102
{BLKREFS
331
313
102
}
  0
BLOCK_RECORD
  5
31A
330
1
100
AcDbSymbolTableRecord
100
AcDbBlockTableRecord
  2
block 77
340
0
102
{BLKREFS
331
31B
102
}
  0
BLOCK_RECORD
  5
322
330
1
100
AcDbSymbolTableRecord
100
AcDbBlockTableRecord
  2
block 78
340
0
102
{BLKREFS
331
323
102
}
  0
BLOCK_RECORD
  5
32A
330
1
100
AcDbSymbolTableRecord
100
AcDbBlockTableRecord
  2
block 79
340
0
102
{BLKREFS
331
32B
102
}
  0
BLOCK_RECORD
  5
332
330
1
100
AcDbSymbolTableRecord
100
AcDbBlockTableRecord
  2
block 80
340
0
102
{BLKREFS
331
333
102
}
  0
ENDTAB
  0
ENDSEC
  0
SECTION
  2
BLOCKS
  0
BLOCK
  5
20
330
1F
100
AcDbEntity
  8
0
100
AcDbBlockBegin
  2
*Model_Space
 70
     0
 71
     0
 10
0.0
 20
0.0
 30
0.0
  3
*Model_Space
  1

  0
ENDBLK
  5
21
330
1F
100
AcDbEntity
  8
0
100
AcDbBlockEnd
  0
BLOCK
  5
1C
330
1B
100
AcDbEntity
 67
     1
  8
0
100
AcDbBlockBegin
  2
*Paper_Space
 70
     0
 71
     0
 10
0.0
 20
0.0
 30
0.0
  3
*Paper_Space
  1

  0
ENDBLK
  5
1D
330
1B
100
AcDbEntity
 67
     1
  8
0
100
AcDbBlockEnd
  0
BLOCK
  5
24
330
23
100
AcDbEntity
  8
0
100
AcDbBlockBegin
  2
*Paper_Space0
 70
     0
 71
     0
 10
0.0
 20
0.0
 30
0.0
  3
*Paper_Space0
  1

  0
ENDBLK
  5
25
330
23
100
AcDbEntity
  8
0
100
AcDbBlockEnd
  0
BLOCK
  5
3E
330
3C
100
AcDbEntity
  8
0
100
AcDbBlockBegin
  2
block 2
 70
     0
 71
     0
 10
0.0
 20
0.0
 30
0.0
  3
block 2
  1

  0
INSERT
  5
41
330
3C
100
AcDbEntity
  8
Layer 1
100
AcDbBlockReference
  2
block 3
 10
0.0
 20
0.0
 30
0.0
  0
INSERT
  5
46
330
3C
100
AcDbEntity
  8
Layer 1
100
AcDbBlockReference
  2
block 4
 10
0.0
 20
0.0
 30
0.0
  0
ENDBLK
  5
3F
330
3C
100
AcDbEntity
  8
0
100
AcDbBlockEnd
  0
BLOCK
  5
42
330
40
100
AcDbEntity
  8
0
100
AcDbBlockBegin
  2
block 3
 70
     0
 71
     0
 10
0.0
 20
0.0
 30
0.0
  3
block 3
  1

  0
SPLINE
  5
44
330
40
100
AcDbEntity
  8
Layer 1
 62
     7
420
 16777215
370
    25
100
AcDbSpline
210
0.0
220
0.0
230
1.0
 70
    11
 71
     3
 72
    29
 73
    25
 74
     0
 42
0.0000000001
 43
0.0000000001
 40
0.0
 40
0.0
 40
0.0
 40
0.0
 40
1.0
 40
1.0
 40
1.0
 40
2.0
 40
2.0
 40
2.0
 40
3.0
 40
3.0
 40
3.0
 40
4.0
 40
4.0
 40
4.0
 40
5.0
 40
5.0
 40
5.0
 40
6.0
 40
6.0
 40
6.0
 40
7.0
 40
7.0
 40
7.0
 40
8.0
 40
8.0
 40
8.0
 40
8.0
 10
252.9991996980349
 20
85.0611300785611
 30
0.0
 10
252.9991996980349
 20
85.0611300785611
 30
0.0
 10
252.9991996980349
 20
124.938799339425
 30
0.0
 10
252.9991996980349
 20
124.938799339425
 30
0.0
 10
252.9991996980349
 20
130.4619764213776
 30
0.0
 10
248.5222981149528
 20
134.9392225140083
 30
0.0
 10
242.9994655425488
 20
134.9392225140083
 30
0.0
 10
242.9994655425488
 20
134.9392225140083
 30
0.0
 10
172.9992593968544
 20
134.9392225140083
 30
0.0
 10
172.9992593968544
 20
134.9392225140083
 30
0.0
 10
167.4764268244504
 20
134.9392225140083
 30
0.0
 10
162.9991807318196
 20
130.4619764213776
 30
0.0
 10
162.9991807318196
 20
124.938799339425
 30
0.0
 10
162.9991807318196
 20
124.938799339425
 30
0.0
 10
162.9991807318196
 20
85.0611300785611
 30
0.0
 10
162.9991807318196
 20
85.0611300785611
 30
0.0
 10
162.9991807318196
 20
79.53795299660857
 30
0.0
 10
167.4764268244504
 20
75.06070690397789
 30
0.0
 10
172.9992593968544
 20
75.06070690397789
 30
0.0
 10
172.9992593968544
 20
75.06070690397789
 30
0.0
 10
242.9994655425488
 20
75.06070690397789
 30
0.0
 10
242.9994655425488
 20
75.06070690397789
 30
0.0
 10
248.5222981149528
 20
75.06070690397789
 30
0.0
 10
252.9991996980349
 20
79.53795299660857
 30
0.0
 10
252.9991996980349
 20
85.0611300785611
 30
0.0
  0
ENDBLK
  5
43
330
40
100
AcDbEntity
  8
0
100
AcDbBlockEnd
  0
BLOCK
  5
47
330
45
100
AcDbEntity
  8
0
100
AcDbBlockBegin
  2
block 4
 70
     0
 71
     0
 10
0.0
 20
0.0
 30
0.0
  3
block 4
  1

  0
POLYLINE
  5
49
330
45
100
AcDbEntity
  8
Layer 1
 62
     7
420
 16777215
370
    25
100
AcDb2dPolyline
 66
     1
 10
0.0
 20
0.0
 30
0.0
  0
VERTEX
  5
4A
330
49
100
AcDbEntity
  8
Layer 1
 62
     7
420
 16777215
370
    25
100
AcDbVertex
100
AcDb2dVertex
 10
262.9992783630697
 20
144.9389566694944
 30
0.0
  0
VERTEX
  5
4B
330
49
100
AcDbEntity
  8
Layer 1
 62
     7
420
 16777215
370
    25
100
AcDbVertex
100
AcDb2dVertex
 10
262.9992783630697
 20
65.06097274849171
 30
0.0
  0
VERTEX
  5
4C
330
49
100
AcDbEntity
  8
Layer 1
 62
     7
420
 16777215
370
    25
100
AcDbVertex
100
AcDb2dVertex
 10
152.9994465763335
 20
65.06097274849171
 30
0.0
  0
VERTEX
  5
4D
330
49
100
AcDbEntity
  8
Layer 1
 62
     7
420
 16777215
370
    25
100
AcDbVertex
100
AcDb2dVertex
 10
152.9994465763335
 20
144.9389566694944
 30
0.0
  0
VERTEX
  5
4E
330
49
100
AcDbEntity
  8
Layer 1
 62
     7
420
 16777215
370
    25
100
AcDbVertex
100
AcDb2dVertex
 10
262.9992783630697
 20
144.9389566694944
 30
0.0
  0
SEQEND
  5
4F
330
49
100
AcDbEntity
  8
Layer 1
370
    25
  0
ENDBLK
  5
48
330
45
100
AcDbEntity
  8
0
100
AcDbBlockEnd
  0
BLOCK
  5
52
330
50
100
AcDbEntity
  8
0
100
AcDbBlockBegin
  2
block 5
 70
     0
 71
     0
 10
0.0
 20
0.0
 30
0.0
  3
block 5
  1

  0
INSERT
  5
55
330
50
100
AcDbEntity
  8
Layer 1
100
AcDbBlockReference
  2
block 6
 10
0.0
 20
0.0
 30
0.0
  0
INSERT
  5
5A
330
50
100
AcDbEntity
  8
Layer 1
100
AcDbBlockReference
  2
block 7
 10
0.0
 20
0.0
 30
0.0
  0
INSERT
  5
5F
330
50
100
AcDbEntity
  8
Layer 1
100
AcDbBlockReference
  2
block 8
 10
0.0
 20
0.0
 30
0.0
  0
INSERT
  5
6A
330
50
100
AcDbEntity
  8
Layer 1
100
AcDbBlockReference
  2
block 9
 10
0.0
 20
0.0
 30
0.0
  0
INSERT
  5
75
330
50
100
AcDbEntity
  8
Layer 1
100
AcDbBlockReference
  2
block 10
 10
0.0
 20
0.0
 30
0.0
  0
ENDBLK
  5
53
330
50
100
AcDbEntity
  8
0
100
AcDbBlockEnd
  0
BLOCK
  5
56
330
54
100
AcDbEntity
  8
0
100
AcDbBlockBegin
  2
block 6
 70
     0
 71
     0
 10
0.0
 20
0.0
 30
0.0
  3
block 6
  1

  0
SPLINE
  5
58
330
54
100
AcDbEntity
  8
Layer 1
 62
     7
420
 16777215
370
    25
100
AcDbSpline
210
0.0
220
0.0
230
1.0
 70
    11
 71
     3
 72
    29
 73
    25
 74
     0
 42
0.0000000001
 43
0.0000000001
 40
0.0
 40
0.0
 40
0.0
 40
0.0
 40
1.0
 40
1.0
 40
1.0
 40
2.0
 40
2.0
 40
2.0
 40
3.0
 40
3.0
 40
3.0
 40
4.0
 40
4.0
 40
4.0
 40
5.0
 40
5.0
 40
5.0
 40
6.0
 40
6.0
 40
6.0
 40
7.0
 40
7.0
 40
7.0
 40
8.0
 40
8.0
 40
8.0
 40
8.0
 10
350.4991915356391
 20
-31.44028590793854
 30
0.0
 10
350.4991915356391
 20
-31.44028590793854
 30
0.0
 10
350.4991915356391
 20
-39.56037596667241
 30
0.0
 10
350.4991915356391
 20
-39.56037596667241
 30
0.0
 10
350.4991915356391
 20
-42.32196450764868
 30
0.0
 10
348.2605684893238
 20
-44.56058755396402
 30
0.0
 10
345.499324457896
 20
-44.56058755396402
 30
0.0
 10
345.499324457896
 20
-44.56058755396402
 30
0.0
 10
325.9993949922849
 20
-44.56058755396402
 30
0.0
 10
325.9993949922849
 20
-44.56058755396402
 30
0.0
 10
323.2378064513086
 20
-44.56058755396402
 30
0.0
 10
320.9991834049933
 20
-42.32196450764868
 30
0.0
 10
320.9991834049933
 20
-39.56037596667241
 30
0.0
 10
320.9991834049933
 20
-39.56037596667241
 30
0.0
 10
320.9991834049933
 20
-31.44028590793854
 30
0.0
 10
320.9991834049933
 20
-31.44028590793854
 30
0.0
 10
320.9991834049933
 20
-28.67869736696227
 30
0.0
 10
323.2378064513086
 20
-26.44007432064693
 30
0.0
 10
325.9993949922849
 20
-26.44007432064693
 30
0.0
 10
325.9993949922849
 20
-26.44007432064693
 30
0.0
 10
345.499324457896
 20
-26.44007432064693
 30
0.0
 10
345.499324457896
 20
-26.44007432064693
 30
0.0
 10
348.2605684893238
 20
-26.44007432064693
 30
0.0
 10
350.4991915356391
 20
-28.67869736696227
 30
0.0
 10
350.4991915356391
 20
-31.44028590793854
 30
0.0
  0
ENDBLK
  5
57
330
54
100
AcDbEntity
  8
0
100
AcDbBlockEnd
  0
BLOCK
  5
5B
330
59
100
AcDbEntity
  8
0
100
AcDbBlockBegin
  2
block 7
 70
     0
 71
     0
 10
0.0
 20
0.0
 30
0.0
  3
block 7
  1

  0
SPLINE
  5
5D
330
59
100
AcDbEntity
  8
Layer 1
 62
     7
420
 16777215
370
    25
100
AcDbSpline
210
0.0
220
0.0
230
1.0
 70
    11
 71
     3
 72
    80
 73
    76
 74
     0
 42
0.0000000001
 43
0.0000000001
 40
0.0
 40
0.0
 40
0.0
 40
0.0
 40
1.0
 40
1.0
 40
1.0
 40
2.0
 40
2.0
 40
2.0
 40
3.0
 40
3.0
 40
3.0
 40
4.0
 40
4.0
 40
4.0
 40
5.0
 40
5.0
 40
5.0
 40
6.0
 40
6.0
 40
6.0
 40
7.0
 40
7.0
 40
7.0
 40
8.0
 40
8.0
 40
8.0
 40
9.0
 40
9.0
 40
9.0
 40
10.0
 40
10.0
 40
10.0
 40
11.0
 40
11.0
 40
11.0
 40
12.0
 40
12.0
 40
12.0
 40
13.0
 40
13.0
 40
13.0
 40
14.0
 40
14.0
 40
14.0
 40
15.0
 40
15.0
 40
15.0
 40
16.0
 40
16.0
 40
16.0
 40
17.0
 40
17.0
 40
17.0
 40
18.0
 40
18.0
 40
18.0
 40
19.0
 40
19.0
 40
19.0
 40
20.0
 40
20.0
 40
20.0
 40
21.0
 40
21.0
 40
21.0
 40
22.0
 40
22.0
 40
22.0
 40
23.0
 40
23.0
 40
23.0
 40
24.0
 40
24.0
 40
24.0
 40
25.0
 40
25.0
 40
25.0
 40
25.0
 10
378.9994329564655
 20
-24.44054090100792
 30
0.0
 10
378.9994329564655
 20
-24.44054090100792
 30
0.0
 10
378.9994329564655
 20
-20.44009602353581
 30
0.0
 10
378.9994329564655
 20
-20.44009602353581
 30
0.0
 10
378.9994329564655
 20
-20.44009602353581
 30
0.0
 10
317.9991942564377
 20
-20.44009602353581
 30
0.0
 10
317.9991942564377
 20
-20.44009602353581
 30
0.0
 10
316.8946966438666
 20
-20.44009602353581
 30
0.0
 10
315.9993163272502
 20
-21.33582084970077
 30
0.0
 10
315.9993163272502
 20
-22.44031846227186
 30
0.0
 10
315.9993163272502
 20
-22.44031846227186
 30
0.0
 10
315.9993163272502
 20
-60.26057669934458
 30
0.0
 10
315.9993163272502
 20
-60.26057669934458
 30
0.0
 10
315.9993163272502
 20
-60.26057669934458
 30
0.0
 10
318.9993054758057
 20
-60.26057669934458
 30
0.0
 10
318.9993054758057
 20
-60.26057669934458
 30
0.0
 10
318.9993054758057
 20
-60.26057669934458
 30
0.0
 10
318.9993054758057
 20
-69.95989852851697
 30
0.0
 10
318.9993054758057
 20
-69.95989852851697
 30
0.0
 10
318.9993054758057
 20
-69.95989852851697
 30
0.0
 10
315.9993163272502
 20
-69.95989852851697
 30
0.0
 10
315.9993163272502
 20
-69.95989852851697
 30
0.0
 10
315.9993163272502
 20
-69.95989852851697
 30
0.0
 10
315.9993163272502
 20
-79.65990937678642
 30
0.0
 10
315.9993163272502
 20
-79.65990937678642
 30
0.0
 10
315.9993163272502
 20
-79.65990937678642
 30
0.0
 10
318.9993054758057
 20
-79.65990937678642
 30
0.0
 10
318.9993054758057
 20
-79.65990937678642
 30
0.0
 10
318.9993054758057
 20
-79.65990937678642
 30
0.0
 10
318.9993054758057
 20
-89.35992022505586
 30
0.0
 10
318.9993054758057
 20
-89.35992022505586
 30
0.0
 10
318.9993054758057
 20
-89.35992022505586
 30
0.0
 10
315.9993163272502
 20
-89.35992022505586
 30
0.0
 10
315.9993163272502
 20
-89.35992022505586
 30
0.0
 10
315.9993163272502
 20
-89.35992022505586
 30
0.0
 10
315.9993163272502
 20
-97.55993649904752
 30
0.0
 10
315.9993163272502
 20
-97.55993649904752
 30
0.0
 10
315.9993163272502
 20
-97.55993649904752
 30
0.0
 10
425.9994926235349
 20
-97.55993649904752
 30
0.0
 10
425.9994926235349
 20
-97.55993649904752
 30
0.0
 10
425.9994926235349
 20
-97.55993649904752
 30
0.0
 10
425.9994926235349
 20
-82.93619518325902
 30
0.0
 10
425.9994926235349
 20
-82.93619518325902
 30
0.0
 10
425.9994926235349
 20
-82.93619518325902
 30
0.0
 10
422.9995034749793
 20
-82.93619518325902
 30
0.0
 10
422.9995034749793
 20
-82.93619518325902
 30
0.0
 10
422.9995034749793
 20
-82.93619518325902
 30
0.0
 10
422.9995034749793
 20
-68.3124538674705
 30
0.0
 10
422.9995034749793
 20
-68.3124538674705
 30
0.0
 10
422.9995034749793
 20
-68.3124538674705
 30
0.0
 10
425.9994926235349
 20
-68.3124538674705
 30
0.0
 10
425.9994926235349
 20
-68.3124538674705
 30
0.0
 10
425.9994926235349
 20
-68.3124538674705
 30
0.0
 10
425.9994926235349
 20
-53.68802353258494
 30
0.0
 10
425.9994926235349
 20
-53.68802353258494
 30
0.0
 10
425.9994926235349
 20
-53.68802353258494
 30
0.0
 10
422.9995034749793
 20
-53.68802353258494
 30
0.0
 10
422.9995034749793
 20
-53.68802353258494
 30
0.0
 10
422.9995034749793
 20
-53.68802353258494
 30
0.0
 10
422.9995034749793
 20
-39.06428221679643
 30
0.0
 10
422.9995034749793
 20
-39.06428221679643
 30
0.0
 10
422.9995034749793
 20
-39.06428221679643
 30
0.0
 10
425.9994926235349
 20
-39.06428221679643
 30
0.0
 10
425.9994926235349
 20
-39.06428221679643
 30
0.0
 10
425.9994926235349
 20
-39.06428221679643
 30
0.0
 10
425.9994926235349
 20
-20.44009602353581
 30
0.0
 10
425.9994926235349
 20
-20.44009602353581
 30
0.0
 10
425.9994926235349
 20
-20.44009602353581
 30
0.0
 10
402.4991182804516
 20
-20.44009602353581
 30
0.0
 10
402.4991182804516
 20
-20.44009602353581
 30
0.0
 10
402.4991182804516
 20
-20.44009602353581
 30
0.0
 10
402.4991182804516
 20
-24.44054090100792
 30
0.0
 10
402.4991182804516
 20
-24.44054090100792
 30
0.0
 10
402.4991182804516
 20
-24.44054090100792
 30
0.0
 10
378.9994329564655
 20
-24.44054090100792
 30
0.0
 10
378.9994329564655
 20
-24.44054090100792
 30
0.0
  0
ENDBLK
  5
5C
330
59
100
AcDbEntity
  8
0
100
AcDbBlockEnd
  0
BLOCK
  5
60
330
5E
100
AcDbEntity
  8
0
100
AcDbBlockBegin
  2
block 8
 70
     0
 71
     0
 10
0.0
 20
0.0
 30
0.0
  3
block 8
  1

  0
POLYLINE
  5
62
330
5E
100
AcDbEntity
  8
Layer 1
 62
     7
420
 16777215
370
    25
100
AcDb2dPolyline
 66
     1
 10
0.0
 20
0.0
 30
0.0
  0
VERTEX
  5
63
330
62
100
AcDbEntity
  8
Layer 1
 62
     7
420
 16777215
370
    25
100
AcDbVertex
100
AcDb2dVertex
 10
332.1661159108821
 20
-50.56056585107514
 30
0.0
  0
VERTEX
  5
64
330
62
100
AcDbEntity
  8
Layer 1
 62
     7
420
 16777215
370
    25
100
AcDbVertex
100
AcDb2dVertex
 10
345.3325818364099
 20
-50.56056585107514
 30
0.0
  0
VERTEX
  5
65
330
62
100
AcDbEntity
  8
Layer 1
 62
     7
420
 16777215
370
    25
100
AcDbVertex
100
AcDb2dVertex
 10
345.3325818364099
 20
-53.5605549996307
 30
0.0
  0
VERTEX
  5
66
330
62
100
AcDbEntity
  8
Layer 1
 62
     7
420
 16777215
370
    25
100
AcDbVertex
100
AcDb2dVertex
 10
332.1661159108821
 20
-53.5605549996307
 30
0.0
  0
VERTEX
  5
67
330
62
100
AcDbEntity
  8
Layer 1
 62
     7
420
 16777215
370
    25
100
AcDbVertex
100
AcDb2dVertex
 10
332.1661159108821
 20
-50.56056585107514
 30
0.0
  0
SEQEND
  5
68
330
62
100
AcDbEntity
  8
Layer 1
370
    25
  0
ENDBLK
  5
61
330
5E
100
AcDbEntity
  8
0
100
AcDbBlockEnd
  0
BLOCK
  5
6B
330
69
100
AcDbEntity
  8
0
100
AcDbBlockBegin
  2
block 9
 70
     0
 71
     0
 10
0.0
 20
0.0
 30
0.0
  3
block 9
  1

  0
POLYLINE
  5
6D
330
69
100
AcDbEntity
  8
Layer 1
 62
     7
420
 16777215
370
    25
100
AcDb2dPolyline
 66
     1
 10
0.0
 20
0.0
 30
0.0
  0
VERTEX
  5
6E
330
6D
100
AcDbEntity
  8
Layer 1
 62
     7
420
 16777215
370
    25
100
AcDbVertex
100
AcDb2dVertex
 10
355.4994031229307
 20
-33.14698621133131
 30
0.0
  0
VERTEX
  5
6F
330
6D
100
AcDbEntity
  8
Layer 1
 62
     7
420
 16777215
370
    25
100
AcDbVertex
100
AcDb2dVertex
 10
358.4993922714863
 20
-33.14698621133131
 30
0.0
  0
VERTEX
  5
70
330
6D
100
AcDbEntity
  8
Layer 1
 62
     7
420
 16777215
370
    25
100
AcDbVertex
100
AcDb2dVertex
 10
358.4993922714863
 20
-41.8534315216547
 30
0.0
  0
VERTEX
  5
71
330
6D
100
AcDbEntity
  8
Layer 1
 62
     7
420
 16777215
370
    25
100
AcDbVertex
100
AcDb2dVertex
 10
355.4994031229307
 20
-41.8534315216547
 30
0.0
  0
VERTEX
  5
72
330
6D
100
AcDbEntity
  8
Layer 1
 62
     7
420
 16777215
370
    25
100
AcDbVertex
100
AcDb2dVertex
 10
355.4994031229307
 20
-33.14698621133131
 30
0.0
  0
SEQEND
  5
73
330
6D
100
AcDbEntity
  8
Layer 1
370
    25
  0
ENDBLK
  5
6C
330
69
100
AcDbEntity
  8
0
100
AcDbBlockEnd
  0
BLOCK
  5
76
330
74
100
AcDbEntity
  8
0
100
AcDbBlockBegin
  2
block 10
 70
     0
 71
     0
 10
0.0
 20
0.0
 30
0.0
  3
block 10
  1

  0
SPLINE
  5
78
330
74
100
AcDbEntity
  8
Layer 1
 62
     7
420
 16777215
370
    25
100
AcDbSpline
210
0.0
220
0.0
230
1.0
 70
    11
 71
     3
 72
    20
 73
    16
 74
     0
 42
0.0000000001
 43
0.0000000001
 40
0.0
 40
0.0
 40
0.0
 40
0.0
 40
1.0
 40
1.0
 40
1.0
 40
2.0
 40
2.0
 40
2.0
 40
3.0
 40
3.0
 40
3.0
 40
4.0
 40
4.0
 40
4.0
 40
5.0
 40
5.0
 40
5.0
 40
5.0
 10
384.399275620046
 20
-33.79053004797598
 30
0.0
 10
384.399275620046
 20
-30.28342284399164
 30
0.0
 10
387.2421684144742
 20
-27.44053004956348
 30
0.0
 10
390.7492756184585
 20
-27.44053004956348
 30
0.0
 10
394.2563828224428
 20
-27.44053004956348
 30
0.0
 10
397.099275616871
 20
-30.28342284399164
 30
0.0
 10
397.099275616871
 20
-33.79053004797598
 30
0.0
 10
397.099275616871
 20
-37.29694823286327
 30
0.0
 10
394.2563828224428
 20
-40.14053004638848
 30
0.0
 10
390.7492756184585
 20
-40.14053004638848
 30
0.0
 10
387.2421684144742
 20
-40.14053004638848
 30
0.0
 10
384.399275620046
 20
-37.29694823286327
 30
0.0
 10
384.399275620046
 20
-33.79053004797598
 30
0.0
 10
384.399275620046
 20
-33.79053004797598
 30
0.0
 10
384.399275620046
 20
-33.79053004797598
 30
0.0
 10
384.399275620046
 20
-33.79053004797598
 30
0.0
  0
ENDBLK
  5
77
330
74
100
AcDbEntity
  8
0
100
AcDbBlockEnd
  0
BLOCK
  5
7B
330
79
100
AcDbEntity
  8
0
100
AcDbBlockBegin
  2
block 11
 70
     0
 71
     0
 10
0.0
 20
0.0
 30
0.0
  3
block 11
  1

  0
INSERT
  5
7E
330
79
100
AcDbEntity
  8
Layer 1
100
AcDbBlockReference
  2
block 12
 10
0.0
 20
0.0
 30
0.0
  0
INSERT
  5
83
330
79
100
AcDbEntity
  8
Layer 1
100
AcDbBlockReference
  2
block 13
 10
0.0
 20
0.0
 30
0.0
  0
INSERT
  5
8E
330
79
100
AcDbEntity
  8
Layer 1
100
AcDbBlockReference
  2
block 14
 10
0.0
 20
0.0
 30
0.0
  0
INSERT
  5
99
330
79
100
AcDbEntity
  8
Layer 1
100
AcDbBlockReference
  2
block 15
 10
0.0
 20
0.0
 30
0.0
  0
INSERT
  5
9E
330
79
100
AcDbEntity
  8
Layer 1
100
AcDbBlockReference
  2
block 16
 10
0.0
 20
0.0
 30
0.0
  0
ENDBLK
  5
7C
330
79
100
AcDbEntity
  8
0
100
AcDbBlockEnd
  0
BLOCK
  5
7F
330
7D
100
AcDbEntity
  8
0
100
AcDbBlockBegin
  2
block 12
 70
     0
 71
     0
 10
0.0
 20
0.0
 30
0.0
  3
block 12
  1

  0
SPLINE
  5
81
330
7D
100
AcDbEntity
  8
Layer 1
 62
     7
420
 16777215
370
    25
100
AcDbSpline
210
0.0
220
0.0
230
1.0
 70
    11
 71
     3
 72
    29
 73
    25
 74
     0
 42
0.0000000001
 43
0.0000000001
 40
0.0
 40
0.0
 40
0.0
 40
0.0
 40
1.0
 40
1.0
 40
1.0
 40
2.0
 40
2.0
 40
2.0
 40
3.0
 40
3.0
 40
3.0
 40
4.0
 40
4.0
 40
4.0
 40
5.0
 40
5.0
 40
5.0
 40
6.0
 40
6.0
 40
6.0
 40
7.0
 40
7.0
 40
7.0
 40
8.0
 40
8.0
 40
8.0
 40
8.0
 10
163.4394639348346
 20
28.4998969112778
 30
0.0
 10
163.4394639348346
 20
28.4998969112778
 30
0.0
 10
171.5588649744714
 20
28.4998969112778
 30
0.0
 10
171.5588649744714
 20
28.4998969112778
 30
0.0
 10
174.3204535154477
 20
28.4998969112778
 30
0.0
 10
176.559076561763
 20
30.73851995759315
 30
0.0
 10
176.559076561763
 20
33.49976398902089
 30
0.0
 10
176.559076561763
 20
33.49976398902089
 30
0.0
 10
176.559076561763
 20
52.99986570940629
 30
0.0
 10
176.559076561763
 20
52.99986570940629
 30
0.0
 10
176.559076561763
 20
55.76145425038256
 30
0.0
 10
174.3204535154477
 20
58.0000772966979
 30
0.0
 10
171.5588649744714
 20
58.0000772966979
 30
0.0
 10
171.5588649744714
 20
58.0000772966979
 30
0.0
 10
163.4394639348346
 20
57.99990504192364
 30
0.0
 10
163.4394639348346
 20
57.99990504192364
 30
0.0
 10
160.6778753938583
 20
57.99990504192364
 30
0.0
 10
158.439252347543
 20
55.76128199560829
 30
0.0
 10
158.439252347543
 20
52.99969345463202
 30
0.0
 10
158.439252347543
 20
52.99969345463202
 30
0.0
 10
158.439252347543
 20
33.49976398902089
 30
0.0
 10
158.439252347543
 20
33.49976398902089
 30
0.0
 10
158.439252347543
 20
30.73851995759315
 30
0.0
 10
160.6778753938583
 20
28.4998969112778
 30
0.0
 10
163.4394639348346
 20
28.4998969112778
 30
0.0
  0
ENDBLK
  5
80
330
7D
100
AcDbEntity
  8
0
100
AcDbBlockEnd
  0
BLOCK
  5
84
330
82
100
AcDbEntity
  8
0
100
AcDbBlockBegin
  2
block 13
 70
     0
 71
     0
 10
0.0
 20
0.0
 30
0.0
  3
block 13
  1

  0
POLYLINE
  5
86
330
82
100
AcDbEntity
  8
Layer 1
 62
     7
420
 16777215
370
    25
100
AcDb2dPolyline
 66
     1
 10
0.0
 20
0.0
 30
0.0
  0
VERTEX
  5
87
330
86
100
AcDbEntity
  8
Layer 1
 62
     7
420
 16777215
370
    25
100
AcDbVertex
100
AcDb2dVertex
 10
185.5590440074297
 20
33.66650661050699
 30
0.0
  0
VERTEX
  5
88
330
86
100
AcDbEntity
  8
Layer 1
 62
     7
420
 16777215
370
    25
100
AcDbVertex
100
AcDb2dVertex
 10
185.5590440074297
 20
46.83297253603482
 30
0.0
  0
VERTEX
  5
89
330
86
100
AcDbEntity
  8
Layer 1
 62
     7
420
 16777215
370
    25
100
AcDbVertex
100
AcDb2dVertex
 10
182.5590548588741
 20
46.83297253603482
 30
0.0
  0
VERTEX
  5
8A
330
86
100
AcDbEntity
  8
Layer 1
 62
     7
420
 16777215
370
    25
100
AcDbVertex
100
AcDb2dVertex
 10
182.5590548588741
 20
33.66650661050699
 30
0.0
  0
VERTEX
  5
8B
330
86
100
AcDbEntity
  8
Layer 1
 62
     7
420
 16777215
370
    25
100
AcDbVertex
100
AcDb2dVertex
 10
185.5590440074297
 20
33.66650661050699
 30
0.0
  0
SEQEND
  5
8C
330
86
100
AcDbEntity
  8
Layer 1
370
    25
  0
ENDBLK
  5
85
330
82
100
AcDbEntity
  8
0
100
AcDbBlockEnd
  0
BLOCK
  5
8F
330
8D
100
AcDbEntity
  8
0
100
AcDbBlockBegin
  2
block 14
 70
     0
 71
     0
 10
0.0
 20
0.0
 30
0.0
  3
block 14
  1

  0
POLYLINE
  5
91
330
8D
100
AcDbEntity
  8
Layer 1
 62
     7
420
 16777215
370
    25
100
AcDb2dPolyline
 66
     1
 10
0.0
 20
0.0
 30
0.0
  0
VERTEX
  5
92
330
91
100
AcDbEntity
  8
Layer 1
 62
     7
420
 16777215
370
    25
100
AcDbVertex
100
AcDb2dVertex
 10
173.8526095485507
 20
20.49969617543063
 30
0.0
  0
VERTEX
  5
93
330
91
100
AcDbEntity
  8
Layer 1
 62
     7
420
 16777215
370
    25
100
AcDbVertex
100
AcDb2dVertex
 10
173.8526095485507
 20
23.49968532398619
 30
0.0
  0
VERTEX
  5
94
330
91
100
AcDbEntity
  8
Layer 1
 62
     7
420
 16777215
370
    25
100
AcDbVertex
100
AcDb2dVertex
 10
165.1461642382274
 20
23.49968532398619
 30
0.0
  0
VERTEX
  5
95
330
91
100
AcDbEntity
  8
Layer 1
 62
     7
420
 16777215
370
    25
100
AcDbVertex
100
AcDb2dVertex
 10
165.1461642382274
 20
20.49969617543063
 30
0.0
  0
VERTEX
  5
96
330
91
100
AcDbEntity
  8
Layer 1
 62
     7
420
 16777215
370
    25
100
AcDbVertex
100
AcDb2dVertex
 10
173.8526095485507
 20
20.49969617543063
 30
0.0
  0
SEQEND
  5
97
330
91
100
AcDbEntity
  8
Layer 1
370
    25
  0
ENDBLK
  5
90
330
8D
100
AcDbEntity
  8
0
100
AcDbBlockEnd
  0
BLOCK
  5
9A
330
98
100
AcDbEntity
  8
0
100
AcDbBlockBegin
  2
block 15
 70
     0
 71
     0
 10
0.0
 20
0.0
 30
0.0
  3
block 15
  1

  0
SPLINE
  5
9C
330
98
100
AcDbEntity
  8
Layer 1
 62
     7
420
 16777215
370
    25
100
AcDbSpline
210
0.0
220
0.0
230
1.0
 70
    11
 71
     3
 72
    80
 73
    76
 74
     0
 42
0.0000000001
 43
0.0000000001
 40
0.0
 40
0.0
 40
0.0
 40
0.0
 40
1.0
 40
1.0
 40
1.0
 40
2.0
 40
2.0
 40
2.0
 40
3.0
 40
3.0
 40
3.0
 40
4.0
 40
4.0
 40
4.0
 40
5.0
 40
5.0
 40
5.0
 40
6.0
 40
6.0
 40
6.0
 40
7.0
 40
7.0
 40
7.0
 40
8.0
 40
8.0
 40
8.0
 40
9.0
 40
9.0
 40
9.0
 40
10.0
 40
10.0
 40
10.0
 40
11.0
 40
11.0
 40
11.0
 40
12.0
 40
12.0
 40
12.0
 40
13.0
 40
13.0
 40
13.0
 40
14.0
 40
14.0
 40
14.0
 40
15.0
 40
15.0
 40
15.0
 40
16.0
 40
16.0
 40
16.0
 40
17.0
 40
17.0
 40
17.0
 40
18.0
 40
18.0
 40
18.0
 40
19.0
 40
19.0
 40
19.0
 40
20.0
 40
20.0
 40
20.0
 40
21.0
 40
21.0
 40
21.0
 40
22.0
 40
22.0
 40
22.0
 40
23.0
 40
23.0
 40
23.0
 40
24.0
 40
24.0
 40
24.0
 40
25.0
 40
25.0
 40
25.0
 40
25.0
 10
156.4390299088069
 20
0.0
 30
0.0
 10
156.4390299088069
 20
0.0
 30
0.0
 10
152.4392740504319
 20
0.0
 30
0.0
 10
152.4392740504319
 20
0.0
 30
0.0
 10
152.4392740504319
 20
0.0
 30
0.0
 10
152.4392740504319
 20
60.9998941904792
 30
0.0
 10
152.4392740504319
 20
60.9998941904792
 30
0.0
 10
152.4392740504319
 20
62.10439180305029
 30
0.0
 10
153.3343098574998
 20
62.99977211966673
 30
0.0
 10
154.4394964891679
 20
62.99977211966673
 30
0.0
 10
154.4394964891679
 20
62.99977211966673
 30
0.0
 10
192.2590657071436
 20
62.99994437444099
 30
0.0
 10
192.2590657071436
 20
62.99994437444099
 30
0.0
 10
192.2590657071436
 20
62.99994437444099
 30
0.0
 10
192.2590657071436
 20
59.99995522588543
 30
0.0
 10
192.2590657071436
 20
59.99995522588543
 30
0.0
 10
192.2590657071436
 20
59.99995522588543
 30
0.0
 10
201.959076555413
 20
59.99995522588543
 30
0.0
 10
201.959076555413
 20
59.99995522588543
 30
0.0
 10
201.959076555413
 20
59.99995522588543
 30
0.0
 10
201.959076555413
 20
62.99994437444099
 30
0.0
 10
201.959076555413
 20
62.99994437444099
 30
0.0
 10
201.959076555413
 20
62.99994437444099
 30
0.0
 10
211.6590874036825
 20
62.99994437444099
 30
0.0
 10
211.6590874036825
 20
62.99994437444099
 30
0.0
 10
211.6590874036825
 20
62.99994437444099
 30
0.0
 10
211.6590874036825
 20
59.99995522588543
 30
0.0
 10
211.6590874036825
 20
59.99995522588543
 30
0.0
 10
211.6590874036825
 20
59.99995522588543
 30
0.0
 10
221.3590982519519
 20
59.99995522588543
 30
0.0
 10
221.3590982519519
 20
59.99995522588543
 30
0.0
 10
221.3590982519519
 20
59.99995522588543
 30
0.0
 10
221.3590982519519
 20
62.99994437444099
 30
0.0
 10
221.3590982519519
 20
62.99994437444099
 30
0.0
 10
221.3590982519519
 20
62.99994437444099
 30
0.0
 10
229.5591145259436
 20
62.99994437444099
 30
0.0
 10
229.5591145259436
 20
62.99994437444099
 30
0.0
 10
229.5591145259436
 20
62.99994437444099
 30
0.0
 10
229.5591145259436
 20
-47.00005966706943
 30
0.0
 10
229.5591145259436
 20
-47.00005966706943
 30
0.0
 10
229.5591145259436
 20
-47.00005966706943
 30
0.0
 10
214.9353732101551
 20
-47.00005966706943
 30
0.0
 10
214.9353732101551
 20
-47.00005966706943
 30
0.0
 10
214.9353732101551
 20
-47.00005966706943
 30
0.0
 10
214.9353732101551
 20
-44.00007051851387
 30
0.0
 10
214.9353732101551
 20
-44.00007051851387
 30
0.0
 10
214.9353732101551
 20
-44.00007051851387
 30
0.0
 10
200.3109428752695
 20
-44.00007051851387
 30
0.0
 10
200.3109428752695
 20
-44.00007051851387
 30
0.0
 10
200.3109428752695
 20
-44.00007051851387
 30
0.0
 10
200.3109428752695
 20
-47.00005966706943
 30
0.0
 10
200.3109428752695
 20
-47.00005966706943
 30
0.0
 10
200.3109428752695
 20
-47.00005966706943
 30
0.0
 10
185.687201559481
 20
-47.00005966706943
 30
0.0
 10
185.687201559481
 20
-47.00005966706943
 30
0.0
 10
185.687201559481
 20
-47.00005966706943
 30
0.0
 10
185.687201559481
 20
-44.00007051851387
 30
0.0
 10
185.687201559481
 20
-44.00007051851387
 30
0.0
 10
185.687201559481
 20
-44.00007051851387
 30
0.0
 10
171.0634602436925
 20
-44.00007051851387
 30
0.0
 10
171.0634602436925
 20
-44.00007051851387
 30
0.0
 10
171.0634602436925
 20
-44.00007051851387
 30
0.0
 10
171.0634602436925
 20
-47.00005966706943
 30
0.0
 10
171.0634602436925
 20
-47.00005966706943
 30
0.0
 10
171.0634602436925
 20
-47.00005966706943
 30
0.0
 10
152.4392740504319
 20
-47.00005966706943
 30
0.0
 10
152.4392740504319
 20
-47.00005966706943
 30
0.0
 10
152.4392740504319
 20
-47.00005966706943
 30
0.0
 10
152.4392740504319
 20
-23.50002983353471
 30
0.0
 10
152.4392740504319
 20
-23.50002983353471
 30
0.0
 10
152.4392740504319
 20
-23.50002983353471
 30
0.0
 10
156.4390299088069
 20
-23.50002983353471
 30
0.0
 10
156.4390299088069
 20
-23.50002983353471
 30
0.0
 10
156.4390299088069
 20
-23.50002983353471
 30
0.0
 10
156.4390299088069
 20
0.0
 30
0.0
 10
156.4390299088069
 20
0.0
 30
0.0
  0
ENDBLK
  5
9B
330
98
100
AcDbEntity
  8
0
100
AcDbBlockEnd
  0
BLOCK
  5
9F
330
9D
100
AcDbEntity
  8
0
100
AcDbBlockBegin
  2
block 16
 70
     0
 71
     0
 10
0.0
 20
0.0
 30
0.0
  3
block 16
  1

  0
SPLINE
  5
A1
330
9D
100
AcDbEntity
  8
Layer 1
 62
     7
420
 16777215
370
    25
100
AcDbSpline
210
0.0
220
0.0
230
1.0
 70
    11
 71
     3
 72
    20
 73
    16
 74
     0
 42
0.0000000001
 43
0.0000000001
 40
0.0
 40
0.0
 40
0.0
 40
0.0
 40
1.0
 40
1.0
 40
1.0
 40
2.0
 40
2.0
 40
2.0
 40
3.0
 40
3.0
 40
3.0
 40
4.0
 40
4.0
 40
4.0
 40
5.0
 40
5.0
 40
5.0
 40
5.0
 10
165.789019055775
 20
-5.40018717312912
 30
0.0
 10
162.2819118517907
 20
-5.40018717312912
 30
0.0
 10
159.4390190573625
 20
-8.243079967557286
 30
0.0
 10
159.4390190573625
 20
-11.75018717154162
 30
0.0
 10
159.4390190573625
 20
-15.25729437552596
 30
0.0
 10
162.2819118517907
 20
-18.10018716995412
 30
0.0
 10
165.789019055775
 20
-18.10018716995412
 30
0.0
 10
169.2961262597593
 20
-18.10018716995412
 30
0.0
 10
172.1390190541875
 20
-15.25729437552596
 30
0.0
 10
172.1390190541875
 20
-11.75018717154162
 30
0.0
 10
172.1390190541875
 20
-8.243079967557286
 30
0.0
 10
169.2961262597593
 20
-5.40018717312912
 30
0.0
 10
165.789019055775
 20
-5.40018717312912
 30
0.0
 10
165.789019055775
 20
-5.40018717312912
 30
0.0
 10
165.789019055775
 20
-5.40018717312912
 30
0.0
 10
165.789019055775
 20
-5.40018717312912
 30
0.0
  0
ENDBLK
  5
A0
330
9D
100
AcDbEntity
  8
0
100
AcDbBlockEnd
  0
BLOCK
  5
A4
330
A2
100
AcDbEntity
  8
0
100
AcDbBlockBegin
  2
block 17
 70
     0
 71
     0
 10
0.0
 20
0.0
 30
0.0
  3
block 17
  1

  0
INSERT
  5
A7
330
A2
100
AcDbEntity
  8
Layer 1
100
AcDbBlockReference
  2
block 18
 10
0.0
 20
0.0
 30
0.0
  0
INSERT
  5
AC
330
A2
100
AcDbEntity
  8
Layer 1
100
AcDbBlockReference
  2
block 19
 10
0.0
 20
0.0
 30
0.0
  0
INSERT
  5
B1
330
A2
100
AcDbEntity
  8
Layer 1
100
AcDbBlockReference
  2
block 20
 10
0.0
 20
0.0
 30
0.0
  0
ENDBLK
  5
A5
330
A2
100
AcDbEntity
  8
0
100
AcDbBlockEnd
  0
BLOCK
  5
A8
330
A6
100
AcDbEntity
  8
0
100
AcDbBlockBegin
  2
block 18
 70
     0
 71
     0
 10
0.0
 20
0.0
 30
0.0
  3
block 18
  1

  0
SPLINE
  5
AA
330
A6
100
AcDbEntity
  8
Layer 1
 62
     7
420
 16777215
370
    25
100
AcDbSpline
210
0.0
220
0.0
230
1.0
 70
    11
 71
     3
 72
    29
 73
    25
 74
     0
 42
0.0000000001
 43
0.0000000001
 40
0.0
 40
0.0
 40
0.0
 40
0.0
 40
1.0
 40
1.0
 40
1.0
 40
2.0
 40
2.0
 40
2.0
 40
3.0
 40
3.0
 40
3.0
 40
4.0
 40
4.0
 40
4.0
 40
5.0
 40
5.0
 40
5.0
 40
6.0
 40
6.0
 40
6.0
 40
7.0
 40
7.0
 40
7.0
 40
8.0
 40
8.0
 40
8.0
 40
8.0
 10
340.4994573801529
 20
-10.06036783602658
 30
0.0
 10
340.4994573801529
 20
-10.06036783602658
 30
0.0
 10
367.499359717153
 20
-10.06036783602658
 30
0.0
 10
367.499359717153
 20
-10.06036783602658
 30
0.0
 10
369.7086994518437
 20
-10.06036783602658
 30
0.0
 10
371.4994600850765
 20
-8.26960720279371
 30
0.0
 10
371.4994600850765
 20
-6.059922958554464
 30
0.0
 10
371.4994600850765
 20
-6.059922958554464
 30
0.0
 10
371.4994600850765
 20
10.93955620386233
 30
0.0
 10
371.4994600850765
 20
10.93955620386233
 30
0.0
 10
371.4994600850765
 20
13.14924044810158
 30
0.0
 10
369.7086994518437
 20
14.94000108133445
 30
0.0
 10
367.499359717153
 20
14.94000108133445
 30
0.0
 10
367.499359717153
 20
14.94000108133445
 30
0.0
 10
340.4994573801529
 20
14.94000108133445
 30
0.0
 10
340.4994573801529
 20
14.94000108133445
 30
0.0
 10
338.2901176454622
 20
14.94000108133445
 30
0.0
 10
336.4993570122293
 20
13.14924044810158
 30
0.0
 10
336.4993570122293
 20
10.93955620386233
 30
0.0
 10
336.4993570122293
 20
10.93955620386233
 30
0.0
 10
336.4993570122293
 20
-6.059922958554464
 30
0.0
 10
336.4993570122293
 20
-6.059922958554464
 30
0.0
 10
336.4993570122293
 20
-8.26960720279371
 30
0.0
 10
338.2901176454622
 20
-10.06036783602658
 30
0.0
 10
340.4994573801529
 20
-10.06036783602658
 30
0.0
  0
ENDBLK
  5
A9
330
A6
100
AcDbEntity
  8
0
100
AcDbBlockEnd
  0
BLOCK
  5
AD
330
AB
100
AcDbEntity
  8
0
100
AcDbBlockBegin
  2
block 19
 70
     0
 71
     0
 10
0.0
 20
0.0
 30
0.0
  3
block 19
  1

  0
SPLINE
  5
AF
330
AB
100
AcDbEntity
  8
Layer 1
 62
     7
420
 16777215
370
    25
100
AcDbSpline
210
0.0
220
0.0
230
1.0
 70
    11
 71
     3
 72
    20
 73
    16
 74
     0
 42
0.0000000001
 43
0.0000000001
 40
0.0
 40
0.0
 40
0.0
 40
0.0
 40
1.0
 40
1.0
 40
1.0
 40
2.0
 40
2.0
 40
2.0
 40
3.0
 40
3.0
 40
3.0
 40
4.0
 40
4.0
 40
4.0
 40
5.0
 40
5.0
 40
5.0
 40
5.0
 10
360.3494085470654
 20
46.7099826272114
 30
0.0
 10
360.3494085470654
 20
50.21708983119573
 30
0.0
 10
357.5065157526373
 20
53.0599826256239
 30
0.0
 10
353.9994085486529
 20
53.0599826256239
 30
0.0
 10
350.4923013446686
 20
53.0599826256239
 30
0.0
 10
347.6494085502404
 20
50.21708983119573
 30
0.0
 10
347.6494085502404
 20
46.7099826272114
 30
0.0
 10
347.6494085502404
 20
43.20287542322706
 30
0.0
 10
350.4923013446686
 20
40.3599826287989
 30
0.0
 10
353.9994085486529
 20
40.3599826287989
 30
0.0
 10
357.5065157526373
 20
40.3599826287989
 30
0.0
 10
360.3494085470654
 20
43.20287542322706
 30
0.0
 10
360.3494085470654
 20
46.7099826272114
 30
0.0
 10
360.3494085470654
 20
46.7099826272114
 30
0.0
 10
360.3494085470654
 20
46.7099826272114
 30
0.0
 10
360.3494085470654
 20
46.7099826272114
 30
0.0
  0
ENDBLK
  5
AE
330
AB
100
AcDbEntity
  8
0
100
AcDbBlockEnd
  0
BLOCK
  5
B2
330
B0
100
AcDbEntity
  8
0
100
AcDbBlockBegin
  2
block 20
 70
     0
 71
     0
 10
0.0
 20
0.0
 30
0.0
  3
block 20
  1

  0
POLYLINE
  5
B4
330
B0
100
AcDbEntity
  8
Layer 1
 62
     7
420
 16777215
370
    25
100
AcDb2dPolyline
 66
     1
 10
0.0
 20
0.0
 30
0.0
  0
VERTEX
  5
B5
330
B4
100
AcDbEntity
  8
Layer 1
 62
     7
420
 16777215
370
    25
100
AcDbVertex
100
AcDb2dVertex
 10
390.9384113605988
 20
-17.0601128429572
 30
0.0
  0
VERTEX
  5
B6
330
B4
100
AcDbEntity
  8
Layer 1
 62
     7
420
 16777215
370
    25
100
AcDbVertex
100
AcDb2dVertex
 10
317.0604057367071
 20
-17.0601128429572
 30
0.0
  0
VERTEX
  5
B7
330
B4
100
AcDbEntity
  8
Layer 1
 62
     7
420
 16777215
370
    25
100
AcDbVertex
100
AcDb2dVertex
 10
317.0604057367071
 20
-2.436371527168685
 30
0.0
  0
VERTEX
  5
B8
330
B4
100
AcDbEntity
  8
Layer 1
 62
     7
420
 16777215
370
    25
100
AcDbVertex
100
AcDb2dVertex
 10
314.0604165881516
 20
-2.436371527168685
 30
0.0
  0
VERTEX
  5
B9
330
B4
100
AcDbEntity
  8
Layer 1
 62
     7
420
 16777215
370
    25
100
AcDbVertex
100
AcDb2dVertex
 10
314.0604165881516
 20
12.18805880771687
 30
0.0
  0
VERTEX
  5
BA
330
B4
100
AcDbEntity
  8
Layer 1
 62
     7
420
 16777215
370
    25
100
AcDbVertex
100
AcDb2dVertex
 10
317.0604057367071
 20
12.18805880771687
 30
0.0
  0
VERTEX
  5
BB
330
B4
100
AcDbEntity
  8
Layer 1
 62
     7
420
 16777215
370
    25
100
AcDbVertex
100
AcDb2dVertex
 10
317.0604057367071
 20
26.81180012350539
 30
0.0
  0
VERTEX
  5
BC
330
B4
100
AcDbEntity
  8
Layer 1
 62
     7
420
 16777215
370
    25
100
AcDbVertex
100
AcDb2dVertex
 10
314.0604165881516
 20
26.81180012350539
 30
0.0
  0
VERTEX
  5
BD
330
B4
100
AcDbEntity
  8
Layer 1
 62
     7
420
 16777215
370
    25
100
AcDbVertex
100
AcDb2dVertex
 10
314.0604165881516
 20
41.43554143929389
 30
0.0
  0
VERTEX
  5
BE
330
B4
100
AcDbEntity
  8
Layer 1
 62
     7
420
 16777215
370
    25
100
AcDbVertex
100
AcDb2dVertex
 10
317.0604057367071
 20
41.43554143929389
 30
0.0
  0
VERTEX
  5
BF
330
B4
100
AcDbEntity
  8
Layer 1
 62
     7
420
 16777215
370
    25
100
AcDbVertex
100
AcDb2dVertex
 10
317.0604057367071
 20
56.05997177417945
 30
0.0
  0
VERTEX
  5
C0
330
B4
100
AcDbEntity
  8
Layer 1
 62
     7
420
 16777215
370
    25
100
AcDbVertex
100
AcDb2dVertex
 10
329.37317700099
 20
56.05997177417945
 30
0.0
  0
VERTEX
  5
C1
330
B4
100
AcDbEntity
  8
Layer 1
 62
     7
420
 16777215
370
    25
100
AcDbVertex
100
AcDb2dVertex
 10
329.37317700099
 20
59.05996092273502
 30
0.0
  0
VERTEX
  5
C2
330
B4
100
AcDbEntity
  8
Layer 1
 62
     7
420
 16777215
370
    25
100
AcDbVertex
100
AcDb2dVertex
 10
341.6862927748215
 20
59.05996092273502
 30
0.0
  0
VERTEX
  5
C3
330
B4
100
AcDbEntity
  8
Layer 1
 62
     7
420
 16777215
370
    25
100
AcDbVertex
100
AcDb2dVertex
 10
341.6862927748215
 20
56.05997177417945
 30
0.0
  0
VERTEX
  5
C4
330
B4
100
AcDbEntity
  8
Layer 1
 62
     7
420
 16777215
370
    25
100
AcDbVertex
100
AcDb2dVertex
 10
366.3125243224844
 20
56.05997177417945
 30
0.0
  0
VERTEX
  5
C5
330
B4
100
AcDbEntity
  8
Layer 1
 62
     7
420
 16777215
370
    25
100
AcDbVertex
100
AcDb2dVertex
 10
366.3125243224844
 20
59.05996092273502
 30
0.0
  0
VERTEX
  5
C6
330
B4
100
AcDbEntity
  8
Layer 1
 62
     7
420
 16777215
370
    25
100
AcDbVertex
100
AcDb2dVertex
 10
378.6252955867673
 20
59.05996092273502
 30
0.0
  0
VERTEX
  5
C7
330
B4
100
AcDbEntity
  8
Layer 1
 62
     7
420
 16777215
370
    25
100
AcDbVertex
100
AcDb2dVertex
 10
378.6252955867673
 20
56.05997177417945
 30
0.0
  0
VERTEX
  5
C8
330
B4
100
AcDbEntity
  8
Layer 1
 62
     7
420
 16777215
370
    25
100
AcDbVertex
100
AcDb2dVertex
 10
390.9384113605988
 20
56.05997177417945
 30
0.0
  0
VERTEX
  5
C9
330
B4
100
AcDbEntity
  8
Layer 1
 62
     7
420
 16777215
370
    25
100
AcDbVertex
100
AcDb2dVertex
 10
390.9384113605988
 20
41.43554143929389
 30
0.0
  0
VERTEX
  5
CA
330
B4
100
AcDbEntity
  8
Layer 1
 62
     7
420
 16777215
370
    25
100
AcDbVertex
100
AcDb2dVertex
 10
393.9384005091543
 20
41.43554143929389
 30
0.0
  0
VERTEX
  5
CB
330
B4
100
AcDbEntity
  8
Layer 1
 62
     7
420
 16777215
370
    25
100
AcDbVertex
100
AcDb2dVertex
 10
393.9384005091543
 20
26.81180012350539
 30
0.0
  0
VERTEX
  5
CC
330
B4
100
AcDbEntity
  8
Layer 1
 62
     7
420
 16777215
370
    25
100
AcDbVertex
100
AcDb2dVertex
 10
390.9384113605988
 20
26.81180012350539
 30
0.0
  0
VERTEX
  5
CD
330
B4
100
AcDbEntity
  8
Layer 1
 62
     7
420
 16777215
370
    25
100
AcDbVertex
100
AcDb2dVertex
 10
390.9384113605988
 20
12.18805880771687
 30
0.0
  0
VERTEX
  5
CE
330
B4
100
AcDbEntity
  8
Layer 1
 62
     7
420
 16777215
370
    25
100
AcDbVertex
100
AcDb2dVertex
 10
393.9384005091543
 20
12.18805880771687
 30
0.0
  0
VERTEX
  5
CF
330
B4
100
AcDbEntity
  8
Layer 1
 62
     7
420
 16777215
370
    25
100
AcDbVertex
100
AcDb2dVertex
 10
393.9384005091543
 20
-2.436371527168685
 30
0.0
  0
VERTEX
  5
D0
330
B4
100
AcDbEntity
  8
Layer 1
 62
     7
420
 16777215
370
    25
100
AcDbVertex
100
AcDb2dVertex
 10
390.9384113605988
 20
-2.436371527168685
 30
0.0
  0
VERTEX
  5
D1
330
B4
100
AcDbEntity
  8
Layer 1
 62
     7
420
 16777215
370
    25
100
AcDbVertex
100
AcDb2dVertex
 10
390.9384113605988
 20
-17.0601128429572
 30
0.0
  0
SEQEND
  5
D2
330
B4
100
AcDbEntity
  8
Layer 1
370
    25
  0
ENDBLK
  5
B3
330
B0
100
AcDbEntity
  8
0
100
AcDbBlockEnd
  0
BLOCK
  5
D5
330
D3
100
AcDbEntity
  8
0
100
AcDbBlockBegin
  2
block 21
 70
     0
 71
     0
 10
0.0
 20
0.0
 30
0.0
  3
block 21
  1

  0
POLYLINE
  5
D7
330
D3
100
AcDbEntity
  8
Layer 1
 62
     7
420
 16777215
370
    25
100
AcDb2dPolyline
 66
     1
 10
0.0
 20
0.0
 30
0.0
  0
VERTEX
  5
D8
330
D7
100
AcDbEntity
  8
Layer 1
 62
     7
420
 16777215
370
    25
100
AcDbVertex
100
AcDb2dVertex
 10
365.2493678557363
 20
12.99972330404174
 30
0.0
  0
VERTEX
  5
D9
330
D7
100
AcDbEntity
  8
Layer 1
 62
     7
420
 16777215
370
    25
100
AcDbVertex
100
AcDb2dVertex
 10
365.2493678557363
 20
6.439572481028996
 30
0.0
  0
VERTEX
  5
DA
330
D7
100
AcDbEntity
  8
Layer 1
 62
     7
420
 16777215
370
    25
100
AcDbVertex
100
AcDb2dVertex
 10
368.2493570042918
 20
6.439572481028996
 30
0.0
  0
VERTEX
  5
DB
330
D7
100
AcDbEntity
  8
Layer 1
 62
     7
420
 16777215
370
    25
100
AcDbVertex
100
AcDb2dVertex
 10
368.2493570042918
 20
1.439360893737382
 30
0.0
  0
VERTEX
  5
DC
330
D7
100
AcDbEntity
  8
Layer 1
 62
     7
420
 16777215
370
    25
100
AcDbVertex
100
AcDb2dVertex
 10
365.2493678557363
 20
1.439360893737382
 30
0.0
  0
VERTEX
  5
DD
330
D7
100
AcDbEntity
  8
Layer 1
 62
     7
420
 16777215
370
    25
100
AcDbVertex
100
AcDb2dVertex
 10
365.2493678557363
 20
-5.120100910178309
 30
0.0
  0
VERTEX
  5
DE
330
D7
100
AcDbEntity
  8
Layer 1
 62
     7
420
 16777215
370
    25
100
AcDbVertex
100
AcDb2dVertex
 10
357.9995089165765
 20
-5.120100910178309
 30
0.0
  0
VERTEX
  5
DF
330
D7
100
AcDbEntity
  8
Layer 1
 62
     7
420
 16777215
370
    25
100
AcDbVertex
100
AcDb2dVertex
 10
357.9995089165765
 20
-8.120090058733867
 30
0.0
  0
VERTEX
  5
E0
330
D7
100
AcDbEntity
  8
Layer 1
 62
     7
420
 16777215
370
    25
100
AcDbVertex
100
AcDb2dVertex
 10
352.9996418388334
 20
-8.120090058733867
 30
0.0
  0
VERTEX
  5
E1
330
D7
100
AcDbEntity
  8
Layer 1
 62
     7
420
 16777215
370
    25
100
AcDbVertex
100
AcDb2dVertex
 10
352.9996418388334
 20
-5.120100910178309
 30
0.0
  0
VERTEX
  5
E2
330
D7
100
AcDbEntity
  8
Layer 1
 62
     7
420
 16777215
370
    25
100
AcDbVertex
100
AcDb2dVertex
 10
345.7494383901251
 20
-5.120100910178309
 30
0.0
  0
VERTEX
  5
E3
330
D7
100
AcDbEntity
  8
Layer 1
 62
     7
420
 16777215
370
    25
100
AcDbVertex
100
AcDb2dVertex
 10
345.7494383901251
 20
1.439360893737382
 30
0.0
  0
VERTEX
  5
E4
330
D7
100
AcDbEntity
  8
Layer 1
 62
     7
420
 16777215
370
    25
100
AcDbVertex
100
AcDb2dVertex
 10
342.7494492415696
 20
1.439360893737382
 30
0.0
  0
VERTEX
  5
E5
330
D7
100
AcDbEntity
  8
Layer 1
 62
     7
420
 16777215
370
    25
100
AcDbVertex
100
AcDb2dVertex
 10
342.7494492415696
 20
6.439572481028996
 30
0.0
  0
VERTEX
  5
E6
330
D7
100
AcDbEntity
  8
Layer 1
 62
     7
420
 16777215
370
    25
100
AcDbVertex
100
AcDb2dVertex
 10
345.7494383901251
 20
6.439572481028996
 30
0.0
  0
VERTEX
  5
E7
330
D7
100
AcDbEntity
  8
Layer 1
 62
     7
420
 16777215
370
    25
100
AcDbVertex
100
AcDb2dVertex
 10
345.7494383901251
 20
12.99972330404174
 30
0.0
  0
VERTEX
  5
E8
330
D7
100
AcDbEntity
  8
Layer 1
 62
     7
420
 16777215
370
    25
100
AcDbVertex
100
AcDb2dVertex
 10
352.9996418388334
 20
12.99972330404174
 30
0.0
  0
VERTEX
  5
E9
330
D7
100
AcDbEntity
  8
Layer 1
 62
     7
420
 16777215
370
    25
100
AcDbVertex
100
AcDb2dVertex
 10
352.9996418388334
 20
9.999734155486179
 30
0.0
  0
VERTEX
  5
EA
330
D7
100
AcDbEntity
  8
Layer 1
 62
     7
420
 16777215
370
    25
100
AcDbVertex
100
AcDb2dVertex
 10
357.9995089165765
 20
9.999734155486179
 30
0.0
  0
VERTEX
  5
EB
330
D7
100
AcDbEntity
  8
Layer 1
 62
     7
420
 16777215
370
    25
100
AcDbVertex
100
AcDb2dVertex
 10
357.9995089165765
 20
12.99972330404174
 30
0.0
  0
VERTEX
  5
EC
330
D7
100
AcDbEntity
  8
Layer 1
 62
     7
420
 16777215
370
    25
100
AcDbVertex
100
AcDb2dVertex
 10
365.2493678557363
 20
12.99972330404174
 30
0.0
  0
SEQEND
  5
ED
330
D7
100
AcDbEntity
  8
Layer 1
370
    25
  0
ENDBLK
  5
D6
330
D3
100
AcDbEntity
  8
0
100
AcDbBlockEnd
  0
BLOCK
  5
F0
330
EE
100
AcDbEntity
  8
0
100
AcDbBlockBegin
  2
block 22
 70
     0
 71
     0
 10
0.0
 20
0.0
 30
0.0
  3
block 22
  1

  0
POLYLINE
  5
F2
330
EE
100
AcDbEntity
  8
Layer 1
 62
     7
420
 16777215
370
    25
100
AcDb2dPolyline
 66
     1
 10
0.0
 20
0.0
 30
0.0
  0
VERTEX
  5
F3
330
F2
100
AcDbEntity
  8
Layer 1
 62
     7
420
 16777215
370
    25
100
AcDbVertex
100
AcDb2dVertex
 10
199.7493923111738
 20
-67.99981145218408
 30
0.0
  0
VERTEX
  5
F4
330
F2
100
AcDbEntity
  8
Layer 1
 62
     7
420
 16777215
370
    25
100
AcDbVertex
100
AcDb2dVertex
 10
199.7493923111738
 20
-74.55996227519682
 30
0.0
  0
VERTEX
  5
F5
330
F2
100
AcDbEntity
  8
Layer 1
 62
     7
420
 16777215
370
    25
100
AcDbVertex
100
AcDb2dVertex
 10
192.4991888624655
 20
-74.55996227519682
 30
0.0
  0
VERTEX
  5
F6
330
F2
100
AcDbEntity
  8
Layer 1
 62
     7
420
 16777215
370
    25
100
AcDbVertex
100
AcDb2dVertex
 10
192.4991888624655
 20
-71.55997312664125
 30
0.0
  0
VERTEX
  5
F7
330
F2
100
AcDbEntity
  8
Layer 1
 62
     7
420
 16777215
370
    25
100
AcDbVertex
100
AcDb2dVertex
 10
187.4993217847224
 20
-71.55997312664125
 30
0.0
  0
VERTEX
  5
F8
330
F2
100
AcDbEntity
  8
Layer 1
 62
     7
420
 16777215
370
    25
100
AcDbVertex
100
AcDb2dVertex
 10
187.4993217847224
 20
-74.55996227519682
 30
0.0
  0
VERTEX
  5
F9
330
F2
100
AcDbEntity
  8
Layer 1
 62
     7
420
 16777215
370
    25
100
AcDbVertex
100
AcDb2dVertex
 10
180.2494628455626
 20
-74.55996227519682
 30
0.0
  0
VERTEX
  5
FA
330
F2
100
AcDbEntity
  8
Layer 1
 62
     7
420
 16777215
370
    25
100
AcDbVertex
100
AcDb2dVertex
 10
180.2494628455626
 20
-67.99981145218408
 30
0.0
  0
VERTEX
  5
FB
330
F2
100
AcDbEntity
  8
Layer 1
 62
     7
420
 16777215
370
    25
100
AcDbVertex
100
AcDb2dVertex
 10
177.2494736970071
 20
-67.99981145218408
 30
0.0
  0
VERTEX
  5
FC
330
F2
100
AcDbEntity
  8
Layer 1
 62
     7
420
 16777215
370
    25
100
AcDbVertex
100
AcDb2dVertex
 10
177.2494736970071
 20
-63.00028888398951
 30
0.0
  0
VERTEX
  5
FD
330
F2
100
AcDbEntity
  8
Layer 1
 62
     7
420
 16777215
370
    25
100
AcDbVertex
100
AcDb2dVertex
 10
180.2494628455626
 20
-63.00028888398951
 30
0.0
  0
VERTEX
  5
FE
330
F2
100
AcDbEntity
  8
Layer 1
 62
     7
420
 16777215
370
    25
100
AcDbVertex
100
AcDb2dVertex
 10
180.2494628455626
 20
-56.44013806097677
 30
0.0
  0
VERTEX
  5
FF
330
F2
100
AcDbEntity
  8
Layer 1
 62
     7
420
 16777215
370
    25
100
AcDbVertex
100
AcDb2dVertex
 10
187.4993217847224
 20
-56.44013806097677
 30
0.0
  0
VERTEX
  5
100
330
F2
100
AcDbEntity
  8
Layer 1
 62
     7
420
 16777215
370
    25
100
AcDbVertex
100
AcDb2dVertex
 10
187.4993217847224
 20
-53.44014891242121
 30
0.0
  0
VERTEX
  5
101
330
F2
100
AcDbEntity
  8
Layer 1
 62
     7
420
 16777215
370
    25
100
AcDbVertex
100
AcDb2dVertex
 10
192.4991888624655
 20
-53.44014891242121
 30
0.0
  0
VERTEX
  5
102
330
F2
100
AcDbEntity
  8
Layer 1
 62
     7
420
 16777215
370
    25
100
AcDbVertex
100
AcDb2dVertex
 10
192.4991888624655
 20
-56.44013806097677
 30
0.0
  0
VERTEX
  5
103
330
F2
100
AcDbEntity
  8
Layer 1
 62
     7
420
 16777215
370
    25
100
AcDbVertex
100
AcDb2dVertex
 10
199.7493923111738
 20
-56.44013806097677
 30
0.0
  0
VERTEX
  5
104
330
F2
100
AcDbEntity
  8
Layer 1
 62
     7
420
 16777215
370
    25
100
AcDbVertex
100
AcDb2dVertex
 10
199.7493923111738
 20
-63.00028888398951
 30
0.0
  0
VERTEX
  5
105
330
F2
100
AcDbEntity
  8
Layer 1
 62
     7
420
 16777215
370
    25
100
AcDbVertex
100
AcDb2dVertex
 10
202.7493814597293
 20
-63.00028888398951
 30
0.0
  0
VERTEX
  5
106
330
F2
100
AcDbEntity
  8
Layer 1
 62
     7
420
 16777215
370
    25
100
AcDbVertex
100
AcDb2dVertex
 10
202.7493814597293
 20
-67.99981145218408
 30
0.0
  0
VERTEX
  5
107
330
F2
100
AcDbEntity
  8
Layer 1
 62
     7
420
 16777215
370
    25
100
AcDbVertex
100
AcDb2dVertex
 10
199.7493923111738
 20
-67.99981145218408
 30
0.0
  0
SEQEND
  5
108
330
F2
100
AcDbEntity
  8
Layer 1
370
    25
  0
ENDBLK
  5
F1
330
EE
100
AcDbEntity
  8
0
100
AcDbBlockEnd
  0
BLOCK
  5
10B
330
109
100
AcDbEntity
  8
0
100
AcDbBlockBegin
  2
block 23
 70
     0
 71
     0
 10
0.0
 20
0.0
 30
0.0
  3
block 23
  1

  0
POLYLINE
  5
10D
330
109
100
AcDbEntity
  8
Layer 1
 62
     7
420
 16777215
370
    25
100
AcDb2dPolyline
 66
     1
 10
0.0
 20
0.0
 30
0.0
  0
VERTEX
  5
10E
330
10D
100
AcDbEntity
  8
Layer 1
 62
     7
420
 16777215
370
    25
100
AcDbVertex
100
AcDb2dVertex
 10
317.3125867262274
 20
133.2500921975902
 30
0.0
  0
VERTEX
  5
10F
330
10D
100
AcDbEntity
  8
Layer 1
 62
     7
420
 16777215
370
    25
100
AcDbVertex
100
AcDb2dVertex
 10
317.3125867262274
 20
130.2501030490347
 30
0.0
  0
VERTEX
  5
110
330
10D
100
AcDbEntity
  8
Layer 1
 62
     7
420
 16777215
370
    25
100
AcDbVertex
100
AcDb2dVertex
 10
329.6253579905103
 20
130.2501030490347
 30
0.0
  0
VERTEX
  5
111
330
10D
100
AcDbEntity
  8
Layer 1
 62
     7
420
 16777215
370
    25
100
AcDbVertex
100
AcDb2dVertex
 10
329.6253579905103
 20
133.2500921975902
 30
0.0
  0
VERTEX
  5
112
330
10D
100
AcDbEntity
  8
Layer 1
 62
     7
420
 16777215
370
    25
100
AcDbVertex
100
AcDb2dVertex
 10
341.9381292547932
 20
133.2500921975902
 30
0.0
  0
VERTEX
  5
113
330
10D
100
AcDbEntity
  8
Layer 1
 62
     7
420
 16777215
370
    25
100
AcDbVertex
100
AcDb2dVertex
 10
341.9381292547932
 20
109.749717854507
 30
0.0
  0
VERTEX
  5
114
330
10D
100
AcDbEntity
  8
Layer 1
 62
     7
420
 16777215
370
    25
100
AcDbVertex
100
AcDb2dVertex
 10
344.9381184033488
 20
109.749717854507
 30
0.0
  0
VERTEX
  5
115
330
10D
100
AcDbEntity
  8
Layer 1
 62
     7
420
 16777215
370
    25
100
AcDbVertex
100
AcDb2dVertex
 10
344.9381184033488
 20
86.25003253052083
 30
0.0
  0
VERTEX
  5
116
330
10D
100
AcDbEntity
  8
Layer 1
 62
     7
420
 16777215
370
    25
100
AcDbVertex
100
AcDb2dVertex
 10
341.9381292547932
 20
86.25003253052083
 30
0.0
  0
VERTEX
  5
117
330
10D
100
AcDbEntity
  8
Layer 1
 62
     7
420
 16777215
370
    25
100
AcDbVertex
100
AcDb2dVertex
 10
341.9381292547932
 20
62.74965818743759
 30
0.0
  0
VERTEX
  5
118
330
10D
100
AcDbEntity
  8
Layer 1
 62
     7
420
 16777215
370
    25
100
AcDbVertex
100
AcDb2dVertex
 10
327.1628037376537
 20
62.74965818743759
 30
0.0
  0
VERTEX
  5
119
330
10D
100
AcDbEntity
  8
Layer 1
 62
     7
420
 16777215
370
    25
100
AcDbVertex
100
AcDb2dVertex
 10
327.1628037376537
 20
65.74964733599315
 30
0.0
  0
VERTEX
  5
11A
330
10D
100
AcDbEntity
  8
Layer 1
 62
     7
420
 16777215
370
    25
100
AcDbVertex
100
AcDb2dVertex
 10
312.3867892014172
 20
65.74964733599315
 30
0.0
  0
VERTEX
  5
11B
330
10D
100
AcDbEntity
  8
Layer 1
 62
     7
420
 16777215
370
    25
100
AcDbVertex
100
AcDb2dVertex
 10
312.3867892014172
 20
62.74965818743759
 30
0.0
  0
VERTEX
  5
11C
330
10D
100
AcDbEntity
  8
Layer 1
 62
     7
420
 16777215
370
    25
100
AcDbVertex
100
AcDb2dVertex
 10
297.6114636842777
 20
62.74965818743759
 30
0.0
  0
VERTEX
  5
11D
330
10D
100
AcDbEntity
  8
Layer 1
 62
     7
420
 16777215
370
    25
100
AcDbVertex
100
AcDb2dVertex
 10
297.6114636842777
 20
65.74964733599315
 30
0.0
  0
VERTEX
  5
11E
330
10D
100
AcDbEntity
  8
Layer 1
 62
     7
420
 16777215
370
    25
100
AcDbVertex
100
AcDb2dVertex
 10
282.8361381671382
 20
65.74964733599315
 30
0.0
  0
VERTEX
  5
11F
330
10D
100
AcDbEntity
  8
Layer 1
 62
     7
420
 16777215
370
    25
100
AcDbVertex
100
AcDb2dVertex
 10
282.8361381671382
 20
62.74965818743759
 30
0.0
  0
VERTEX
  5
120
330
10D
100
AcDbEntity
  8
Layer 1
 62
     7
420
 16777215
370
    25
100
AcDbVertex
100
AcDb2dVertex
 10
268.0601236309017
 20
62.74965818743759
 30
0.0
  0
VERTEX
  5
121
330
10D
100
AcDbEntity
  8
Layer 1
 62
     7
420
 16777215
370
    25
100
AcDbVertex
100
AcDb2dVertex
 10
268.0601236309017
 20
86.25003253052083
 30
0.0
  0
VERTEX
  5
122
330
10D
100
AcDbEntity
  8
Layer 1
 62
     7
420
 16777215
370
    25
100
AcDbVertex
100
AcDb2dVertex
 10
265.0601344823461
 20
86.25003253052083
 30
0.0
  0
VERTEX
  5
123
330
10D
100
AcDbEntity
  8
Layer 1
 62
     7
420
 16777215
370
    25
100
AcDbVertex
100
AcDb2dVertex
 10
265.0601344823461
 20
109.749717854507
 30
0.0
  0
VERTEX
  5
124
330
10D
100
AcDbEntity
  8
Layer 1
 62
     7
420
 16777215
370
    25
100
AcDbVertex
100
AcDb2dVertex
 10
268.0601236309017
 20
109.749717854507
 30
0.0
  0
VERTEX
  5
125
330
10D
100
AcDbEntity
  8
Layer 1
 62
     7
420
 16777215
370
    25
100
AcDbVertex
100
AcDb2dVertex
 10
268.0601236309017
 20
133.2500921975902
 30
0.0
  0
VERTEX
  5
126
330
10D
100
AcDbEntity
  8
Layer 1
 62
     7
420
 16777215
370
    25
100
AcDbVertex
100
AcDb2dVertex
 10
280.3732394047331
 20
133.2500921975902
 30
0.0
  0
VERTEX
  5
127
330
10D
100
AcDbEntity
  8
Layer 1
 62
     7
420
 16777215
370
    25
100
AcDbVertex
100
AcDb2dVertex
 10
280.3732394047331
 20
130.2501030490347
 30
0.0
  0
VERTEX
  5
128
330
10D
100
AcDbEntity
  8
Layer 1
 62
     7
420
 16777215
370
    25
100
AcDbVertex
100
AcDb2dVertex
 10
292.6863551785646
 20
130.2501030490347
 30
0.0
  0
VERTEX
  5
129
330
10D
100
AcDbEntity
  8
Layer 1
 62
     7
420
 16777215
370
    25
100
AcDbVertex
100
AcDb2dVertex
 10
292.6863551785646
 20
133.2500921975902
 30
0.0
  0
VERTEX
  5
12A
330
10D
100
AcDbEntity
  8
Layer 1
 62
     7
420
 16777215
370
    25
100
AcDbVertex
100
AcDb2dVertex
 10
317.3125867262274
 20
133.2500921975902
 30
0.0
  0
SEQEND
  5
12B
330
10D
100
AcDbEntity
  8
Layer 1
370
    25
  0
ENDBLK
  5
10C
330
109
100
AcDbEntity
  8
0
100
AcDbBlockEnd
  0
BLOCK
  5
12E
330
12C
100
AcDbEntity
  8
0
100
AcDbBlockBegin
  2
block 24
 70
     0
 71
     0
 10
0.0
 20
0.0
 30
0.0
  3
block 24
  1

  0
INSERT
  5
131
330
12C
100
AcDbEntity
  8
Layer 1
100
AcDbBlockReference
  2
block 25
 10
0.0
 20
0.0
 30
0.0
  0
INSERT
  5
136
330
12C
100
AcDbEntity
  8
Layer 1
100
AcDbBlockReference
  2
block 26
 10
0.0
 20
0.0
 30
0.0
  0
INSERT
  5
13B
330
12C
100
AcDbEntity
  8
Layer 1
100
AcDbBlockReference
  2
block 27
 10
0.0
 20
0.0
 30
0.0
  0
INSERT
  5
140
330
12C
100
AcDbEntity
  8
Layer 1
100
AcDbBlockReference
  2
block 28
 10
0.0
 20
0.0
 30
0.0
  0
INSERT
  5
145
330
12C
100
AcDbEntity
  8
Layer 1
100
AcDbBlockReference
  2
block 29
 10
0.0
 20
0.0
 30
0.0
  0
ENDBLK
  5
12F
330
12C
100
AcDbEntity
  8
0
100
AcDbBlockEnd
  0
BLOCK
  5
132
330
130
100
AcDbEntity
  8
0
100
AcDbBlockBegin
  2
block 25
 70
     0
 71
     0
 10
0.0
 20
0.0
 30
0.0
  3
block 25
  1

  0
SPLINE
  5
134
330
130
100
AcDbEntity
  8
Layer 1
 62
     7
420
 16777215
370
    25
100
AcDbSpline
210
0.0
220
0.0
230
1.0
 70
    11
 71
     3
 72
    20
 73
    16
 74
     0
 42
0.0000000001
 43
0.0000000001
 40
0.0
 40
0.0
 40
0.0
 40
0.0
 40
1.0
 40
1.0
 40
1.0
 40
2.0
 40
2.0
 40
2.0
 40
3.0
 40
3.0
 40
3.0
 40
4.0
 40
4.0
 40
4.0
 40
5.0
 40
5.0
 40
5.0
 40
5.0
 10
241.1101751784377
 20
15.94993082283544
 30
0.0
 10
241.1101751784377
 20
17.33072509332357
 30
0.0
 10
239.9912081648286
 20
18.45003661648124
 30
0.0
 10
238.6104138943405
 20
18.45003661648124
 30
0.0
 10
237.2296196238523
 20
18.45003661648124
 30
0.0
 10
236.1103081006947
 20
17.33072509332357
 30
0.0
 10
236.1103081006947
 20
15.94993082283544
 30
0.0
 10
236.1103081006947
 20
14.56930880712156
 30
0.0
 10
237.2296196238523
 20
13.44999728396389
 30
0.0
 10
238.6104138943405
 20
13.44999728396389
 30
0.0
 10
239.9912081648286
 20
13.44999728396389
 30
0.0
 10
241.1101751784377
 20
14.56930880712156
 30
0.0
 10
241.1101751784377
 20
15.94993082283544
 30
0.0
 10
241.1101751784377
 20
15.94993082283544
 30
0.0
 10
241.1101751784377
 20
15.94993082283544
 30
0.0
 10
241.1101751784377
 20
15.94993082283544
 30
0.0
  0
ENDBLK
  5
133
330
130
100
AcDbEntity
  8
0
100
AcDbBlockEnd
  0
BLOCK
  5
137
330
135
100
AcDbEntity
  8
0
100
AcDbBlockBegin
  2
block 26
 70
     0
 71
     0
 10
0.0
 20
0.0
 30
0.0
  3
block 26
  1

  0
SPLINE
  5
139
330
135
100
AcDbEntity
  8
Layer 1
 62
     7
420
 16777215
370
    25
100
AcDbSpline
210
0.0
220
0.0
230
1.0
 70
    11
 71
     3
 72
    20
 73
    16
 74
     0
 42
0.0000000001
 43
0.0000000001
 40
0.0
 40
0.0
 40
0.0
 40
0.0
 40
1.0
 40
1.0
 40
1.0
 40
2.0
 40
2.0
 40
2.0
 40
3.0
 40
3.0
 40
3.0
 40
4.0
 40
4.0
 40
4.0
 40
5.0
 40
5.0
 40
5.0
 40
5.0
 10
241.1101751784377
 20
-17.94998100679723
 30
0.0
 10
241.1101751784377
 20
-16.56935899108336
 30
0.0
 10
239.9912081648286
 20
-15.45004746792568
 30
0.0
 10
238.6104138943405
 20
-15.45004746792568
 30
0.0
 10
237.2296196238523
 20
-15.45004746792568
 30
0.0
 10
236.1103081006947
 20
-16.56935899108336
 30
0.0
 10
236.1103081006947
 20
-17.94998100679723
 30
0.0
 10
236.1103081006947
 20
-19.33077527728536
 30
0.0
 10
237.2296196238523
 20
-20.45008680044304
 30
0.0
 10
238.6104138943405
 20
-20.45008680044304
 30
0.0
 10
239.9912081648286
 20
-20.45008680044304
 30
0.0
 10
241.1101751784377
 20
-19.33077527728536
 30
0.0
 10
241.1101751784377
 20
-17.94998100679723
 30
0.0
 10
241.1101751784377
 20
-17.94998100679723
 30
0.0
 10
241.1101751784377
 20
-17.94998100679723
 30
0.0
 10
241.1101751784377
 20
-17.94998100679723
 30
0.0
  0
ENDBLK
  5
138
330
135
100
AcDbEntity
  8
0
100
AcDbBlockEnd
  0
BLOCK
  5
13C
330
13A
100
AcDbEntity
  8
0
100
AcDbBlockBegin
  2
block 27
 70
     0
 71
     0
 10
0.0
 20
0.0
 30
0.0
  3
block 27
  1

  0
SPLINE
  5
13E
330
13A
100
AcDbEntity
  8
Layer 1
 62
     7
420
 16777215
370
    25
100
AcDbSpline
210
0.0
220
0.0
230
1.0
 70
    11
 71
     3
 72
    29
 73
    25
 74
     0
 42
0.0000000001
 43
0.0000000001
 40
0.0
 40
0.0
 40
0.0
 40
0.0
 40
1.0
 40
1.0
 40
1.0
 40
2.0
 40
2.0
 40
2.0
 40
3.0
 40
3.0
 40
3.0
 40
4.0
 40
4.0
 40
4.0
 40
5.0
 40
5.0
 40
5.0
 40
6.0
 40
6.0
 40
6.0
 40
7.0
 40
7.0
 40
7.0
 40
8.0
 40
8.0
 40
8.0
 40
8.0
 10
233.060365067603
 20
22.49991861416669
 30
0.0
 10
233.060365067603
 20
22.49991861416669
 30
0.0
 10
310.9381265498697
 20
22.49991861416669
 30
0.0
 10
310.9381265498697
 20
22.49991861416669
 30
0.0
 10
311.4907198657037
 20
22.49991861416669
 30
0.0
 10
311.9382377692377
 20
22.05222845585847
 30
0.0
 10
311.9382377692377
 20
21.49997964957292
 30
0.0
 10
311.9382377692377
 20
21.49997964957292
 30
0.0
 10
311.9382377692377
 20
-25.50008001749651
 30
0.0
 10
311.9382377692377
 20
-25.50008001749651
 30
0.0
 10
311.9382377692377
 20
-26.05232882378206
 30
0.0
 10
311.4907198657037
 20
-26.50001898209027
 30
0.0
 10
310.9381265498697
 20
-26.50001898209027
 30
0.0
 10
310.9381265498697
 20
-26.50001898209027
 30
0.0
 10
233.060365067603
 20
-26.50001898209027
 30
0.0
 10
233.060365067603
 20
-26.50001898209027
 30
0.0
 10
232.5081162613174
 20
-26.50001898209027
 30
0.0
 10
232.0602538482349
 20
-26.05232882378206
 30
0.0
 10
232.0602538482349
 20
-25.50008001749651
 30
0.0
 10
232.0602538482349
 20
-25.50008001749651
 30
0.0
 10
232.0602538482349
 20
21.49997964957292
 30
0.0
 10
232.0602538482349
 20
21.49997964957292
 30
0.0
 10
232.0602538482349
 20
22.05222845585847
 30
0.0
 10
232.5081162613174
 20
22.49991861416669
 30
0.0
 10
233.060365067603
 20
22.49991861416669
 30
0.0
  0
ENDBLK
  5
13D
330
13A
100
AcDbEntity
  8
0
100
AcDbBlockEnd
  0
BLOCK
  5
141
330
13F
100
AcDbEntity
  8
0
100
AcDbBlockBegin
  2
block 28
 70
     0
 71
     0
 10
0.0
 20
0.0
 30
0.0
  3
block 28
  1

  0
SPLINE
  5
143
330
13F
100
AcDbEntity
  8
Layer 1
 62
     7
420
 16777215
370
    25
100
AcDbSpline
210
0.0
220
0.0
230
1.0
 70
    11
 71
     3
 72
    20
 73
    16
 74
     0
 42
0.0000000001
 43
0.0000000001
 40
0.0
 40
0.0
 40
0.0
 40
0.0
 40
1.0
 40
1.0
 40
1.0
 40
2.0
 40
2.0
 40
2.0
 40
3.0
 40
3.0
 40
3.0
 40
4.0
 40
4.0
 40
4.0
 40
5.0
 40
5.0
 40
5.0
 40
5.0
 10
307.888183516778
 20
-17.94998100679723
 30
0.0
 10
307.888183516778
 20
-16.56935899108336
 30
0.0
 10
306.7688719936203
 20
-15.45004746792568
 30
0.0
 10
305.3880777231321
 20
-15.45004746792568
 30
0.0
 10
304.0076279621925
 20
-15.45004746792568
 30
0.0
 10
302.8883164390349
 20
-16.56935899108336
 30
0.0
 10
302.8883164390349
 20
-17.94998100679723
 30
0.0
 10
302.8883164390349
 20
-19.33077527728536
 30
0.0
 10
304.0076279621925
 20
-20.45008680044304
 30
0.0
 10
305.3880777231321
 20
-20.45008680044304
 30
0.0
 10
306.7688719936203
 20
-20.45008680044304
 30
0.0
 10
307.888183516778
 20
-19.33077527728536
 30
0.0
 10
307.888183516778
 20
-17.94998100679723
 30
0.0
 10
307.888183516778
 20
-17.94998100679723
 30
0.0
 10
307.888183516778
 20
-17.94998100679723
 30
0.0
 10
307.888183516778
 20
-17.94998100679723
 30
0.0
  0
ENDBLK
  5
142
330
13F
100
AcDbEntity
  8
0
100
AcDbBlockEnd
  0
BLOCK
  5
146
330
144
100
AcDbEntity
  8
0
100
AcDbBlockBegin
  2
block 29
 70
     0
 71
     0
 10
0.0
 20
0.0
 30
0.0
  3
block 29
  1

  0
SPLINE
  5
148
330
144
100
AcDbEntity
  8
Layer 1
 62
     7
420
 16777215
370
    25
100
AcDbSpline
210
0.0
220
0.0
230
1.0
 70
    11
 71
     3
 72
    20
 73
    16
 74
     0
 42
0.0000000001
 43
0.0000000001
 40
0.0
 40
0.0
 40
0.0
 40
0.0
 40
1.0
 40
1.0
 40
1.0
 40
2.0
 40
2.0
 40
2.0
 40
3.0
 40
3.0
 40
3.0
 40
4.0
 40
4.0
 40
4.0
 40
5.0
 40
5.0
 40
5.0
 40
5.0
 10
307.888183516778
 20
15.94993082283544
 30
0.0
 10
307.888183516778
 20
17.33072509332357
 30
0.0
 10
306.7688719936203
 20
18.45003661648124
 30
0.0
 10
305.3880777231321
 20
18.45003661648124
 30
0.0
 10
304.0076279621925
 20
18.45003661648124
 30
0.0
 10
302.8883164390349
 20
17.33072509332357
 30
0.0
 10
302.8883164390349
 20
15.94993082283544
 30
0.0
 10
302.8883164390349
 20
14.56930880712156
 30
0.0
 10
304.0076279621925
 20
13.44999728396389
 30
0.0
 10
305.3880777231321
 20
13.44999728396389
 30
0.0
 10
306.7688719936203
 20
13.44999728396389
 30
0.0
 10
307.888183516778
 20
14.56930880712156
 30
0.0
 10
307.888183516778
 20
15.94993082283544
 30
0.0
 10
307.888183516778
 20
15.94993082283544
 30
0.0
 10
307.888183516778
 20
15.94993082283544
 30
0.0
 10
307.888183516778
 20
15.94993082283544
 30
0.0
  0
ENDBLK
  5
147
330
144
100
AcDbEntity
  8
0
100
AcDbBlockEnd
  0
BLOCK
  5
14B
330
149
100
AcDbEntity
  8
0
100
AcDbBlockBegin
  2
block 30
 70
     0
 71
     0
 10
0.0
 20
0.0
 30
0.0
  3
block 30
  1

  0
SPLINE
  5
14D
330
149
100
AcDbEntity
  8
Layer 1
 62
     7
420
 16777215
370
    25
100
AcDbSpline
210
0.0
220
0.0
230
1.0
 70
    11
 71
     3
 72
   107
 73
   103
 74
     0
 42
0.0000000001
 43
0.0000000001
 40
0.0
 40
0.0
 40
0.0
 40
0.0
 40
1.0
 40
1.0
 40
1.0
 40
2.0
 40
2.0
 40
2.0
 40
3.0
 40
3.0
 40
3.0
 40
4.0
 40
4.0
 40
4.0
 40
5.0
 40
5.0
 40
5.0
 40
6.0
 40
6.0
 40
6.0
 40
7.0
 40
7.0
 40
7.0
 40
8.0
 40
8.0
 40
8.0
 40
9.0
 40
9.0
 40
9.0
 40
10.0
 40
10.0
 40
10.0
 40
11.0
 40
11.0
 40
11.0
 40
12.0
 40
12.0
 40
12.0
 40
13.0
 40
13.0
 40
13.0
 40
14.0
 40
14.0
 40
14.0
 40
15.0
 40
15.0
 40
15.0
 40
16.0
 40
16.0
 40
16.0
 40
17.0
 40
17.0
 40
17.0
 40
18.0
 40
18.0
 40
18.0
 40
19.0
 40
19.0
 40
19.0
 40
20.0
 40
20.0
 40
20.0
 40
21.0
 40
21.0
 40
21.0
 40
22.0
 40
22.0
 40
22.0
 40
23.0
 40
23.0
 40
23.0
 40
24.0
 40
24.0
 40
24.0
 40
25.0
 40
25.0
 40
25.0
 40
26.0
 40
26.0
 40
26.0
 40
27.0
 40
27.0
 40
27.0
 40
28.0
 40
28.0
 40
28.0
 40
29.0
 40
29.0
 40
29.0
 40
30.0
 40
30.0
 40
30.0
 40
31.0
 40
31.0
 40
31.0
 40
32.0
 40
32.0
 40
32.0
 40
33.0
 40
33.0
 40
33.0
 40
34.0
 40
34.0
 40
34.0
 40
34.0
 10
170.0602484383877
 20
80.93993460433099
 30
0.0
 10
168.9557508258166
 20
80.93993460433099
 30
0.0
 10
168.0603705092002
 20
81.83531492094743
 30
0.0
 10
168.0603705092002
 20
82.93981253351852
 30
0.0
 10
168.0603705092002
 20
82.93981253351852
 30
0.0
 10
168.0603705092002
 20
105.0597371156622
 30
0.0
 10
168.0603705092002
 20
105.0597371156622
 30
0.0
 10
168.0603705092002
 20
105.0597371156622
 30
0.0
 10
177.5798583540426
 20
105.0597371156622
 30
0.0
 10
177.5798583540426
 20
105.0597371156622
 30
0.0
 10
177.5798583540426
 20
105.0597371156622
 30
0.0
 10
177.5798583540426
 20
102.0597479671066
 30
0.0
 10
177.5798583540426
 20
102.0597479671066
 30
0.0
 10
177.5798583540426
 20
102.0597479671066
 30
0.0
 10
182.5797254317856
 20
102.0597479671066
 30
0.0
 10
182.5797254317856
 20
102.0597479671066
 30
0.0
 10
182.5797254317856
 20
102.0597479671066
 30
0.0
 10
182.5797254317856
 20
105.0597371156622
 30
0.0
 10
182.5797254317856
 20
105.0597371156622
 30
0.0
 10
182.5797254317856
 20
105.0597371156622
 30
0.0
 10
195.0992024251835
 20
105.0597371156622
 30
0.0
 10
195.0992024251835
 20
105.0597371156622
 30
0.0
 10
195.0992024251835
 20
105.0597371156622
 30
0.0
 10
195.0992024251835
 20
98.49993080219794
 30
0.0
 10
195.0992024251835
 20
98.49993080219794
 30
0.0
 10
195.0992024251835
 20
98.49993080219794
 30
0.0
 10
192.099213276628
 20
98.49993080219794
 30
0.0
 10
192.099213276628
 20
98.49993080219794
 30
0.0
 10
192.099213276628
 20
98.49993080219794
 30
0.0
 10
192.099213276628
 20
93.49971921490632
 30
0.0
 10
192.099213276628
 20
93.49971921490632
 30
0.0
 10
192.099213276628
 20
93.49971921490632
 30
0.0
 10
195.0992024251835
 20
93.49971921490632
 30
0.0
 10
195.0992024251835
 20
93.49971921490632
 30
0.0
 10
195.0992024251835
 20
93.49971921490632
 30
0.0
 10
195.0992024251835
 20
86.93991290144211
 30
0.0
 10
195.0992024251835
 20
86.93991290144211
 30
0.0
 10
195.0992024251835
 20
86.93991290144211
 30
0.0
 10
197.4994004497571
 20
86.93991290144211
 30
0.0
 10
197.4994004497571
 20
86.93991290144211
 30
0.0
 10
197.4994004497571
 20
86.93991290144211
 30
0.0
 10
197.4994004497571
 20
83.93992375288656
 30
0.0
 10
197.4994004497571
 20
83.93992375288656
 30
0.0
 10
197.4994004497571
 20
83.93992375288656
 30
0.0
 10
202.7493814597293
 20
83.93992375288656
 30
0.0
 10
202.7493814597293
 20
83.93992375288656
 30
0.0
 10
202.7493814597293
 20
83.93992375288656
 30
0.0
 10
202.7493814597293
 20
86.93991290144211
 30
0.0
 10
202.7493814597293
 20
86.93991290144211
 30
0.0
 10
202.7493814597293
 20
86.93991290144211
 30
0.0
 10
213.2493434796738
 20
86.93991290144211
 30
0.0
 10
213.2493434796738
 20
86.93991290144211
 30
0.0
 10
213.2493434796738
 20
86.93991290144211
 30
0.0
 10
213.2493434796738
 20
83.93992375288656
 30
0.0
 10
213.2493434796738
 20
83.93992375288656
 30
0.0
 10
213.2493434796738
 20
83.93992375288656
 30
0.0
 10
218.499324489646
 20
83.93992375288656
 30
0.0
 10
218.499324489646
 20
83.93992375288656
 30
0.0
 10
218.499324489646
 20
83.93992375288656
 30
0.0
 10
218.499324489646
 20
86.93991290144211
 30
0.0
 10
218.499324489646
 20
86.93991290144211
 30
0.0
 10
218.499324489646
 20
86.93991290144211
 30
0.0
 10
220.8991780046711
 20
86.93991290144211
 30
0.0
 10
220.8991780046711
 20
86.93991290144211
 30
0.0
 10
220.8991780046711
 20
86.93991290144211
 30
0.0
 10
220.8991780046711
 20
93.49971921490632
 30
0.0
 10
220.8991780046711
 20
93.49971921490632
 30
0.0
 10
220.8991780046711
 20
93.49971921490632
 30
0.0
 10
223.8995116627751
 20
93.49971921490632
 30
0.0
 10
223.8995116627751
 20
93.49971921490632
 30
0.0
 10
223.8995116627751
 20
93.49971921490632
 30
0.0
 10
223.8995116627751
 20
98.49993080219794
 30
0.0
 10
223.8995116627751
 20
98.49993080219794
 30
0.0
 10
223.8995116627751
 20
98.49993080219794
 30
0.0
 10
220.8991780046711
 20
98.49993080219794
 30
0.0
 10
220.8991780046711
 20
98.49993080219794
 30
0.0
 10
220.8991780046711
 20
98.49993080219794
 30
0.0
 10
220.8991780046711
 20
105.0597371156622
 30
0.0
 10
220.8991780046711
 20
105.0597371156622
 30
0.0
 10
220.8991780046711
 20
105.0597371156622
 30
0.0
 10
233.4189995076175
 20
105.0597371156622
 30
0.0
 10
233.4189995076175
 20
105.0597371156622
 30
0.0
 10
233.4189995076175
 20
105.0597371156622
 30
0.0
 10
233.4189995076175
 20
102.0597479671066
 30
0.0
 10
233.4189995076175
 20
102.0597479671066
 30
0.0
 10
233.4189995076175
 20
102.0597479671066
 30
0.0
 10
238.418522075812
 20
102.0597479671066
 30
0.0
 10
238.418522075812
 20
102.0597479671066
 30
0.0
 10
238.418522075812
 20
102.0597479671066
 30
0.0
 10
238.418522075812
 20
105.0597371156622
 30
0.0
 10
238.418522075812
 20
105.0597371156622
 30
0.0
 10
238.418522075812
 20
105.0597371156622
 30
0.0
 10
247.9380099206544
 20
105.0597371156622
 30
0.0
 10
247.9380099206544
 20
105.0597371156622
 30
0.0
 10
247.9380099206544
 20
105.0597371156622
 30
0.0
 10
247.9380099206544
 20
82.93981253351852
 30
0.0
 10
247.9380099206544
 20
82.93981253351852
 30
0.0
 10
247.9380099206544
 20
81.83531492094743
 30
0.0
 10
247.0429741135865
 20
80.93993460433099
 30
0.0
 10
245.9381319914669
 20
80.93993460433099
 30
0.0
 10
245.9381319914669
 20
80.93993460433099
 30
0.0
 10
170.0602484383877
 20
80.93993460433099
 30
0.0
 10
170.0602484383877
 20
80.93993460433099
 30
0.0
  0
ENDBLK
  5
14C
330
149
100
AcDbEntity
  8
0
100
AcDbBlockEnd
  0
BLOCK
  5
150
330
14E
100
AcDbEntity
  8
0
100
AcDbBlockBegin
  2
block 31
 70
     0
 71
     0
 10
0.0
 20
0.0
 30
0.0
  3
block 31
  1

  0
POLYLINE
  5
152
330
14E
100
AcDbEntity
  8
Layer 1
 62
     7
420
 16777215
370
    25
100
AcDb2dPolyline
 66
     1
 10
0.0
 20
0.0
 30
0.0
  0
VERTEX
  5
153
330
152
100
AcDbEntity
  8
Layer 1
 62
     7
420
 16777215
370
    25
100
AcDbVertex
100
AcDb2dVertex
 10
278.9869329814686
 20
-94.250233266368
 30
0.0
  0
VERTEX
  5
154
330
152
100
AcDbEntity
  8
Layer 1
 62
     7
420
 16777215
370
    25
100
AcDbVertex
100
AcDb2dVertex
 10
269.0113144943791
 20
-94.250233266368
 30
0.0
  0
VERTEX
  5
155
330
152
100
AcDbEntity
  8
Layer 1
 62
     7
420
 16777215
370
    25
100
AcDbVertex
100
AcDb2dVertex
 10
269.0113144943791
 20
-97.25022241492356
 30
0.0
  0
VERTEX
  5
156
330
152
100
AcDbEntity
  8
Layer 1
 62
     7
420
 16777215
370
    25
100
AcDbVertex
100
AcDb2dVertex
 10
253.0357177101786
 20
-97.25022241492356
 30
0.0
  0
VERTEX
  5
157
330
152
100
AcDbEntity
  8
Layer 1
 62
     7
420
 16777215
370
    25
100
AcDbVertex
100
AcDb2dVertex
 10
253.0357177101786
 20
-94.250233266368
 30
0.0
  0
VERTEX
  5
158
330
152
100
AcDbEntity
  8
Layer 1
 62
     7
420
 16777215
370
    25
100
AcDbVertex
100
AcDb2dVertex
 10
237.060120925978
 20
-94.250233266368
 30
0.0
  0
VERTEX
  5
159
330
152
100
AcDbEntity
  8
Layer 1
 62
     7
420
 16777215
370
    25
100
AcDbVertex
100
AcDb2dVertex
 10
237.060120925978
 20
-81.08342283129164
 30
0.0
  0
VERTEX
  5
15A
330
152
100
AcDbEntity
  8
Layer 1
 62
     7
420
 16777215
370
    25
100
AcDbVertex
100
AcDb2dVertex
 10
234.0601317774225
 20
-81.08342283129164
 30
0.0
  0
VERTEX
  5
15B
330
152
100
AcDbEntity
  8
Layer 1
 62
     7
420
 16777215
370
    25
100
AcDbVertex
100
AcDb2dVertex
 10
234.0601317774225
 20
-67.91695690576383
 30
0.0
  0
VERTEX
  5
15C
330
152
100
AcDbEntity
  8
Layer 1
 62
     7
420
 16777215
370
    25
100
AcDbVertex
100
AcDb2dVertex
 10
237.060120925978
 20
-67.91695690576383
 30
0.0
  0
VERTEX
  5
15D
330
152
100
AcDbEntity
  8
Layer 1
 62
     7
420
 16777215
370
    25
100
AcDbVertex
100
AcDb2dVertex
 10
237.060120925978
 20
-54.75014647068747
 30
0.0
  0
VERTEX
  5
15E
330
152
100
AcDbEntity
  8
Layer 1
 62
     7
420
 16777215
370
    25
100
AcDbVertex
100
AcDb2dVertex
 10
251.8357909526661
 20
-54.75014647068747
 30
0.0
  0
VERTEX
  5
15F
330
152
100
AcDbEntity
  8
Layer 1
 62
     7
420
 16777215
370
    25
100
AcDbVertex
100
AcDb2dVertex
 10
251.8357909526661
 20
-57.75013561924303
 30
0.0
  0
VERTEX
  5
160
330
152
100
AcDbEntity
  8
Layer 1
 62
     7
420
 16777215
370
    25
100
AcDbVertex
100
AcDb2dVertex
 10
266.6114609793541
 20
-57.75013561924303
 30
0.0
  0
VERTEX
  5
161
330
152
100
AcDbEntity
  8
Layer 1
 62
     7
420
 16777215
370
    25
100
AcDbVertex
100
AcDb2dVertex
 10
266.6114609793541
 20
-54.75014647068747
 30
0.0
  0
VERTEX
  5
162
330
152
100
AcDbEntity
  8
Layer 1
 62
     7
420
 16777215
370
    25
100
AcDbVertex
100
AcDb2dVertex
 10
281.3867864964936
 20
-54.75014647068747
 30
0.0
  0
VERTEX
  5
163
330
152
100
AcDbEntity
  8
Layer 1
 62
     7
420
 16777215
370
    25
100
AcDbVertex
100
AcDb2dVertex
 10
281.3867864964936
 20
-57.75013561924303
 30
0.0
  0
VERTEX
  5
164
330
152
100
AcDbEntity
  8
Layer 1
 62
     7
420
 16777215
370
    25
100
AcDbVertex
100
AcDb2dVertex
 10
296.1624565231816
 20
-57.75013561924303
 30
0.0
  0
VERTEX
  5
165
330
152
100
AcDbEntity
  8
Layer 1
 62
     7
420
 16777215
370
    25
100
AcDbVertex
100
AcDb2dVertex
 10
296.1624565231816
 20
-54.75014647068747
 30
0.0
  0
VERTEX
  5
166
330
152
100
AcDbEntity
  8
Layer 1
 62
     7
420
 16777215
370
    25
100
AcDbVertex
100
AcDb2dVertex
 10
310.9381265498697
 20
-54.75014647068747
 30
0.0
  0
VERTEX
  5
167
330
152
100
AcDbEntity
  8
Layer 1
 62
     7
420
 16777215
370
    25
100
AcDbVertex
100
AcDb2dVertex
 10
310.9381265498697
 20
-67.91695690576383
 30
0.0
  0
VERTEX
  5
168
330
152
100
AcDbEntity
  8
Layer 1
 62
     7
420
 16777215
370
    25
100
AcDbVertex
100
AcDb2dVertex
 10
313.9381156984252
 20
-67.91695690576383
 30
0.0
  0
VERTEX
  5
169
330
152
100
AcDbEntity
  8
Layer 1
 62
     7
420
 16777215
370
    25
100
AcDbVertex
100
AcDb2dVertex
 10
313.9381156984252
 20
-81.08342283129164
 30
0.0
  0
VERTEX
  5
16A
330
152
100
AcDbEntity
  8
Layer 1
 62
     7
420
 16777215
370
    25
100
AcDbVertex
100
AcDb2dVertex
 10
310.9381265498697
 20
-81.08342283129164
 30
0.0
  0
VERTEX
  5
16B
330
152
100
AcDbEntity
  8
Layer 1
 62
     7
420
 16777215
370
    25
100
AcDbVertex
100
AcDb2dVertex
 10
310.9381265498697
 20
-94.250233266368
 30
0.0
  0
VERTEX
  5
16C
330
152
100
AcDbEntity
  8
Layer 1
 62
     7
420
 16777215
370
    25
100
AcDbVertex
100
AcDb2dVertex
 10
294.9625297656691
 20
-94.250233266368
 30
0.0
  0
VERTEX
  5
16D
330
152
100
AcDbEntity
  8
Layer 1
 62
     7
420
 16777215
370
    25
100
AcDbVertex
100
AcDb2dVertex
 10
294.9625297656691
 20
-97.25022241492356
 30
0.0
  0
VERTEX
  5
16E
330
152
100
AcDbEntity
  8
Layer 1
 62
     7
420
 16777215
370
    25
100
AcDbVertex
100
AcDb2dVertex
 10
278.9869329814686
 20
-97.25022241492356
 30
0.0
  0
VERTEX
  5
16F
330
152
100
AcDbEntity
  8
Layer 1
 62
     7
420
 16777215
370
    25
100
AcDbVertex
100
AcDb2dVertex
 10
278.9869329814686
 20
-94.250233266368
 30
0.0
  0
SEQEND
  5
170
330
152
100
AcDbEntity
  8
Layer 1
370
    25
  0
ENDBLK
  5
151
330
14E
100
AcDbEntity
  8
0
100
AcDbBlockEnd
  0
BLOCK
  5
173
330
171
100
AcDbEntity
  8
0
100
AcDbBlockBegin
  2
block 32
 70
     0
 71
     0
 10
0.0
 20
0.0
 30
0.0
  3
block 32
  1

  0
POLYLINE
  5
175
330
171
100
AcDbEntity
  8
Layer 1
 62
     7
420
 16777215
370
    25
100
AcDb2dPolyline
 66
     1
 10
0.0
 20
0.0
 30
0.0
  0
VERTEX
  5
176
330
175
100
AcDbEntity
  8
Layer 1
 62
     7
420
 16777215
370
    25
100
AcDbVertex
100
AcDb2dVertex
 10
398.9393011155429
 20
44.16319578974046
 30
0.0
  0
VERTEX
  5
177
330
175
100
AcDbEntity
  8
Layer 1
 62
     7
420
 16777215
370
    25
100
AcDbVertex
100
AcDb2dVertex
 10
398.9393011155429
 20
58.93886581642848
 30
0.0
  0
VERTEX
  5
178
330
175
100
AcDbEntity
  8
Layer 1
 62
     7
420
 16777215
370
    25
100
AcDbVertex
100
AcDb2dVertex
 10
407.6457464258664
 20
58.93886581642848
 30
0.0
  0
VERTEX
  5
179
330
175
100
AcDbEntity
  8
Layer 1
 62
     7
420
 16777215
370
    25
100
AcDbVertex
100
AcDb2dVertex
 10
407.6457464258664
 20
61.93885496498404
 30
0.0
  0
VERTEX
  5
17A
330
175
100
AcDbEntity
  8
Layer 1
 62
     7
420
 16777215
370
    25
100
AcDbVertex
100
AcDb2dVertex
 10
416.3528807552868
 20
61.93885496498404
 30
0.0
  0
VERTEX
  5
17B
330
175
100
AcDbEntity
  8
Layer 1
 62
     7
420
 16777215
370
    25
100
AcDbVertex
100
AcDb2dVertex
 10
416.3528807552868
 20
58.93886581642848
 30
0.0
  0
VERTEX
  5
17C
330
175
100
AcDbEntity
  8
Layer 1
 62
     7
420
 16777215
370
    25
100
AcDbVertex
100
AcDb2dVertex
 10
425.0593260656102
 20
58.93886581642848
 30
0.0
  0
VERTEX
  5
17D
330
175
100
AcDbEntity
  8
Layer 1
 62
     7
420
 16777215
370
    25
100
AcDbVertex
100
AcDb2dVertex
 10
425.0593260656102
 20
44.16319578974046
 30
0.0
  0
VERTEX
  5
17E
330
175
100
AcDbEntity
  8
Layer 1
 62
     7
420
 16777215
370
    25
100
AcDbVertex
100
AcDb2dVertex
 10
428.0593152141657
 20
44.16319578974046
 30
0.0
  0
VERTEX
  5
17F
330
175
100
AcDbEntity
  8
Layer 1
 62
     7
420
 16777215
370
    25
100
AcDbVertex
100
AcDb2dVertex
 10
428.0593152141657
 20
29.38752576305243
 30
0.0
  0
VERTEX
  5
180
330
175
100
AcDbEntity
  8
Layer 1
 62
     7
420
 16777215
370
    25
100
AcDbVertex
100
AcDb2dVertex
 10
425.0593260656102
 20
29.38752576305243
 30
0.0
  0
VERTEX
  5
181
330
175
100
AcDbEntity
  8
Layer 1
 62
     7
420
 16777215
370
    25
100
AcDbVertex
100
AcDb2dVertex
 10
425.0593260656102
 20
14.61220024591292
 30
0.0
  0
VERTEX
  5
182
330
175
100
AcDbEntity
  8
Layer 1
 62
     7
420
 16777215
370
    25
100
AcDbVertex
100
AcDb2dVertex
 10
428.0593152141657
 20
14.61220024591292
 30
0.0
  0
VERTEX
  5
183
330
175
100
AcDbEntity
  8
Layer 1
 62
     7
420
 16777215
370
    25
100
AcDbVertex
100
AcDb2dVertex
 10
428.0593152141657
 20
-0.1634697807751048
 30
0.0
  0
VERTEX
  5
184
330
175
100
AcDbEntity
  8
Layer 1
 62
     7
420
 16777215
370
    25
100
AcDbVertex
100
AcDb2dVertex
 10
425.0593260656102
 20
-0.1634697807751048
 30
0.0
  0
VERTEX
  5
185
330
175
100
AcDbEntity
  8
Layer 1
 62
     7
420
 16777215
370
    25
100
AcDbVertex
100
AcDb2dVertex
 10
425.0593260656102
 20
-14.93913980746313
 30
0.0
  0
VERTEX
  5
186
330
175
100
AcDbEntity
  8
Layer 1
 62
     7
420
 16777215
370
    25
100
AcDbVertex
100
AcDb2dVertex
 10
416.3528807552868
 20
-14.93913980746313
 30
0.0
  0
VERTEX
  5
187
330
175
100
AcDbEntity
  8
Layer 1
 62
     7
420
 16777215
370
    25
100
AcDbVertex
100
AcDb2dVertex
 10
416.3528807552868
 20
-17.93912895601869
 30
0.0
  0
VERTEX
  5
188
330
175
100
AcDbEntity
  8
Layer 1
 62
     7
420
 16777215
370
    25
100
AcDbVertex
100
AcDb2dVertex
 10
407.6457464258664
 20
-17.93912895601869
 30
0.0
  0
VERTEX
  5
189
330
175
100
AcDbEntity
  8
Layer 1
 62
     7
420
 16777215
370
    25
100
AcDbVertex
100
AcDb2dVertex
 10
407.6457464258664
 20
-14.93913980746313
 30
0.0
  0
VERTEX
  5
18A
330
175
100
AcDbEntity
  8
Layer 1
 62
     7
420
 16777215
370
    25
100
AcDbVertex
100
AcDb2dVertex
 10
398.9393011155429
 20
-14.93913980746313
 30
0.0
  0
VERTEX
  5
18B
330
175
100
AcDbEntity
  8
Layer 1
 62
     7
420
 16777215
370
    25
100
AcDbVertex
100
AcDb2dVertex
 10
398.9393011155429
 20
-0.1634697807751048
 30
0.0
  0
VERTEX
  5
18C
330
175
100
AcDbEntity
  8
Layer 1
 62
     7
420
 16777215
370
    25
100
AcDbVertex
100
AcDb2dVertex
 10
395.9393119669874
 20
-0.1634697807751048
 30
0.0
  0
VERTEX
  5
18D
330
175
100
AcDbEntity
  8
Layer 1
 62
     7
420
 16777215
370
    25
100
AcDbVertex
100
AcDb2dVertex
 10
395.9393119669874
 20
14.61220024591292
 30
0.0
  0
VERTEX
  5
18E
330
175
100
AcDbEntity
  8
Layer 1
 62
     7
420
 16777215
370
    25
100
AcDbVertex
100
AcDb2dVertex
 10
398.9393011155429
 20
14.61220024591292
 30
0.0
  0
VERTEX
  5
18F
330
175
100
AcDbEntity
  8
Layer 1
 62
     7
420
 16777215
370
    25
100
AcDbVertex
100
AcDb2dVertex
 10
398.9393011155429
 20
29.38752576305243
 30
0.0
  0
VERTEX
  5
190
330
175
100
AcDbEntity
  8
Layer 1
 62
     7
420
 16777215
370
    25
100
AcDbVertex
100
AcDb2dVertex
 10
395.9393119669874
 20
29.38752576305243
 30
0.0
  0
VERTEX
  5
191
330
175
100
AcDbEntity
  8
Layer 1
 62
     7
420
 16777215
370
    25
100
AcDbVertex
100
AcDb2dVertex
 10
395.9393119669874
 20
44.16319578974046
 30
0.0
  0
VERTEX
  5
192
330
175
100
AcDbEntity
  8
Layer 1
 62
     7
420
 16777215
370
    25
100
AcDbVertex
100
AcDb2dVertex
 10
398.9393011155429
 20
44.16319578974046
 30
0.0
  0
SEQEND
  5
193
330
175
100
AcDbEntity
  8
Layer 1
370
    25
  0
ENDBLK
  5
174
330
171
100
AcDbEntity
  8
0
100
AcDbBlockEnd
  0
BLOCK
  5
196
330
194
100
AcDbEntity
  8
0
100
AcDbBlockBegin
  2
block 33
 70
     0
 71
     0
 10
0.0
 20
0.0
 30
0.0
  3
block 33
  1

  0
POLYLINE
  5
198
330
194
100
AcDbEntity
  8
Layer 1
 62
     7
420
 16777215
370
    25
100
AcDb2dPolyline
 66
     1
 10
0.0
 20
0.0
 30
0.0
  0
VERTEX
  5
199
330
198
100
AcDbEntity
  8
Layer 1
 62
     7
420
 16777215
370
    25
100
AcDbVertex
100
AcDb2dVertex
 10
237.0470295631341
 20
133.2500921975902
 30
0.0
  0
VERTEX
  5
19A
330
198
100
AcDbEntity
  8
Layer 1
 62
     7
420
 16777215
370
    25
100
AcDbVertex
100
AcDb2dVertex
 10
237.0470295631341
 20
105.4764214146031
 30
0.0
  0
VERTEX
  5
19B
330
198
100
AcDbEntity
  8
Layer 1
 62
     7
420
 16777215
370
    25
100
AcDbVertex
100
AcDb2dVertex
 10
226.5184732506621
 20
117.1366915939797
 30
0.0
  0
VERTEX
  5
19C
330
198
100
AcDbEntity
  8
Layer 1
 62
     7
420
 16777215
370
    25
100
AcDbVertex
100
AcDb2dVertex
 10
224.2919080385451
 20
115.1261338687879
 30
0.0
  0
VERTEX
  5
19D
330
198
100
AcDbEntity
  8
Layer 1
 62
     7
420
 16777215
370
    25
100
AcDbVertex
100
AcDb2dVertex
 10
220.2707925881615
 20
119.5792642930219
 30
0.0
  0
VERTEX
  5
19E
330
198
100
AcDbEntity
  8
Layer 1
 62
     7
420
 16777215
370
    25
100
AcDbVertex
100
AcDb2dVertex
 10
222.4973578002785
 20
121.5898220182137
 30
0.0
  0
VERTEX
  5
19F
330
198
100
AcDbEntity
  8
Layer 1
 62
     7
420
 16777215
370
    25
100
AcDbVertex
100
AcDb2dVertex
 10
211.9688014878064
 20
133.2500921975902
 30
0.0
  0
VERTEX
  5
1A0
330
198
100
AcDbEntity
  8
Layer 1
 62
     7
420
 16777215
370
    25
100
AcDbVertex
100
AcDb2dVertex
 10
237.0470295631341
 20
133.2500921975902
 30
0.0
  0
SEQEND
  5
1A1
330
198
100
AcDbEntity
  8
Layer 1
370
    25
  0
ENDBLK
  5
197
330
194
100
AcDbEntity
  8
0
100
AcDbBlockEnd
  0
BLOCK
  5
1A4
330
1A2
100
AcDbEntity
  8
0
100
AcDbBlockBegin
  2
block 34
 70
     0
 71
     0
 10
0.0
 20
0.0
 30
0.0
  3
block 34
  1

  0
SPLINE
  5
1A6
330
1A2
100
AcDbEntity
  8
Layer 1
 62
     7
420
 16777215
370
    25
100
AcDbSpline
210
0.0
220
0.0
230
1.0
 70
    11
 71
     3
 72
   125
 73
   121
 74
     0
 42
0.0000000001
 43
0.0000000001
 40
0.0
 40
0.0
 40
0.0
 40
0.0
 40
1.0
 40
1.0
 40
1.0
 40
2.0
 40
2.0
 40
2.0
 40
3.0
 40
3.0
 40
3.0
 40
4.0
 40
4.0
 40
4.0
 40
5.0
 40
5.0
 40
5.0
 40
6.0
 40
6.0
 40
6.0
 40
7.0
 40
7.0
 40
7.0
 40
8.0
 40
8.0
 40
8.0
 40
9.0
 40
9.0
 40
9.0
 40
10.0
 40
10.0
 40
10.0
 40
11.0
 40
11.0
 40
11.0
 40
12.0
 40
12.0
 40
12.0
 40
13.0
 40
13.0
 40
13.0
 40
14.0
 40
14.0
 40
14.0
 40
15.0
 40
15.0
 40
15.0
 40
16.0
 40
16.0
 40
16.0
 40
17.0
 40
17.0
 40
17.0
 40
18.0
 40
18.0
 40
18.0
 40
19.0
 40
19.0
 40
19.0
 40
20.0
 40
20.0
 40
20.0
 40
21.0
 40
21.0
 40
21.0
 40
22.0
 40
22.0
 40
22.0
 40
23.0
 40
23.0
 40
23.0
 40
24.0
 40
24.0
 40
24.0
 40
25.0
 40
25.0
 40
25.0
 40
26.0
 40
26.0
 40
26.0
 40
27.0
 40
27.0
 40
27.0
 40
28.0
 40
28.0
 40
28.0
 40
29.0
 40
29.0
 40
29.0
 40
30.0
 40
30.0
 40
30.0
 40
31.0
 40
31.0
 40
31.0
 40
32.0
 40
32.0
 40
32.0
 40
33.0
 40
33.0
 40
33.0
 40
34.0
 40
34.0
 40
34.0
 40
35.0
 40
35.0
 40
35.0
 40
36.0
 40
36.0
 40
36.0
 40
37.0
 40
37.0
 40
37.0
 40
38.0
 40
38.0
 40
38.0
 40
39.0
 40
39.0
 40
39.0
 40
40.0
 40
40.0
 40
40.0
 40
40.0
 10
233.8441242904973
 20
44.95815157296185
 30
0.0
 10
232.8291991605427
 20
45.06839462848985
 30
0.0
 10
232.0602538482349
 20
45.92553438522
 30
0.0
 10
232.0602538482349
 20
46.94631617749953
 30
0.0
 10
232.0602538482349
 20
46.94631617749953
 30
0.0
 10
232.0602538482349
 20
50.05999347706834
 30
0.0
 10
232.0602538482349
 20
50.05999347706834
 30
0.0
 10
232.0602538482349
 20
50.05999347706834
 30
0.0
 10
241.5797416930773
 20
50.05999347706834
 30
0.0
 10
241.5797416930773
 20
50.05999347706834
 30
0.0
 10
241.5797416930773
 20
50.05999347706834
 30
0.0
 10
241.5797416930773
 20
47.06000432851278
 30
0.0
 10
241.5797416930773
 20
47.06000432851278
 30
0.0
 10
241.5797416930773
 20
47.06000432851278
 30
0.0
 10
246.5799532803689
 20
47.06000432851278
 30
0.0
 10
246.5799532803689
 20
47.06000432851278
 30
0.0
 10
246.5799532803689
 20
47.06000432851278
 30
0.0
 10
246.5799532803689
 20
50.05999347706834
 30
0.0
 10
246.5799532803689
 20
50.05999347706834
 30
0.0
 10
246.5799532803689
 20
50.05999347706834
 30
0.0
 10
259.0994302737668
 20
50.05999347706834
 30
0.0
 10
259.0994302737668
 20
50.05999347706834
 30
0.0
 10
259.0994302737668
 20
50.05999347706834
 30
0.0
 10
259.0994302737668
 20
43.4998426540556
 30
0.0
 10
259.0994302737668
 20
43.4998426540556
 30
0.0
 10
259.0994302737668
 20
43.4998426540556
 30
0.0
 10
256.0994411252113
 20
43.4998426540556
 30
0.0
 10
256.0994411252113
 20
43.4998426540556
 30
0.0
 10
256.0994411252113
 20
43.4998426540556
 30
0.0
 10
256.0994411252113
 20
38.49997557631251
 30
0.0
 10
256.0994411252113
 20
38.49997557631251
 30
0.0
 10
256.0994411252113
 20
38.49997557631251
 30
0.0
 10
259.0994302737668
 20
38.49997557631251
 30
0.0
 10
259.0994302737668
 20
38.49997557631251
 30
0.0
 10
259.0994302737668
 20
38.49997557631251
 30
0.0
 10
259.0994302737668
 20
31.93982475329977
 30
0.0
 10
259.0994302737668
 20
31.93982475329977
 30
0.0
 10
259.0994302737668
 20
31.93982475329977
 30
0.0
 10
261.4992837887918
 20
31.93982475329977
 30
0.0
 10
261.4992837887918
 20
31.93982475329977
 30
0.0
 10
261.4992837887918
 20
31.93982475329977
 30
0.0
 10
261.4992837887918
 20
28.93983560474421
 30
0.0
 10
261.4992837887918
 20
28.93983560474421
 30
0.0
 10
261.4992837887918
 20
28.93983560474421
 30
0.0
 10
266.7496093083126
 20
28.93983560474421
 30
0.0
 10
266.7496093083126
 20
28.93983560474421
 30
0.0
 10
266.7496093083126
 20
28.93983560474421
 30
0.0
 10
266.7496093083126
 20
31.93982475329977
 30
0.0
 10
266.7496093083126
 20
31.93982475329977
 30
0.0
 10
266.7496093083126
 20
31.93982475329977
 30
0.0
 10
277.249571328257
 20
31.93982475329977
 30
0.0
 10
277.249571328257
 20
31.93982475329977
 30
0.0
 10
277.249571328257
 20
31.93982475329977
 30
0.0
 10
277.249571328257
 20
28.93983560474421
 30
0.0
 10
277.249571328257
 20
28.93983560474421
 30
0.0
 10
277.249571328257
 20
28.93983560474421
 30
0.0
 10
282.4992078286808
 20
28.93983560474421
 30
0.0
 10
282.4992078286808
 20
28.93983560474421
 30
0.0
 10
282.4992078286808
 20
28.93983560474421
 30
0.0
 10
282.4992078286808
 20
31.93982475329977
 30
0.0
 10
282.4992078286808
 20
31.93982475329977
 30
0.0
 10
282.4992078286808
 20
31.93982475329977
 30
0.0
 10
284.8997503628029
 20
31.93982475329977
 30
0.0
 10
284.8997503628029
 20
31.93982475329977
 30
0.0
 10
284.8997503628029
 20
31.93982475329977
 30
0.0
 10
284.8997503628029
 20
38.49997557631251
 30
0.0
 10
284.8997503628029
 20
38.49997557631251
 30
0.0
 10
284.8997503628029
 20
38.49997557631251
 30
0.0
 10
287.8997395113584
 20
38.49997557631251
 30
0.0
 10
287.8997395113584
 20
38.49997557631251
 30
0.0
 10
287.8997395113584
 20
38.49997557631251
 30
0.0
 10
287.8997395113584
 20
43.4998426540556
 30
0.0
 10
287.8997395113584
 20
43.4998426540556
 30
0.0
 10
287.8997395113584
 20
43.4998426540556
 30
0.0
 10
284.8997503628029
 20
43.4998426540556
 30
0.0
 10
284.8997503628029
 20
43.4998426540556
 30
0.0
 10
284.8997503628029
 20
43.4998426540556
 30
0.0
 10
284.8997503628029
 20
50.05999347706834
 30
0.0
 10
284.8997503628029
 20
50.05999347706834
 30
0.0
 10
284.8997503628029
 20
50.05999347706834
 30
0.0
 10
297.4192273562007
 20
50.05999347706834
 30
0.0
 10
297.4192273562007
 20
50.05999347706834
 30
0.0
 10
297.4192273562007
 20
50.05999347706834
 30
0.0
 10
297.4192273562007
 20
47.06000432851278
 30
0.0
 10
297.4192273562007
 20
47.06000432851278
 30
0.0
 10
297.4192273562007
 20
47.06000432851278
 30
0.0
 10
302.4187499243953
 20
47.06000432851278
 30
0.0
 10
302.4187499243953
 20
47.06000432851278
 30
0.0
 10
302.4187499243953
 20
47.06000432851278
 30
0.0
 10
302.4187499243953
 20
50.05999347706834
 30
0.0
 10
302.4187499243953
 20
50.05999347706834
 30
0.0
 10
302.4187499243953
 20
50.05999347706834
 30
0.0
 10
311.9382377692377
 20
50.05999347706834
 30
0.0
 10
311.9382377692377
 20
50.05999347706834
 30
0.0
 10
311.9382377692377
 20
50.05999347706834
 30
0.0
 10
311.9382377692377
 20
46.94631617749953
 30
0.0
 10
311.9382377692377
 20
46.94631617749953
 30
0.0
 10
311.9382377692377
 20
45.92553438522
 30
0.0
 10
311.1692924569299
 20
45.06839462848985
 30
0.0
 10
310.1543673269753
 20
44.95815157296185
 30
0.0
 10
304.6056965384319
 20
44.35594888214018
 30
0.0
 10
299.6771429372335
 20
41.14339734214471
 30
0.0
 10
296.8866155941811
 20
36.31027288588771
 30
0.0
 10
296.8866155941811
 20
36.31027288588771
 30
0.0
 10
291.4771266632418
 20
26.93995767555668
 30
0.0
 10
291.4771266632418
 20
26.93995767555668
 30
0.0
 10
291.1195257518729
 20
26.32121852640581
 30
0.0
 10
290.4594454568991
 20
25.93984645618865
 30
0.0
 10
289.7449326532582
 20
25.93984645618865
 30
0.0
 10
289.7449326532582
 20
25.93984645618865
 30
0.0
 10
254.2535589642144
 20
25.93984645618865
 30
0.0
 10
254.2535589642144
 20
25.93984645618865
 30
0.0
 10
253.5390461605736
 20
25.93984645618865
 30
0.0
 10
252.8789658655997
 20
26.32121852640581
 30
0.0
 10
252.5220539733278
 20
26.93995767555668
 30
0.0
 10
252.5220539733278
 20
26.93995767555668
 30
0.0
 10
247.1118760232915
 20
36.31027288588771
 30
0.0
 10
247.1118760232915
 20
36.31027288588771
 30
0.0
 10
244.3213486802391
 20
41.14339734214471
 30
0.0
 10
239.3927950790407
 20
44.35594888214018
 30
0.0
 10
233.8441242904973
 20
44.95815157296185
 30
0.0
  0
ENDBLK
  5
1A5
330
1A2
100
AcDbEntity
  8
0
100
AcDbBlockEnd
  0
BLOCK
  5
1A9
330
1A7
100
AcDbEntity
  8
0
100
AcDbBlockBegin
  2
block 35
 70
     0
 71
     0
 10
0.0
 20
0.0
 30
0.0
  3
block 35
  1

  0
INSERT
  5
1AC
330
1A7
100
AcDbEntity
  8
Layer 1
100
AcDbBlockReference
  2
block 36
 10
0.0
 20
0.0
 30
0.0
  0
INSERT
  5
1B7
330
1A7
100
AcDbEntity
  8
Layer 1
100
AcDbBlockReference
  2
block 37
 10
0.0
 20
0.0
 30
0.0
  0
INSERT
  5
1D2
330
1A7
100
AcDbEntity
  8
Layer 1
100
AcDbBlockReference
  2
block 38
 10
0.0
 20
0.0
 30
0.0
  0
ENDBLK
  5
1AA
330
1A7
100
AcDbEntity
  8
0
100
AcDbBlockEnd
  0
BLOCK
  5
1AD
330
1AB
100
AcDbEntity
  8
0
100
AcDbBlockBegin
  2
block 36
 70
     0
 71
     0
 10
0.0
 20
0.0
 30
0.0
  3
block 36
  1

  0
POLYLINE
  5
1AF
330
1AB
100
AcDbEntity
  8
Layer 1
 62
     7
420
 16777215
370
    25
100
AcDb2dPolyline
 66
     1
 10
0.0
 20
0.0
 30
0.0
  0
VERTEX
  5
1B0
330
1AF
100
AcDbEntity
  8
Layer 1
 62
     7
420
 16777215
370
    25
100
AcDbVertex
100
AcDb2dVertex
 10
405.8994275243932
 20
70.49974499105562
 30
0.0
  0
VERTEX
  5
1B1
330
1AF
100
AcDbEntity
  8
Layer 1
 62
     7
420
 16777215
370
    25
100
AcDbVertex
100
AcDb2dVertex
 10
408.8994166729488
 20
70.49974499105562
 30
0.0
  0
VERTEX
  5
1B2
330
1AF
100
AcDbEntity
  8
Layer 1
 62
     7
420
 16777215
370
    25
100
AcDbVertex
100
AcDb2dVertex
 10
408.8994166729488
 20
75.49961206879871
 30
0.0
  0
VERTEX
  5
1B3
330
1AF
100
AcDbEntity
  8
Layer 1
 62
     7
420
 16777215
370
    25
100
AcDbVertex
100
AcDb2dVertex
 10
405.8994275243932
 20
75.49961206879871
 30
0.0
  0
VERTEX
  5
1B4
330
1AF
100
AcDbEntity
  8
Layer 1
 62
     7
420
 16777215
370
    25
100
AcDbVertex
100
AcDb2dVertex
 10
405.8994275243932
 20
70.49974499105562
 30
0.0
  0
SEQEND
  5
1B5
330
1AF
100
AcDbEntity
  8
Layer 1
370
    25
  0
ENDBLK
  5
1AE
330
1AB
100
AcDbEntity
  8
0
100
AcDbBlockEnd
  0
BLOCK
  5
1B8
330
1B6
100
AcDbEntity
  8
0
100
AcDbBlockBegin
  2
block 37
 70
     0
 71
     0
 10
0.0
 20
0.0
 30
0.0
  3
block 37
  1

  0
POLYLINE
  5
1BA
330
1B6
100
AcDbEntity
  8
Layer 1
 62
     7
420
 16777215
370
    25
100
AcDb2dPolyline
 66
     1
 10
0.0
 20
0.0
 30
0.0
  0
VERTEX
  5
1BB
330
1BA
100
AcDbEntity
  8
Layer 1
 62
     7
420
 16777215
370
    25
100
AcDbVertex
100
AcDb2dVertex
 10
382.4993054599307
 20
63.24988605189586
 30
0.0
  0
VERTEX
  5
1BC
330
1BA
100
AcDbEntity
  8
Layer 1
 62
     7
420
 16777215
370
    25
100
AcDbVertex
100
AcDb2dVertex
 10
374.2493353014029
 20
63.24988605189586
 30
0.0
  0
VERTEX
  5
1BD
330
1BA
100
AcDbEntity
  8
Layer 1
 62
     7
420
 16777215
370
    25
100
AcDbVertex
100
AcDb2dVertex
 10
374.2493353014029
 20
82.74981551750699
 30
0.0
  0
VERTEX
  5
1BE
330
1BA
100
AcDbEntity
  8
Layer 1
 62
     7
420
 16777215
370
    25
100
AcDbVertex
100
AcDb2dVertex
 10
382.4993054599307
 20
82.74981551750699
 30
0.0
  0
VERTEX
  5
1BF
330
1BA
100
AcDbEntity
  8
Layer 1
 62
     7
420
 16777215
370
    25
100
AcDbVertex
100
AcDb2dVertex
 10
382.4993054599307
 20
85.74980466606256
 30
0.0
  0
VERTEX
  5
1C0
330
1BA
100
AcDbEntity
  8
Layer 1
 62
     7
420
 16777215
370
    25
100
AcDbVertex
100
AcDb2dVertex
 10
387.749286469903
 20
85.74980466606256
 30
0.0
  0
VERTEX
  5
1C1
330
1BA
100
AcDbEntity
  8
Layer 1
 62
     7
420
 16777215
370
    25
100
AcDbVertex
100
AcDb2dVertex
 10
387.749286469903
 20
82.74981551750699
 30
0.0
  0
VERTEX
  5
1C2
330
1BA
100
AcDbEntity
  8
Layer 1
 62
     7
420
 16777215
370
    25
100
AcDbVertex
100
AcDb2dVertex
 10
398.2492484898474
 20
82.74981551750699
 30
0.0
  0
VERTEX
  5
1C3
330
1BA
100
AcDbEntity
  8
Layer 1
 62
     7
420
 16777215
370
    25
100
AcDbVertex
100
AcDb2dVertex
 10
398.2492484898474
 20
85.74980466606256
 30
0.0
  0
VERTEX
  5
1C4
330
1BA
100
AcDbEntity
  8
Layer 1
 62
     7
420
 16777215
370
    25
100
AcDbVertex
100
AcDb2dVertex
 10
403.4992294998196
 20
85.74980466606256
 30
0.0
  0
VERTEX
  5
1C5
330
1BA
100
AcDbEntity
  8
Layer 1
 62
     7
420
 16777215
370
    25
100
AcDbVertex
100
AcDb2dVertex
 10
403.4992294998196
 20
82.74981551750699
 30
0.0
  0
VERTEX
  5
1C6
330
1BA
100
AcDbEntity
  8
Layer 1
 62
     7
420
 16777215
370
    25
100
AcDbVertex
100
AcDb2dVertex
 10
411.7491996583474
 20
82.74981551750699
 30
0.0
  0
VERTEX
  5
1C7
330
1BA
100
AcDbEntity
  8
Layer 1
 62
     7
420
 16777215
370
    25
100
AcDbVertex
100
AcDb2dVertex
 10
411.7491996583474
 20
63.24988605189586
 30
0.0
  0
VERTEX
  5
1C8
330
1BA
100
AcDbEntity
  8
Layer 1
 62
     7
420
 16777215
370
    25
100
AcDbVertex
100
AcDb2dVertex
 10
403.4992294998196
 20
63.24988605189586
 30
0.0
  0
VERTEX
  5
1C9
330
1BA
100
AcDbEntity
  8
Layer 1
 62
     7
420
 16777215
370
    25
100
AcDbVertex
100
AcDb2dVertex
 10
403.4992294998196
 20
60.24989690334031
 30
0.0
  0
VERTEX
  5
1CA
330
1BA
100
AcDbEntity
  8
Layer 1
 62
     7
420
 16777215
370
    25
100
AcDbVertex
100
AcDb2dVertex
 10
398.2492484898474
 20
60.24989690334031
 30
0.0
  0
VERTEX
  5
1CB
330
1BA
100
AcDbEntity
  8
Layer 1
 62
     7
420
 16777215
370
    25
100
AcDbVertex
100
AcDb2dVertex
 10
398.2492484898474
 20
63.24988605189586
 30
0.0
  0
VERTEX
  5
1CC
330
1BA
100
AcDbEntity
  8
Layer 1
 62
     7
420
 16777215
370
    25
100
AcDbVertex
100
AcDb2dVertex
 10
387.749286469903
 20
63.24988605189586
 30
0.0
  0
VERTEX
  5
1CD
330
1BA
100
AcDbEntity
  8
Layer 1
 62
     7
420
 16777215
370
    25
100
AcDbVertex
100
AcDb2dVertex
 10
387.749286469903
 20
60.24989690334031
 30
0.0
  0
VERTEX
  5
1CE
330
1BA
100
AcDbEntity
  8
Layer 1
 62
     7
420
 16777215
370
    25
100
AcDbVertex
100
AcDb2dVertex
 10
382.4993054599307
 20
60.24989690334031
 30
0.0
  0
VERTEX
  5
1CF
330
1BA
100
AcDbEntity
  8
Layer 1
 62
     7
420
 16777215
370
    25
100
AcDbVertex
100
AcDb2dVertex
 10
382.4993054599307
 20
63.24988605189586
 30
0.0
  0
SEQEND
  5
1D0
330
1BA
100
AcDbEntity
  8
Layer 1
370
    25
  0
ENDBLK
  5
1B9
330
1B6
100
AcDbEntity
  8
0
100
AcDbBlockEnd
  0
BLOCK
  5
1D3
330
1D1
100
AcDbEntity
  8
0
100
AcDbBlockBegin
  2
block 38
 70
     0
 71
     0
 10
0.0
 20
0.0
 30
0.0
  3
block 38
  1

  0
POLYLINE
  5
1D5
330
1D1
100
AcDbEntity
  8
Layer 1
 62
     7
420
 16777215
370
    25
100
AcDb2dPolyline
 66
     1
 10
0.0
 20
0.0
 30
0.0
  0
VERTEX
  5
1D6
330
1D5
100
AcDbEntity
  8
Layer 1
 62
     7
420
 16777215
370
    25
100
AcDbVertex
100
AcDb2dVertex
 10
377.0994627963502
 20
70.49974499105562
 30
0.0
  0
VERTEX
  5
1D7
330
1D5
100
AcDbEntity
  8
Layer 1
 62
     7
420
 16777215
370
    25
100
AcDbVertex
100
AcDb2dVertex
 10
380.0994519449057
 20
70.49974499105562
 30
0.0
  0
VERTEX
  5
1D8
330
1D5
100
AcDbEntity
  8
Layer 1
 62
     7
420
 16777215
370
    25
100
AcDbVertex
100
AcDb2dVertex
 10
380.0994519449057
 20
75.49961206879871
 30
0.0
  0
VERTEX
  5
1D9
330
1D5
100
AcDbEntity
  8
Layer 1
 62
     7
420
 16777215
370
    25
100
AcDbVertex
100
AcDb2dVertex
 10
377.0994627963502
 20
75.49961206879871
 30
0.0
  0
VERTEX
  5
1DA
330
1D5
100
AcDbEntity
  8
Layer 1
 62
     7
420
 16777215
370
    25
100
AcDbVertex
100
AcDb2dVertex
 10
377.0994627963502
 20
70.49974499105562
 30
0.0
  0
SEQEND
  5
1DB
330
1D5
100
AcDbEntity
  8
Layer 1
370
    25
  0
ENDBLK
  5
1D4
330
1D1
100
AcDbEntity
  8
0
100
AcDbBlockEnd
  0
BLOCK
  5
1DE
330
1DC
100
AcDbEntity
  8
0
100
AcDbBlockBegin
  2
block 39
 70
     0
 71
     0
 10
0.0
 20
0.0
 30
0.0
  3
block 39
  1

  0
POLYLINE
  5
1E0
330
1DC
100
AcDbEntity
  8
Layer 1
 62
     7
420
 16777215
370
    25
100
AcDb2dPolyline
 66
     1
 10
0.0
 20
0.0
 30
0.0
  0
VERTEX
  5
1E1
330
1E0
100
AcDbEntity
  8
Layer 1
 62
     7
420
 16777215
370
    25
100
AcDbVertex
100
AcDb2dVertex
 10
193.9988389271948
 20
112.7498792578368
 30
0.0
  0
VERTEX
  5
1E2
330
1E0
100
AcDbEntity
  8
Layer 1
 62
     7
420
 16777215
370
    25
100
AcDbVertex
100
AcDb2dVertex
 10
187.9988606300836
 20
112.7498792578368
 30
0.0
  0
VERTEX
  5
1E3
330
1E0
100
AcDbEntity
  8
Layer 1
 62
     7
420
 16777215
370
    25
100
AcDbVertex
100
AcDb2dVertex
 10
187.9988606300836
 20
109.7498901092813
 30
0.0
  0
VERTEX
  5
1E4
330
1E0
100
AcDbEntity
  8
Layer 1
 62
     7
420
 16777215
370
    25
100
AcDbVertex
100
AcDb2dVertex
 10
172.2892252173444
 20
109.7498901092813
 30
0.0
  0
VERTEX
  5
1E5
330
1E0
100
AcDbEntity
  8
Layer 1
 62
     7
420
 16777215
370
    25
100
AcDbVertex
100
AcDb2dVertex
 10
172.2892252173444
 20
129.7500474393507
 30
0.0
  0
VERTEX
  5
1E6
330
1E0
100
AcDbEntity
  8
Layer 1
 62
     7
420
 16777215
370
    25
100
AcDbVertex
100
AcDb2dVertex
 10
187.9988606300836
 20
129.7500474393507
 30
0.0
  0
VERTEX
  5
1E7
330
1E0
100
AcDbEntity
  8
Layer 1
 62
     7
420
 16777215
370
    25
100
AcDbVertex
100
AcDb2dVertex
 10
187.9988606300836
 20
126.7500582907951
 30
0.0
  0
VERTEX
  5
1E8
330
1E0
100
AcDbEntity
  8
Layer 1
 62
     7
420
 16777215
370
    25
100
AcDbVertex
100
AcDb2dVertex
 10
193.9988389271948
 20
126.7500582907951
 30
0.0
  0
VERTEX
  5
1E9
330
1E0
100
AcDbEntity
  8
Layer 1
 62
     7
420
 16777215
370
    25
100
AcDbVertex
100
AcDb2dVertex
 10
193.9988389271948
 20
129.7500474393507
 30
0.0
  0
VERTEX
  5
1EA
330
1E0
100
AcDbEntity
  8
Layer 1
 62
     7
420
 16777215
370
    25
100
AcDbVertex
100
AcDb2dVertex
 10
209.709163359031
 20
129.7500474393507
 30
0.0
  0
VERTEX
  5
1EB
330
1E0
100
AcDbEntity
  8
Layer 1
 62
     7
420
 16777215
370
    25
100
AcDbVertex
100
AcDb2dVertex
 10
209.709163359031
 20
109.7498901092813
 30
0.0
  0
VERTEX
  5
1EC
330
1E0
100
AcDbEntity
  8
Layer 1
 62
     7
420
 16777215
370
    25
100
AcDbVertex
100
AcDb2dVertex
 10
193.9988389271948
 20
109.7498901092813
 30
0.0
  0
VERTEX
  5
1ED
330
1E0
100
AcDbEntity
  8
Layer 1
 62
     7
420
 16777215
370
    25
100
AcDbVertex
100
AcDb2dVertex
 10
193.9988389271948
 20
112.7498792578368
 30
0.0
  0
SEQEND
  5
1EE
330
1E0
100
AcDbEntity
  8
Layer 1
370
    25
  0
ENDBLK
  5
1DF
330
1DC
100
AcDbEntity
  8
0
100
AcDbBlockEnd
  0
BLOCK
  5
1F1
330
1EF
100
AcDbEntity
  8
0
100
AcDbBlockBegin
  2
block 40
 70
     0
 71
     0
 10
0.0
 20
0.0
 30
0.0
  3
block 40
  1

  0
INSERT
  5
1F4
330
1EF
100
AcDbEntity
  8
Layer 1
100
AcDbBlockReference
  2
block 41
 10
0.0
 20
0.0
 30
0.0
  0
INSERT
  5
1F9
330
1EF
100
AcDbEntity
  8
Layer 1
100
AcDbBlockReference
  2
block 42
 10
0.0
 20
0.0
 30
0.0
  0
ENDBLK
  5
1F2
330
1EF
100
AcDbEntity
  8
0
100
AcDbBlockEnd
  0
BLOCK
  5
1F5
330
1F3
100
AcDbEntity
  8
0
100
AcDbBlockBegin
  2
block 41
 70
     0
 71
     0
 10
0.0
 20
0.0
 30
0.0
  3
block 41
  1

  0
SPLINE
  5
1F7
330
1F3
100
AcDbEntity
  8
Layer 1
 62
     7
420
 16777215
370
    25
100
AcDbSpline
210
0.0
220
0.0
230
1.0
 70
    11
 71
     3
 72
    20
 73
    16
 74
     0
 42
0.0000000001
 43
0.0000000001
 40
0.0
 40
0.0
 40
0.0
 40
0.0
 40
1.0
 40
1.0
 40
1.0
 40
2.0
 40
2.0
 40
2.0
 40
3.0
 40
3.0
 40
3.0
 40
4.0
 40
4.0
 40
4.0
 40
5.0
 40
5.0
 40
5.0
 40
5.0
 10
358.999275626396
 20
71.9997395653334
 30
0.0
 10
358.999275626396
 20
73.38053383582154
 30
0.0
 10
357.8799641032384
 20
74.49984535897921
 30
0.0
 10
356.4991698327502
 20
74.49984535897921
 30
0.0
 10
355.1187200718106
 20
74.49984535897921
 30
0.0
 10
353.9994085486529
 20
73.38053383582154
 30
0.0
 10
353.9994085486529
 20
71.9997395653334
 30
0.0
 10
353.9994085486529
 20
70.61928980439379
 30
0.0
 10
355.1187200718106
 20
69.4996337716876
 30
0.0
 10
356.4991698327502
 20
69.4996337716876
 30
0.0
 10
357.8799641032384
 20
69.4996337716876
 30
0.0
 10
358.999275626396
 20
70.61928980439379
 30
0.0
 10
358.999275626396
 20
71.9997395653334
 30
0.0
 10
358.999275626396
 20
71.9997395653334
 30
0.0
 10
358.999275626396
 20
71.9997395653334
 30
0.0
 10
358.999275626396
 20
71.9997395653334
 30
0.0
  0
ENDBLK
  5
1F6
330
1F3
100
AcDbEntity
  8
0
100
AcDbBlockEnd
  0
BLOCK
  5
1FA
330
1F8
100
AcDbEntity
  8
0
100
AcDbBlockBegin
  2
block 42
 70
     0
 71
     0
 10
0.0
 20
0.0
 30
0.0
  3
block 42
  1

  0
POLYLINE
  5
1FC
330
1F8
100
AcDbEntity
  8
Layer 1
 62
     7
420
 16777215
370
    25
100
AcDb2dPolyline
 66
     1
 10
0.0
 20
0.0
 30
0.0
  0
VERTEX
  5
1FD
330
1FC
100
AcDbEntity
  8
Layer 1
 62
     7
420
 16777215
370
    25
100
AcDbVertex
100
AcDb2dVertex
 10
353.9994085486529
 20
62.24977483252783
 30
0.0
  0
VERTEX
  5
1FE
330
1FC
100
AcDbEntity
  8
Layer 1
 62
     7
420
 16777215
370
    25
100
AcDbVertex
100
AcDb2dVertex
 10
344.4799207038106
 20
62.24977483252783
 30
0.0
  0
VERTEX
  5
1FF
330
1FC
100
AcDbEntity
  8
Layer 1
 62
     7
420
 16777215
370
    25
100
AcDbVertex
100
AcDb2dVertex
 10
344.4799207038106
 20
81.74987655291324
 30
0.0
  0
VERTEX
  5
200
330
1FC
100
AcDbEntity
  8
Layer 1
 62
     7
420
 16777215
370
    25
100
AcDbVertex
100
AcDb2dVertex
 10
353.9994085486529
 20
81.74987655291324
 30
0.0
  0
VERTEX
  5
201
330
1FC
100
AcDbEntity
  8
Layer 1
 62
     7
420
 16777215
370
    25
100
AcDbVertex
100
AcDb2dVertex
 10
353.9994085486529
 20
84.74986570146879
 30
0.0
  0
VERTEX
  5
202
330
1FC
100
AcDbEntity
  8
Layer 1
 62
     7
420
 16777215
370
    25
100
AcDbVertex
100
AcDb2dVertex
 10
358.999275626396
 20
84.74986570146879
 30
0.0
  0
VERTEX
  5
203
330
1FC
100
AcDbEntity
  8
Layer 1
 62
     7
420
 16777215
370
    25
100
AcDbVertex
100
AcDb2dVertex
 10
358.999275626396
 20
81.74987655291324
 30
0.0
  0
VERTEX
  5
204
330
1FC
100
AcDbEntity
  8
Layer 1
 62
     7
420
 16777215
370
    25
100
AcDbVertex
100
AcDb2dVertex
 10
368.5187634712384
 20
81.74987655291324
 30
0.0
  0
VERTEX
  5
205
330
1FC
100
AcDbEntity
  8
Layer 1
 62
     7
420
 16777215
370
    25
100
AcDbVertex
100
AcDb2dVertex
 10
368.5187634712384
 20
74.49984535897921
 30
0.0
  0
VERTEX
  5
206
330
1FC
100
AcDbEntity
  8
Layer 1
 62
     7
420
 16777215
370
    25
100
AcDbVertex
100
AcDb2dVertex
 10
371.5187526197939
 20
74.49984535897921
 30
0.0
  0
VERTEX
  5
207
330
1FC
100
AcDbEntity
  8
Layer 1
 62
     7
420
 16777215
370
    25
100
AcDbVertex
100
AcDb2dVertex
 10
371.5187526197939
 20
69.4996337716876
 30
0.0
  0
VERTEX
  5
208
330
1FC
100
AcDbEntity
  8
Layer 1
 62
     7
420
 16777215
370
    25
100
AcDbVertex
100
AcDb2dVertex
 10
368.5187634712384
 20
69.4996337716876
 30
0.0
  0
VERTEX
  5
209
330
1FC
100
AcDbEntity
  8
Layer 1
 62
     7
420
 16777215
370
    25
100
AcDbVertex
100
AcDb2dVertex
 10
368.5187634712384
 20
62.24977483252783
 30
0.0
  0
VERTEX
  5
20A
330
1FC
100
AcDbEntity
  8
Layer 1
 62
     7
420
 16777215
370
    25
100
AcDbVertex
100
AcDb2dVertex
 10
358.999275626396
 20
62.24977483252783
 30
0.0
  0
VERTEX
  5
20B
330
1FC
100
AcDbEntity
  8
Layer 1
 62
     7
420
 16777215
370
    25
100
AcDbVertex
100
AcDb2dVertex
 10
358.999275626396
 20
59.24978568397228
 30
0.0
  0
VERTEX
  5
20C
330
1FC
100
AcDbEntity
  8
Layer 1
 62
     7
420
 16777215
370
    25
100
AcDbVertex
100
AcDb2dVertex
 10
353.9994085486529
 20
59.24978568397228
 30
0.0
  0
VERTEX
  5
20D
330
1FC
100
AcDbEntity
  8
Layer 1
 62
     7
420
 16777215
370
    25
100
AcDbVertex
100
AcDb2dVertex
 10
353.9994085486529
 20
62.24977483252783
 30
0.0
  0
SEQEND
  5
20E
330
1FC
100
AcDbEntity
  8
Layer 1
370
    25
  0
ENDBLK
  5
1FB
330
1F8
100
AcDbEntity
  8
0
100
AcDbBlockEnd
  0
BLOCK
  5
211
330
20F
100
AcDbEntity
  8
0
100
AcDbBlockBegin
  2
block 43
 70
     0
 71
     0
 10
0.0
 20
0.0
 30
0.0
  3
block 43
  1

  0
POLYLINE
  5
213
330
20F
100
AcDbEntity
  8
Layer 1
 62
     7
420
 16777215
370
    25
100
AcDb2dPolyline
 66
     1
 10
0.0
 20
0.0
 30
0.0
  0
VERTEX
  5
214
330
213
100
AcDbEntity
  8
Layer 1
 62
     7
420
 16777215
370
    25
100
AcDbVertex
100
AcDb2dVertex
 10
232.1126192996107
 20
-29.46090629688825
 30
0.0
  0
VERTEX
  5
215
330
213
100
AcDbEntity
  8
Layer 1
 62
     7
420
 16777215
370
    25
100
AcDbVertex
100
AcDb2dVertex
 10
259.8862900825979
 20
-29.46090629688825
 30
0.0
  0
VERTEX
  5
216
330
213
100
AcDbEntity
  8
Layer 1
 62
     7
420
 16777215
370
    25
100
AcDbVertex
100
AcDb2dVertex
 10
259.8862900825979
 20
-54.53913437221591
 30
0.0
  0
VERTEX
  5
217
330
213
100
AcDbEntity
  8
Layer 1
 62
     7
420
 16777215
370
    25
100
AcDbVertex
100
AcDb2dVertex
 10
248.2260199032213
 20
-44.01023355019536
 30
0.0
  0
VERTEX
  5
218
330
213
100
AcDbEntity
  8
Layer 1
 62
     7
420
 16777215
370
    25
100
AcDbVertex
100
AcDb2dVertex
 10
246.215806687578
 20
-46.23714327186085
 30
0.0
  0
VERTEX
  5
219
330
213
100
AcDbEntity
  8
Layer 1
 62
     7
420
 16777215
370
    25
100
AcDbVertex
100
AcDb2dVertex
 10
241.7623317537955
 20
-42.21602782147725
 30
0.0
  0
VERTEX
  5
21A
330
213
100
AcDbEntity
  8
Layer 1
 62
     7
420
 16777215
370
    25
100
AcDbVertex
100
AcDb2dVertex
 10
243.7728894789873
 20
-39.98911809981175
 30
0.0
  0
VERTEX
  5
21B
330
213
100
AcDbEntity
  8
Layer 1
 62
     7
420
 16777215
370
    25
100
AcDbVertex
100
AcDb2dVertex
 10
232.1126192996107
 20
-29.46090629688825
 30
0.0
  0
SEQEND
  5
21C
330
213
100
AcDbEntity
  8
Layer 1
370
    25
  0
ENDBLK
  5
212
330
20F
100
AcDbEntity
  8
0
100
AcDbBlockEnd
  0
BLOCK
  5
21F
330
21D
100
AcDbEntity
  8
0
100
AcDbBlockBegin
  2
block 44
 70
     0
 71
     0
 10
0.0
 20
0.0
 30
0.0
  3
block 44
  1

  0
INSERT
  5
222
330
21D
100
AcDbEntity
  8
Layer 1
100
AcDbBlockReference
  2
block 45
 10
0.0
 20
0.0
 30
0.0
  0
INSERT
  5
227
330
21D
100
AcDbEntity
  8
Layer 1
100
AcDbBlockReference
  2
block 46
 10
0.0
 20
0.0
 30
0.0
  0
ENDBLK
  5
220
330
21D
100
AcDbEntity
  8
0
100
AcDbBlockEnd
  0
BLOCK
  5
223
330
221
100
AcDbEntity
  8
0
100
AcDbBlockBegin
  2
block 45
 70
     0
 71
     0
 10
0.0
 20
0.0
 30
0.0
  3
block 45
  1

  0
SPLINE
  5
225
330
221
100
AcDbEntity
  8
Layer 1
 62
     7
420
 16777215
370
    25
100
AcDbSpline
210
0.0
220
0.0
230
1.0
 70
    11
 71
     3
 72
    20
 73
    16
 74
     0
 42
0.0000000001
 43
0.0000000001
 40
0.0
 40
0.0
 40
0.0
 40
0.0
 40
1.0
 40
1.0
 40
1.0
 40
2.0
 40
2.0
 40
2.0
 40
3.0
 40
3.0
 40
3.0
 40
4.0
 40
4.0
 40
4.0
 40
5.0
 40
5.0
 40
5.0
 40
5.0
 10
293.3688285941925
 20
-41.8534315216547
 30
0.0
 10
293.3688285941925
 20
-40.47263725116657
 30
0.0
 10
292.2491725614863
 20
-39.35349798278315
 30
0.0
 10
290.8683782909982
 20
-39.35349798278315
 30
0.0
 10
289.4882730396071
 20
-39.35349798278315
 30
0.0
 10
288.3689615164494
 20
-40.47263725116657
 30
0.0
 10
288.3689615164494
 20
-41.8534315216547
 30
0.0
 10
288.3689615164494
 20
-43.23405353736857
 30
0.0
 10
289.4882730396071
 20
-44.35336506052624
 30
0.0
 10
290.8683782909982
 20
-44.35336506052624
 30
0.0
 10
292.2491725614863
 20
-44.35336506052624
 30
0.0
 10
293.3688285941925
 20
-43.23405353736857
 30
0.0
 10
293.3688285941925
 20
-41.8534315216547
 30
0.0
 10
293.3688285941925
 20
-41.8534315216547
 30
0.0
 10
293.3688285941925
 20
-41.8534315216547
 30
0.0
 10
293.3688285941925
 20
-41.8534315216547
 30
0.0
  0
ENDBLK
  5
224
330
221
100
AcDbEntity
  8
0
100
AcDbBlockEnd
  0
BLOCK
  5
228
330
226
100
AcDbEntity
  8
0
100
AcDbBlockBegin
  2
block 46
 70
     0
 71
     0
 10
0.0
 20
0.0
 30
0.0
  3
block 46
  1

  0
POLYLINE
  5
22A
330
226
100
AcDbEntity
  8
Layer 1
 62
     7
420
 16777215
370
    25
100
AcDb2dPolyline
 66
     1
 10
0.0
 20
0.0
 30
0.0
  0
VERTEX
  5
22B
330
22A
100
AcDbEntity
  8
Layer 1
 62
     7
420
 16777215
370
    25
100
AcDbVertex
100
AcDb2dVertex
 10
302.8883164390349
 20
-51.60339625446026
 30
0.0
  0
VERTEX
  5
22C
330
22A
100
AcDbEntity
  8
Layer 1
 62
     7
420
 16777215
370
    25
100
AcDbVertex
100
AcDb2dVertex
 10
293.3688285941925
 20
-51.60339625446026
 30
0.0
  0
VERTEX
  5
22D
330
22A
100
AcDbEntity
  8
Layer 1
 62
     7
420
 16777215
370
    25
100
AcDbVertex
100
AcDb2dVertex
 10
293.3688285941925
 20
-54.60338540301582
 30
0.0
  0
VERTEX
  5
22E
330
22A
100
AcDbEntity
  8
Layer 1
 62
     7
420
 16777215
370
    25
100
AcDbVertex
100
AcDb2dVertex
 10
288.3689615164494
 20
-54.60338540301582
 30
0.0
  0
VERTEX
  5
22F
330
22A
100
AcDbEntity
  8
Layer 1
 62
     7
420
 16777215
370
    25
100
AcDbVertex
100
AcDb2dVertex
 10
288.3689615164494
 20
-51.60339625446026
 30
0.0
  0
VERTEX
  5
230
330
22A
100
AcDbEntity
  8
Layer 1
 62
     7
420
 16777215
370
    25
100
AcDbVertex
100
AcDb2dVertex
 10
278.8494736716071
 20
-51.60339625446026
 30
0.0
  0
VERTEX
  5
231
330
22A
100
AcDbEntity
  8
Layer 1
 62
     7
420
 16777215
370
    25
100
AcDbVertex
100
AcDb2dVertex
 10
278.8494736716071
 20
-44.35336506052624
 30
0.0
  0
VERTEX
  5
232
330
22A
100
AcDbEntity
  8
Layer 1
 62
     7
420
 16777215
370
    25
100
AcDbVertex
100
AcDb2dVertex
 10
275.8494845230516
 20
-44.35336506052624
 30
0.0
  0
VERTEX
  5
233
330
22A
100
AcDbEntity
  8
Layer 1
 62
     7
420
 16777215
370
    25
100
AcDbVertex
100
AcDb2dVertex
 10
275.8494845230516
 20
-39.35349798278315
 30
0.0
  0
VERTEX
  5
234
330
22A
100
AcDbEntity
  8
Layer 1
 62
     7
420
 16777215
370
    25
100
AcDbVertex
100
AcDb2dVertex
 10
278.8494736716071
 20
-39.35349798278315
 30
0.0
  0
VERTEX
  5
235
330
22A
100
AcDbEntity
  8
Layer 1
 62
     7
420
 16777215
370
    25
100
AcDbVertex
100
AcDb2dVertex
 10
278.8494736716071
 20
-32.10329453407487
 30
0.0
  0
VERTEX
  5
236
330
22A
100
AcDbEntity
  8
Layer 1
 62
     7
420
 16777215
370
    25
100
AcDbVertex
100
AcDb2dVertex
 10
288.3689615164494
 20
-32.10329453407487
 30
0.0
  0
VERTEX
  5
237
330
22A
100
AcDbEntity
  8
Layer 1
 62
     7
420
 16777215
370
    25
100
AcDbVertex
100
AcDb2dVertex
 10
288.3689615164494
 20
-29.10330538551931
 30
0.0
  0
VERTEX
  5
238
330
22A
100
AcDbEntity
  8
Layer 1
 62
     7
420
 16777215
370
    25
100
AcDbVertex
100
AcDb2dVertex
 10
293.3688285941925
 20
-29.10330538551931
 30
0.0
  0
VERTEX
  5
239
330
22A
100
AcDbEntity
  8
Layer 1
 62
     7
420
 16777215
370
    25
100
AcDbVertex
100
AcDb2dVertex
 10
293.3688285941925
 20
-32.10329453407487
 30
0.0
  0
VERTEX
  5
23A
330
22A
100
AcDbEntity
  8
Layer 1
 62
     7
420
 16777215
370
    25
100
AcDbVertex
100
AcDb2dVertex
 10
302.8883164390349
 20
-32.10329453407487
 30
0.0
  0
VERTEX
  5
23B
330
22A
100
AcDbEntity
  8
Layer 1
 62
     7
420
 16777215
370
    25
100
AcDbVertex
100
AcDb2dVertex
 10
302.8883164390349
 20
-51.60339625446026
 30
0.0
  0
SEQEND
  5
23C
330
22A
100
AcDbEntity
  8
Layer 1
370
    25
  0
ENDBLK
  5
229
330
226
100
AcDbEntity
  8
0
100
AcDbBlockEnd
  0
BLOCK
  5
23F
330
23D
100
AcDbEntity
  8
0
100
AcDbBlockBegin
  2
block 47
 70
     0
 71
     0
 10
0.0
 20
0.0
 30
0.0
  3
block 47
  1

  0
INSERT
  5
242
330
23D
100
AcDbEntity
  8
Layer 1
100
AcDbBlockReference
  2
block 48
 10
0.0
 20
0.0
 30
0.0
  0
INSERT
  5
24A
330
23D
100
AcDbEntity
  8
Layer 1
100
AcDbBlockReference
  2
block 49
 10
0.0
 20
0.0
 30
0.0
  0
INSERT
  5
252
330
23D
100
AcDbEntity
  8
Layer 1
100
AcDbBlockReference
  2
block 50
 10
0.0
 20
0.0
 30
0.0
  0
INSERT
  5
25A
330
23D
100
AcDbEntity
  8
Layer 1
100
AcDbBlockReference
  2
block 51
 10
0.0
 20
0.0
 30
0.0
  0
INSERT
  5
262
330
23D
100
AcDbEntity
  8
Layer 1
100
AcDbBlockReference
  2
block 52
 10
0.0
 20
0.0
 30
0.0
  0
INSERT
  5
26A
330
23D
100
AcDbEntity
  8
Layer 1
100
AcDbBlockReference
  2
block 53
 10
0.0
 20
0.0
 30
0.0
  0
INSERT
  5
272
330
23D
100
AcDbEntity
  8
Layer 1
100
AcDbBlockReference
  2
block 54
 10
0.0
 20
0.0
 30
0.0
  0
INSERT
  5
27A
330
23D
100
AcDbEntity
  8
Layer 1
100
AcDbBlockReference
  2
block 55
 10
0.0
 20
0.0
 30
0.0
  0
INSERT
  5
282
330
23D
100
AcDbEntity
  8
Layer 1
100
AcDbBlockReference
  2
block 56
 10
0.0
 20
0.0
 30
0.0
  0
INSERT
  5
28A
330
23D
100
AcDbEntity
  8
Layer 1
100
AcDbBlockReference
  2
block 57
 10
0.0
 20
0.0
 30
0.0
  0
INSERT
  5
292
330
23D
100
AcDbEntity
  8
Layer 1
100
AcDbBlockReference
  2
block 58
 10
0.0
 20
0.0
 30
0.0
  0
INSERT
  5
29A
330
23D
100
AcDbEntity
  8
Layer 1
100
AcDbBlockReference
  2
block 59
 10
0.0
 20
0.0
 30
0.0
  0
INSERT
  5
2A2
330
23D
100
AcDbEntity
  8
Layer 1
100
AcDbBlockReference
  2
block 60
 10
0.0
 20
0.0
 30
0.0
  0
INSERT
  5
2AA
330
23D
100
AcDbEntity
  8
Layer 1
100
AcDbBlockReference
  2
block 61
 10
0.0
 20
0.0
 30
0.0
  0
INSERT
  5
2B2
330
23D
100
AcDbEntity
  8
Layer 1
100
AcDbBlockReference
  2
block 62
 10
0.0
 20
0.0
 30
0.0
  0
INSERT
  5
2BA
330
23D
100
AcDbEntity
  8
Layer 1
100
AcDbBlockReference
  2
block 63
 10
0.0
 20
0.0
 30
0.0
  0
INSERT
  5
2C2
330
23D
100
AcDbEntity
  8
Layer 1
100
AcDbBlockReference
  2
block 64
 10
0.0
 20
0.0
 30
0.0
  0
INSERT
  5
2CA
330
23D
100
AcDbEntity
  8
Layer 1
100
AcDbBlockReference
  2
block 65
 10
0.0
 20
0.0
 30
0.0
  0
INSERT
  5
2D2
330
23D
100
AcDbEntity
  8
Layer 1
100
AcDbBlockReference
  2
block 66
 10
0.0
 20
0.0
 30
0.0
  0
INSERT
  5
2DA
330
23D
100
AcDbEntity
  8
Layer 1
100
AcDbBlockReference
  2
block 67
 10
0.0
 20
0.0
 30
0.0
  0
INSERT
  5
2E2
330
23D
100
AcDbEntity
  8
Layer 1
100
AcDbBlockReference
  2
block 68
 10
0.0
 20
0.0
 30
0.0
  0
INSERT
  5
2EA
330
23D
100
AcDbEntity
  8
Layer 1
100
AcDbBlockReference
  2
block 69
 10
0.0
 20
0.0
 30
0.0
  0
INSERT
  5
2F2
330
23D
100
AcDbEntity
  8
Layer 1
100
AcDbBlockReference
  2
block 70
 10
0.0
 20
0.0
 30
0.0
  0
INSERT
  5
2FA
330
23D
100
AcDbEntity
  8
Layer 1
100
AcDbBlockReference
  2
block 71
 10
0.0
 20
0.0
 30
0.0
  0
INSERT
  5
2FF
330
23D
100
AcDbEntity
  8
Layer 1
100
AcDbBlockReference
  2
block 72
 10
0.0
 20
0.0
 30
0.0
  0
INSERT
  5
304
330
23D
100
AcDbEntity
  8
Layer 1
100
AcDbBlockReference
  2
block 73
 10
0.0
 20
0.0
 30
0.0
  0
INSERT
  5
309
330
23D
100
AcDbEntity
  8
Layer 1
100
AcDbBlockReference
  2
block 74
 10
0.0
 20
0.0
 30
0.0
  0
INSERT
  5
30E
330
23D
100
AcDbEntity
  8
Layer 1
100
AcDbBlockReference
  2
block 75
 10
0.0
 20
0.0
 30
0.0
  0
INSERT
  5
313
330
23D
100
AcDbEntity
  8
Layer 1
100
AcDbBlockReference
  2
block 76
 10
0.0
 20
0.0
 30
0.0
  0
INSERT
  5
31B
330
23D
100
AcDbEntity
  8
Layer 1
100
AcDbBlockReference
  2
block 77
 10
0.0
 20
0.0
 30
0.0
  0
INSERT
  5
323
330
23D
100
AcDbEntity
  8
Layer 1
100
AcDbBlockReference
  2
block 78
 10
0.0
 20
0.0
 30
0.0
  0
INSERT
  5
32B
330
23D
100
AcDbEntity
  8
Layer 1
100
AcDbBlockReference
  2
block 79
 10
0.0
 20
0.0
 30
0.0
  0
INSERT
  5
333
330
23D
100
AcDbEntity
  8
Layer 1
100
AcDbBlockReference
  2
block 80
 10
0.0
 20
0.0
 30
0.0
  0
ENDBLK
  5
240
330
23D
100
AcDbEntity
  8
0
100
AcDbBlockEnd
  0
BLOCK
  5
243
330
241
100
AcDbEntity
  8
0
100
AcDbBlockBegin
  2
block 48
 70
     0
 71
     0
 10
0.0
 20
0.0
 30
0.0
  3
block 48
  1

  0
POLYLINE
  5
245
330
241
100
AcDbEntity
  8
Layer 1
 62
     7
420
 16777215
370
    25
100
AcDb2dPolyline
 66
     1
 10
0.0
 20
0.0
 30
0.0
  0
VERTEX
  5
246
330
245
100
AcDbEntity
  8
Layer 1
 62
     7
420
 16777215
370
    25
100
AcDbVertex
100
AcDb2dVertex
 10
187.011496264011
 20
-97.50016409237844
 30
0.0
  0
VERTEX
  5
247
330
245
100
AcDbEntity
  8
Layer 1
 62
     7
420
 16777215
370
    25
100
AcDbVertex
100
AcDb2dVertex
 10
196.9871147511004
 20
-97.50016409237844
 30
0.0
  0
SEQEND
  5
248
330
245
100
AcDbEntity
  8
Layer 1
370
    25
  0
ENDBLK
  5
244
330
241
100
AcDbEntity
  8
0
100
AcDbBlockEnd
  0
BLOCK
  5
24B
330
249
100
AcDbEntity
  8
0
100
AcDbBlockBegin
  2
block 49
 70
     0
 71
     0
 10
0.0
 20
0.0
 30
0.0
  3
block 49
  1

  0
POLYLINE
  5
24D
330
249
100
AcDbEntity
  8
Layer 1
 62
     7
420
 16777215
370
    25
100
AcDb2dPolyline
 66
     1
 10
0.0
 20
0.0
 30
0.0
  0
VERTEX
  5
24E
330
24D
100
AcDbEntity
  8
Layer 1
 62
     7
420
 16777215
370
    25
100
AcDbVertex
100
AcDb2dVertex
 10
228.9383083195015
 20
-97.50016409237844
 30
0.0
  0
VERTEX
  5
24F
330
24D
100
AcDbEntity
  8
Layer 1
 62
     7
420
 16777215
370
    25
100
AcDbVertex
100
AcDb2dVertex
 10
228.9383083195015
 20
-87.800153244109
 30
0.0
  0
SEQEND
  5
250
330
24D
100
AcDbEntity
  8
Layer 1
370
    25
  0
ENDBLK
  5
24C
330
249
100
AcDbEntity
  8
0
100
AcDbBlockEnd
  0
BLOCK
  5
253
330
251
100
AcDbEntity
  8
0
100
AcDbBlockBegin
  2
block 50
 70
     0
 71
     0
 10
0.0
 20
0.0
 30
0.0
  3
block 50
  1

  0
POLYLINE
  5
255
330
251
100
AcDbEntity
  8
Layer 1
 62
     7
420
 16777215
370
    25
100
AcDb2dPolyline
 66
     1
 10
0.0
 20
0.0
 30
0.0
  0
VERTEX
  5
256
330
255
100
AcDbEntity
  8
Layer 1
 62
     7
420
 16777215
370
    25
100
AcDbVertex
100
AcDb2dVertex
 10
228.9383083195015
 20
-87.800153244109
 30
0.0
  0
VERTEX
  5
257
330
255
100
AcDbEntity
  8
Layer 1
 62
     7
420
 16777215
370
    25
100
AcDbVertex
100
AcDb2dVertex
 10
231.9382974680571
 20
-87.800153244109
 30
0.0
  0
SEQEND
  5
258
330
255
100
AcDbEntity
  8
Layer 1
370
    25
  0
ENDBLK
  5
254
330
251
100
AcDbEntity
  8
0
100
AcDbBlockEnd
  0
BLOCK
  5
25B
330
259
100
AcDbEntity
  8
0
100
AcDbBlockBegin
  2
block 51
 70
     0
 71
     0
 10
0.0
 20
0.0
 30
0.0
  3
block 51
  1

  0
POLYLINE
  5
25D
330
259
100
AcDbEntity
  8
Layer 1
 62
     7
420
 16777215
370
    25
100
AcDb2dPolyline
 66
     1
 10
0.0
 20
0.0
 30
0.0
  0
VERTEX
  5
25E
330
25D
100
AcDbEntity
  8
Layer 1
 62
     7
420
 16777215
370
    25
100
AcDbVertex
100
AcDb2dVertex
 10
231.9382974680571
 20
-87.800153244109
 30
0.0
  0
VERTEX
  5
25F
330
25D
100
AcDbEntity
  8
Layer 1
 62
     7
420
 16777215
370
    25
100
AcDbVertex
100
AcDb2dVertex
 10
231.9382974680571
 20
-78.10014239583955
 30
0.0
  0
SEQEND
  5
260
330
25D
100
AcDbEntity
  8
Layer 1
370
    25
  0
ENDBLK
  5
25C
330
259
100
AcDbEntity
  8
0
100
AcDbBlockEnd
  0
BLOCK
  5
263
330
261
100
AcDbEntity
  8
0
100
AcDbBlockBegin
  2
block 52
 70
     0
 71
     0
 10
0.0
 20
0.0
 30
0.0
  3
block 52
  1

  0
POLYLINE
  5
265
330
261
100
AcDbEntity
  8
Layer 1
 62
     7
420
 16777215
370
    25
100
AcDb2dPolyline
 66
     1
 10
0.0
 20
0.0
 30
0.0
  0
VERTEX
  5
266
330
265
100
AcDbEntity
  8
Layer 1
 62
     7
420
 16777215
370
    25
100
AcDbVertex
100
AcDb2dVertex
 10
231.9382974680571
 20
-78.10014239583955
 30
0.0
  0
VERTEX
  5
267
330
265
100
AcDbEntity
  8
Layer 1
 62
     7
420
 16777215
370
    25
100
AcDbVertex
100
AcDb2dVertex
 10
228.9383083195015
 20
-78.10014239583955
 30
0.0
  0
SEQEND
  5
268
330
265
100
AcDbEntity
  8
Layer 1
370
    25
  0
ENDBLK
  5
264
330
261
100
AcDbEntity
  8
0
100
AcDbBlockEnd
  0
BLOCK
  5
26B
330
269
100
AcDbEntity
  8
0
100
AcDbBlockBegin
  2
block 53
 70
     0
 71
     0
 10
0.0
 20
0.0
 30
0.0
  3
block 53
  1

  0
POLYLINE
  5
26D
330
269
100
AcDbEntity
  8
Layer 1
 62
     7
420
 16777215
370
    25
100
AcDb2dPolyline
 66
     1
 10
0.0
 20
0.0
 30
0.0
  0
VERTEX
  5
26E
330
26D
100
AcDbEntity
  8
Layer 1
 62
     7
420
 16777215
370
    25
100
AcDbVertex
100
AcDb2dVertex
 10
228.9383083195015
 20
-78.10014239583955
 30
0.0
  0
VERTEX
  5
26F
330
26D
100
AcDbEntity
  8
Layer 1
 62
     7
420
 16777215
370
    25
100
AcDbVertex
100
AcDb2dVertex
 10
228.9383083195015
 20
-68.40013154757011
 30
0.0
  0
SEQEND
  5
270
330
26D
100
AcDbEntity
  8
Layer 1
370
    25
  0
ENDBLK
  5
26C
330
269
100
AcDbEntity
  8
0
100
AcDbBlockEnd
  0
BLOCK
  5
273
330
271
100
AcDbEntity
  8
0
100
AcDbBlockBegin
  2
block 54
 70
     0
 71
     0
 10
0.0
 20
0.0
 30
0.0
  3
block 54
  1

  0
POLYLINE
  5
275
330
271
100
AcDbEntity
  8
Layer 1
 62
     7
420
 16777215
370
    25
100
AcDb2dPolyline
 66
     1
 10
0.0
 20
0.0
 30
0.0
  0
VERTEX
  5
276
330
275
100
AcDbEntity
  8
Layer 1
 62
     7
420
 16777215
370
    25
100
AcDbVertex
100
AcDb2dVertex
 10
228.9383083195015
 20
-68.40013154757011
 30
0.0
  0
VERTEX
  5
277
330
275
100
AcDbEntity
  8
Layer 1
 62
     7
420
 16777215
370
    25
100
AcDbVertex
100
AcDb2dVertex
 10
231.9382974680571
 20
-68.40013154757011
 30
0.0
  0
SEQEND
  5
278
330
275
100
AcDbEntity
  8
Layer 1
370
    25
  0
ENDBLK
  5
274
330
271
100
AcDbEntity
  8
0
100
AcDbBlockEnd
  0
BLOCK
  5
27B
330
279
100
AcDbEntity
  8
0
100
AcDbBlockBegin
  2
block 55
 70
     0
 71
     0
 10
0.0
 20
0.0
 30
0.0
  3
block 55
  1

  0
POLYLINE
  5
27D
330
279
100
AcDbEntity
  8
Layer 1
 62
     7
420
 16777215
370
    25
100
AcDb2dPolyline
 66
     1
 10
0.0
 20
0.0
 30
0.0
  0
VERTEX
  5
27E
330
27D
100
AcDbEntity
  8
Layer 1
 62
     7
420
 16777215
370
    25
100
AcDbVertex
100
AcDb2dVertex
 10
231.9382974680571
 20
-68.40013154757011
 30
0.0
  0
VERTEX
  5
27F
330
27D
100
AcDbEntity
  8
Layer 1
 62
     7
420
 16777215
370
    25
100
AcDbVertex
100
AcDb2dVertex
 10
231.9382974680571
 20
-58.70012069930067
 30
0.0
  0
SEQEND
  5
280
330
27D
100
AcDbEntity
  8
Layer 1
370
    25
  0
ENDBLK
  5
27C
330
279
100
AcDbEntity
  8
0
100
AcDbBlockEnd
  0
BLOCK
  5
283
330
281
100
AcDbEntity
  8
0
100
AcDbBlockBegin
  2
block 56
 70
     0
 71
     0
 10
0.0
 20
0.0
 30
0.0
  3
block 56
  1

  0
POLYLINE
  5
285
330
281
100
AcDbEntity
  8
Layer 1
 62
     7
420
 16777215
370
    25
100
AcDb2dPolyline
 66
     1
 10
0.0
 20
0.0
 30
0.0
  0
VERTEX
  5
286
330
285
100
AcDbEntity
  8
Layer 1
 62
     7
420
 16777215
370
    25
100
AcDbVertex
100
AcDb2dVertex
 10
231.9382974680571
 20
-58.70012069930067
 30
0.0
  0
VERTEX
  5
287
330
285
100
AcDbEntity
  8
Layer 1
 62
     7
420
 16777215
370
    25
100
AcDbVertex
100
AcDb2dVertex
 10
228.9383083195015
 20
-58.70012069930067
 30
0.0
  0
SEQEND
  5
288
330
285
100
AcDbEntity
  8
Layer 1
370
    25
  0
ENDBLK
  5
284
330
281
100
AcDbEntity
  8
0
100
AcDbBlockEnd
  0
BLOCK
  5
28B
330
289
100
AcDbEntity
  8
0
100
AcDbBlockBegin
  2
block 57
 70
     0
 71
     0
 10
0.0
 20
0.0
 30
0.0
  3
block 57
  1

  0
POLYLINE
  5
28D
330
289
100
AcDbEntity
  8
Layer 1
 62
     7
420
 16777215
370
    25
100
AcDb2dPolyline
 66
     1
 10
0.0
 20
0.0
 30
0.0
  0
VERTEX
  5
28E
330
28D
100
AcDbEntity
  8
Layer 1
 62
     7
420
 16777215
370
    25
100
AcDbVertex
100
AcDb2dVertex
 10
228.9383083195015
 20
-58.70012069930067
 30
0.0
  0
VERTEX
  5
28F
330
28D
100
AcDbEntity
  8
Layer 1
 62
     7
420
 16777215
370
    25
100
AcDbVertex
100
AcDb2dVertex
 10
228.9383083195015
 20
-50.500104425309
 30
0.0
  0
SEQEND
  5
290
330
28D
100
AcDbEntity
  8
Layer 1
370
    25
  0
ENDBLK
  5
28C
330
289
100
AcDbEntity
  8
0
100
AcDbBlockEnd
  0
BLOCK
  5
293
330
291
100
AcDbEntity
  8
0
100
AcDbBlockBegin
  2
block 58
 70
     0
 71
     0
 10
0.0
 20
0.0
 30
0.0
  3
block 58
  1

  0
POLYLINE
  5
295
330
291
100
AcDbEntity
  8
Layer 1
 62
     7
420
 16777215
370
    25
100
AcDb2dPolyline
 66
     1
 10
0.0
 20
0.0
 30
0.0
  0
VERTEX
  5
296
330
295
100
AcDbEntity
  8
Layer 1
 62
     7
420
 16777215
370
    25
100
AcDbVertex
100
AcDb2dVertex
 10
228.9383083195015
 20
-50.500104425309
 30
0.0
  0
VERTEX
  5
297
330
295
100
AcDbEntity
  8
Layer 1
 62
     7
420
 16777215
370
    25
100
AcDbVertex
100
AcDb2dVertex
 10
155.0603026956099
 20
-50.500104425309
 30
0.0
  0
SEQEND
  5
298
330
295
100
AcDbEntity
  8
Layer 1
370
    25
  0
ENDBLK
  5
294
330
291
100
AcDbEntity
  8
0
100
AcDbBlockEnd
  0
BLOCK
  5
29B
330
299
100
AcDbEntity
  8
0
100
AcDbBlockBegin
  2
block 59
 70
     0
 71
     0
 10
0.0
 20
0.0
 30
0.0
  3
block 59
  1

  0
POLYLINE
  5
29D
330
299
100
AcDbEntity
  8
Layer 1
 62
     7
420
 16777215
370
    25
100
AcDb2dPolyline
 66
     1
 10
0.0
 20
0.0
 30
0.0
  0
VERTEX
  5
29E
330
29D
100
AcDbEntity
  8
Layer 1
 62
     7
420
 16777215
370
    25
100
AcDbVertex
100
AcDb2dVertex
 10
155.0603026956099
 20
-50.500104425309
 30
0.0
  0
VERTEX
  5
29F
330
29D
100
AcDbEntity
  8
Layer 1
 62
     7
420
 16777215
370
    25
100
AcDbVertex
100
AcDb2dVertex
 10
155.0603026956099
 20
-58.70012069930067
 30
0.0
  0
SEQEND
  5
2A0
330
29D
100
AcDbEntity
  8
Layer 1
370
    25
  0
ENDBLK
  5
29C
330
299
100
AcDbEntity
  8
0
100
AcDbBlockEnd
  0
BLOCK
  5
2A3
330
2A1
100
AcDbEntity
  8
0
100
AcDbBlockBegin
  2
block 60
 70
     0
 71
     0
 10
0.0
 20
0.0
 30
0.0
  3
block 60
  1

  0
POLYLINE
  5
2A5
330
2A1
100
AcDbEntity
  8
Layer 1
 62
     7
420
 16777215
370
    25
100
AcDb2dPolyline
 66
     1
 10
0.0
 20
0.0
 30
0.0
  0
VERTEX
  5
2A6
330
2A5
100
AcDbEntity
  8
Layer 1
 62
     7
420
 16777215
370
    25
100
AcDbVertex
100
AcDb2dVertex
 10
155.0603026956099
 20
-58.70012069930067
 30
0.0
  0
VERTEX
  5
2A7
330
2A5
100
AcDbEntity
  8
Layer 1
 62
     7
420
 16777215
370
    25
100
AcDbVertex
100
AcDb2dVertex
 10
152.0603135470544
 20
-58.70012069930067
 30
0.0
  0
SEQEND
  5
2A8
330
2A5
100
AcDbEntity
  8
Layer 1
370
    25
  0
ENDBLK
  5
2A4
330
2A1
100
AcDbEntity
  8
0
100
AcDbBlockEnd
  0
BLOCK
  5
2AB
330
2A9
100
AcDbEntity
  8
0
100
AcDbBlockBegin
  2
block 61
 70
     0
 71
     0
 10
0.0
 20
0.0
 30
0.0
  3
block 61
  1

  0
POLYLINE
  5
2AD
330
2A9
100
AcDbEntity
  8
Layer 1
 62
     7
420
 16777215
370
    25
100
AcDb2dPolyline
 66
     1
 10
0.0
 20
0.0
 30
0.0
  0
VERTEX
  5
2AE
330
2AD
100
AcDbEntity
  8
Layer 1
 62
     7
420
 16777215
370
    25
100
AcDbVertex
100
AcDb2dVertex
 10
152.0603135470544
 20
-58.70012069930067
 30
0.0
  0
VERTEX
  5
2AF
330
2AD
100
AcDbEntity
  8
Layer 1
 62
     7
420
 16777215
370
    25
100
AcDbVertex
100
AcDb2dVertex
 10
152.0603135470544
 20
-68.40013154757011
 30
0.0
  0
SEQEND
  5
2B0
330
2AD
100
AcDbEntity
  8
Layer 1
370
    25
  0
ENDBLK
  5
2AC
330
2A9
100
AcDbEntity
  8
0
100
AcDbBlockEnd
  0
BLOCK
  5
2B3
330
2B1
100
AcDbEntity
  8
0
100
AcDbBlockBegin
  2
block 62
 70
     0
 71
     0
 10
0.0
 20
0.0
 30
0.0
  3
block 62
  1

  0
POLYLINE
  5
2B5
330
2B1
100
AcDbEntity
  8
Layer 1
 62
     7
420
 16777215
370
    25
100
AcDb2dPolyline
 66
     1
 10
0.0
 20
0.0
 30
0.0
  0
VERTEX
  5
2B6
330
2B5
100
AcDbEntity
  8
Layer 1
 62
     7
420
 16777215
370
    25
100
AcDbVertex
100
AcDb2dVertex
 10
152.0603135470544
 20
-68.40013154757011
 30
0.0
  0
VERTEX
  5
2B7
330
2B5
100
AcDbEntity
  8
Layer 1
 62
     7
420
 16777215
370
    25
100
AcDbVertex
100
AcDb2dVertex
 10
155.0603026956099
 20
-68.40013154757011
 30
0.0
  0
SEQEND
  5
2B8
330
2B5
100
AcDbEntity
  8
Layer 1
370
    25
  0
ENDBLK
  5
2B4
330
2B1
100
AcDbEntity
  8
0
100
AcDbBlockEnd
  0
BLOCK
  5
2BB
330
2B9
100
AcDbEntity
  8
0
100
AcDbBlockBegin
  2
block 63
 70
     0
 71
     0
 10
0.0
 20
0.0
 30
0.0
  3
block 63
  1

  0
POLYLINE
  5
2BD
330
2B9
100
AcDbEntity
  8
Layer 1
 62
     7
420
 16777215
370
    25
100
AcDb2dPolyline
 66
     1
 10
0.0
 20
0.0
 30
0.0
  0
VERTEX
  5
2BE
330
2BD
100
AcDbEntity
  8
Layer 1
 62
     7
420
 16777215
370
    25
100
AcDbVertex
100
AcDb2dVertex
 10
155.0603026956099
 20
-68.40013154757011
 30
0.0
  0
VERTEX
  5
2BF
330
2BD
100
AcDbEntity
  8
Layer 1
 62
     7
420
 16777215
370
    25
100
AcDbVertex
100
AcDb2dVertex
 10
155.0603026956099
 20
-78.10014239583955
 30
0.0
  0
SEQEND
  5
2C0
330
2BD
100
AcDbEntity
  8
Layer 1
370
    25
  0
ENDBLK
  5
2BC
330
2B9
100
AcDbEntity
  8
0
100
AcDbBlockEnd
  0
BLOCK
  5
2C3
330
2C1
100
AcDbEntity
  8
0
100
AcDbBlockBegin
  2
block 64
 70
     0
 71
     0
 10
0.0
 20
0.0
 30
0.0
  3
block 64
  1

  0
POLYLINE
  5
2C5
330
2C1
100
AcDbEntity
  8
Layer 1
 62
     7
420
 16777215
370
    25
100
AcDb2dPolyline
 66
     1
 10
0.0
 20
0.0
 30
0.0
  0
VERTEX
  5
2C6
330
2C5
100
AcDbEntity
  8
Layer 1
 62
     7
420
 16777215
370
    25
100
AcDbVertex
100
AcDb2dVertex
 10
155.0603026956099
 20
-78.10014239583955
 30
0.0
  0
VERTEX
  5
2C7
330
2C5
100
AcDbEntity
  8
Layer 1
 62
     7
420
 16777215
370
    25
100
AcDbVertex
100
AcDb2dVertex
 10
152.0603135470544
 20
-78.10014239583955
 30
0.0
  0
SEQEND
  5
2C8
330
2C5
100
AcDbEntity
  8
Layer 1
370
    25
  0
ENDBLK
  5
2C4
330
2C1
100
AcDbEntity
  8
0
100
AcDbBlockEnd
  0
BLOCK
  5
2CB
330
2C9
100
AcDbEntity
  8
0
100
AcDbBlockBegin
  2
block 65
 70
     0
 71
     0
 10
0.0
 20
0.0
 30
0.0
  3
block 65
  1

  0
POLYLINE
  5
2CD
330
2C9
100
AcDbEntity
  8
Layer 1
 62
     7
420
 16777215
370
    25
100
AcDb2dPolyline
 66
     1
 10
0.0
 20
0.0
 30
0.0
  0
VERTEX
  5
2CE
330
2CD
100
AcDbEntity
  8
Layer 1
 62
     7
420
 16777215
370
    25
100
AcDbVertex
100
AcDb2dVertex
 10
152.0603135470544
 20
-78.10014239583955
 30
0.0
  0
VERTEX
  5
2CF
330
2CD
100
AcDbEntity
  8
Layer 1
 62
     7
420
 16777215
370
    25
100
AcDbVertex
100
AcDb2dVertex
 10
152.0603135470544
 20
-87.800153244109
 30
0.0
  0
SEQEND
  5
2D0
330
2CD
100
AcDbEntity
  8
Layer 1
370
    25
  0
ENDBLK
  5
2CC
330
2C9
100
AcDbEntity
  8
0
100
AcDbBlockEnd
  0
BLOCK
  5
2D3
330
2D1
100
AcDbEntity
  8
0
100
AcDbBlockBegin
  2
block 66
 70
     0
 71
     0
 10
0.0
 20
0.0
 30
0.0
  3
block 66
  1

  0
POLYLINE
  5
2D5
330
2D1
100
AcDbEntity
  8
Layer 1
 62
     7
420
 16777215
370
    25
100
AcDb2dPolyline
 66
     1
 10
0.0
 20
0.0
 30
0.0
  0
VERTEX
  5
2D6
330
2D5
100
AcDbEntity
  8
Layer 1
 62
     7
420
 16777215
370
    25
100
AcDbVertex
100
AcDb2dVertex
 10
152.0603135470544
 20
-87.800153244109
 30
0.0
  0
VERTEX
  5
2D7
330
2D5
100
AcDbEntity
  8
Layer 1
 62
     7
420
 16777215
370
    25
100
AcDbVertex
100
AcDb2dVertex
 10
155.0603026956099
 20
-87.800153244109
 30
0.0
  0
SEQEND
  5
2D8
330
2D5
100
AcDbEntity
  8
Layer 1
370
    25
  0
ENDBLK
  5
2D4
330
2D1
100
AcDbEntity
  8
0
100
AcDbBlockEnd
  0
BLOCK
  5
2DB
330
2D9
100
AcDbEntity
  8
0
100
AcDbBlockBegin
  2
block 67
 70
     0
 71
     0
 10
0.0
 20
0.0
 30
0.0
  3
block 67
  1

  0
POLYLINE
  5
2DD
330
2D9
100
AcDbEntity
  8
Layer 1
 62
     7
420
 16777215
370
    25
100
AcDb2dPolyline
 66
     1
 10
0.0
 20
0.0
 30
0.0
  0
VERTEX
  5
2DE
330
2DD
100
AcDbEntity
  8
Layer 1
 62
     7
420
 16777215
370
    25
100
AcDbVertex
100
AcDb2dVertex
 10
155.0603026956099
 20
-87.800153244109
 30
0.0
  0
VERTEX
  5
2DF
330
2DD
100
AcDbEntity
  8
Layer 1
 62
     7
420
 16777215
370
    25
100
AcDbVertex
100
AcDb2dVertex
 10
155.0603026956099
 20
-97.50016409237844
 30
0.0
  0
SEQEND
  5
2E0
330
2DD
100
AcDbEntity
  8
Layer 1
370
    25
  0
ENDBLK
  5
2DC
330
2D9
100
AcDbEntity
  8
0
100
AcDbBlockEnd
  0
BLOCK
  5
2E3
330
2E1
100
AcDbEntity
  8
0
100
AcDbBlockBegin
  2
block 68
 70
     0
 71
     0
 10
0.0
 20
0.0
 30
0.0
  3
block 68
  1

  0
POLYLINE
  5
2E5
330
2E1
100
AcDbEntity
  8
Layer 1
 62
     7
420
 16777215
370
    25
100
AcDb2dPolyline
 66
     1
 10
0.0
 20
0.0
 30
0.0
  0
VERTEX
  5
2E6
330
2E5
100
AcDbEntity
  8
Layer 1
 62
     7
420
 16777215
370
    25
100
AcDbVertex
100
AcDb2dVertex
 10
187.011496264011
 20
-94.50017494382288
 30
0.0
  0
VERTEX
  5
2E7
330
2E5
100
AcDbEntity
  8
Layer 1
 62
     7
420
 16777215
370
    25
100
AcDbVertex
100
AcDb2dVertex
 10
187.011496264011
 20
-97.50016409237844
 30
0.0
  0
SEQEND
  5
2E8
330
2E5
100
AcDbEntity
  8
Layer 1
370
    25
  0
ENDBLK
  5
2E4
330
2E1
100
AcDbEntity
  8
0
100
AcDbBlockEnd
  0
BLOCK
  5
2EB
330
2E9
100
AcDbEntity
  8
0
100
AcDbBlockBegin
  2
block 69
 70
     0
 71
     0
 10
0.0
 20
0.0
 30
0.0
  3
block 69
  1

  0
POLYLINE
  5
2ED
330
2E9
100
AcDbEntity
  8
Layer 1
 62
     7
420
 16777215
370
    25
100
AcDb2dPolyline
 66
     1
 10
0.0
 20
0.0
 30
0.0
  0
VERTEX
  5
2EE
330
2ED
100
AcDbEntity
  8
Layer 1
 62
     7
420
 16777215
370
    25
100
AcDbVertex
100
AcDb2dVertex
 10
171.0358994798105
 20
-97.50016409237844
 30
0.0
  0
VERTEX
  5
2EF
330
2ED
100
AcDbEntity
  8
Layer 1
 62
     7
420
 16777215
370
    25
100
AcDbVertex
100
AcDb2dVertex
 10
171.0358994798105
 20
-94.50017494382288
 30
0.0
  0
SEQEND
  5
2F0
330
2ED
100
AcDbEntity
  8
Layer 1
370
    25
  0
ENDBLK
  5
2EC
330
2E9
100
AcDbEntity
  8
0
100
AcDbBlockEnd
  0
BLOCK
  5
2F3
330
2F1
100
AcDbEntity
  8
0
100
AcDbBlockBegin
  2
block 70
 70
     0
 71
     0
 10
0.0
 20
0.0
 30
0.0
  3
block 70
  1

  0
POLYLINE
  5
2F5
330
2F1
100
AcDbEntity
  8
Layer 1
 62
     7
420
 16777215
370
    25
100
AcDb2dPolyline
 66
     1
 10
0.0
 20
0.0
 30
0.0
  0
VERTEX
  5
2F6
330
2F5
100
AcDbEntity
  8
Layer 1
 62
     7
420
 16777215
370
    25
100
AcDbVertex
100
AcDb2dVertex
 10
171.0358994798105
 20
-94.50017494382288
 30
0.0
  0
VERTEX
  5
2F7
330
2F5
100
AcDbEntity
  8
Layer 1
 62
     7
420
 16777215
370
    25
100
AcDbVertex
100
AcDb2dVertex
 10
187.011496264011
 20
-94.50017494382288
 30
0.0
  0
SEQEND
  5
2F8
330
2F5
100
AcDbEntity
  8
Layer 1
370
    25
  0
ENDBLK
  5
2F4
330
2F1
100
AcDbEntity
  8
0
100
AcDbBlockEnd
  0
BLOCK
  5
2FB
330
2F9
100
AcDbEntity
  8
0
100
AcDbBlockBegin
  2
block 71
 70
     0
 71
     0
 10
0.0
 20
0.0
 30
0.0
  3
block 71
  1

  0
SPLINE
  5
2FD
330
2F9
100
AcDbEntity
  8
Layer 1
 62
     7
420
 16777215
370
    25
100
AcDbSpline
210
0.0
220
0.0
230
1.0
 70
    11
 71
     3
 72
    20
 73
    16
 74
     0
 42
0.0000000001
 43
0.0000000001
 40
0.0
 40
0.0
 40
0.0
 40
0.0
 40
1.0
 40
1.0
 40
1.0
 40
2.0
 40
2.0
 40
2.0
 40
3.0
 40
3.0
 40
3.0
 40
4.0
 40
4.0
 40
4.0
 40
5.0
 40
5.0
 40
5.0
 40
5.0
 10
174.5295708114024
 20
-58.5502590456923
 30
0.0
 10
174.5295708114024
 20
-57.16980928475269
 30
0.0
 10
173.4106037977932
 20
-56.05015325204649
 30
0.0
 10
172.029809527305
 20
-56.05015325204649
 30
0.0
 10
170.6490152568169
 20
-56.05015325204649
 30
0.0
 10
169.5297037336593
 20
-57.16980928475269
 30
0.0
 10
169.5297037336593
 20
-58.5502590456923
 30
0.0
 10
169.5297037336593
 20
-59.93105331618043
 30
0.0
 10
170.6490152568169
 20
-61.05036483933811
 30
0.0
 10
172.029809527305
 20
-61.05036483933811
 30
0.0
 10
173.4106037977932
 20
-61.05036483933811
 30
0.0
 10
174.5295708114024
 20
-59.93105331618043
 30
0.0
 10
174.5295708114024
 20
-58.5502590456923
 30
0.0
 10
174.5295708114024
 20
-58.5502590456923
 30
0.0
 10
174.5295708114024
 20
-58.5502590456923
 30
0.0
 10
174.5295708114024
 20
-58.5502590456923
 30
0.0
  0
ENDBLK
  5
2FC
330
2F9
100
AcDbEntity
  8
0
100
AcDbBlockEnd
  0
BLOCK
  5
300
330
2FE
100
AcDbEntity
  8
0
100
AcDbBlockBegin
  2
block 72
 70
     0
 71
     0
 10
0.0
 20
0.0
 30
0.0
  3
block 72
  1

  0
SPLINE
  5
302
330
2FE
100
AcDbEntity
  8
Layer 1
 62
     7
420
 16777215
370
    25
100
AcDbSpline
210
0.0
220
0.0
230
1.0
 70
    11
 71
     3
 72
    20
 73
    16
 74
     0
 42
0.0000000001
 43
0.0000000001
 40
0.0
 40
0.0
 40
0.0
 40
0.0
 40
1.0
 40
1.0
 40
1.0
 40
2.0
 40
2.0
 40
2.0
 40
3.0
 40
3.0
 40
3.0
 40
4.0
 40
4.0
 40
4.0
 40
5.0
 40
5.0
 40
5.0
 40
5.0
 10
174.5295708114024
 20
-85.45025361362008
 30
0.0
 10
174.5295708114024
 20
-84.06980385268047
 30
0.0
 10
173.4106037977932
 20
-82.95014781997428
 30
0.0
 10
172.029809527305
 20
-82.95014781997428
 30
0.0
 10
170.6490152568169
 20
-82.95014781997428
 30
0.0
 10
169.5297037336593
 20
-84.06980385268047
 30
0.0
 10
169.5297037336593
 20
-85.45025361362008
 30
0.0
 10
169.5297037336593
 20
-86.83104788410822
 30
0.0
 10
170.6490152568169
 20
-87.95035940726589
 30
0.0
 10
172.029809527305
 20
-87.95035940726589
 30
0.0
 10
173.4106037977932
 20
-87.95035940726589
 30
0.0
 10
174.5295708114024
 20
-86.83104788410822
 30
0.0
 10
174.5295708114024
 20
-85.45025361362008
 30
0.0
 10
174.5295708114024
 20
-85.45025361362008
 30
0.0
 10
174.5295708114024
 20
-85.45025361362008
 30
0.0
 10
174.5295708114024
 20
-85.45025361362008
 30
0.0
  0
ENDBLK
  5
301
330
2FE
100
AcDbEntity
  8
0
100
AcDbBlockEnd
  0
BLOCK
  5
305
330
303
100
AcDbEntity
  8
0
100
AcDbBlockBegin
  2
block 73
 70
     0
 71
     0
 10
0.0
 20
0.0
 30
0.0
  3
block 73
  1

  0
SPLINE
  5
307
330
303
100
AcDbEntity
  8
Layer 1
 62
     7
420
 16777215
370
    25
100
AcDbSpline
210
0.0
220
0.0
230
1.0
 70
    11
 71
     3
 72
    20
 73
    16
 74
     0
 42
0.0000000001
 43
0.0000000001
 40
0.0
 40
0.0
 40
0.0
 40
0.0
 40
1.0
 40
1.0
 40
1.0
 40
2.0
 40
2.0
 40
2.0
 40
3.0
 40
3.0
 40
3.0
 40
4.0
 40
4.0
 40
4.0
 40
5.0
 40
5.0
 40
5.0
 40
5.0
 10
198.3493055059682
 20
-85.15018579685481
 30
0.0
 10
198.3493055059682
 20
-81.64307859287048
 30
0.0
 10
195.5064127115401
 20
-78.80018579844231
 30
0.0
 10
191.9993055075557
 20
-78.80018579844231
 30
0.0
 10
188.4921983035714
 20
-78.80018579844231
 30
0.0
 10
185.6493055091432
 20
-81.64307859287048
 30
0.0
 10
185.6493055091432
 20
-85.15018579685481
 30
0.0
 10
185.6493055091432
 20
-88.65729300083915
 30
0.0
 10
188.4921983035714
 20
-91.50018579526731
 30
0.0
 10
191.9993055075557
 20
-91.50018579526731
 30
0.0
 10
195.5064127115401
 20
-91.50018579526731
 30
0.0
 10
198.3493055059682
 20
-88.65729300083915
 30
0.0
 10
198.3493055059682
 20
-85.15018579685481
 30
0.0
 10
198.3493055059682
 20
-85.15018579685481
 30
0.0
 10
198.3493055059682
 20
-85.15018579685481
 30
0.0
 10
198.3493055059682
 20
-85.15018579685481
 30
0.0
  0
ENDBLK
  5
306
330
303
100
AcDbEntity
  8
0
100
AcDbBlockEnd
  0
BLOCK
  5
30A
330
308
100
AcDbEntity
  8
0
100
AcDbBlockBegin
  2
block 74
 70
     0
 71
     0
 10
0.0
 20
0.0
 30
0.0
  3
block 74
  1

  0
SPLINE
  5
30C
330
308
100
AcDbEntity
  8
Layer 1
 62
     7
420
 16777215
370
    25
100
AcDbSpline
210
0.0
220
0.0
230
1.0
 70
    11
 71
     3
 72
    20
 73
    16
 74
     0
 42
0.0000000001
 43
0.0000000001
 40
0.0
 40
0.0
 40
0.0
 40
0.0
 40
1.0
 40
1.0
 40
1.0
 40
2.0
 40
2.0
 40
2.0
 40
3.0
 40
3.0
 40
3.0
 40
4.0
 40
4.0
 40
4.0
 40
5.0
 40
5.0
 40
5.0
 40
5.0
 10
214.4689072814522
 20
-85.45025361362008
 30
0.0
 10
214.4689072814522
 20
-84.06980385268047
 30
0.0
 10
213.3495957582946
 20
-82.95014781997428
 30
0.0
 10
211.9688014878064
 20
-82.95014781997428
 30
0.0
 10
210.5880072173183
 20
-82.95014781997428
 30
0.0
 10
209.4686956941606
 20
-84.06980385268047
 30
0.0
 10
209.4686956941606
 20
-85.45025361362008
 30
0.0
 10
209.4686956941606
 20
-86.83104788410822
 30
0.0
 10
210.5880072173183
 20
-87.95035940726589
 30
0.0
 10
211.9688014878064
 20
-87.95035940726589
 30
0.0
 10
213.3495957582946
 20
-87.95035940726589
 30
0.0
 10
214.4689072814522
 20
-86.83104788410822
 30
0.0
 10
214.4689072814522
 20
-85.45025361362008
 30
0.0
 10
214.4689072814522
 20
-85.45025361362008
 30
0.0
 10
214.4689072814522
 20
-85.45025361362008
 30
0.0
 10
214.4689072814522
 20
-85.45025361362008
 30
0.0
  0
ENDBLK
  5
30B
330
308
100
AcDbEntity
  8
0
100
AcDbBlockEnd
  0
BLOCK
  5
30F
330
30D
100
AcDbEntity
  8
0
100
AcDbBlockBegin
  2
block 75
 70
     0
 71
     0
 10
0.0
 20
0.0
 30
0.0
  3
block 75
  1

  0
SPLINE
  5
311
330
30D
100
AcDbEntity
  8
Layer 1
 62
     7
420
 16777215
370
    25
100
AcDbSpline
210
0.0
220
0.0
230
1.0
 70
    11
 71
     3
 72
    20
 73
    16
 74
     0
 42
0.0000000001
 43
0.0000000001
 40
0.0
 40
0.0
 40
0.0
 40
0.0
 40
1.0
 40
1.0
 40
1.0
 40
2.0
 40
2.0
 40
2.0
 40
3.0
 40
3.0
 40
3.0
 40
4.0
 40
4.0
 40
4.0
 40
5.0
 40
5.0
 40
5.0
 40
5.0
 10
214.4689072814522
 20
-58.5502590456923
 30
0.0
 10
214.4689072814522
 20
-57.16980928475269
 30
0.0
 10
213.3495957582946
 20
-56.05015325204649
 30
0.0
 10
211.9688014878064
 20
-56.05015325204649
 30
0.0
 10
210.5880072173183
 20
-56.05015325204649
 30
0.0
 10
209.4686956941606
 20
-57.16980928475269
 30
0.0
 10
209.4686956941606
 20
-58.5502590456923
 30
0.0
 10
209.4686956941606
 20
-59.93105331618043
 30
0.0
 10
210.5880072173183
 20
-61.05036483933811
 30
0.0
 10
211.9688014878064
 20
-61.05036483933811
 30
0.0
 10
213.3495957582946
 20
-61.05036483933811
 30
0.0
 10
214.4689072814522
 20
-59.93105331618043
 30
0.0
 10
214.4689072814522
 20
-58.5502590456923
 30
0.0
 10
214.4689072814522
 20
-58.5502590456923
 30
0.0
 10
214.4689072814522
 20
-58.5502590456923
 30
0.0
 10
214.4689072814522
 20
-58.5502590456923
 30
0.0
  0
ENDBLK
  5
310
330
30D
100
AcDbEntity
  8
0
100
AcDbBlockEnd
  0
BLOCK
  5
314
330
312
100
AcDbEntity
  8
0
100
AcDbBlockBegin
  2
block 76
 70
     0
 71
     0
 10
0.0
 20
0.0
 30
0.0
  3
block 76
  1

  0
POLYLINE
  5
316
330
312
100
AcDbEntity
  8
Layer 1
 62
     7
420
 16777215
370
    25
100
AcDb2dPolyline
 66
     1
 10
0.0
 20
0.0
 30
0.0
  0
VERTEX
  5
317
330
316
100
AcDbEntity
  8
Layer 1
 62
     7
420
 16777215
370
    25
100
AcDbVertex
100
AcDb2dVertex
 10
196.9871147511004
 20
-97.50016409237844
 30
0.0
  0
VERTEX
  5
318
330
316
100
AcDbEntity
  8
Layer 1
 62
     7
420
 16777215
370
    25
100
AcDbVertex
100
AcDb2dVertex
 10
196.9871147511004
 20
-94.50017494382288
 30
0.0
  0
SEQEND
  5
319
330
316
100
AcDbEntity
  8
Layer 1
370
    25
  0
ENDBLK
  5
315
330
312
100
AcDbEntity
  8
0
100
AcDbBlockEnd
  0
BLOCK
  5
31C
330
31A
100
AcDbEntity
  8
0
100
AcDbBlockBegin
  2
block 77
 70
     0
 71
     0
 10
0.0
 20
0.0
 30
0.0
  3
block 77
  1

  0
POLYLINE
  5
31E
330
31A
100
AcDbEntity
  8
Layer 1
 62
     7
420
 16777215
370
    25
100
AcDb2dPolyline
 66
     1
 10
0.0
 20
0.0
 30
0.0
  0
VERTEX
  5
31F
330
31E
100
AcDbEntity
  8
Layer 1
 62
     7
420
 16777215
370
    25
100
AcDbVertex
100
AcDb2dVertex
 10
196.9871147511004
 20
-94.50017494382288
 30
0.0
  0
VERTEX
  5
320
330
31E
100
AcDbEntity
  8
Layer 1
 62
     7
420
 16777215
370
    25
100
AcDbVertex
100
AcDb2dVertex
 10
212.962711535301
 20
-94.50017494382288
 30
0.0
  0
SEQEND
  5
321
330
31E
100
AcDbEntity
  8
Layer 1
370
    25
  0
ENDBLK
  5
31D
330
31A
100
AcDbEntity
  8
0
100
AcDbBlockEnd
  0
BLOCK
  5
324
330
322
100
AcDbEntity
  8
0
100
AcDbBlockBegin
  2
block 78
 70
     0
 71
     0
 10
0.0
 20
0.0
 30
0.0
  3
block 78
  1

  0
POLYLINE
  5
326
330
322
100
AcDbEntity
  8
Layer 1
 62
     7
420
 16777215
370
    25
100
AcDb2dPolyline
 66
     1
 10
0.0
 20
0.0
 30
0.0
  0
VERTEX
  5
327
330
326
100
AcDbEntity
  8
Layer 1
 62
     7
420
 16777215
370
    25
100
AcDbVertex
100
AcDb2dVertex
 10
212.962711535301
 20
-94.50017494382288
 30
0.0
  0
VERTEX
  5
328
330
326
100
AcDbEntity
  8
Layer 1
 62
     7
420
 16777215
370
    25
100
AcDbVertex
100
AcDb2dVertex
 10
212.962711535301
 20
-97.50016409237844
 30
0.0
  0
SEQEND
  5
329
330
326
100
AcDbEntity
  8
Layer 1
370
    25
  0
ENDBLK
  5
325
330
322
100
AcDbEntity
  8
0
100
AcDbBlockEnd
  0
BLOCK
  5
32C
330
32A
100
AcDbEntity
  8
0
100
AcDbBlockBegin
  2
block 79
 70
     0
 71
     0
 10
0.0
 20
0.0
 30
0.0
  3
block 79
  1

  0
POLYLINE
  5
32E
330
32A
100
AcDbEntity
  8
Layer 1
 62
     7
420
 16777215
370
    25
100
AcDb2dPolyline
 66
     1
 10
0.0
 20
0.0
 30
0.0
  0
VERTEX
  5
32F
330
32E
100
AcDbEntity
  8
Layer 1
 62
     7
420
 16777215
370
    25
100
AcDbVertex
100
AcDb2dVertex
 10
212.962711535301
 20
-97.50016409237844
 30
0.0
  0
VERTEX
  5
330
330
32E
100
AcDbEntity
  8
Layer 1
 62
     7
420
 16777215
370
    25
100
AcDbVertex
100
AcDb2dVertex
 10
228.9383083195015
 20
-97.50016409237844
 30
0.0
  0
SEQEND
  5
331
330
32E
100
AcDbEntity
  8
Layer 1
370
    25
  0
ENDBLK
  5
32D
330
32A
100
AcDbEntity
  8
0
100
AcDbBlockEnd
  0
BLOCK
  5
334
330
332
100
AcDbEntity
  8
0
100
AcDbBlockBegin
  2
block 80
 70
     0
 71
     0
 10
0.0
 20
0.0
 30
0.0
  3
block 80
  1

  0
POLYLINE
  5
336
330
332
100
AcDbEntity
  8
Layer 1
 62
     7
420
 16777215
370
    25
100
AcDb2dPolyline
 66
     1
 10
0.0
 20
0.0
 30
0.0
  0
VERTEX
  5
337
330
336
100
AcDbEntity
  8
Layer 1
 62
     7
420
 16777215
370
    25
100
AcDbVertex
100
AcDb2dVertex
 10
155.0603026956099
 20
-97.50016409237844
 30
0.0
  0
VERTEX
  5
338
330
336
100
AcDbEntity
  8
Layer 1
 62
     7
420
 16777215
370
    25
100
AcDbVertex
100
AcDb2dVertex
 10
171.0358994798105
 20
-97.50016409237844
 30
0.0
  0
SEQEND
  5
339
330
336
100
AcDbEntity
  8
Layer 1
370
    25
  0
ENDBLK
  5
335
330
332
100
AcDbEntity
  8
0
100
AcDbBlockEnd
  0
ENDSEC
  0
SECTION
  2
ENTITIES
  0
INSERT
  5
3D
330
1F
100
AcDbEntity
  8
Layer 1
100
AcDbBlockReference
  2
block 2
 10
0.0
 20
0.0
 30
0.0
  0
INSERT
  5
51
330
1F
100
AcDbEntity
  8
Layer 1
100
AcDbBlockReference
  2
block 5
 10
0.0
 20
0.0
 30
0.0
  0
INSERT
  5
7A
330
1F
100
AcDbEntity
  8
Layer 1
100
AcDbBlockReference
  2
block 11
 10
0.0
 20
0.0
 30
0.0
  0
INSERT
  5
A3
330
1F
100
AcDbEntity
  8
Layer 1
100
AcDbBlockReference
  2
block 17
 10
0.0
 20
0.0
 30
0.0
  0
INSERT
  5
D4
330
1F
100
AcDbEntity
  8
Layer 1
100
AcDbBlockReference
  2
block 21
 10
0.0
 20
0.0
 30
0.0
  0
INSERT
  5
EF
330
1F
100
AcDbEntity
  8
Layer 1
100
AcDbBlockReference
  2
block 22
 10
0.0
 20
0.0
 30
0.0
  0
INSERT
  5
10A
330
1F
100
AcDbEntity
  8
Layer 1
100
AcDbBlockReference
  2
block 23
 10
0.0
 20
0.0
 30
0.0
  0
INSERT
  5
12D
330
1F
100
AcDbEntity
  8
Layer 1
100
AcDbBlockReference
  2
block 24
 10
0.0
 20
0.0
 30
0.0
  0
INSERT
  5
14A
330
1F
100
AcDbEntity
  8
Layer 1
100
AcDbBlockReference
  2
block 30
 10
0.0
 20
0.0
 30
0.0
  0
INSERT
  5
14F
330
1F
100
AcDbEntity
  8
Layer 1
100
AcDbBlockReference
  2
block 31
 10
0.0
 20
0.0
 30
0.0
  0
INSERT
  5
172
330
1F
100
AcDbEntity
  8
Layer 1
100
AcDbBlockReference
  2
block 32
 10
0.0
 20
0.0
 30
0.0
  0
INSERT
  5
195
330
1F
100
AcDbEntity
  8
Layer 1
100
AcDbBlockReference
  2
block 33
 10
0.0
 20
0.0
 30
0.0
  0
INSERT
  5
1A3
330
1F
100
AcDbEntity
  8
Layer 1
100
AcDbBlockReference
  2
block 34
 10
0.0
 20
0.0
 30
0.0
  0
INSERT
  5
1A8
330
1F
100
AcDbEntity
  8
Layer 1
100
AcDbBlockReference
  2
block 35
 10
0.0
 20
0.0
 30
0.0
  0
INSERT
  5
1DD
330
1F
100
AcDbEntity
  8
Layer 1
100
AcDbBlockReference
  2
block 39
 10
0.0
 20
0.0
 30
0.0
  0
INSERT
  5
1F0
330
1F
100
AcDbEntity
  8
Layer 1
100
AcDbBlockReference
  2
block 40
 10
0.0
 20
0.0
 30
0.0
  0
INSERT
  5
210
330
1F
100
AcDbEntity
  8
Layer 1
100
AcDbBlockReference
  2
block 43
 10
0.0
 20
0.0
 30
0.0
  0
INSERT
  5
21E
330
1F
100
AcDbEntity
  8
Layer 1
100
AcDbBlockReference
  2
block 44
 10
0.0
 20
0.0
 30
0.0
  0
INSERT
  5
23E
330
1F
100
AcDbEntity
  8
Layer 1
100
AcDbBlockReference
  2
block 47
 10
0.0
 20
0.0
 30
0.0
  0
ENDSEC
  0
SECTION
  2
OBJECTS
  0
DICTIONARY
  5
C
330
0
100
AcDbDictionary
281
     1
  3
ACAD_GROUP
350
D
  3
ACAD_LAYOUT
350
1A
  3
ACAD_MLINESTYLE
350
17
  3
ACAD_PLOTSETTINGS
350
19
  3
ACAD_PLOTSTYLENAME
350
E
  3
ACAD_TABLESTYLE
350
33A
  3
ACAD_VISUALSTYLE
350
2A
  0
DICTIONARY
  5
D
102
{ACAD_REACTORS
330
C
102
}
330
C
100
AcDbDictionary
281
     1
  0
DICTIONARY
  5
1A
102
{ACAD_REACTORS
330
C
102
}
330
C
100
AcDbDictionary
281
     1
  3
Layout1
350
1E
  3
Layout2
350
26
  3
Model
350
22
  0
DICTIONARY
  5
17
102
{ACAD_REACTORS
330
C
102
}
330
C
100
AcDbDictionary
281
     1
  3
Standard
350
18
  0
DICTIONARY
  5
19
102
{ACAD_REACTORS
330
C
102
}
330
C
100
AcDbDictionary
281
     1
  0
ACDBDICTIONARYWDFLT
  5
E
102
{ACAD_REACTORS
330
C
102
}
330
C
100
AcDbDictionary
281
     1
  3
Normal
350
F
100
AcDbDictionaryWithDefault
340
F
  0
DICTIONARY
  5
33A
102
{ACAD_REACTORS
330
C
102
}
330
C
100
AcDbDictionary
281
     1
  0
DICTIONARY
  5
2A
102
{ACAD_REACTORS
330
C
102
}
330
C
100
AcDbDictionary
281
     1
  3
2dWireframe
350
2F
  3
3D Hidden
350
31
  3
3dWireframe
350
30
  3
Basic
350
32
  3
Brighten
350
36
  3
ColorChange
350
3A
  3
Conceptual
350
34
  3
Dim
350
35
  3
Facepattern
350
39
  3
Flat
350
2B
  3
FlatWithEdges
350
2C
  3
Gouraud
350
2D
  3
GouraudWithEdges
350
2E
  3
Linepattern
350
38
  3
Realistic
350
33
  3
Thicken
350
37
  0
LAYOUT
  5
1E
102
{ACAD_REACTORS
330
1A
102
}
330
1A
100
AcDbPlotSettings
  1

  2
none_device
  4

  6

 40
0.0
 41
0.0
 42
0.0
 43
0.0
 44
0.0
 45
0.0
 46
0.0
 47
0.0
 48
0.0
 49
0.0
140
0.0
141
0.0
142
1.0
143
1.0
 70
   688
 72
     0
 73
     0
 74
     5
  7

 75
    16
 76
     0
 77
     2
 78
   300
147
1.0
148
0.0
149
0.0
100
AcDbLayout
  1
Layout1
 70
     1
 71
     1
 10
0.0
 20
0.0
 11
12.0
 21
9.0
 12
0.0
 22
0.0
 32
0.0
 14
1.000000000000000E+20
 24
1.000000000000000E+20
 34
1.000000000000000E+20
 15
-1.000000000000000E+20
 25
-1.000000000000000E+20
 35
-1.000000000000000E+20
146
0.0
 13
0.0
 23
0.0
 33
0.0
 16
1.0
 26
0.0
 36
0.0
 17
0.0
 27
1.0
 37
0.0
 76
     0
330
1B
  0
LAYOUT
  5
26
102
{ACAD_REACTORS
330
1A
102
}
330
1A
100
AcDbPlotSettings
  1

  2
none_device
  4

  6

 40
0.0
 41
0.0
 42
0.0
 43
0.0
 44
0.0
 45
0.0
 46
0.0
 47
0.0
 48
0.0
 49
0.0
140
0.0
141
0.0
142
1.0
143
1.0
 70
   688
 72
     0
 73
     0
 74
     5
  7

 75
    16
 76
     0
 77
     2
 78
   300
147
1.0
148
0.0
149
0.0
100
AcDbLayout
  1
Layout2
 70
     1
 71
     2
 10
0.0
 20
0.0
 11
0.0
 21
0.0
 12
0.0
 22
0.0
 32
0.0
 14
0.0
 24
0.0
 34
0.0
 15
0.0
 25
0.0
 35
0.0
146
0.0
 13
0.0
 23
0.0
 33
0.0
 16
1.0
 26
0.0
 36
0.0
 17
0.0
 27
1.0
 37
0.0
 76
     0
330
23
  0
LAYOUT
  5
22
102
{ACAD_REACTORS
330
1A
102
}
330
1A
100
AcDbPlotSettings
  1

  2
none_device
  4

  6

 40
0.0
 41
0.0
 42
0.0
 43
0.0
 44
0.0
 45
0.0
 46
0.0
 47
0.0
 48
0.0
 49
0.0
140
0.0
141
0.0
142
1.0
143
1.0
 70
  1712
 72
     0
 73
     0
 74
     0
  7

 75
     0
 76
     0
 77
     2
 78
   300
147
1.0
148
0.0
149
0.0
100
AcDbLayout
  1
Model
 70
     1
 71
     0
 10
0.0
 20
0.0
 11
12.0
 21
9.0
 12
0.0
 22
0.0
 32
0.0
 14
1.000000000000000E+20
 24
1.000000000000000E+20
 34
1.000000000000000E+20
 15
-1.000000000000000E+20
 25
-1.000000000000000E+20
 35
-1.000000000000000E+20
146
0.0
 13
0.0
 23
0.0
 33
0.0
 16
1.0
 26
0.0
 36
0.0
 17
0.0
 27
1.0
 37
0.0
 76
     0
330
1F
331
29
  0
MLINESTYLE
  5
18
102
{ACAD_REACTORS
330
17
102
}
330
17
100
AcDbMlineStyle
  2
Standard
 70
     0
  3

 62
   256
 51
90.0
 52
90.0
 71
     2
 49
0.5
 62
   256
  6
BYLAYER
 49
-0.5
 62
   256
  6
BYLAYER
  0
ACDBPLACEHOLDER
  5
F
102
{ACAD_REACTORS
330
E
102
}
330
E
  0
VISUALSTYLE
  5
2F
102
{ACAD_REACTORS
330
2A
102
}
330
2A
100
AcDbVisualStyle
  2
2dWireframe
 70
     4
 71
     0
 72
     2
 73
     0
 90
        0
 40
-0.6
 41
-30.0
 62
     5
 63
     7
421
 16777215
 74
     1
 91
        4
 64
     7
 65
   257
 75
     1
175
     1
 42
1.0
 92
        0
 66
   257
 43
1.0
 76
     1
 77
     6
 78
     2
 67
     7
 79
     5
170
     0
171
     0
290
     0
174
     0
 93
        1
 44
0.0
173
     0
291
     0
 45
0.0
1001
ACAD
1000
AcDbSavedByObjectVersion
1070
     0
  0
VISUALSTYLE
  5
31
102
{ACAD_REACTORS
330
2A
102
}
330
2A
100
AcDbVisualStyle
  2
3D Hidden
 70
     6
 71
     1
 72
     2
 73
     2
 90
        0
 40
-0.6
 41
-30.0
 62
     5
 63
     7
421
 16777215
 74
     2
 91
        2
 64
     7
 65
   257
 75
     2
175
     1
 42
40.0
 92
        0
 66
   257
 43
1.0
 76
     1
 77
     6
 78
     2
 67
     7
 79
     3
170
     0
171
     0
290
     0
174
     0
 93
        1
 44
0.0
173
     0
291
     0
 45
0.0
1001
ACAD
1000
AcDbSavedByObjectVersion
1070
     0
  0
VISUALSTYLE
  5
30
102
{ACAD_REACTORS
330
2A
102
}
330
2A
100
AcDbVisualStyle
  2
3dWireframe
 70
     5
 71
     0
 72
     2
 73
     0
 90
        0
 40
-0.6
 41
-30.0
 62
     5
 63
     7
421
 16777215
 74
     1
 91
        4
 64
     7
 65
   257
 75
     1
175
     1
 42
1.0
 92
        0
 66
   257
 43
1.0
 76
     1
 77
     6
 78
     2
 67
     7
 79
     5
170
     0
171
     0
290
     0
174
     0
 93
        1
 44
0.0
173
     0
291
     0
 45
0.0
1001
ACAD
1000
AcDbSavedByObjectVersion
1070
     0
  0
VISUALSTYLE
  5
32
102
{ACAD_REACTORS
330
2A
102
}
330
2A
100
AcDbVisualStyle
  2
Basic
 70
     7
 71
     1
 72
     0
 73
     1
 90
        0
 40
-0.6
 41
-30.0
 62
     5
 63
     7
421
 16777215
 74
     0
 91
        4
 64
     7
 65
   257
 75
     1
175
     1
 42
1.0
 92
        8
 66
     7
 43
1.0
 76
     1
 77
     6
 78
     2
 67
     7
 79
     5
170
     0
171
     0
290
     0
174
     0
 93
        1
 44
0.0
173
     0
291
     1
 45
0.0
1001
ACAD
1000
AcDbSavedByObjectVersion
1070
     0
  0
VISUALSTYLE
  5
36
102
{ACAD_REACTORS
330
2A
102
}
330
2A
100
AcDbVisualStyle
  2
Brighten
 70
    12
 71
     2
 72
     2
 73
     0
 90
        0
 40
-0.6
 41
-30.0
 62
     5
 63
     7
421
 16777215
 74
     1
 91
        4
 64
     7
 65
   257
 75
     1
175
     1
 42
1.0
 92
        8
 66
     7
 43
1.0
 76
     1
 77
     6
 78
     2
 67
     7
 79
     5
170
     0
171
     0
290
     0
174
     0
 93
        1
 44
50.0
173
     0
291
     1
 45
0.0
1001
ACAD
1000
AcDbSavedByObjectVersion
1070
     0
  0
VISUALSTYLE
  5
3A
102
{ACAD_REACTORS
330
2A
102
}
330
2A
100
AcDbVisualStyle
  2
ColorChange
 70
    16
 71
     2
 72
     2
 73
     3
 90
        0
 40
-0.6
 41
-30.0
 62
     5
 63
     8
421
  8421504
 74
     1
 91
        4
 64
     7
 65
   257
 75
     1
175
     1
 42
1.0
 92
        8
 66
     8
424
  8421504
 43
1.0
 76
     1
 77
     6
 78
     2
 67
     7
 79
     5
170
     0
171
     0
290
     0
174
     0
 93
        1
 44
0.0
173
     0
291
     1
 45
0.0
1001
ACAD
1000
AcDbSavedByObjectVersion
1070
     0
  0
VISUALSTYLE
  5
34
102
{ACAD_REACTORS
330
2A
102
}
330
2A
100
AcDbVisualStyle
  2
Conceptual
 70
     9
 71
     3
 72
     2
 73
     0
 90
        0
 40
-0.6
 41
-30.0
 62
     5
 63
     7
421
 16777215
 74
     2
 91
        2
 64
     7
 65
   257
 75
     1
175
     1
 42
40.0
 92
        8
 66
     7
 43
1.0
 76
     1
 77
     6
 78
     2
 67
     7
 79
     3
170
     0
171
     0
290
     0
174
     0
 93
        1
 44
0.0
173
     0
291
     0
 45
0.0
1001
ACAD
1000
AcDbSavedByObjectVersion
1070
     0
  0
VISUALSTYLE
  5
35
102
{ACAD_REACTORS
330
2A
102
}
330
2A
100
AcDbVisualStyle
  2
Dim
 70
    11
 71
     2
 72
     2
 73
     0
 90
        0
 40
-0.6
 41
-30.0
 62
     5
 63
     7
421
 16777215
 74
     1
 91
        4
 64
     7
 65
   257
 75
     1
175
     1
 42
1.0
 92
        8
 66
     7
 43
1.0
 76
     1
 77
     6
 78
     2
 67
     7
 79
     5
170
     0
171
     0
290
     0
174
     0
 93
        1
 44
-50.0
173
     0
291
     1
 45
0.0
1001
ACAD
1000
AcDbSavedByObjectVersion
1070
     0
  0
VISUALSTYLE
  5
39
102
{ACAD_REACTORS
330
2A
102
}
330
2A
100
AcDbVisualStyle
  2
Facepattern
 70
    15
 71
     2
 72
     2
 73
     0
 90
        0
 40
-0.6
 41
-30.0
 62
     5
 63
     7
421
 16777215
 74
     1
 91
        4
 64
     7
 65
   257
 75
     1
175
     1
 42
1.0
 92
        8
 66
     7
 43
1.0
 76
     1
 77
     6
 78
     2
 67
     7
 79
     5
170
     0
171
     0
290
     0
174
     0
 93
        1
 44
0.0
173
     0
291
     1
 45
0.0
1001
ACAD
1000
AcDbSavedByObjectVersion
1070
     0
  0
VISUALSTYLE
  5
2B
102
{ACAD_REACTORS
330
2A
102
}
330
2A
100
AcDbVisualStyle
  2
Flat
 70
     0
 71
     2
 72
     1
 73
     1
 90
        2
 40
-0.6
 41
30.0
 62
     5
 63
     7
421
 16777215
 74
     0
 91
        4
 64
     7
 65
   257
 75
     1
175
     1
 42
1.0
 92
        8
 66
     7
 43
1.0
 76
     1
 77
     6
 78
     2
 67
     7
 79
     5
170
     0
171
     0
290
     0
174
     0
 93
       13
 44
0.0
173
     0
291
     1
 45
0.0
1001
ACAD
1000
AcDbSavedByObjectVersion
1070
     0
  0
VISUALSTYLE
  5
2C
102
{ACAD_REACTORS
330
2A
102
}
330
2A
100
AcDbVisualStyle
  2
FlatWithEdges
 70
     1
 71
     2
 72
     1
 73
     1
 90
        2
 40
-0.6
 41
30.0
 62
     5
 63
     7
421
 16777215
 74
     1
 91
        4
 64
     7
 65
   257
 75
     1
175
     1
 42
1.0
 92
        0
 66
   257
 43
1.0
 76
     1
 77
     6
 78
     2
 67
     7
 79
     5
170
     0
171
     0
290
     0
174
     0
 93
       13
 44
0.0
173
     0
291
     1
 45
0.0
1001
ACAD
1000
AcDbSavedByObjectVersion
1070
     0
  0
VISUALSTYLE
  5
2D
102
{ACAD_REACTORS
330
2A
102
}
330
2A
100
AcDbVisualStyle
  2
Gouraud
 70
     2
 71
     2
 72
     2
 73
     1
 90
        2
 40
-0.6
 41
30.0
 62
     5
 63
     7
421
 16777215
 74
     0
 91
        4
 64
     7
 65
   257
 75
     1
175
     1
 42
1.0
 92
        0
 66
     7
 43
1.0
 76
     1
 77
     6
 78
     2
 67
     7
 79
     5
170
     0
171
     0
290
     0
174
     0
 93
       13
 44
0.0
173
     0
291
     1
 45
0.0
1001
ACAD
1000
AcDbSavedByObjectVersion
1070
     0
  0
VISUALSTYLE
  5
2E
102
{ACAD_REACTORS
330
2A
102
}
330
2A
100
AcDbVisualStyle
  2
GouraudWithEdges
 70
     3
 71
     2
 72
     2
 73
     1
 90
        2
 40
-0.6
 41
30.0
 62
     5
 63
     7
421
 16777215
 74
     1
 91
        4
 64
     7
 65
   257
 75
     1
175
     1
 42
1.0
 92
        0
 66
   257
 43
1.0
 76
     1
 77
     6
 78
     2
 67
     7
 79
     5
170
     0
171
     0
290
     0
174
     0
 93
       13
 44
0.0
173
     0
291
     1
 45
0.0
1001
ACAD
1000
AcDbSavedByObjectVersion
1070
     0
  0
VISUALSTYLE
  5
38
102
{ACAD_REACTORS
330
2A
102
}
330
2A
100
AcDbVisualStyle
  2
Linepattern
 70
    14
 71
     2
 72
     2
 73
     0
 90
        0
 40
-0.6
 41
-30.0
 62
     5
 63
     7
421
 16777215
 74
     1
 91
        4
 64
     7
 65
   257
 75
     7
175
     7
 42
1.0
 92
        8
 66
     7
 43
1.0
 76
     1
 77
     6
 78
     2
 67
     7
 79
     5
170
     0
171
     0
290
     0
174
     0
 93
        1
 44
0.0
173
     0
291
     1
 45
0.0
1001
ACAD
1000
AcDbSavedByObjectVersion
1070
     0
  0
VISUALSTYLE
  5
33
102
{ACAD_REACTORS
330
2A
102
}
330
2A
100
AcDbVisualStyle
  2
Realistic
 70
     8
 71
     2
 72
     2
 73
     0
 90
        0
 40
-0.6
 41
-30.0
 62
     5
 63
     7
421
 16777215
 74
     1
 91
        0
 64
     7
 65
   257
 75
     1
175
     1
 42
1.0
 92
        8
 66
     8
424
  7895160
 43
1.0
 76
     1
 77
     6
 78
     2
 67
     7
 79
     5
170
     0
171
     0
290
     0
174
     0
 93
       13
 44
0.0
173
     0
291
     0
 45
0.0
1001
ACAD
1000
AcDbSavedByObjectVersion
1070
     0
  0
VISUALSTYLE
  5
37
102
{ACAD_REACTORS
330
2A
102
}
330
2A
100
AcDbVisualStyle
  2
Thicken
 70
    13
 71
     2
 72
     2
 73
     0
 90
        0
 40
-0.6
 41
-30.0
 62
     5
 63
     7
421
 16777215
 74
     1
 91
        4
 64
     7
 65
   257
 75
     1
175
     1
 42
1.0
 92
       12
 66
     7
 43
1.0
 76
     1
 77
     6
 78
     2
 67
     7
 79
     5
170
     0
171
     0
290
     0
174
     0
 93
        1
 44
0.0
173
     0
291
     1
 45
0.0
1001
ACAD
1000
AcDbSavedByObjectVersion
1070
     0
  0
ENDSEC
  0
EOF
