  0
SECTION
  2
HEADER
  9
$ACADVER
  1
AC1009
  0
ENDSEC
  0
SECTION
  2
ENTITIES
  0
CIRCLE
  5
90
  8
Layer_1
  62
3
  10
315.48157
  20
249.93742
  30
0
  40
5.0000086
  0
POLYLINE
  5
90
  8
Layer_1
  62
3
  66
1
  10
0
  20
0
  30
0
  0
VERTEX
  5
90
  8
Layer_1
  10
298.41907
  20
269.82843
  0
VERTEX
  5
91
  8
Layer_1
  10
295.59064
  20
267
  0
VERTEX
  5
92
  8
Layer_1
  10
297.00485
  20
265.58578
  0
VERTEX
  5
93
  8
Layer_1
  10
291.35153
  20
259.93246
  0
VERTEX
  5
94
  8
Layer_1
  10
291.35153
  20
251.93747
  0
VERTEX
  5
95
  8
Layer_1
  10
289.35153
  20
251.93747
  0
VERTEX
  5
96
  8
Layer_1
  10
289.35153
  20
247.93747
  0
VERTEX
  5
97
  8
Layer_1
  10
291.35153
  20
247.93747
  0
VERTEX
  5
98
  8
Layer_1
  10
291.35153
  20
239.94247
  0
VERTEX
  5
99
  8
Layer_1
  10
297.00485
  20
234.28915
  0
VERTEX
  5
9a
  8
Layer_1
  10
295.59064
  20
232.87494
  0
VERTEX
  5
9b
  8
Layer_1
  10
298.41907
  20
230.04651
  0
VERTEX
  5
9c
  8
Layer_1
  10
299.83328
  20
231.46072
  0
VERTEX
  5
9d
  8
Layer_1
  10
305.4866
  20
225.8074
  0
VERTEX
  5
9e
  8
Layer_1
  10
313.4816
  20
225.8074
  0
VERTEX
  5
9f
  8
Layer_1
  10
313.4816
  20
223.8074
  0
VERTEX
  5
a0
  8
Layer_1
  10
317.4816
  20
223.8074
  0
VERTEX
  5
a1
  8
Layer_1
  10
317.4816
  20
225.8074
  0
VERTEX
  5
a2
  8
Layer_1
  10
325.47659
  20
225.8074
  0
VERTEX
  5
a3
  8
Layer_1
  10
331.12991
  20
231.46072
  0
VERTEX
  5
a4
  8
Layer_1
  10
332.54413
  20
230.04651
  0
VERTEX
  5
a5
  8
Layer_1
  10
335.37256
  20
232.87494
  0
VERTEX
  5
a6
  8
Layer_1
  10
333.95834
  20
234.28915
  0
VERTEX
  5
a7
  8
Layer_1
  10
339.61166
  20
239.94247
  0
VERTEX
  5
a8
  8
Layer_1
  10
339.61166
  20
247.93747
  0
VERTEX
  5
a9
  8
Layer_1
  10
341.61166
  20
247.93747
  0
VERTEX
  5
aa
  8
Layer_1
  10
341.61166
  20
251.93747
  0
VERTEX
  5
ab
  8
Layer_1
  10
339.61166
  20
251.93747
  0
VERTEX
  5
ac
  8
Layer_1
  10
339.61166
  20
259.93246
  0
VERTEX
  5
ad
  8
Layer_1
  10
333.95834
  20
265.58578
  0
VERTEX
  5
ae
  8
Layer_1
  10
335.37256
  20
267
  0
VERTEX
  5
af
  8
Layer_1
  10
332.54413
  20
269.82843
  0
VERTEX
  5
b0
  8
Layer_1
  10
331.12991
  20
268.41422
  0
VERTEX
  5
b1
  8
Layer_1
  10
325.47659
  20
274.06754
  0
VERTEX
  5
b2
  8
Layer_1
  10
317.4816
  20
274.06754
  0
VERTEX
  5
b3
  8
Layer_1
  10
317.4816
  20
276.06754
  0
VERTEX
  5
b4
  8
Layer_1
  10
313.4816
  20
276.06754
  0
VERTEX
  5
b5
  8
Layer_1
  10
313.4816
  20
274.06754
  0
VERTEX
  5
b6
  8
Layer_1
  10
305.4866
  20
274.06754
  0
VERTEX
  5
b7
  8
Layer_1
  10
299.83328
  20
268.41422
  0
VERTEX
  5
b8
  8
Layer_1
  10
298.41907
  20
269.82843
  0
SEQEND
  0
POLYLINE
  5
ba
  8
Layer_1
  62
3
  66
1
  10
0
  20
0
  30
0
  0
VERTEX
  5
ba
  8
Layer_1
  10
197.61841
  20
285.06244
  0
VERTEX
  5
bb
  8
Layer_1
  10
196.0184
  20
285.06244
  42
-0.41421356
  0
VERTEX
  5
bc
  8
Layer_1
  10
195.0184
  20
286.06244
  0
VERTEX
  5
bd
  8
Layer_1
  10
195.0184
  20
294.06247
  42
-0.41421356
  0
VERTEX
  5
be
  8
Layer_1
  10
196.0184
  20
295.06247
  0
VERTEX
  5
bf
  8
Layer_1
  10
197.61841
  20
295.06247
  0
VERTEX
  5
c0
  8
Layer_1
  10
197.61841
  20
303.06247
  0
VERTEX
  5
c1
  8
Layer_1
  10
233.85936
  20
300.16586
  42
-0.37928024
  0
VERTEX
  5
c2
  8
Layer_1
  10
235.61848
  20
298.18042
  0
VERTEX
  5
c3
  8
Layer_1
  10
235.61848
  20
281.94446
  42
-0.3792781
  0
VERTEX
  5
c4
  8
Layer_1
  10
233.85936
  20
279.95901
  0
VERTEX
  5
c5
  8
Layer_1
  10
197.61841
  20
277.06244
  0
VERTEX
  5
c6
  8
Layer_1
  10
197.61841
  20
285.06244
  0
SEQEND
  0
POLYLINE
  5
c8
  8
Layer_1
  62
3
  66
1
  10
0
  20
0
  30
0
  0
VERTEX
  5
c8
  8
Layer_1
  10
233.11848
  20
288.16245
  0
VERTEX
  5
c9
  8
Layer_1
  10
230.51848
  20
288.16245
  0
VERTEX
  5
ca
  8
Layer_1
  10
230.51848
  20
291.96246
  0
VERTEX
  5
cb
  8
Layer_1
  10
233.11848
  20
291.96246
  0
VERTEX
  5
cc
  8
Layer_1
  10
233.11848
  20
288.16245
  0
SEQEND
  0
CIRCLE
  5
ce
  8
Layer_1
  62
3
  10
315.48157
  20
249.93748
  30
0
  40
37.500061
  0
CIRCLE
  5
ce
  8
Layer_1
  62
3
  10
315.48157
  20
249.93748
  30
0
  40
28.500048
  0
POLYLINE
  5
ce
  8
Layer_1
  62
3
  66
1
  10
0
  20
0
  30
0
  0
VERTEX
  5
ce
  8
Layer_1
  10
343.41229
  20
269.73648
  0
VERTEX
  5
cf
  8
Layer_1
  10
340.93744
  20
267.26163
  0
VERTEX
  5
d0
  8
Layer_1
  10
332.80566
  20
275.39337
  0
VERTEX
  5
d1
  8
Layer_1
  10
335.28058
  20
277.86823
  0
VERTEX
  5
d2
  8
Layer_1
  10
343.41229
  20
269.73648
  0
SEQEND
  0
POLYLINE
  5
d4
  8
Layer_1
  62
3
  66
1
  10
0
  20
0
  30
0
  0
VERTEX
  5
d4
  8
Layer_1
  10
321.23157
  20
283.68753
  0
VERTEX
  5
d5
  8
Layer_1
  10
321.23157
  20
280.18753
  0
VERTEX
  5
d6
  8
Layer_1
  10
309.73154
  20
280.18753
  0
VERTEX
  5
d7
  8
Layer_1
  10
309.73154
  20
283.68753
  0
VERTEX
  5
d8
  8
Layer_1
  10
321.23157
  20
283.68753
  0
SEQEND
  0
POLYLINE
  5
da
  8
Layer_1
  62
3
  66
1
  10
0
  20
0
  30
0
  0
VERTEX
  5
da
  8
Layer_1
  10
295.6825
  20
277.86823
  0
VERTEX
  5
db
  8
Layer_1
  10
287.55078
  20
269.73648
  0
VERTEX
  5
dc
  8
Layer_1
  10
290.02563
  20
267.26163
  0
VERTEX
  5
dd
  8
Layer_1
  10
298.15741
  20
275.39337
  0
VERTEX
  5
de
  8
Layer_1
  10
295.6825
  20
277.86823
  0
SEQEND
  0
POLYLINE
  5
e0
  8
Layer_1
  62
3
  66
1
  10
0
  20
0
  30
0
  0
VERTEX
  5
e0
  8
Layer_1
  10
281.73148
  20
255.68747
  0
VERTEX
  5
e1
  8
Layer_1
  10
285.23151
  20
255.68747
  0
VERTEX
  5
e2
  8
Layer_1
  10
285.23151
  20
244.18747
  0
VERTEX
  5
e3
  8
Layer_1
  10
281.73148
  20
244.18747
  0
VERTEX
  5
e4
  8
Layer_1
  10
281.73148
  20
255.68747
  0
SEQEND
  0
POLYLINE
  5
e6
  8
Layer_1
  62
3
  66
1
  10
0
  20
0
  30
0
  0
VERTEX
  5
e6
  8
Layer_1
  10
290.02563
  20
232.61331
  0
VERTEX
  5
e7
  8
Layer_1
  10
287.55078
  20
230.13846
  0
VERTEX
  5
e8
  8
Layer_1
  10
295.6825
  20
222.00671
  0
VERTEX
  5
e9
  8
Layer_1
  10
298.15741
  20
224.4816
  0
VERTEX
  5
ea
  8
Layer_1
  10
290.02563
  20
232.61331
  0
SEQEND
  0
POLYLINE
  5
ec
  8
Layer_1
  62
3
  66
1
  10
0
  20
0
  30
0
  0
VERTEX
  5
ec
  8
Layer_1
  10
309.73154
  20
216.18741
  0
VERTEX
  5
ed
  8
Layer_1
  10
309.73154
  20
219.68742
  0
VERTEX
  5
ee
  8
Layer_1
  10
321.23157
  20
219.68742
  0
VERTEX
  5
ef
  8
Layer_1
  10
321.23157
  20
216.18741
  0
VERTEX
  5
f0
  8
Layer_1
  10
309.73154
  20
216.18741
  0
SEQEND
  0
POLYLINE
  5
f2
  8
Layer_1
  62
3
  66
1
  10
0
  20
0
  30
0
  0
VERTEX
  5
f2
  8
Layer_1
  10
335.98767
  20
221.29959
  0
VERTEX
  5
f3
  8
Layer_1
  10
333.51279
  20
223.77448
  0
VERTEX
  5
f4
  8
Layer_1
  10
341.64453
  20
231.90622
  0
VERTEX
  5
f5
  8
Layer_1
  10
344.11938
  20
229.43134
  0
VERTEX
  5
f6
  8
Layer_1
  10
335.98767
  20
221.29959
  0
SEQEND
  0
POLYLINE
  5
f8
  8
Layer_1
  62
3
  66
1
  10
0
  20
0
  30
0
  0
VERTEX
  5
f8
  8
Layer_1
  10
350.26886
  20
255.68747
  0
VERTEX
  5
f9
  8
Layer_1
  10
350.26886
  20
244.18747
  0
VERTEX
  5
fa
  8
Layer_1
  10
346.76886
  20
244.18747
  0
VERTEX
  5
fb
  8
Layer_1
  10
346.76886
  20
255.68747
  0
VERTEX
  5
fc
  8
Layer_1
  10
350.26886
  20
255.68747
  0
SEQEND
  0
CIRCLE
  5
fe
  8
Layer_0
  62
1
  10
39.299988
  20
167
  30
0
  40
2.7999969
  0
CIRCLE
  5
fe
  8
Layer_0
  62
1
  10
100.29999
  20
169
  30
0
  40
10
  0
CIRCLE
  5
fe
  8
Layer_1
  62
3
  10
259.48157
  20
220.93748
  30
0
  40
2.9999998
  0
POLYLINE
  5
fe
  8
Layer_0
  62
1
  66
1
  10
0
  20
0
  30
0
  0
VERTEX
  5
fe
  8
Layer_0
  10
52.399979
  20
153.89999
  0
VERTEX
  5
ff
  8
Layer_0
  10
26.199997
  20
153.89999
  0
VERTEX
  5
100
  8
Layer_0
  10
26.199997
  20
180.10001
  0
VERTEX
  5
101
  8
Layer_0
  10
52.399979
  20
180.10001
  0
VERTEX
  5
102
  8
Layer_0
  10
52.399979
  20
153.89999
  0
SEQEND
  0
POLYLINE
  5
104
  8
Layer_0
  62
1
  66
1
  10
0
  20
0
  30
0
  0
VERTEX
  5
104
  8
Layer_0
  10
75.399986
  20
159.89999
  0
VERTEX
  5
105
  8
Layer_0
  10
61.200005
  20
159.89999
  0
VERTEX
  5
106
  8
Layer_0
  10
61.200005
  20
174.10001
  0
VERTEX
  5
107
  8
Layer_0
  10
75.399986
  20
174.10001
  0
VERTEX
  5
108
  8
Layer_0
  10
75.399986
  20
159.89999
  0
SEQEND
  0
POLYLINE
  5
10a
  8
Layer_0
  62
1
  66
1
  10
0
  20
0
  30
0
  0
VERTEX
  5
10a
  8
Layer_0
  10
75.407906
  20
154.20874
  0
VERTEX
  5
10b
  8
Layer_0
  10
75.430855
  20
154.51343
  42
-0.38473866
  0
VERTEX
  5
10c
  8
Layer_0
  10
81.400093
  20
159.8999
  0
VERTEX
  5
10d
  8
Layer_0
  10
81.400093
  20
174.1001
  0
VERTEX
  5
10e
  8
Layer_0
  10
81.091255
  20
174.10791
  42
-0.39961662
  0
VERTEX
  5
10f
  8
Layer_0
  10
75.400093
  20
180.1001
  0
VERTEX
  5
110
  8
Layer_0
  10
61.199898
  20
180.1001
  0
VERTEX
  5
111
  8
Layer_0
  10
61.192085
  20
179.79126
  42
-0.39975169
  0
VERTEX
  5
112
  8
Layer_0
  10
55.199898
  20
174.1001
  0
VERTEX
  5
113
  8
Layer_0
  10
55.199898
  20
159.8999
  0
VERTEX
  5
114
  8
Layer_0
  10
55.508736
  20
159.89233
  42
-0.39936428
  0
VERTEX
  5
115
  8
Layer_0
  10
61.199898
  20
153.8999
  0
VERTEX
  5
116
  8
Layer_0
  10
75.400093
  20
153.8999
  0
VERTEX
  5
117
  8
Layer_0
  10
75.407906
  20
154.20874
  0
SEQEND
  0
POLYLINE
  5
119
  8
Layer_0
  62
1
  66
1
  10
0
  20
0
  30
0
  0
VERTEX
  5
119
  8
Layer_0
  10
72.999977
  20
312.5
  0
VERTEX
  5
11a
  8
Layer_0
  10
72.999977
  20
294.27499
  0
VERTEX
  5
11b
  8
Layer_0
  10
75.499977
  20
294.27499
  0
VERTEX
  5
11c
  8
Layer_0
  10
75.499977
  20
281.625
  0
VERTEX
  5
11d
  8
Layer_0
  10
72.999977
  20
281.625
  0
VERTEX
  5
11e
  8
Layer_0
  10
72.999977
  20
268.97501
  0
VERTEX
  5
11f
  8
Layer_0
  10
75.499977
  20
268.97501
  0
VERTEX
  5
120
  8
Layer_0
  10
75.499977
  20
256.32501
  0
VERTEX
  5
121
  8
Layer_0
  10
72.999977
  20
256.32501
  0
VERTEX
  5
122
  8
Layer_0
  10
72.999977
  20
243.675
  0
VERTEX
  5
123
  8
Layer_0
  10
75.499977
  20
243.675
  0
VERTEX
  5
124
  8
Layer_0
  10
75.499977
  20
231.02499
  0
VERTEX
  5
125
  8
Layer_0
  10
72.999977
  20
231.02499
  0
VERTEX
  5
126
  8
Layer_0
  10
72.999977
  20
218.375
  0
VERTEX
  5
127
  8
Layer_0
  10
75.499977
  20
218.375
  0
VERTEX
  5
128
  8
Layer_0
  10
75.499977
  20
205.72501
  0
VERTEX
  5
129
  8
Layer_0
  10
72.999977
  20
205.72501
  0
VERTEX
  5
12a
  8
Layer_0
  10
72.999977
  20
193.075
  0
VERTEX
  5
12b
  8
Layer_0
  10
72.999977
  20
187.5
  0
VERTEX
  5
12c
  8
Layer_0
  10
82.17498
  20
187.5
  0
VERTEX
  5
12d
  8
Layer_0
  10
82.17498
  20
190
  0
VERTEX
  5
12e
  8
Layer_0
  10
94.824974
  20
190
  0
VERTEX
  5
12f
  8
Layer_0
  10
94.824974
  20
187.5
  0
VERTEX
  5
130
  8
Layer_0
  10
103.99998
  20
187.5
  0
VERTEX
  5
131
  8
Layer_0
  10
103.99998
  20
205.72501
  0
VERTEX
  5
132
  8
Layer_0
  10
101.49998
  20
205.72501
  0
VERTEX
  5
133
  8
Layer_0
  10
101.49998
  20
218.375
  0
VERTEX
  5
134
  8
Layer_0
  10
103.99998
  20
218.375
  0
VERTEX
  5
135
  8
Layer_0
  10
103.99998
  20
231.02499
  0
VERTEX
  5
136
  8
Layer_0
  10
101.49998
  20
231.02499
  0
VERTEX
  5
137
  8
Layer_0
  10
101.49998
  20
243.675
  0
VERTEX
  5
138
  8
Layer_0
  10
103.99998
  20
243.675
  0
VERTEX
  5
139
  8
Layer_0
  10
103.99998
  20
256.32501
  0
VERTEX
  5
13a
  8
Layer_0
  10
101.49998
  20
256.32501
  0
VERTEX
  5
13b
  8
Layer_0
  10
101.49998
  20
268.97501
  0
VERTEX
  5
13c
  8
Layer_0
  10
103.99998
  20
268.97501
  0
VERTEX
  5
13d
  8
Layer_0
  10
103.99998
  20
281.625
  0
VERTEX
  5
13e
  8
Layer_0
  10
101.49998
  20
281.625
  0
VERTEX
  5
13f
  8
Layer_0
  10
101.49998
  20
294.27499
  0
VERTEX
  5
140
  8
Layer_0
  10
103.99998
  20
294.27499
  0
VERTEX
  5
141
  8
Layer_0
  10
103.99998
  20
306.92499
  0
VERTEX
  5
142
  8
Layer_0
  10
103.99998
  20
312.5
  0
VERTEX
  5
143
  8
Layer_0
  10
94.824974
  20
312.5
  0
VERTEX
  5
144
  8
Layer_0
  10
94.824974
  20
310
  0
VERTEX
  5
145
  8
Layer_0
  10
82.17498
  20
310
  0
VERTEX
  5
146
  8
Layer_0
  10
82.17498
  20
312.5
  0
VERTEX
  5
147
  8
Layer_0
  10
72.999977
  20
312.5
  0
SEQEND
  0
POLYLINE
  5
149
  8
Layer_0
  62
1
  66
1
  10
0
  20
0
  30
0
  0
VERTEX
  5
149
  8
Layer_0
  10
104
  20
312.5
  0
VERTEX
  5
14a
  8
Layer_0
  10
104
  20
294.27499
  0
VERTEX
  5
14b
  8
Layer_0
  10
101.5
  20
294.27499
  0
VERTEX
  5
14c
  8
Layer_0
  10
101.5
  20
281.625
  0
VERTEX
  5
14d
  8
Layer_0
  10
104
  20
281.625
  0
VERTEX
  5
14e
  8
Layer_0
  10
104
  20
268.97501
  0
VERTEX
  5
14f
  8
Layer_0
  10
101.5
  20
268.97501
  0
VERTEX
  5
150
  8
Layer_0
  10
101.5
  20
256.32501
  0
VERTEX
  5
151
  8
Layer_0
  10
104
  20
256.32501
  0
VERTEX
  5
152
  8
Layer_0
  10
104
  20
243.675
  0
VERTEX
  5
153
  8
Layer_0
  10
101.5
  20
243.675
  0
VERTEX
  5
154
  8
Layer_0
  10
101.5
  20
231.02499
  0
VERTEX
  5
155
  8
Layer_0
  10
104
  20
231.02499
  0
VERTEX
  5
156
  8
Layer_0
  10
104
  20
218.375
  0
VERTEX
  5
157
  8
Layer_0
  10
101.5
  20
218.375
  0
VERTEX
  5
158
  8
Layer_0
  10
101.5
  20
205.72501
  0
VERTEX
  5
159
  8
Layer_0
  10
104
  20
205.72501
  0
VERTEX
  5
15a
  8
Layer_0
  10
104
  20
193.075
  0
VERTEX
  5
15b
  8
Layer_0
  10
104
  20
187.5
  0
VERTEX
  5
15c
  8
Layer_0
  10
110.675
  20
187.5
  0
VERTEX
  5
15d
  8
Layer_0
  10
110.675
  20
190
  0
VERTEX
  5
15e
  8
Layer_0
  10
123.325
  20
190
  0
VERTEX
  5
15f
  8
Layer_0
  10
123.325
  20
187.5
  0
VERTEX
  5
160
  8
Layer_0
  10
130
  20
187.5
  0
VERTEX
  5
161
  8
Layer_0
  10
130
  20
205.72501
  0
VERTEX
  5
162
  8
Layer_0
  10
132.5
  20
205.72501
  0
VERTEX
  5
163
  8
Layer_0
  10
132.5
  20
218.375
  0
VERTEX
  5
164
  8
Layer_0
  10
130
  20
218.375
  0
VERTEX
  5
165
  8
Layer_0
  10
130
  20
231.02499
  0
VERTEX
  5
166
  8
Layer_0
  10
132.5
  20
231.02499
  0
VERTEX
  5
167
  8
Layer_0
  10
132.5
  20
243.675
  0
VERTEX
  5
168
  8
Layer_0
  10
130
  20
243.675
  0
VERTEX
  5
169
  8
Layer_0
  10
130
  20
256.32501
  0
VERTEX
  5
16a
  8
Layer_0
  10
132.5
  20
256.32501
  0
VERTEX
  5
16b
  8
Layer_0
  10
132.5
  20
268.97501
  0
VERTEX
  5
16c
  8
Layer_0
  10
130
  20
268.97501
  0
VERTEX
  5
16d
  8
Layer_0
  10
130
  20
281.625
  0
VERTEX
  5
16e
  8
Layer_0
  10
132.5
  20
281.625
  0
VERTEX
  5
16f
  8
Layer_0
  10
132.5
  20
294.27499
  0
VERTEX
  5
170
  8
Layer_0
  10
130
  20
294.27499
  0
VERTEX
  5
171
  8
Layer_0
  10
130
  20
306.92499
  0
VERTEX
  5
172
  8
Layer_0
  10
130
  20
312.5
  0
VERTEX
  5
173
  8
Layer_0
  10
123.325
  20
312.5
  0
VERTEX
  5
174
  8
Layer_0
  10
123.325
  20
310
  0
VERTEX
  5
175
  8
Layer_0
  10
110.675
  20
310
  0
VERTEX
  5
176
  8
Layer_0
  10
110.675
  20
312.5
  0
VERTEX
  5
177
  8
Layer_0
  10
104
  20
312.5
  0
SEQEND
  0
POLYLINE
  5
179
  8
Layer_0
  62
1
  66
1
  10
0
  20
0
  30
0
  0
VERTEX
  5
179
  8
Layer_0
  10
87.299988
  20
182
  0
VERTEX
  5
17a
  8
Layer_0
  10
87.299988
  20
175.32501
  0
VERTEX
  5
17b
  8
Layer_0
  10
84.799988
  20
175.32501
  0
VERTEX
  5
17c
  8
Layer_0
  10
84.799988
  20
162.67499
  0
VERTEX
  5
17d
  8
Layer_0
  10
87.299988
  20
162.67499
  0
VERTEX
  5
17e
  8
Layer_0
  10
87.299988
  20
156
  0
VERTEX
  5
17f
  8
Layer_0
  10
93.974976
  20
156
  0
VERTEX
  5
180
  8
Layer_0
  10
93.974976
  20
153.5
  0
VERTEX
  5
181
  8
Layer_0
  10
106.625
  20
153.5
  0
VERTEX
  5
182
  8
Layer_0
  10
106.625
  20
156
  0
VERTEX
  5
183
  8
Layer_0
  10
113.29999
  20
156
  0
VERTEX
  5
184
  8
Layer_0
  10
113.29999
  20
162.67499
  0
VERTEX
  5
185
  8
Layer_0
  10
115.79999
  20
162.67499
  0
VERTEX
  5
186
  8
Layer_0
  10
115.79999
  20
175.32501
  0
VERTEX
  5
187
  8
Layer_0
  10
113.29999
  20
175.32501
  0
VERTEX
  5
188
  8
Layer_0
  10
113.29999
  20
182
  0
VERTEX
  5
189
  8
Layer_0
  10
106.625
  20
182
  0
VERTEX
  5
18a
  8
Layer_0
  10
106.625
  20
184.5
  0
VERTEX
  5
18b
  8
Layer_0
  10
93.974976
  20
184.5
  0
VERTEX
  5
18c
  8
Layer_0
  10
93.974976
  20
182
  0
VERTEX
  5
18d
  8
Layer_0
  10
87.299988
  20
182
  0
SEQEND
  0
POLYLINE
  5
18f
  8
Layer_0
  62
1
  66
1
  10
0
  20
0
  30
0
  0
VERTEX
  5
18f
  8
Layer_0
  10
16.000023
  20
312.5
  0
VERTEX
  5
190
  8
Layer_0
  10
16.000023
  20
294.27499
  0
VERTEX
  5
191
  8
Layer_0
  10
18.500023
  20
294.27499
  0
VERTEX
  5
192
  8
Layer_0
  10
18.500023
  20
281.625
  0
VERTEX
  5
193
  8
Layer_0
  10
16.000023
  20
281.625
  0
VERTEX
  5
194
  8
Layer_0
  10
16.000023
  20
268.97501
  0
VERTEX
  5
195
  8
Layer_0
  10
18.500023
  20
268.97501
  0
VERTEX
  5
196
  8
Layer_0
  10
18.500023
  20
256.32501
  0
VERTEX
  5
197
  8
Layer_0
  10
16.000023
  20
256.32501
  0
VERTEX
  5
198
  8
Layer_0
  10
16.000023
  20
243.675
  0
VERTEX
  5
199
  8
Layer_0
  10
18.500023
  20
243.675
  0
VERTEX
  5
19a
  8
Layer_0
  10
18.500023
  20
231.02499
  0
VERTEX
  5
19b
  8
Layer_0
  10
16.000023
  20
231.02499
  0
VERTEX
  5
19c
  8
Layer_0
  10
16.000023
  20
218.375
  0
VERTEX
  5
19d
  8
Layer_0
  10
18.500023
  20
218.375
  0
VERTEX
  5
19e
  8
Layer_0
  10
18.500023
  20
205.72501
  0
VERTEX
  5
19f
  8
Layer_0
  10
16.000023
  20
205.72501
  0
VERTEX
  5
1a0
  8
Layer_0
  10
16.000023
  20
193.075
  0
VERTEX
  5
1a1
  8
Layer_0
  10
16.000023
  20
187.5
  0
VERTEX
  5
1a2
  8
Layer_0
  10
25.175026
  20
187.5
  0
VERTEX
  5
1a3
  8
Layer_0
  10
25.175026
  20
190
  0
VERTEX
  5
1a4
  8
Layer_0
  10
37.82502
  20
190
  0
VERTEX
  5
1a5
  8
Layer_0
  10
37.82502
  20
187.5
  0
VERTEX
  5
1a6
  8
Layer_0
  10
47.000023
  20
187.5
  0
VERTEX
  5
1a7
  8
Layer_0
  10
47.000023
  20
205.72501
  0
VERTEX
  5
1a8
  8
Layer_0
  10
44.500023
  20
205.72501
  0
VERTEX
  5
1a9
  8
Layer_0
  10
44.500023
  20
218.375
  0
VERTEX
  5
1aa
  8
Layer_0
  10
47.000023
  20
218.375
  0
VERTEX
  5
1ab
  8
Layer_0
  10
47.000023
  20
231.02499
  0
VERTEX
  5
1ac
  8
Layer_0
  10
44.500023
  20
231.02499
  0
VERTEX
  5
1ad
  8
Layer_0
  10
44.500023
  20
243.675
  0
VERTEX
  5
1ae
  8
Layer_0
  10
47.000023
  20
243.675
  0
VERTEX
  5
1af
  8
Layer_0
  10
47.000023
  20
256.32501
  0
VERTEX
  5
1b0
  8
Layer_0
  10
44.500023
  20
256.32501
  0
VERTEX
  5
1b1
  8
Layer_0
  10
44.500023
  20
268.97501
  0
VERTEX
  5
1b2
  8
Layer_0
  10
47.000023
  20
268.97501
  0
VERTEX
  5
1b3
  8
Layer_0
  10
47.000023
  20
281.625
  0
VERTEX
  5
1b4
  8
Layer_0
  10
44.500023
  20
281.625
  0
VERTEX
  5
1b5
  8
Layer_0
  10
44.500023
  20
294.27499
  0
VERTEX
  5
1b6
  8
Layer_0
  10
47.000023
  20
294.27499
  0
VERTEX
  5
1b7
  8
Layer_0
  10
47.000023
  20
306.92499
  0
VERTEX
  5
1b8
  8
Layer_0
  10
47.000023
  20
312.5
  0
VERTEX
  5
1b9
  8
Layer_0
  10
37.82502
  20
312.5
  0
VERTEX
  5
1ba
  8
Layer_0
  10
37.82502
  20
310
  0
VERTEX
  5
1bb
  8
Layer_0
  10
25.175026
  20
310
  0
VERTEX
  5
1bc
  8
Layer_0
  10
25.175026
  20
312.5
  0
VERTEX
  5
1bd
  8
Layer_0
  10
16.000023
  20
312.5
  0
SEQEND
  0
POLYLINE
  5
1bf
  8
Layer_0
  62
1
  66
1
  10
0
  20
0
  30
0
  0
VERTEX
  5
1bf
  8
Layer_0
  10
47.000023
  20
312.5
  0
VERTEX
  5
1c0
  8
Layer_0
  10
47.000023
  20
294.27499
  0
VERTEX
  5
1c1
  8
Layer_0
  10
44.500023
  20
294.27499
  0
VERTEX
  5
1c2
  8
Layer_0
  10
44.500023
  20
281.625
  0
VERTEX
  5
1c3
  8
Layer_0
  10
47.000023
  20
281.625
  0
VERTEX
  5
1c4
  8
Layer_0
  10
47.000023
  20
268.97501
  0
VERTEX
  5
1c5
  8
Layer_0
  10
44.500023
  20
268.97501
  0
VERTEX
  5
1c6
  8
Layer_0
  10
44.500023
  20
256.32501
  0
VERTEX
  5
1c7
  8
Layer_0
  10
47.000023
  20
256.32501
  0
VERTEX
  5
1c8
  8
Layer_0
  10
47.000023
  20
243.675
  0
VERTEX
  5
1c9
  8
Layer_0
  10
44.500023
  20
243.675
  0
VERTEX
  5
1ca
  8
Layer_0
  10
44.500023
  20
231.02499
  0
VERTEX
  5
1cb
  8
Layer_0
  10
47.000023
  20
231.02499
  0
VERTEX
  5
1cc
  8
Layer_0
  10
47.000023
  20
218.375
  0
VERTEX
  5
1cd
  8
Layer_0
  10
44.500023
  20
218.375
  0
VERTEX
  5
1ce
  8
Layer_0
  10
44.500023
  20
205.72501
  0
VERTEX
  5
1cf
  8
Layer_0
  10
47.000023
  20
205.72501
  0
VERTEX
  5
1d0
  8
Layer_0
  10
47.000023
  20
193.075
  0
VERTEX
  5
1d1
  8
Layer_0
  10
47.000023
  20
187.5
  0
VERTEX
  5
1d2
  8
Layer_0
  10
53.675026
  20
187.5
  0
VERTEX
  5
1d3
  8
Layer_0
  10
53.675026
  20
190
  0
VERTEX
  5
1d4
  8
Layer_0
  10
66.32502
  20
190
  0
VERTEX
  5
1d5
  8
Layer_0
  10
66.32502
  20
187.5
  0
VERTEX
  5
1d6
  8
Layer_0
  10
73.000023
  20
187.5
  0
VERTEX
  5
1d7
  8
Layer_0
  10
73.000023
  20
205.72501
  0
VERTEX
  5
1d8
  8
Layer_0
  10
75.500023
  20
205.72501
  0
VERTEX
  5
1d9
  8
Layer_0
  10
75.500023
  20
218.375
  0
VERTEX
  5
1da
  8
Layer_0
  10
73.000023
  20
218.375
  0
VERTEX
  5
1db
  8
Layer_0
  10
73.000023
  20
231.02499
  0
VERTEX
  5
1dc
  8
Layer_0
  10
75.500023
  20
231.02499
  0
VERTEX
  5
1dd
  8
Layer_0
  10
75.500023
  20
243.675
  0
VERTEX
  5
1de
  8
Layer_0
  10
73.000023
  20
243.675
  0
VERTEX
  5
1df
  8
Layer_0
  10
73.000023
  20
256.32501
  0
VERTEX
  5
1e0
  8
Layer_0
  10
75.500023
  20
256.32501
  0
VERTEX
  5
1e1
  8
Layer_0
  10
75.500023
  20
268.97501
  0
VERTEX
  5
1e2
  8
Layer_0
  10
73.000023
  20
268.97501
  0
VERTEX
  5
1e3
  8
Layer_0
  10
73.000023
  20
281.625
  0
VERTEX
  5
1e4
  8
Layer_0
  10
75.500023
  20
281.625
  0
VERTEX
  5
1e5
  8
Layer_0
  10
75.500023
  20
294.27499
  0
VERTEX
  5
1e6
  8
Layer_0
  10
73.000023
  20
294.27499
  0
VERTEX
  5
1e7
  8
Layer_0
  10
73.000023
  20
306.92499
  0
VERTEX
  5
1e8
  8
Layer_0
  10
73.000023
  20
312.5
  0
VERTEX
  5
1e9
  8
Layer_0
  10
66.32502
  20
312.5
  0
VERTEX
  5
1ea
  8
Layer_0
  10
66.32502
  20
310
  0
VERTEX
  5
1eb
  8
Layer_0
  10
53.675026
  20
310
  0
VERTEX
  5
1ec
  8
Layer_0
  10
53.675026
  20
312.5
  0
VERTEX
  5
1ed
  8
Layer_0
  10
47.000023
  20
312.5
  0
SEQEND
  0
POLYLINE
  5
1ef
  8
Layer_0
  62
1
  66
1
  10
0
  20
0
  30
0
  0
VERTEX
  5
1ef
  8
Layer_0
  10
121.5
  20
261.75
  0
VERTEX
  5
1f0
  8
Layer_0
  10
112.5
  20
261.75
  0
VERTEX
  5
1f1
  8
Layer_0
  10
112.5
  20
276.25
  0
VERTEX
  5
1f2
  8
Layer_0
  10
121.5
  20
276.25
  0
VERTEX
  5
1f3
  8
Layer_0
  10
121.5
  20
261.75
  0
SEQEND
  0
POLYLINE
  5
1f5
  8
Layer_1
  62
3
  66
1
  10
0
  20
0
  30
0
  0
VERTEX
  5
1f5
  8
Layer_1
  10
246.48155
  20
233.93748
  0
VERTEX
  5
1f6
  8
Layer_1
  10
246.48155
  20
227.26248
  0
VERTEX
  5
1f7
  8
Layer_1
  10
243.98155
  20
227.26248
  0
VERTEX
  5
1f8
  8
Layer_1
  10
243.98155
  20
214.61249
  0
VERTEX
  5
1f9
  8
Layer_1
  10
246.48155
  20
214.61249
  0
VERTEX
  5
1fa
  8
Layer_1
  10
246.48155
  20
207.93748
  0
VERTEX
  5
1fb
  8
Layer_1
  10
253.15656
  20
207.93748
  0
VERTEX
  5
1fc
  8
Layer_1
  10
253.15656
  20
205.43748
  0
VERTEX
  5
1fd
  8
Layer_1
  10
265.80655
  20
205.43748
  0
VERTEX
  5
1fe
  8
Layer_1
  10
265.80655
  20
207.93748
  0
VERTEX
  5
1ff
  8
Layer_1
  10
272.48157
  20
207.93748
  0
VERTEX
  5
200
  8
Layer_1
  10
272.48157
  20
214.61249
  0
VERTEX
  5
201
  8
Layer_1
  10
274.98157
  20
214.61249
  0
VERTEX
  5
202
  8
Layer_1
  10
274.98157
  20
227.26248
  0
VERTEX
  5
203
  8
Layer_1
  10
272.48157
  20
227.26248
  0
VERTEX
  5
204
  8
Layer_1
  10
272.48157
  20
233.93748
  0
VERTEX
  5
205
  8
Layer_1
  10
265.80655
  20
233.93748
  0
VERTEX
  5
206
  8
Layer_1
  10
265.80655
  20
236.43748
  0
VERTEX
  5
207
  8
Layer_1
  10
253.15656
  20
236.43748
  0
VERTEX
  5
208
  8
Layer_1
  10
253.15656
  20
233.93748
  0
VERTEX
  5
209
  8
Layer_1
  10
246.48155
  20
233.93748
  0
SEQEND
  0
POLYLINE
  5
20b
  8
Layer_1
  62
3
  66
1
  10
0
  20
0
  30
0
  0
VERTEX
  5
20b
  8
Layer_1
  10
235.01852
  20
272.06247
  0
VERTEX
  5
20c
  8
Layer_1
  10
236.61853
  20
272.06247
  42
-0.41421356
  0
VERTEX
  5
20d
  8
Layer_1
  10
237.61853
  20
271.06247
  0
VERTEX
  5
20e
  8
Layer_1
  10
237.61853
  20
263.06244
  42
-0.41421356
  0
VERTEX
  5
20f
  8
Layer_1
  10
236.61853
  20
262.06244
  0
VERTEX
  5
210
  8
Layer_1
  10
235.01852
  20
262.06244
  0
VERTEX
  5
211
  8
Layer_1
  10
235.01852
  20
254.06244
  0
VERTEX
  5
212
  8
Layer_1
  10
198.77759
  20
256.95905
  42
-0.37928024
  0
VERTEX
  5
213
  8
Layer_1
  10
197.01846
  20
258.94452
  0
VERTEX
  5
214
  8
Layer_1
  10
197.01846
  20
275.18048
  42
-0.3792781
  0
VERTEX
  5
215
  8
Layer_1
  10
198.77759
  20
277.16592
  0
VERTEX
  5
216
  8
Layer_1
  10
235.01854
  20
280.0625
  0
VERTEX
  5
217
  8
Layer_1
  10
235.01852
  20
272.06247
  0
SEQEND
  0
POLYLINE
  5
219
  8
Layer_1
  62
3
  66
1
  10
0
  20
0
  30
0
  0
VERTEX
  5
219
  8
Layer_1
  10
199.51846
  20
268.96249
  0
VERTEX
  5
21a
  8
Layer_1
  10
202.11847
  20
268.96246
  0
VERTEX
  5
21b
  8
Layer_1
  10
202.11847
  20
265.16248
  0
VERTEX
  5
21c
  8
Layer_1
  10
199.51846
  20
265.16248
  0
VERTEX
  5
21d
  8
Layer_1
  10
199.51846
  20
268.96249
  0
SEQEND
  0
POLYLINE
  5
21f
  8
Layer_1
  62
3
  66
1
  10
0
  20
0
  30
0
  0
VERTEX
  5
21f
  8
Layer_1
  10
197.61842
  20
239.06247
  0
VERTEX
  5
220
  8
Layer_1
  10
196.01842
  20
239.06247
  42
-0.41421356
  0
VERTEX
  5
221
  8
Layer_1
  10
195.01842
  20
240.06247
  0
VERTEX
  5
222
  8
Layer_1
  10
195.01843
  20
248.06247
  42
-0.41421356
  0
VERTEX
  5
223
  8
Layer_1
  10
196.01843
  20
249.06247
  0
VERTEX
  5
224
  8
Layer_1
  10
197.61844
  20
249.06247
  0
VERTEX
  5
225
  8
Layer_1
  10
197.61844
  20
257.0625
  0
VERTEX
  5
226
  8
Layer_1
  10
233.85936
  20
254.16586
  42
-0.37928024
  0
VERTEX
  5
227
  8
Layer_1
  10
235.61848
  20
252.18042
  0
VERTEX
  5
228
  8
Layer_1
  10
235.61848
  20
235.94446
  42
-0.3792781
  0
VERTEX
  5
229
  8
Layer_1
  10
233.85936
  20
233.95901
  0
VERTEX
  5
22a
  8
Layer_1
  10
197.61842
  20
231.06244
  0
VERTEX
  5
22b
  8
Layer_1
  10
197.61842
  20
239.06247
  0
SEQEND
  0
POLYLINE
  5
22d
  8
Layer_1
  62
3
  66
1
  10
0
  20
0
  30
0
  0
VERTEX
  5
22d
  8
Layer_1
  10
233.11848
  20
242.16245
  0
VERTEX
  5
22e
  8
Layer_1
  10
230.51848
  20
242.16245
  0
VERTEX
  5
22f
  8
Layer_1
  10
230.51848
  20
245.96243
  0
VERTEX
  5
230
  8
Layer_1
  10
233.11848
  20
245.96243
  0
VERTEX
  5
231
  8
Layer_1
  10
233.11848
  20
242.16245
  0
SEQEND
  0
POLYLINE
  5
233
  8
Layer_1
  62
3
  66
1
  10
0
  20
0
  30
0
  0
VERTEX
  5
233
  8
Layer_1
  10
235.0184
  20
226.06247
  0
VERTEX
  5
234
  8
Layer_1
  10
236.61841
  20
226.06247
  42
-0.41421356
  0
VERTEX
  5
235
  8
Layer_1
  10
237.61841
  20
225.06247
  0
VERTEX
  5
236
  8
Layer_1
  10
237.61841
  20
217.06245
  42
-0.41421356
  0
VERTEX
  5
237
  8
Layer_1
  10
236.61841
  20
216.06245
  0
VERTEX
  5
238
  8
Layer_1
  10
235.0184
  20
216.06245
  0
VERTEX
  5
239
  8
Layer_1
  10
235.0184
  20
208.06244
  0
VERTEX
  5
23a
  8
Layer_1
  10
198.77747
  20
210.95906
  42
-0.37928024
  0
VERTEX
  5
23b
  8
Layer_1
  10
197.01834
  20
212.9445
  0
VERTEX
  5
23c
  8
Layer_1
  10
197.01834
  20
229.18047
  42
-0.3792781
  0
VERTEX
  5
23d
  8
Layer_1
  10
198.77747
  20
231.16592
  0
VERTEX
  5
23e
  8
Layer_1
  10
235.01842
  20
234.06248
  0
VERTEX
  5
23f
  8
Layer_1
  10
235.0184
  20
226.06247
  0
SEQEND
  0
POLYLINE
  5
241
  8
Layer_1
  62
3
  66
1
  10
0
  20
0
  30
0
  0
VERTEX
  5
241
  8
Layer_1
  10
199.51834
  20
222.96249
  0
VERTEX
  5
242
  8
Layer_1
  10
202.11835
  20
222.96248
  0
VERTEX
  5
243
  8
Layer_1
  10
202.11835
  20
219.16248
  0
VERTEX
  5
244
  8
Layer_1
  10
199.51834
  20
219.16248
  0
VERTEX
  5
245
  8
Layer_1
  10
199.51834
  20
222.96249
  0
SEQEND
  0
POLYLINE
  5
247
  8
Layer_1
  62
3
  66
1
  10
0
  20
0
  30
0
  0
VERTEX
  5
247
  8
Layer_1
  10
153.61841
  20
286.5625
  0
VERTEX
  5
248
  8
Layer_1
  10
152.0184
  20
286.5625
  42
-0.41421356
  0
VERTEX
  5
249
  8
Layer_1
  10
151.0184
  20
287.5625
  0
VERTEX
  5
24a
  8
Layer_1
  10
151.0184
  20
295.56253
  42
-0.41421356
  0
VERTEX
  5
24b
  8
Layer_1
  10
152.0184
  20
296.56253
  0
VERTEX
  5
24c
  8
Layer_1
  10
153.61841
  20
296.56253
  0
VERTEX
  5
24d
  8
Layer_1
  10
153.61841
  20
304.56253
  0
VERTEX
  5
24e
  8
Layer_1
  10
189.85936
  20
301.66592
  42
-0.37928024
  0
VERTEX
  5
24f
  8
Layer_1
  10
191.61848
  20
299.68048
  0
VERTEX
  5
250
  8
Layer_1
  10
191.61848
  20
283.44452
  42
-0.3792781
  0
VERTEX
  5
251
  8
Layer_1
  10
189.85936
  20
281.45908
  0
VERTEX
  5
252
  8
Layer_1
  10
153.61841
  20
278.5625
  0
VERTEX
  5
253
  8
Layer_1
  10
153.61841
  20
286.5625
  0
SEQEND
  0
POLYLINE
  5
255
  8
Layer_1
  62
3
  66
1
  10
0
  20
0
  30
0
  0
VERTEX
  5
255
  8
Layer_1
  10
189.11848
  20
289.66251
  0
VERTEX
  5
256
  8
Layer_1
  10
186.51848
  20
289.66251
  0
VERTEX
  5
257
  8
Layer_1
  10
186.51848
  20
293.46252
  0
VERTEX
  5
258
  8
Layer_1
  10
189.11848
  20
293.46252
  0
VERTEX
  5
259
  8
Layer_1
  10
189.11848
  20
289.66251
  0
SEQEND
  0
POLYLINE
  5
25b
  8
Layer_1
  62
3
  66
1
  10
0
  20
0
  30
0
  0
VERTEX
  5
25b
  8
Layer_1
  10
191.01846
  20
273.56247
  0
VERTEX
  5
25c
  8
Layer_1
  10
192.61847
  20
273.56247
  42
-0.41421356
  0
VERTEX
  5
25d
  8
Layer_1
  10
193.61847
  20
272.56247
  0
VERTEX
  5
25e
  8
Layer_1
  10
193.61847
  20
264.56244
  42
-0.41421356
  0
VERTEX
  5
25f
  8
Layer_1
  10
192.61847
  20
263.56244
  0
VERTEX
  5
260
  8
Layer_1
  10
191.01846
  20
263.56244
  0
VERTEX
  5
261
  8
Layer_1
  10
191.01846
  20
255.56244
  0
VERTEX
  5
262
  8
Layer_1
  10
154.77753
  20
258.45905
  42
-0.37928024
  0
VERTEX
  5
263
  8
Layer_1
  10
153.0184
  20
260.44452
  0
VERTEX
  5
264
  8
Layer_1
  10
153.0184
  20
276.68048
  42
-0.3792781
  0
VERTEX
  5
265
  8
Layer_1
  10
154.77753
  20
278.66592
  0
VERTEX
  5
266
  8
Layer_1
  10
191.01848
  20
281.5625
  0
VERTEX
  5
267
  8
Layer_1
  10
191.01846
  20
273.56247
  0
SEQEND
  0
POLYLINE
  5
269
  8
Layer_1
  62
3
  66
1
  10
0
  20
0
  30
0
  0
VERTEX
  5
269
  8
Layer_1
  10
155.5184
  20
270.46249
  0
VERTEX
  5
26a
  8
Layer_1
  10
158.11841
  20
270.46246
  0
VERTEX
  5
26b
  8
Layer_1
  10
158.11841
  20
266.66248
  0
VERTEX
  5
26c
  8
Layer_1
  10
155.5184
  20
266.66248
  0
VERTEX
  5
26d
  8
Layer_1
  10
155.5184
  20
270.46249
  0
SEQEND
  0
POLYLINE
  5
26f
  8
Layer_1
  62
3
  66
1
  10
0
  20
0
  30
0
  0
VERTEX
  5
26f
  8
Layer_1
  10
153.61839
  20
240.56253
  0
VERTEX
  5
270
  8
Layer_1
  10
152.01839
  20
240.56253
  42
-0.41421356
  0
VERTEX
  5
271
  8
Layer_1
  10
151.01839
  20
241.56253
  0
VERTEX
  5
272
  8
Layer_1
  10
151.0184
  20
249.56253
  42
-0.41421356
  0
VERTEX
  5
273
  8
Layer_1
  10
152.0184
  20
250.56253
  0
VERTEX
  5
274
  8
Layer_1
  10
153.61841
  20
250.56253
  0
VERTEX
  5
275
  8
Layer_1
  10
153.61841
  20
258.56256
  0
VERTEX
  5
276
  8
Layer_1
  10
189.85933
  20
255.66592
  42
-0.37928024
  0
VERTEX
  5
277
  8
Layer_1
  10
191.61845
  20
253.68048
  0
VERTEX
  5
278
  8
Layer_1
  10
191.61845
  20
237.44452
  42
-0.3792781
  0
VERTEX
  5
279
  8
Layer_1
  10
189.85933
  20
235.45908
  0
VERTEX
  5
27a
  8
Layer_1
  10
153.61839
  20
232.5625
  0
VERTEX
  5
27b
  8
Layer_1
  10
153.61839
  20
240.56253
  0
SEQEND
  0
POLYLINE
  5
27d
  8
Layer_1
  62
3
  66
1
  10
0
  20
0
  30
0
  0
VERTEX
  5
27d
  8
Layer_1
  10
189.11845
  20
243.66251
  0
VERTEX
  5
27e
  8
Layer_1
  10
186.51845
  20
243.66251
  0
VERTEX
  5
27f
  8
Layer_1
  10
186.51845
  20
247.46249
  0
VERTEX
  5
280
  8
Layer_1
  10
189.11845
  20
247.46249
  0
VERTEX
  5
281
  8
Layer_1
  10
189.11845
  20
243.66251
  0
SEQEND
  0
POLYLINE
  5
283
  8
Layer_1
  62
3
  66
1
  10
0
  20
0
  30
0
  0
VERTEX
  5
283
  8
Layer_1
  10
191.01846
  20
227.56248
  0
VERTEX
  5
284
  8
Layer_1
  10
192.61847
  20
227.56248
  42
-0.41421356
  0
VERTEX
  5
285
  8
Layer_1
  10
193.61847
  20
226.56248
  0
VERTEX
  5
286
  8
Layer_1
  10
193.61847
  20
218.56247
  42
-0.41421356
  0
VERTEX
  5
287
  8
Layer_1
  10
192.61847
  20
217.56247
  0
VERTEX
  5
288
  8
Layer_1
  10
191.01846
  20
217.56247
  0
VERTEX
  5
289
  8
Layer_1
  10
191.01846
  20
209.56245
  0
VERTEX
  5
28a
  8
Layer_1
  10
154.77753
  20
212.45908
  42
-0.37928024
  0
VERTEX
  5
28b
  8
Layer_1
  10
153.0184
  20
214.44452
  0
VERTEX
  5
28c
  8
Layer_1
  10
153.0184
  20
230.68048
  42
-0.3792781
  0
VERTEX
  5
28d
  8
Layer_1
  10
154.77753
  20
232.66592
  0
VERTEX
  5
28e
  8
Layer_1
  10
191.01848
  20
235.5625
  0
VERTEX
  5
28f
  8
Layer_1
  10
191.01846
  20
227.56248
  0
SEQEND
  0
POLYLINE
  5
291
  8
Layer_1
  62
3
  66
1
  10
0
  20
0
  30
0
  0
VERTEX
  5
291
  8
Layer_1
  10
155.5184
  20
224.46249
  0
VERTEX
  5
292
  8
Layer_1
  10
158.11841
  20
224.46249
  0
VERTEX
  5
293
  8
Layer_1
  10
158.11841
  20
220.66249
  0
VERTEX
  5
294
  8
Layer_1
  10
155.5184
  20
220.66251
  0
VERTEX
  5
295
  8
Layer_1
  10
155.5184
  20
224.46249
  0
SEQEND
  0
ENDSEC
  0
EOF
