  0
SECTION
  2
HEADER
  9
$ACADVER
  1
AC1009
  9
$LIMMIN
 10
0.000000
 20
0.000000
  9
$LIMMAX
 10
962.819643
 20
413.910619
  0
ENDSEC
  0
SECTION
  2
TABLES
  0
TABLE
  2
LTYPE
 70
     4
  0
LTYPE
  2
CONTINUOUS
 70
     0
  3
Solid line
 72
    65
 73
     0
 40
0.000000
  0
LTYPE
  2
HIDDEN
 70
     0
  3
 _ _ _ _ _ _ _ _ _ _ _
 72
    65
 73
     2
 40
0.375000
 49
0.250000
 49
-0.125000
  0
LTYPE
  2
DASHED
 70
     0
  3
 ___ ___ ___ ___ ___ ___ ___ 
 72
    65
 73
     2
 40
0.750000
 49
0.500000
 49
-0.250000
  0
LTYPE
  2
CENTER
 70
     0
  3
___ _ ___ _ ___ _ ___
 72
    65
 73
     4
 40
2.000000
 49
1.250000
 49
-0.250000
 49
0.250000
 49
-0.250000
  0
LTYPE
  2
BORDER
 70
     0
  3
___ ___ . ___ ___ . ___ ___
 72
    65
 73
     6
 40
1.750000
 49
0.500000
 49
-0.250000
 49
0.500000
 49
-0.250000
 49
0.000000
 49
-0.250000
  0
LTYPE
  2
DOT
 70
     0
  3
.................
 72
    65
 73
     2
 40
0.250000
 49
0.000000
 49
-0.250000
  0
LTYPE
  2
DASHDOT
 70
     0
  3
__ . __ . __ . __
 72
    65
 73
     4
 40
1.000000
 49
0.500000
 49
-0.250000
 49
0.000000
 49
-0.250000
  0
LTYPE
  2
DIVIDE
 70
     0
  3
___ .. ___ .. ___ .. ___
 72
    65
 73
     6
 40
1.250000
 49
0.500000
 49
-0.250000
 49
0.000000
 49
-0.250000
 49
0.000000
 49
-0.250000
  0
ENDTAB
  0
TABLE
  2
LAYER
 70
     8
  0
LAYER
  2
BLACK
 70
     0
 62
     1
  6
CONTINUOUS
  0
LAYER
  2
WHITE
 70
     0
 62
     7
  6
CONTINUOUS
  0
LAYER
  2
RED
 70
     0
 62
     1
  6
CONTINUOUS
  0
LAYER
  2
YELLOW
 70
     0
 62
     2
  6
CONTINUOUS
  0
LAYER
  2
GREEN
 70
     0
 62
     3
  6
CONTINUOUS
  0
LAYER
  2
CYAN
 70
     0
 62
     4
  6
CONTINUOUS
  0
LAYER
  2
BLUE
 70
     0
 62
     5
  6
CONTINUOUS
  0
LAYER
  2
MAGENTA
 70
     0
 62
     6
  6
CONTINUOUS
  0
ENDTAB
  0
ENDSEC
  0
SECTION
  2
BLOCKS
  0
ENDSEC
  0
SECTION
  2
ENTITIES
  0
LINE
  8
WHITE
 10
0.000000
 20
413.910619
 30
0.000000
 11
962.819643
 21
413.910619
 31
0.000000
  6
CONTINUOUS
  0
LINE
  8
WHITE
 10
962.819643
 20
413.910619
 30
0.000000
 11
962.819643
 21
0.000000
 31
0.000000
  6
CONTINUOUS
  0
LINE
  8
WHITE
 10
962.819643
 20
0.000000
 30
0.000000
 11
0.000000
 21
0.000000
 31
0.000000
  6
CONTINUOUS
  0
LINE
  8
WHITE
 10
0.000000
 20
0.000000
 30
0.000000
 11
0.000000
 21
413.910619
 31
0.000000
  6
CONTINUOUS
  0
LINE
  8
GREEN
 10
744.893164
 20
7.574754
 30
0.000000
 11
736.843180
 21
13.174678
 31
0.000000
  6
CONTINUOUS
  0
ARC
  8
GREEN
 10
733.379733
 20
10.294251
 30
0.000000
 40
4.504700
 50
39.749100
 51
123.521600
  6
CONTINUOUS
  0
ARC
  8
GREEN
 10
726.831722
 20
19.204456
 30
0.000000
 40
6.561800
 50
-113.235898
 51
-51.773194
  6
CONTINUOUS
  0
LINE
  8
GREEN
 10
724.242976
 20
13.174894
 30
0.000000
 11
714.618833
 21
18.249451
 31
0.000000
  6
CONTINUOUS
  0
LINE
  8
GREEN
 10
714.618833
 20
18.249451
 30
0.000000
 11
727.043833
 21
40.824351
 31
0.000000
  6
CONTINUOUS
  0
LINE
  8
GREEN
 10
727.043833
 20
40.824351
 30
0.000000
 11
722.667333
 21
43.450251
 31
0.000000
  6
CONTINUOUS
  0
LINE
  8
GREEN
 10
722.667333
 20
43.450251
 30
0.000000
 11
709.569857
 21
20.922824
 31
0.000000
  6
CONTINUOUS
  0
LINE
  8
GREEN
 10
709.569857
 20
20.922824
 30
0.000000
 11
698.693833
 21
26.124451
 31
0.000000
  6
CONTINUOUS
  0
LINE
  8
GREEN
 10
698.693833
 20
26.124451
 30
0.000000
 11
701.493392
 21
31.373584
 31
0.000000
  6
CONTINUOUS
  0
ARC
  8
GREEN
 10
695.984533
 20
36.060051
 30
0.000000
 40
7.232600
 50
-40.388300
 51
76.745200
  6
CONTINUOUS
  0
ARC
  8
GREEN
 10
698.653014
 20
47.760861
 30
0.000000
 40
4.769100
 50
63.350855
 51
257.771147
  6
CONTINUOUS
  0
ARC
  8
GREEN
 10
703.135418
 20
54.940757
 30
0.000000
 40
3.742000
 50
-128.772254
 51
93.722598
  6
CONTINUOUS
  0
ARC
  8
GREEN
 10
702.629154
 20
63.609842
 30
0.000000
 40
4.942000
 50
65.961768
 51
273.054178
  6
CONTINUOUS
  0
ARC
  8
GREEN
 10
706.844655
 20
71.283153
 30
0.000000
 40
3.851700
 50
-124.875743
 51
94.126834
  6
CONTINUOUS
  0
ARC
  8
GREEN
 10
705.326922
 20
79.499054
 30
0.000000
 40
4.546700
 50
74.166955
 51
285.833672
  6
CONTINUOUS
  0
ARC
  8
GREEN
 10
708.434374
 20
87.511956
 30
0.000000
 40
4.089700
 50
-117.161554
 51
96.555774
  6
CONTINUOUS
  0
ARC
  8
GREEN
 10
706.578183
 20
96.286251
 30
0.000000
 40
4.911900
 50
90.125645
 51
286.429619
  6
CONTINUOUS
  0
ARC
  8
GREEN
 10
708.419977
 20
104.457433
 30
0.000000
 40
3.749000
 50
-119.613681
 51
107.905109
  6
CONTINUOUS
  0
ARC
  8
GREEN
 10
705.859858
 20
112.581732
 30
0.000000
 40
4.769300
 50
81.467517
 51
287.164806
  6
CONTINUOUS
  0
ARC
  8
GREEN
 10
707.054198
 20
121.236584
 30
0.000000
 40
3.968300
 50
-97.045158
 51
97.045551
  6
CONTINUOUS
  0
ARC
  8
GREEN
 10
703.394161
 20
129.097968
 30
0.000000
 40
5.045800
 50
97.705662
 51
308.968841
  6
CONTINUOUS
  0
ARC
  8
GREEN
 10
703.591655
 20
137.637062
 30
0.000000
 40
3.645200
 50
-103.873717
 51
115.587582
  6
CONTINUOUS
  0
ARC
  8
GREEN
 10
698.872811
 20
144.946080
 30
0.000000
 40
5.104800
 50
95.961137
 51
308.024058
  6
CONTINUOUS
  0
ARC
  8
GREEN
 10
698.060226
 20
153.755706
 30
0.000000
 40
3.743100
 50
-85.672688
 51
128.753581
  6
CONTINUOUS
  0
ARC
  8
GREEN
 10
692.875796
 20
160.857194
 30
0.000000
 40
5.056300
 50
103.528933
 51
304.190290
  6
CONTINUOUS
  0
ARC
  8
GREEN
 10
690.979734
 20
169.359052
 30
0.000000
 40
3.656100
 50
-78.750970
 51
139.681328
  6
CONTINUOUS
  0
ARC
  8
GREEN
 10
685.305609
 20
175.910771
 30
0.000000
 40
5.084800
 50
104.960988
 51
304.588122
  6
CONTINUOUS
  0
ARC
  8
GREEN
 10
682.383971
 20
184.461638
 30
0.000000
 40
3.978300
 50
-66.144660
 51
102.213591
  6
CONTINUOUS
  0
LINE
  8
GREEN
 10
681.542335
 20
188.349892
 30
0.000000
 11
654.067523
 21
181.349918
 31
0.000000
  6
CONTINUOUS
  0
ARC
  8
GREEN
 10
652.704233
 20
192.959951
 30
0.000000
 40
11.689800
 50
-158.624600
 51
-83.302800
  6
CONTINUOUS
  0
LINE
  8
GREEN
 10
641.818546
 20
188.699288
 30
0.000000
 11
641.118733
 21
192.373351
 31
0.000000
  6
CONTINUOUS
  0
LINE
  8
GREEN
 10
641.118733
 20
192.373351
 30
0.000000
 11
658.793733
 21
196.223351
 31
0.000000
  6
CONTINUOUS
  0
LINE
  8
GREEN
 10
658.793733
 20
196.223351
 30
0.000000
 11
657.743333
 21
201.475051
 31
0.000000
  6
CONTINUOUS
  0
LINE
  8
GREEN
 10
657.743333
 20
201.475051
 30
0.000000
 11
640.068333
 21
197.975051
 31
0.000000
  6
CONTINUOUS
  0
LINE
  8
GREEN
 10
640.068333
 20
197.975051
 30
0.000000
 11
639.018488
 21
203.049165
 31
0.000000
  6
CONTINUOUS
  0
ARC
  8
GREEN
 10
649.726733
 20
202.303151
 30
0.000000
 40
10.734200
 50
108.234900
 51
176.014800
  6
CONTINUOUS
  0
LINE
  8
GREEN
 10
646.367857
 20
212.498297
 30
0.000000
 11
666.142522
 21
215.648205
 31
0.000000
  6
CONTINUOUS
  0
ARC
  8
GREEN
 10
667.295333
 20
219.499051
 30
0.000000
 40
4.019700
 50
-106.665900
 51
106.668700
  6
CONTINUOUS
  0
ARC
  8
GREEN
 10
663.520002
 20
227.338056
 30
0.000000
 40
4.773100
 50
94.233235
 51
303.325715
  6
CONTINUOUS
  0
ARC
  8
GREEN
 10
663.707974
 20
236.090035
 30
0.000000
 40
4.028300
 50
-97.708176
 51
105.339732
  6
CONTINUOUS
  0
ARC
  8
GREEN
 10
660.938475
 20
244.640442
 30
0.000000
 40
4.967000
 50
86.490337
 51
290.061777
  6
CONTINUOUS
  0
ARC
  8
GREEN
 10
661.736020
 20
253.449037
 30
0.000000
 40
3.882400
 50
-97.302457
 51
97.303813
  6
CONTINUOUS
  0
ARC
  8
GREEN
 10
660.240917
 20
261.975777
 30
0.000000
 40
4.781900
 50
86.384409
 51
282.089651
  6
CONTINUOUS
  0
ARC
  8
GREEN
 10
661.949392
 20
270.198651
 30
0.000000
 40
3.726300
 50
-112.182895
 51
90.105007
  6
CONTINUOUS
  0
ARC
  8
GREEN
 10
661.572029
 20
278.788952
 30
0.000000
 40
4.878100
 50
77.325353
 51
274.356303
  6
CONTINUOUS
  0
ARC
  8
GREEN
 10
664.094227
 20
287.267981
 30
0.000000
 40
3.993100
 50
-111.321157
 51
85.714261
  6
CONTINUOUS
  0
ARC
  8
GREEN
 10
664.427653
 20
295.344066
 30
0.000000
 40
4.094300
 50
127.360945
 51
269.509937
  6
CONTINUOUS
  0
ARC
  8
GREEN
 10
659.672468
 20
302.458660
 30
0.000000
 40
4.478600
 50
-59.536190
 51
128.783514
  6
CONTINUOUS
  0
ARC
  8
GREEN
 10
653.532597
 20
319.658582
 30
0.000000
 40
14.108500
 50
115.683689
 51
283.671312
  6
CONTINUOUS
  0
ARC
  8
GREEN
 10
646.696131
 20
338.643460
 30
0.000000
 40
6.311700
 50
-83.433285
 51
13.101821
  6
CONTINUOUS
  0
ARC
  8
GREEN
 10
659.916231
 20
341.925593
 30
0.000000
 40
7.311000
 50
113.141934
 51
194.668879
  6
CONTINUOUS
  0
LINE
  8
GREEN
 10
657.042933
 20
348.648307
 30
0.000000
 11
662.642333
 21
351.272851
 31
0.000000
  6
CONTINUOUS
  0
LINE
  8
GREEN
 10
662.642333
 20
351.272851
 30
0.000000
 11
671.917333
 21
332.722851
 31
0.000000
  6
CONTINUOUS
  0
LINE
  8
GREEN
 10
671.917333
 20
332.722851
 30
0.000000
 11
676.818833
 21
334.998651
 31
0.000000
  6
CONTINUOUS
  0
LINE
  8
GREEN
 10
676.818833
 20
334.998651
 30
0.000000
 11
667.893833
 21
353.373651
 31
0.000000
  6
CONTINUOUS
  0
LINE
  8
GREEN
 10
667.893833
 20
353.373651
 30
0.000000
 11
671.393033
 21
355.123251
 31
0.000000
  6
CONTINUOUS
  0
LINE
  8
GREEN
 10
671.393033
 20
355.123251
 30
0.000000
 11
698.693016
 21
368.073340
 31
0.000000
  6
CONTINUOUS
  0
ARC
  8
GREEN
 10
705.791333
 20
352.731151
 30
0.000000
 40
16.904700
 50
3.367500
 51
114.828400
  6
CONTINUOUS
  0
ARC
  8
GREEN
 10
747.355059
 20
350.333206
 30
0.000000
 40
24.920000
 50
172.179351
 51
210.198379
  6
CONTINUOUS
  0
ARC
  8
GREEN
 10
804.676008
 20
395.574129
 30
0.000000
 40
97.758700
 50
-143.771866
 51
-124.901125
  6
CONTINUOUS
  0
ARC
  8
GREEN
 10
816.420234
 20
404.952909
 30
0.000000
 40
112.251300
 50
-127.078984
 51
-106.272094
  6
CONTINUOUS
  0
ARC
  8
GREEN
 10
783.100545
 20
291.145792
 30
0.000000
 40
6.333800
 50
-16.713686
 51
72.856731
  6
CONTINUOUS
  0
LINE
  8
GREEN
 10
789.166766
 20
289.324259
 30
0.000000
 11
788.467133
 21
287.050151
 31
0.000000
  6
CONTINUOUS
  0
LINE
  8
GREEN
 10
788.467133
 20
287.050151
 30
0.000000
 11
720.041933
 21
304.900151
 31
0.000000
  6
CONTINUOUS
  0
LINE
  8
GREEN
 10
720.041933
 20
304.900151
 30
0.000000
 11
718.641633
 21
299.473451
 31
0.000000
  6
CONTINUOUS
  0
LINE
  8
GREEN
 10
718.641633
 20
299.473451
 30
0.000000
 11
787.241633
 21
281.798451
 31
0.000000
  6
CONTINUOUS
  0
LINE
  8
GREEN
 10
787.241633
 20
281.798451
 30
0.000000
 11
786.191693
 21
277.599318
 31
0.000000
  6
CONTINUOUS
  0
ARC
  8
GREEN
 10
780.005833
 20
280.412251
 30
0.000000
 40
6.795400
 50
-101.356500
 51
-24.453000
  6
CONTINUOUS
  0
LINE
  8
GREEN
 10
778.667730
 20
273.749899
 30
0.000000
 11
707.442793
 21
288.624897
 31
0.000000
  6
CONTINUOUS
  0
ARC
  8
GREEN
 10
704.636333
 20
281.336451
 30
0.000000
 40
7.810100
 50
68.940500
 51
170.137600
  6
CONTINUOUS
  0
LINE
  8
GREEN
 10
696.941651
 20
282.674185
 30
0.000000
 11
696.066933
 21
278.999951
 31
0.000000
  6
CONTINUOUS
  0
LINE
  8
GREEN
 10
696.066933
 20
278.999951
 30
0.000000
 11
683.816933
 21
280.400051
 31
0.000000
  6
CONTINUOUS
  0
LINE
  8
GREEN
 10
683.816933
 20
280.400051
 30
0.000000
 11
683.116633
 21
274.623251
 31
0.000000
  6
CONTINUOUS
  0
LINE
  8
GREEN
 10
683.116633
 20
274.623251
 30
0.000000
 11
696.066733
 21
273.398214
 31
0.000000
  6
CONTINUOUS
  0
ARC
  8
GREEN
 10
952.005133
 20
263.336551
 30
0.000000
 40
256.136100
 50
177.748700
 51
180.763200
  6
CONTINUOUS
  0
LINE
  8
GREEN
 10
695.891756
 20
259.924829
 30
0.000000
 11
683.291733
 21
259.749951
 31
0.000000
  6
CONTINUOUS
  0
LINE
  8
GREEN
 10
683.291733
 20
259.749951
 30
0.000000
 11
683.291733
 21
254.498151
 31
0.000000
  6
CONTINUOUS
  0
LINE
  8
GREEN
 10
683.291733
 20
254.498151
 30
0.000000
 11
696.766792
 21
254.673203
 31
0.000000
  6
CONTINUOUS
  0
ARC
  8
GREEN
 10
802.535733
 20
270.135651
 30
0.000000
 40
106.893200
 50
-171.682800
 51
-164.780800
  6
CONTINUOUS
  0
LINE
  8
GREEN
 10
699.391429
 20
242.074845
 30
0.000000
 11
686.266633
 21
240.499851
 31
0.000000
  6
CONTINUOUS
  0
LINE
  8
GREEN
 10
686.266633
 20
240.499851
 30
0.000000
 11
686.966933
 21
234.898051
 31
0.000000
  6
CONTINUOUS
  0
LINE
  8
GREEN
 10
686.966933
 20
234.898051
 30
0.000000
 11
700.616921
 21
236.998056
 31
0.000000
  6
CONTINUOUS
  0
ARC
  8
GREEN
 10
769.130133
 20
253.156651
 30
0.000000
 40
70.392900
 50
-166.729500
 51
-154.317700
  6
CONTINUOUS
  0
LINE
  8
GREEN
 10
705.691281
 20
222.649727
 30
0.000000
 11
693.616633
 21
220.549751
 31
0.000000
  6
CONTINUOUS
  0
LINE
  8
GREEN
 10
693.616633
 20
220.549751
 30
0.000000
 11
694.491933
 21
215.122951
 31
0.000000
  6
CONTINUOUS
  0
LINE
  8
GREEN
 10
694.491933
 20
215.122951
 30
0.000000
 11
708.492056
 21
218.098130
 31
0.000000
  6
CONTINUOUS
  0
ARC
  8
GREEN
 10
805.015333
 20
263.652151
 30
0.000000
 40
106.732900
 50
-154.735100
 51
-144.830700
  6
CONTINUOUS
  0
LINE
  8
GREEN
 10
717.766135
 20
202.174599
 30
0.000000
 11
705.516633
 21
199.374751
 31
0.000000
  6
CONTINUOUS
  0
LINE
  8
GREEN
 10
705.516633
 20
199.374751
 30
0.000000
 11
706.566933
 21
193.772951
 31
0.000000
  6
CONTINUOUS
  0
LINE
  8
GREEN
 10
706.566933
 20
193.772951
 30
0.000000
 11
721.267217
 21
197.622964
 31
0.000000
  6
CONTINUOUS
  0
ARC
  8
GREEN
 10
593.684633
 20
126.111551
 30
0.000000
 40
146.257300
 50
22.338100
 51
29.271100
  6
CONTINUOUS
  0
LINE
  8
GREEN
 10
728.966374
 20
181.699755
 30
0.000000
 11
716.716633
 21
178.374651
 31
0.000000
  6
CONTINUOUS
  0
LINE
  8
GREEN
 10
716.716633
 20
178.374651
 30
0.000000
 11
717.766933
 21
173.122951
 31
0.000000
  6
CONTINUOUS
  0
LINE
  8
GREEN
 10
717.766933
 20
173.122951
 30
0.000000
 11
731.417209
 21
176.798019
 31
0.000000
  6
CONTINUOUS
  0
ARC
  8
GREEN
 10
654.391733
 20
139.637551
 30
0.000000
 40
85.520900
 50
14.015700
 51
25.754700
  6
CONTINUOUS
  0
LINE
  8
GREEN
 10
737.366624
 20
160.349667
 30
0.000000
 11
725.291633
 21
156.849651
 31
0.000000
  6
CONTINUOUS
  0
LINE
  8
GREEN
 10
725.291633
 20
156.849651
 30
0.000000
 11
726.516933
 21
151.597951
 31
0.000000
  6
CONTINUOUS
  0
LINE
  8
GREEN
 10
726.516933
 20
151.597951
 30
0.000000
 11
739.467036
 21
155.447957
 31
0.000000
  6
CONTINUOUS
  0
ARC
  8
GREEN
 10
575.311833
 20
106.482151
 30
0.000000
 40
171.302600
 50
10.644700
 51
16.609300
  6
CONTINUOUS
  0
LINE
  8
GREEN
 10
743.666579
 20
138.124849
 30
0.000000
 11
731.416633
 21
134.624651
 31
0.000000
  6
CONTINUOUS
  0
LINE
  8
GREEN
 10
731.416633
 20
134.624651
 30
0.000000
 11
732.641933
 21
129.372951
 31
0.000000
  6
CONTINUOUS
  0
LINE
  8
GREEN
 10
732.641933
 20
129.372951
 30
0.000000
 11
744.892178
 21
132.872986
 31
0.000000
  6
CONTINUOUS
  0
ARC
  8
GREEN
 10
677.812733
 20
115.255751
 30
0.000000
 40
69.354300
 50
0.098300
 51
14.715400
  6
CONTINUOUS
  0
LINE
  8
GREEN
 10
747.166931
 20
115.374739
 30
0.000000
 11
734.391633
 21
111.524651
 31
0.000000
  6
CONTINUOUS
  0
LINE
  8
GREEN
 10
734.391633
 20
111.524651
 30
0.000000
 11
735.616933
 21
106.272951
 31
0.000000
  6
CONTINUOUS
  0
LINE
  8
GREEN
 10
735.616933
 20
106.272951
 30
0.000000
 11
747.866917
 21
109.947794
 31
0.000000
  6
CONTINUOUS
  0
ARC
  8
GREEN
 10
627.769333
 20
98.601151
 30
0.000000
 40
120.632400
 50
-3.172700
 51
5.397200
  6
CONTINUOUS
  0
LINE
  8
GREEN
 10
748.216833
 20
91.924658
 30
0.000000
 11
735.091633
 21
87.549651
 31
0.000000
  6
CONTINUOUS
  0
LINE
  8
GREEN
 10
735.091633
 20
87.549651
 30
0.000000
 11
736.316933
 21
82.122951
 31
0.000000
  6
CONTINUOUS
  0
LINE
  8
GREEN
 10
736.316933
 20
82.122951
 30
0.000000
 11
748.217114
 21
85.797975
 31
0.000000
  6
CONTINUOUS
  0
ARC
  8
GREEN
 10
753.605033
 20
88.132651
 30
0.000000
 40
5.872000
 50
-156.572100
 51
-96.478000
  6
CONTINUOUS
  0
LINE
  8
GREEN
 10
752.942544
 20
82.298142
 30
0.000000
 11
761.692963
 21
82.298197
 31
0.000000
  6
CONTINUOUS
  0
ARC
  8
GREEN
 10
763.035233
 20
78.779951
 30
0.000000
 40
3.765600
 50
-7.719400
 51
110.882700
  6
CONTINUOUS
  0
LINE
  8
GREEN
 10
766.766708
 20
78.274149
 30
0.000000
 11
766.241695
 21
72.849206
 31
0.000000
  6
CONTINUOUS
  0
ARC
  8
GREEN
 10
762.420833
 20
73.407951
 30
0.000000
 40
3.861500
 50
-106.209900
 51
-8.319700
  6
CONTINUOUS
  0
LINE
  8
GREEN
 10
761.342868
 20
69.699963
 30
0.000000
 11
750.492939
 21
71.449883
 31
0.000000
  6
CONTINUOUS
  0
ARC
  8
GREEN
 10
749.442633
 20
69.429251
 30
0.000000
 40
2.277300
 50
62.535000
 51
182.017600
  6
CONTINUOUS
  0
LINE
  8
GREEN
 10
747.166745
 20
69.349075
 30
0.000000
 11
746.466690
 21
65.148928
 31
0.000000
  6
CONTINUOUS
  0
ARC
  8
GREEN
 10
750.109533
 20
65.434251
 30
0.000000
 40
3.654000
 50
-175.521500
 51
-81.214500
  6
CONTINUOUS
  0
LINE
  8
GREEN
 10
750.667629
 20
61.823123
 30
0.000000
 11
760.292921
 21
61.823225
 31
0.000000
  6
CONTINUOUS
  0
ARC
  8
GREEN
 10
761.278633
 20
58.259951
 30
0.000000
 40
3.697100
 50
-15.463500
 51
105.463100
  6
CONTINUOUS
  0
LINE
  8
GREEN
 10
764.841900
 20
57.274214
 30
0.000000
 11
763.441711
 21
51.499389
 31
0.000000
  6
CONTINUOUS
  0
ARC
  8
GREEN
 10
759.413933
 20
53.188451
 30
0.000000
 40
4.367600
 50
-108.641400
 51
-22.750900
  6
CONTINUOUS
  0
LINE
  8
GREEN
 10
758.017856
 20
49.049985
 30
0.000000
 11
748.567891
 21
51.849896
 31
0.000000
  6
CONTINUOUS
  0
ARC
  8
GREEN
 10
747.255133
 20
49.223951
 30
0.000000
 40
2.935800
 50
63.438700
 51
169.692000
  6
CONTINUOUS
  0
LINE
  8
GREEN
 10
744.366717
 20
49.749282
 30
0.000000
 11
743.316719
 21
46.249310
 31
0.000000
  6
CONTINUOUS
  0
ARC
  8
GREEN
 10
745.720233
 20
45.454251
 30
0.000000
 40
2.531600
 50
161.696300
 51
271.070200
  6
CONTINUOUS
  0
LINE
  8
GREEN
 10
745.767517
 20
42.923093
 30
0.000000
 11
756.967576
 21
40.648129
 31
0.000000
  6
CONTINUOUS
  0
ARC
  8
GREEN
 10
756.927533
 20
37.043751
 30
0.000000
 40
3.604600
 50
-21.044800
 51
89.363500
  6
CONTINUOUS
  0
LINE
  8
GREEN
 10
760.291706
 20
35.749347
 30
0.000000
 11
758.541821
 21
30.499413
 31
0.000000
  6
CONTINUOUS
  0
ARC
  8
GREEN
 10
754.941133
 20
31.868251
 30
0.000000
 40
3.852100
 50
-121.244400
 51
-20.814800
  6
CONTINUOUS
  0
LINE
  8
GREEN
 10
752.943088
 20
28.574850
 30
0.000000
 11
743.843003
 21
32.249884
 31
0.000000
  6
CONTINUOUS
  0
ARC
  8
GREEN
 10
742.196733
 20
29.644051
 30
0.000000
 40
3.082300
 50
57.716800
 51
160.471600
  6
CONTINUOUS
  0
LINE
  8
GREEN
 10
739.291739
 20
30.674384
 30
0.000000
 11
737.716876
 21
26.824355
 31
0.000000
  6
CONTINUOUS
  0
ARC
  8
GREEN
 10
740.336033
 20
25.774051
 30
0.000000
 40
2.821900
 50
158.148800
 51
263.008100
  6
CONTINUOUS
  0
LINE
  8
GREEN
 10
739.992526
 20
22.973137
 30
0.000000
 11
750.492733
 21
19.823226
 31
0.000000
  6
CONTINUOUS
  0
ARC
  8
GREEN
 10
750.600933
 20
16.431151
 30
0.000000
 40
3.393800
 50
-26.357700
 51
91.827000
  6
CONTINUOUS
  0
LINE
  8
GREEN
 10
753.641913
 20
14.924393
 30
0.000000
 11
751.191916
 21
8.799421
 31
0.000000
  6
CONTINUOUS
  0
ARC
  8
GREEN
 10
747.512433
 20
10.913551
 30
0.000000
 40
4.243600
 50
-128.114000
 51
-29.880500
  6
CONTINUOUS
  0
ARC
  8
GREEN
 10
523.558678
 20
230.166406
 30
0.000000
 40
7.516600
 50
163.719129
 51
373.524590
  6
CONTINUOUS
  0
ARC
  8
GREEN
 10
545.548031
 20
229.339438
 30
0.000000
 40
14.907000
 50
76.342619
 51
170.014649
  6
CONTINUOUS
  0
ARC
  8
GREEN
 10
534.679905
 20
353.810247
 30
0.000000
 40
110.922400
 50
-82.547086
 51
-54.262191
  6
CONTINUOUS
  0
ARC
  8
GREEN
 10
549.899656
 20
335.579498
 30
0.000000
 40
87.251700
 50
-55.382338
 51
-22.315532
  6
CONTINUOUS
  0
ARC
  8
GREEN
 10
573.462470
 20
321.351864
 30
0.000000
 40
60.199000
 50
-18.300413
 51
26.964804
  6
CONTINUOUS
  0
ARC
  8
GREEN
 10
570.060152
 20
322.313811
 30
0.000000
 40
62.841100
 50
24.775941
 51
70.977540
  6
CONTINUOUS
  0
ARC
  8
GREEN
 10
570.216772
 20
306.227294
 30
0.000000
 40
78.184200
 50
74.931578
 51
113.598251
  6
CONTINUOUS
  0
ARC
  8
GREEN
 10
576.504914
 20
277.351956
 30
0.000000
 40
107.318800
 50
110.501760
 51
134.231803
  6
CONTINUOUS
  0
ARC
  8
GREEN
 10
568.230986
 20
282.525829
 30
0.000000
 40
97.867500
 50
132.873823
 51
147.090636
  6
CONTINUOUS
  0
ARC
  8
GREEN
 10
477.137013
 20
346.010834
 30
0.000000
 40
13.642300
 50
-120.846268
 51
-49.105589
  6
CONTINUOUS
  0
ARC
  8
GREEN
 10
465.941154
 20
328.198436
 30
0.000000
 40
7.406500
 50
55.444902
 51
264.588120
  6
CONTINUOUS
  0
ARC
  8
GREEN
 10
467.059933
 20
311.541151
 30
0.000000
 40
9.460000
 50
17.274213
 51
101.075700
  6
CONTINUOUS
  0
LINE
  8
GREEN
 10
476.093235
 20
314.350252
 30
0.000000
 11
534.893133
 21
337.625151
 31
0.000000
  6
CONTINUOUS
  0
LINE
  8
GREEN
 10
534.893133
 20
337.625151
 30
0.000000
 11
536.818833
 21
332.898551
 31
0.000000
  6
CONTINUOUS
  0
LINE
  8
GREEN
 10
536.818833
 20
332.898551
 30
0.000000
 11
478.893853
 21
309.448600
 31
0.000000
  6
CONTINUOUS
  0
ARC
  8
GREEN
 10
489.391041
 20
313.238529
 30
0.000000
 40
11.160400
 50
-160.148271
 51
-93.588797
  6
CONTINUOUS
  0
ARC
  8
GREEN
 10
490.610621
 20
297.385928
 30
0.000000
 40
5.089400
 50
-46.432805
 51
112.141489
  6
CONTINUOUS
  0
ARC
  8
GREEN
 10
499.061433
 20
288.930251
 30
0.000000
 40
6.868000
 50
136.033000
 51
243.444088
  6
CONTINUOUS
  0
LINE
  8
GREEN
 10
495.990950
 20
282.786835
 30
0.000000
 11
556.943033
 21
316.975251
 31
0.000000
  6
CONTINUOUS
  0
LINE
  8
GREEN
 10
556.943033
 20
316.975251
 30
0.000000
 11
559.568833
 21
312.248751
 31
0.000000
  6
CONTINUOUS
  0
LINE
  8
GREEN
 10
559.568833
 20
312.248751
 30
0.000000
 11
497.968659
 21
277.248666
 31
0.000000
  6
CONTINUOUS
  0
ARC
  8
GREEN
 10
506.444729
 20
278.876671
 30
0.000000
 40
8.631000
 50
-169.127566
 51
-88.189501
  6
CONTINUOUS
  0
ARC
  8
GREEN
 10
508.918959
 20
265.649963
 30
0.000000
 40
5.099700
 50
-48.196744
 51
115.575522
  6
CONTINUOUS
  0
ARC
  8
GREEN
 10
519.044033
 20
256.983851
 30
0.000000
 40
8.300600
 50
144.122500
 51
231.639679
  6
CONTINUOUS
  0
LINE
  8
GREEN
 10
513.892640
 20
250.475156
 30
0.000000
 11
563.767833
 21
286.875251
 31
0.000000
  6
CONTINUOUS
  0
LINE
  8
GREEN
 10
563.767833
 20
286.875251
 30
0.000000
 11
567.093833
 21
282.148851
 31
0.000000
  6
CONTINUOUS
  0
LINE
  8
GREEN
 10
567.093833
 20
282.148851
 30
0.000000
 11
516.868750
 21
245.398791
 31
0.000000
  6
CONTINUOUS
  0
ARC
  8
GREEN
 10
506.879586
 20
239.225465
 30
0.000000
 40
11.742800
 50
-36.299495
 51
31.716155
  6
CONTINUOUS
  0
ARC
  8
GREEN
 10
385.969173
 20
-69.233361
 30
0.000000
 40
84.446600
 50
70.510982
 51
101.476258
  6
CONTINUOUS
  0
ARC
  8
GREEN
 10
364.517298
 20
27.086496
 30
0.000000
 40
14.336700
 50
147.931141
 51
288.926675
  6
CONTINUOUS
  0
ARC
  8
GREEN
 10
346.425613
 20
45.811601
 30
0.000000
 40
12.602300
 50
-61.865049
 51
21.593358
  6
CONTINUOUS
  0
ARC
  8
GREEN
 10
348.823185
 20
45.821151
 30
0.000000
 40
10.406200
 50
26.408264
 51
152.511122
  6
CONTINUOUS
  0
ARC
  8
GREEN
 10
333.375747
 20
54.020899
 30
0.000000
 40
7.083500
 50
161.881963
 51
331.347681
  6
CONTINUOUS
  0
ARC
  8
GREEN
 10
307.742727
 20
66.024084
 30
0.000000
 40
21.290500
 50
-27.407596
 51
9.461809
  6
CONTINUOUS
  0
ARC
  8
GREEN
 10
338.031319
 20
67.235657
 30
0.000000
 40
9.565500
 50
66.357510
 51
166.158770
  6
CONTINUOUS
  0
ARC
  8
GREEN
 10
341.787918
 20
90.205460
 30
0.000000
 40
14.207400
 50
-89.679636
 51
7.659855
  6
CONTINUOUS
  0
ARC
  8
GREEN
 10
368.434531
 20
98.045748
 30
0.000000
 40
13.902000
 50
153.039286
 51
205.324749
  6
CONTINUOUS
  0
ARC
  8
GREEN
 10
364.839391
 20
98.528081
 30
0.000000
 40
10.547400
 50
54.815222
 51
146.506198
  6
CONTINUOUS
  0
ARC
  8
GREEN
 10
377.571133
 20
110.022451
 30
0.000000
 40
7.248300
 50
-156.640008
 51
-49.347300
  6
CONTINUOUS
  0
ARC
  8
GREEN
 10
365.793814
 20
116.695115
 30
0.000000
 40
20.503200
 50
-36.416538
 51
16.590014
  6
CONTINUOUS
  0
ARC
  8
GREEN
 10
540.930216
 20
144.773704
 30
0.000000
 40
157.067000
 50
177.253873
 51
188.134473
  6
CONTINUOUS
  0
ARC
  8
GREEN
 10
233.505744
 20
180.878227
 30
0.000000
 40
153.226700
 50
-10.749576
 51
5.024846
  6
CONTINUOUS
  0
ARC
  8
GREEN
 10
295.590267
 20
183.540156
 30
0.000000
 40
91.190200
 50
6.775683
 51
24.426403
  6
CONTINUOUS
  0
ARC
  8
GREEN
 10
380.948064
 20
222.526355
 30
0.000000
 40
2.656700
 50
39.704882
 51
208.725767
  6
CONTINUOUS
  0
ARC
  8
GREEN
 10
342.855468
 20
193.520372
 30
0.000000
 40
50.533400
 50
24.216798
 51
37.414852
  6
CONTINUOUS
  0
ARC
  8
GREEN
 10
289.161499
 20
163.618925
 30
0.000000
 40
111.890600
 50
11.211509
 51
26.903775
  6
CONTINUOUS
  0
ARC
  8
GREEN
 10
143.339530
 20
149.794685
 30
0.000000
 40
258.041900
 50
-0.609641
 51
7.925295
  6
CONTINUOUS
  0
ARC
  8
GREEN
 10
1108.256607
 20
294.060990
 30
0.000000
 40
722.015000
 50
-168.251663
 51
-165.499287
  6
CONTINUOUS
  0
ARC
  8
GREEN
 10
800.255658
 20
141.056892
 30
0.000000
 40
391.999700
 50
-175.935792
 51
-170.991023
  6
CONTINUOUS
  0
ARC
  8
GREEN
 10
435.533354
 20
81.664245
 30
0.000000
 40
22.529700
 50
-174.931884
 51
-104.960156
  6
CONTINUOUS
  0
ARC
  8
GREEN
 10
458.046425
 20
325.707633
 30
0.000000
 40
267.314800
 50
-96.083422
 51
-86.655134
  6
CONTINUOUS
  0
ARC
  8
GREEN
 10
474.578920
 20
50.703607
 30
0.000000
 40
8.198200
 50
13.007301
 51
96.554475
  6
CONTINUOUS
  0
LINE
  8
GREEN
 10
482.566766
 20
52.548818
 30
0.000000
 11
483.091633
 21
50.274751
 31
0.000000
  6
CONTINUOUS
  0
LINE
  8
GREEN
 10
483.091633
 20
50.274751
 30
0.000000
 11
422.016733
 21
39.774751
 31
0.000000
  6
CONTINUOUS
  0
LINE
  8
GREEN
 10
422.016733
 20
39.774751
 30
0.000000
 11
422.541833
 21
34.523051
 31
0.000000
  6
CONTINUOUS
  0
LINE
  8
GREEN
 10
422.541833
 20
34.523051
 30
0.000000
 11
483.571239
 21
44.869921
 31
0.000000
  6
CONTINUOUS
  0
ARC
  8
GREEN
 10
474.227033
 20
41.470651
 30
0.000000
 40
9.943300
 50
-44.311000
 51
19.990562
  6
CONTINUOUS
  0
ARC
  8
GREEN
 10
413.332592
 20
99.103920
 30
0.000000
 40
93.785700
 50
-61.511132
 51
-43.518003
  6
CONTINUOUS
  0
ARC
  8
GREEN
 10
426.375874
 20
81.359427
 30
0.000000
 40
72.030900
 50
-99.778014
 51
-63.898090
  6
CONTINUOUS
  0
ARC
  8
GREEN
 10
373.140803
 20
81.089192
 30
0.000000
 40
12.177900
 50
-83.152046
 51
-43.716436
  6
CONTINUOUS
  0
ARC
  8
GREEN
 10
382.348425
 20
84.231948
 30
0.000000
 40
11.565900
 50
-92.010755
 51
-63.311670
  6
CONTINUOUS
  0
ARC
  8
GREEN
 10
384.437332
 20
79.634196
 30
0.000000
 40
6.522800
 50
-61.566388
 51
66.696772
  6
CONTINUOUS
  0
ARC
  8
GREEN
 10
387.977968
 20
96.838957
 30
0.000000
 40
11.255100
 50
-140.299610
 51
-94.894168
  6
CONTINUOUS
  0
ARC
  8
GREEN
 10
372.755129
 20
85.876758
 30
0.000000
 40
7.570300
 50
29.891642
 51
113.864664
  6
CONTINUOUS
  0
ARC
  8
GREEN
 10
371.662231
 20
84.651351
 30
0.000000
 40
8.383200
 50
103.590386
 51
195.056704
  6
CONTINUOUS
  0
ARC
  8
GREEN
 10
315.472114
 20
56.406132
 30
0.000000
 40
54.704800
 50
17.684071
 51
28.457818
  6
CONTINUOUS
  0
ARC
  8
GREEN
 10
374.105163
 20
76.250590
 30
0.000000
 40
7.268800
 50
-153.644734
 51
-86.153071
  6
CONTINUOUS
  0
ARC
  8
GREEN
 10
849.078878
 20
-51.194792
 30
0.000000
 40
73.300500
 50
54.932437
 51
67.446592
  6
CONTINUOUS
  0
ARC
  8
GREEN
 10
850.092982
 20
-80.491759
 30
0.000000
 40
100.706400
 50
74.389397
 51
91.607600
  6
CONTINUOUS
  0
ARC
  8
GREEN
 10
852.123013
 20
86.635789
 30
0.000000
 40
66.637900
 50
-152.168563
 51
-94.178303
  6
CONTINUOUS
  0
ARC
  8
GREEN
 10
775.922078
 20
49.925899
 30
0.000000
 40
18.156100
 50
17.960128
 51
46.288624
  6
CONTINUOUS
  0
ARC
  8
GREEN
 10
795.518474
 20
68.128758
 30
0.000000
 40
8.689100
 50
158.780754
 51
215.770167
  6
CONTINUOUS
  0
LINE
  8
GREEN
 10
787.418476
 20
71.273671
 30
0.000000
 11
788.993033
 21
74.247851
 31
0.000000
  6
CONTINUOUS
  0
LINE
  8
GREEN
 10
788.993033
 20
74.247851
 30
0.000000
 11
842.893033
 21
45.547851
 31
0.000000
  6
CONTINUOUS
  0
LINE
  8
GREEN
 10
842.893033
 20
45.547851
 30
0.000000
 11
845.518833
 21
50.449451
 31
0.000000
  6
CONTINUOUS
  0
LINE
  8
GREEN
 10
845.518833
 20
50.449451
 30
0.000000
 11
791.775965
 21
78.983913
 31
0.000000
  6
CONTINUOUS
  0
ARC
  8
GREEN
 10
799.667633
 20
76.984551
 30
0.000000
 40
8.141000
 50
72.488000
 51
165.783193
  6
CONTINUOUS
  0
ARC
  8
GREEN
 10
764.893339
 20
-11.738756
 30
0.000000
 40
103.418400
 50
63.172076
 51
68.903758
  6
CONTINUOUS
  0
ARC
  8
GREEN
 10
859.603278
 20
198.509644
 30
0.000000
 40
127.366900
 50
-112.157014
 51
-98.891221
  6
CONTINUOUS
  0
ARC
  8
GREEN
 10
845.709848
 20
91.979877
 30
0.000000
 40
20.156800
 50
-106.700005
 51
-29.845384
  6
CONTINUOUS
  0
ARC
  8
GREEN
 10
800.353573
 20
130.263065
 30
0.000000
 40
79.266100
 50
-37.554960
 51
-18.681416
  6
CONTINUOUS
  0
ARC
  8
GREEN
 10
983.902242
 20
65.690104
 30
0.000000
 40
115.319800
 50
143.507042
 51
160.136417
  6
CONTINUOUS
  0
ARC
  8
GREEN
 10
758.967692
 20
208.473186
 30
0.000000
 40
151.621800
 50
-29.299386
 51
-14.026747
  6
CONTINUOUS
  0
ARC
  8
GREEN
 10
1007.125697
 20
130.721622
 30
0.000000
 40
109.058400
 50
128.561776
 51
157.915967
  6
CONTINUOUS
  0
ARC
  8
GREEN
 10
941.244950
 20
214.033963
 30
0.000000
 40
2.876800
 50
-56.872316
 51
136.933737
  6
CONTINUOUS
  0
ARC
  8
GREEN
 10
1011.341067
 20
148.452104
 30
0.000000
 40
93.200400
 50
137.326833
 51
167.311096
  6
CONTINUOUS
  0
ARC
  8
GREEN
 10
573.042840
 20
231.574790
 30
0.000000
 40
352.978500
 50
-15.676225
 51
-10.223657
  6
CONTINUOUS
  0
ARC
  8
GREEN
 10
1028.526807
 20
76.670145
 30
0.000000
 40
130.058400
 50
152.760321
 51
165.890934
  6
CONTINUOUS
  0
ARC
  8
GREEN
 10
909.163750
 20
105.232602
 30
0.000000
 40
7.465200
 50
155.112140
 51
304.742169
  6
CONTINUOUS
  0
ARC
  8
GREEN
 10
917.651755
 20
89.349485
 30
0.000000
 40
10.628400
 50
-33.233620
 51
113.474366
  6
CONTINUOUS
  0
ARC
  8
GREEN
 10
937.801087
 20
75.026864
 30
0.000000
 40
14.106100
 50
142.957166
 51
253.913092
  6
CONTINUOUS
  0
ARC
  8
GREEN
 10
935.140428
 20
52.461540
 30
0.000000
 40
9.097600
 50
-25.642423
 51
97.885096
  6
CONTINUOUS
  0
ARC
  8
GREEN
 10
948.526346
 20
43.000021
 30
0.000000
 40
7.576100
 50
133.180523
 51
203.750553
  6
CONTINUOUS
  0
ARC
  8
GREEN
 10
934.561692
 20
37.970172
 30
0.000000
 40
7.303300
 50
-167.979639
 51
15.718392
  6
CONTINUOUS
  0
ARC
  8
GREEN
 10
917.506328
 20
35.478655
 30
0.000000
 40
9.959600
 50
5.592197
 51
49.925163
  6
CONTINUOUS
  0
ARC
  8
GREEN
 10
917.638052
 20
34.842057
 30
0.000000
 40
10.374500
 50
52.746383
 51
201.595322
  6
CONTINUOUS
  0
ARC
  8
GREEN
 10
897.046101
 20
21.836520
 30
0.000000
 40
14.290300
 50
-114.178401
 51
40.008313
  6
CONTINUOUS
  0
ARC
  8
GREEN
 10
924.617662
 20
58.149113
 30
0.000000
 40
18.394900
 50
124.142611
 51
154.654012
  6
CONTINUOUS
  0
ARC
  8
GREEN
 10
902.843839
 20
71.361843
 30
0.000000
 40
7.417200
 50
-144.679475
 51
-46.029948
  6
CONTINUOUS
  0
LINE
  8
GREEN
 10
896.791919
 20
67.073589
 30
0.000000
 11
895.041433
 21
69.174051
 31
0.000000
  6
CONTINUOUS
  0
LINE
  8
GREEN
 10
895.041433
 20
69.174051
 30
0.000000
 11
889.967257
 21
71.623373
 31
0.000000
  6
CONTINUOUS
  0
ARC
  8
GREEN
 10
893.757133
 20
77.645951
 30
0.000000
 40
7.115800
 50
86.692000
 51
237.818700
  6
CONTINUOUS
  0
ARC
  8
GREEN
 10
898.021198
 20
97.239653
 30
0.000000
 40
13.070700
 50
-107.146537
 51
-53.928566
  6
CONTINUOUS
  0
ARC
  8
GREEN
 10
907.639990
 20
78.499095
 30
0.000000
 40
8.398800
 50
-37.609318
 51
103.234873
  6
CONTINUOUS
  0
ARC
  8
GREEN
 10
845.866933
 20
119.566951
 30
0.000000
 40
5.554000
 50
-151.881400
 51
-77.252200
  6
CONTINUOUS
  0
LINE
  8
GREEN
 10
847.092479
 20
114.149853
 30
0.000000
 11
857.670915
 21
114.665970
 31
0.000000
  6
CONTINUOUS
  0
LINE
  8
GREEN
 10
857.670915
 20
114.665970
 30
0.000000
 11
854.616633
 21
141.974851
 31
0.000000
  6
CONTINUOUS
  0
LINE
  8
GREEN
 10
854.616633
 20
141.974851
 30
0.000000
 11
860.218333
 21
142.499951
 31
0.000000
  6
CONTINUOUS
  0
LINE
  8
GREEN
 10
860.218333
 20
142.499951
 30
0.000000
 11
863.368533
 21
116.075051
 31
0.000000
  6
CONTINUOUS
  0
LINE
  8
GREEN
 10
863.368533
 20
116.075051
 30
0.000000
 11
875.441633
 21
117.474851
 31
0.000000
  6
CONTINUOUS
  0
LINE
  8
GREEN
 10
875.441633
 20
117.474851
 30
0.000000
 11
874.216786
 21
127.098919
 31
0.000000
  6
CONTINUOUS
  0
ARC
  8
GREEN
 10
946.413537
 20
134.239411
 30
0.000000
 40
72.549000
 50
139.142382
 51
185.648368
  6
CONTINUOUS
  0
ARC
  8
GREEN
 10
939.101270
 20
142.585474
 30
0.000000
 40
61.577600
 50
117.003543
 51
140.565107
  6
CONTINUOUS
  0
ARC
  8
GREEN
 10
908.989082
 20
201.320645
 30
0.000000
 40
4.429400
 50
-60.915168
 51
100.685603
  6
CONTINUOUS
  0
ARC
  8
GREEN
 10
966.566977
 20
38.287194
 30
0.000000
 40
177.281000
 50
109.233331
 51
112.563466
  6
CONTINUOUS
  0
ARC
  8
GREEN
 10
896.836807
 20
204.739942
 30
0.000000
 40
3.229300
 50
123.758910
 51
301.895810
  6
CONTINUOUS
  0
ARC
  8
GREEN
 10
929.868924
 20
150.117467
 30
0.000000
 40
67.059800
 50
99.009576
 51
121.287791
  6
CONTINUOUS
  0
ARC
  8
GREEN
 10
918.563439
 20
220.072574
 30
0.000000
 40
3.808500
 50
-77.813524
 51
93.698648
  6
CONTINUOUS
  0
ARC
  8
GREEN
 10
895.230334
 20
416.243067
 30
0.000000
 40
193.750400
 50
-85.860133
 51
-83.156336
  6
CONTINUOUS
  0
ARC
  8
GREEN
 10
910.181500
 20
226.091561
 30
0.000000
 40
3.240100
 50
110.582785
 51
252.690414
  6
CONTINUOUS
  0
ARC
  8
GREEN
 10
943.892237
 20
107.089581
 30
0.000000
 40
126.913800
 50
97.299327
 51
105.937849
  6
CONTINUOUS
  0
ARC
  8
GREEN
 10
927.053845
 20
236.967389
 30
0.000000
 40
4.055800
 50
-79.866042
 51
89.804358
  6
CONTINUOUS
  0
ARC
  8
GREEN
 10
914.906139
 20
365.536549
 30
0.000000
 40
125.105900
 50
-88.116840
 51
-84.421463
  6
CONTINUOUS
  0
ARC
  8
GREEN
 10
920.172601
 20
243.739263
 30
0.000000
 40
3.440800
 50
97.601129
 51
250.380873
  6
CONTINUOUS
  0
ARC
  8
GREEN
 10
934.066238
 20
182.734197
 30
0.000000
 40
65.994400
 50
90.606569
 51
102.557782
  6
CONTINUOUS
  0
ARC
  8
GREEN
 10
933.046033
 20
252.742651
 30
0.000000
 40
4.030600
 50
-85.424100
 51
90.406567
  6
CONTINUOUS
  0
ARC
  8
GREEN
 10
948.506413
 20
659.361502
 30
0.000000
 40
402.886200
 50
-93.249716
 51
-92.203282
  6
CONTINUOUS
  0
ARC
  8
GREEN
 10
925.939579
 20
260.180996
 30
0.000000
 40
3.069900
 50
88.544451
 51
264.918381
  6
CONTINUOUS
  0
ARC
  8
GREEN
 10
935.292842
 20
207.074086
 30
0.000000
 40
56.936400
 50
87.357732
 51
99.375613
  6
CONTINUOUS
  0
ARC
  8
GREEN
 10
937.550645
 20
267.799100
 30
0.000000
 40
3.866600
 50
-84.554120
 51
84.554232
  6
CONTINUOUS
  0
ARC
  8
GREEN
 10
938.817189
 20
359.835060
 30
0.000000
 40
88.191400
 50
-96.281927
 51
-90.584451
  6
CONTINUOUS
  0
ARC
  8
GREEN
 10
930.451113
 20
274.948406
 30
0.000000
 40
3.057800
 50
101.003279
 51
245.173270
  6
CONTINUOUS
  0
ARC
  8
GREEN
 10
909.015567
 20
669.861665
 30
0.000000
 40
392.466000
 50
-86.954412
 51
-85.418072
  6
CONTINUOUS
  0
ARC
  8
GREEN
 10
938.992593
 20
282.619037
 30
0.000000
 40
4.200500
 50
-70.893429
 51
68.349474
  6
CONTINUOUS
  0
ARC
  8
GREEN
 10
946.949402
 20
369.451461
 30
0.000000
 40
83.175400
 50
-100.132118
 51
-94.417909
  6
CONTINUOUS
  0
ARC
  8
GREEN
 10
933.413544
 20
290.205888
 30
0.000000
 40
2.851800
 50
101.552438
 51
247.393331
  6
CONTINUOUS
  0
ARC
  8
GREEN
 10
947.105024
 20
213.024132
 30
0.000000
 40
81.237600
 50
94.138403
 51
100.111622
  6
CONTINUOUS
  0
ARC
  8
GREEN
 10
940.280107
 20
297.686544
 30
0.000000
 40
3.761800
 50
-75.178092
 51
80.629051
  6
CONTINUOUS
  0
ARC
  8
GREEN
 10
942.052303
 20
369.342846
 30
0.000000
 40
67.954600
 50
-97.194039
 51
-90.977828
  6
CONTINUOUS
  0
ARC
  8
GREEN
 10
934.705262
 20
304.786561
 30
0.000000
 40
3.090500
 50
92.090223
 51
247.896127
  6
CONTINUOUS
  0
ARC
  8
GREEN
 10
929.570412
 20
355.561580
 30
0.000000
 40
47.950300
 50
-83.988035
 51
-76.557721
  6
CONTINUOUS
  0
ARC
  8
GREEN
 10
938.617968
 20
312.401233
 30
0.000000
 40
4.061000
 50
-58.873627
 51
72.453676
  6
CONTINUOUS
  0
ARC
  8
GREEN
 10
962.147976
 20
746.336922
 30
0.000000
 40
430.641700
 50
-93.762021
 51
-92.969046
  6
CONTINUOUS
  0
ARC
  8
GREEN
 10
934.050298
 20
319.249041
 30
0.000000
 40
2.630600
 50
93.438619
 51
266.561088
  6
CONTINUOUS
  0
ARC
  8
GREEN
 10
931.981174
 20
333.868258
 30
0.000000
 40
12.144700
 50
-80.945095
 51
-51.796788
  6
CONTINUOUS
  0
ARC
  8
GREEN
 10
936.980130
 20
326.769650
 30
0.000000
 40
3.505400
 50
-44.225665
 51
91.840020
  6
CONTINUOUS
  0
ARC
  8
GREEN
 10
920.208119
 20
114.353676
 30
0.000000
 40
216.561300
 50
85.588037
 51
87.026443
  6
CONTINUOUS
  0
ARC
  8
GREEN
 10
932.998524
 20
332.948290
 30
0.000000
 40
2.797700
 50
100.413925
 51
236.201857
  6
CONTINUOUS
  0
ARC
  8
GREEN
 10
932.803645
 20
339.608666
 30
0.000000
 40
3.921100
 50
-94.546642
 51
25.529986
  6
CONTINUOUS
  0
ARC
  8
GREEN
 10
932.055087
 20
338.204815
 30
0.000000
 40
5.286600
 50
35.817950
 51
108.328244
  6
CONTINUOUS
  0
ARC
  8
GREEN
 10
930.234429
 20
346.087962
 30
0.000000
 40
2.869100
 50
123.698904
 51
273.161475
  6
CONTINUOUS
  0
ARC
  8
GREEN
 10
927.812550
 20
352.545693
 30
0.000000
 40
4.154500
 50
-78.475420
 51
88.203417
  6
CONTINUOUS
  0
ARC
  8
GREEN
 10
927.032039
 20
359.734083
 30
0.000000
 40
3.169600
 50
-169.359364
 51
-73.301103
  6
CONTINUOUS
  0
ARC
  8
GREEN
 10
815.414630
 20
327.088522
 30
0.000000
 40
113.139800
 50
16.461374
 51
30.507192
  6
CONTINUOUS
  0
ARC
  8
GREEN
 10
909.223727
 20
381.999560
 30
0.000000
 40
4.452700
 50
34.530464
 51
190.353471
  6
CONTINUOUS
  0
ARC
  8
GREEN
 10
846.654990
 20
355.386873
 30
0.000000
 40
63.656800
 50
17.189356
 51
23.922083
  6
CONTINUOUS
  0
ARC
  8
GREEN
 10
904.309201
 20
372.892229
 30
0.000000
 40
3.419000
 50
-89.858584
 51
22.477880
  6
CONTINUOUS
  0
ARC
  8
GREEN
 10
905.236754
 20
366.027723
 30
0.000000
 40
3.566000
 50
104.936237
 51
274.917574
  6
CONTINUOUS
  0
ARC
  8
GREEN
 10
906.526906
 20
359.458540
 30
0.000000
 40
3.172900
 50
-25.378003
 51
108.075686
  6
CONTINUOUS
  0
ARC
  8
GREEN
 10
906.065955
 20
359.422706
 30
0.000000
 40
3.581400
 50
-107.021590
 51
-21.696945
  6
CONTINUOUS
  0
ARC
  8
GREEN
 10
905.420533
 20
352.621551
 30
0.000000
 40
3.400600
 50
96.805500
 51
254.167582
  6
CONTINUOUS
  0
ARC
  8
GREEN
 10
902.829896
 20
331.936674
 30
0.000000
 40
17.492500
 50
63.561083
 51
84.545121
  6
CONTINUOUS
  0
ARC
  8
GREEN
 10
907.903788
 20
345.343185
 30
0.000000
 40
3.529900
 50
-85.711074
 51
39.734889
  6
CONTINUOUS
  0
ARC
  8
GREEN
 10
908.834781
 20
331.663041
 30
0.000000
 40
10.182000
 50
93.756046
 51
129.244792
  6
CONTINUOUS
  0
ARC
  8
GREEN
 10
905.415737
 20
336.401555
 30
0.000000
 40
4.363300
 50
133.843982
 51
285.644295
  6
CONTINUOUS
  0
ARC
  8
GREEN
 10
907.889616
 20
328.835106
 30
0.000000
 40
3.606200
 50
-120.353629
 51
111.083504
  6
CONTINUOUS
  0
ARC
  8
GREEN
 10
903.571968
 20
320.560434
 30
0.000000
 40
5.734200
 50
64.204386
 51
277.471603
  6
CONTINUOUS
  0
ARC
  8
GREEN
 10
904.299933
 20
309.701251
 30
0.000000
 40
5.173700
 50
-38.585200
 51
89.804200
  6
CONTINUOUS
  0
LINE
  8
GREEN
 10
908.344119
 20
306.474530
 30
0.000000
 11
917.093733
 21
304.024651
 31
0.000000
  6
CONTINUOUS
  0
LINE
  8
GREEN
 10
917.093733
 20
304.024651
 30
0.000000
 11
915.868333
 21
298.598051
 31
0.000000
  6
CONTINUOUS
  0
LINE
  8
GREEN
 10
915.868333
 20
298.598051
 30
0.000000
 11
906.943329
 21
300.523063
 31
0.000000
  6
CONTINUOUS
  0
ARC
  8
GREEN
 10
844.312733
 20
312.834651
 30
0.000000
 40
63.829200
 50
-22.120300
 51
-11.121100
  6
CONTINUOUS
  0
LINE
  8
GREEN
 10
903.443802
 20
288.799606
 30
0.000000
 11
912.193833
 21
285.999551
 31
0.000000
  6
CONTINUOUS
  0
LINE
  8
GREEN
 10
912.193833
 20
285.999551
 30
0.000000
 11
910.093133
 21
280.222951
 31
0.000000
  6
CONTINUOUS
  0
LINE
  8
GREEN
 10
910.093133
 20
280.222951
 30
0.000000
 11
901.693193
 21
283.372920
 31
0.000000
  6
CONTINUOUS
  0
ARC
  8
GREEN
 10
838.924133
 20
305.138351
 30
0.000000
 40
66.435600
 50
-31.501400
 51
-19.124200
  6
CONTINUOUS
  0
LINE
  8
GREEN
 10
895.568946
 20
270.424461
 30
0.000000
 11
904.668733
 21
266.924551
 31
0.000000
  6
CONTINUOUS
  0
LINE
  8
GREEN
 10
904.668733
 20
266.924551
 30
0.000000
 11
902.743133
 21
261.847951
 31
0.000000
  6
CONTINUOUS
  0
LINE
  8
GREEN
 10
902.743133
 20
261.847951
 30
0.000000
 11
893.118143
 21
265.522962
 31
0.000000
  6
CONTINUOUS
  0
ARC
  8
GREEN
 10
811.979433
 20
308.632851
 30
0.000000
 40
91.880100
 50
-38.013000
 51
-27.982200
  6
CONTINUOUS
  0
LINE
  8
GREEN
 10
884.369103
 20
252.049387
 30
0.000000
 11
893.468733
 21
247.849451
 31
0.000000
  6
CONTINUOUS
  0
LINE
  8
GREEN
 10
893.468733
 20
247.849451
 30
0.000000
 11
891.193133
 21
242.772951
 31
0.000000
  6
CONTINUOUS
  0
LINE
  8
GREEN
 10
891.193133
 20
242.772951
 30
0.000000
 11
880.867860
 21
247.147986
 31
0.000000
  6
CONTINUOUS
  0
ARC
  8
GREEN
 10
975.855233
 20
168.430951
 30
0.000000
 40
123.365200
 50
140.351100
 51
147.687400
  6
CONTINUOUS
  0
LINE
  8
GREEN
 10
871.593837
 20
234.374365
 30
0.000000
 11
881.568833
 21
229.824451
 31
0.000000
  6
CONTINUOUS
  0
LINE
  8
GREEN
 10
881.568833
 20
229.824451
 30
0.000000
 11
879.118033
 21
224.922951
 31
0.000000
  6
CONTINUOUS
  0
LINE
  8
GREEN
 10
879.118033
 20
224.922951
 30
0.000000
 11
868.617920
 21
229.472934
 31
0.000000
  6
CONTINUOUS
  0
ARC
  8
GREEN
 10
934.638133
 20
179.961551
 30
0.000000
 40
82.523000
 50
143.132200
 51
153.293100
  6
CONTINUOUS
  0
LINE
  8
GREEN
 10
860.918912
 20
217.049581
 30
0.000000
 11
871.943833
 21
212.674551
 31
0.000000
  6
CONTINUOUS
  0
LINE
  8
GREEN
 10
871.943833
 20
212.674551
 30
0.000000
 11
870.018133
 21
207.772951
 31
0.000000
  6
CONTINUOUS
  0
LINE
  8
GREEN
 10
870.018133
 20
207.772951
 30
0.000000
 11
858.643117
 21
212.322959
 31
0.000000
  6
CONTINUOUS
  0
ARC
  8
GREEN
 10
960.314533
 20
158.858451
 30
0.000000
 40
114.871800
 50
152.262100
 51
159.533400
  6
CONTINUOUS
  0
LINE
  8
GREEN
 10
852.693880
 20
199.024674
 30
0.000000
 11
864.768833
 21
194.299551
 31
0.000000
  6
CONTINUOUS
  0
LINE
  8
GREEN
 10
864.768833
 20
194.299551
 30
0.000000
 11
862.843133
 21
189.222951
 31
0.000000
  6
CONTINUOUS
  0
LINE
  8
GREEN
 10
862.843133
 20
189.222951
 30
0.000000
 11
850.943033
 21
193.947951
 31
0.000000
  6
CONTINUOUS
  0
LINE
  8
GREEN
 10
850.943033
 20
193.947951
 30
0.000000
 11
849.718553
 21
191.848800
 31
0.000000
  6
CONTINUOUS
  0
ARC
  8
GREEN
 10
846.637133
 20
191.984351
 30
0.000000
 40
3.084400
 50
-107.836300
 51
-2.518800
  6
CONTINUOUS
  0
LINE
  8
GREEN
 10
845.692386
 20
189.048201
 30
0.000000
 11
835.017433
 21
193.773251
 31
0.000000
  6
CONTINUOUS
  0
LINE
  8
GREEN
 10
835.017433
 20
193.773251
 30
0.000000
 11
832.218033
 21
194.123151
 31
0.000000
  6
CONTINUOUS
  0
LINE
  8
GREEN
 10
832.218033
 20
194.123151
 30
0.000000
 11
830.118333
 21
191.848551
 31
0.000000
  6
CONTINUOUS
  0
LINE
  8
GREEN
 10
830.118333
 20
191.848551
 30
0.000000
 11
828.018553
 21
186.248789
 31
0.000000
  6
CONTINUOUS
  0
ARC
  8
GREEN
 10
831.578333
 20
185.651751
 30
0.000000
 40
3.609500
 50
170.479100
 51
266.257200
  6
CONTINUOUS
  0
LINE
  8
GREEN
 10
831.342713
 20
182.049950
 30
0.000000
 11
842.017545
 21
180.474909
 31
0.000000
  6
CONTINUOUS
  0
ARC
  8
GREEN
 10
842.610533
 20
178.266951
 30
0.000000
 40
2.286200
 50
-15.037600
 51
105.033100
  6
CONTINUOUS
  0
LINE
  8
GREEN
 10
844.818444
 20
177.673790
 30
0.000000
 11
843.243417
 21
171.898766
 31
0.000000
  6
CONTINUOUS
  0
ARC
  8
GREEN
 10
840.411633
 20
173.005851
 30
0.000000
 40
3.040500
 50
-124.439000
 51
-21.353000
  6
CONTINUOUS
  0
LINE
  8
GREEN
 10
838.692144
 20
170.498263
 30
0.000000
 11
828.892303
 21
173.473297
 31
0.000000
  6
CONTINUOUS
  0
ARC
  8
GREEN
 10
827.028933
 20
169.737751
 30
0.000000
 40
4.174500
 50
63.489000
 51
159.512500
  6
CONTINUOUS
  0
LINE
  8
GREEN
 10
823.118476
 20
171.198839
 30
0.000000
 11
822.243476
 21
164.549045
 31
0.000000
  6
CONTINUOUS
  0
ARC
  8
GREEN
 10
825.768533
 20
164.388751
 30
0.000000
 40
3.528700
 50
177.396400
 51
275.268100
  6
CONTINUOUS
  0
LINE
  8
GREEN
 10
826.092525
 20
160.874956
 30
0.000000
 11
837.642592
 21
160.349876
 31
0.000000
  6
CONTINUOUS
  0
ARC
  8
GREEN
 10
837.777933
 20
157.716151
 30
0.000000
 40
2.637200
 50
-19.199400
 51
92.941700
  6
CONTINUOUS
  0
LINE
  8
GREEN
 10
840.268451
 20
156.848890
 30
0.000000
 11
839.918575
 21
152.299215
 31
0.000000
  6
CONTINUOUS
  0
ARC
  8
GREEN
 10
837.815033
 20
151.574751
 30
0.000000
 40
2.224800
 50
-141.779200
 51
19.003800
  6
CONTINUOUS
  0
LINE
  8
GREEN
 10
836.067158
 20
150.198281
 30
0.000000
 11
824.342242
 21
152.473306
 31
0.000000
  6
CONTINUOUS
  0
ARC
  8
GREEN
 10
822.921633
 20
149.613851
 30
0.000000
 40
3.192900
 50
63.581300
 51
191.555900
  6
CONTINUOUS
  0
LINE
  8
GREEN
 10
819.793454
 20
148.974237
 30
0.000000
 11
819.093540
 21
143.198955
 31
0.000000
  6
CONTINUOUS
  0
ARC
  8
GREEN
 10
822.938833
 20
143.191351
 30
0.000000
 40
3.845300
 50
179.886700
 51
267.449000
  6
CONTINUOUS
  0
LINE
  8
GREEN
 10
822.767684
 20
139.349862
 30
0.000000
 11
834.492484
 21
140.049984
 31
0.000000
  6
CONTINUOUS
  0
ARC
  8
GREEN
 10
835.642933
 20
137.007851
 30
0.000000
 40
3.252400
 50
7.355000
 51
110.715200
  6
CONTINUOUS
  0
LINE
  8
GREEN
 10
838.868572
 20
137.424213
 30
0.000000
 11
839.218499
 21
131.999182
 31
0.000000
  6
CONTINUOUS
  0
ARC
  8
GREEN
 10
836.942633
 20
131.430251
 30
0.000000
 40
2.345900
 50
-126.651400
 51
14.035400
  6
CONTINUOUS
  0
LINE
  8
GREEN
 10
835.542260
 20
129.548177
 30
0.000000
 11
823.992321
 21
130.773196
 31
0.000000
  6
CONTINUOUS
  0
ARC
  8
GREEN
 10
822.672933
 20
127.837451
 30
0.000000
 40
3.218600
 50
65.799800
 51
206.538500
  6
CONTINUOUS
  0
LINE
  8
GREEN
 10
819.793463
 20
126.399384
 30
0.000000
 11
819.968546
 21
118.524200
 31
0.000000
  6
CONTINUOUS
  0
ARC
  8
GREEN
 10
823.626233
 20
119.499951
 30
0.000000
 40
3.785600
 50
-165.063200
 51
-59.154100
  6
CONTINUOUS
  0
LINE
  8
GREEN
 10
825.567227
 20
116.249826
 30
0.000000
 11
835.717339
 21
119.224914
 31
0.000000
  6
CONTINUOUS
  0
ARC
  8
GREEN
 10
837.292588
 20
115.663431
 30
0.000000
 40
3.894300
 50
19.281407
 51
113.859882
  6
CONTINUOUS
  0
ARC
  8
GREEN
 10
223.118737
 20
285.063701
 30
0.000000
 40
17.466000
 50
-175.025164
 51
-86.803843
  6
CONTINUOUS
  0
ARC
  8
GREEN
 10
221.445654
 20
287.620441
 30
0.000000
 40
20.170000
 50
-82.459373
 51
-24.209042
  6
CONTINUOUS
  0
ARC
  8
GREEN
 10
249.112733
 20
274.024551
 30
0.000000
 40
10.691300
 50
98.445600
 51
150.128700
  6
CONTINUOUS
  0
LINE
  8
GREEN
 10
247.542498
 20
284.599912
 30
0.000000
 11
255.593649
 21
284.282266
 31
0.000000
  6
CONTINUOUS
  0
LINE
  8
GREEN
 10
255.593649
 20
284.282266
 30
0.000000
 11
255.241733
 21
310.324951
 31
0.000000
  6
CONTINUOUS
  0
LINE
  8
GREEN
 10
255.241733
 20
310.324951
 30
0.000000
 11
260.843533
 21
310.149951
 31
0.000000
  6
CONTINUOUS
  0
LINE
  8
GREEN
 10
260.843533
 20
310.149951
 30
0.000000
 11
260.843533
 21
284.074951
 31
0.000000
  6
CONTINUOUS
  0
LINE
  8
GREEN
 10
260.843533
 20
284.074951
 30
0.000000
 11
269.242742
 21
284.075014
 31
0.000000
  6
CONTINUOUS
  0
ARC
  8
GREEN
 10
267.342250
 20
271.404249
 30
0.000000
 40
12.812500
 50
14.556619
 51
81.469777
  6
CONTINUOUS
  0
ARC
  8
GREEN
 10
293.287594
 20
286.590395
 30
0.000000
 40
18.072800
 50
-138.540215
 51
-46.875028
  6
CONTINUOUS
  0
ARC
  8
GREEN
 10
291.320033
 20
286.805351
 30
0.000000
 40
19.617100
 50
-43.107200
 51
11.522400
  6
CONTINUOUS
  0
LINE
  8
GREEN
 10
310.541783
 20
290.723887
 30
0.000000
 11
310.366764
 21
320.824003
 31
0.000000
  6
CONTINUOUS
  0
ARC
  8
GREEN
 10
317.856255
 20
322.383343
 30
0.000000
 40
7.650100
 50
105.651184
 51
191.761172
  6
CONTINUOUS
  0
ARC
  8
GREEN
 10
312.151753
 20
337.117811
 30
0.000000
 40
8.218400
 50
-63.705274
 51
72.906494
  6
CONTINUOUS
  0
ARC
  8
GREEN
 10
318.334123
 20
353.933113
 30
0.000000
 40
9.719500
 50
-178.766569
 51
-112.801674
  6
CONTINUOUS
  0
ARC
  8
GREEN
 10
295.557433
 20
349.512151
 30
0.000000
 40
13.721800
 50
17.874800
 51
95.389600
  6
CONTINUOUS
  0
LINE
  8
GREEN
 10
294.268577
 20
363.173287
 30
0.000000
 11
294.793533
 21
318.898151
 31
0.000000
  6
CONTINUOUS
  0
LINE
  8
GREEN
 10
294.793533
 20
318.898151
 30
0.000000
 11
289.366833
 21
319.073151
 31
0.000000
  6
CONTINUOUS
  0
LINE
  8
GREEN
 10
289.366833
 20
319.073151
 30
0.000000
 11
288.666868
 21
369.648954
 31
0.000000
  6
CONTINUOUS
  0
ARC
  8
GREEN
 10
280.661422
 20
368.292818
 30
0.000000
 40
8.119500
 50
9.614723
 51
80.385426
  6
CONTINUOUS
  0
ARC
  8
GREEN
 10
282.329958
 20
382.963650
 30
0.000000
 40
6.672700
 50
-172.337132
 51
-92.683615
  6
CONTINUOUS
  0
ARC
  8
GREEN
 10
266.935533
 20
379.843651
 30
0.000000
 40
9.060100
 50
14.250400
 51
92.010100
  6
CONTINUOUS
  0
LINE
  8
GREEN
 10
266.617744
 20
388.898176
 30
0.000000
 11
260.143533
 21
388.898151
 31
0.000000
  6
CONTINUOUS
  0
LINE
  8
GREEN
 10
260.143533
 20
388.898151
 30
0.000000
 11
260.143533
 21
362.823151
 31
0.000000
  6
CONTINUOUS
  0
LINE
  8
GREEN
 10
260.143533
 20
362.823151
 30
0.000000
 11
254.716733
 21
362.823151
 31
0.000000
  6
CONTINUOUS
  0
LINE
  8
GREEN
 10
254.716733
 20
362.823151
 30
0.000000
 11
254.541733
 21
388.548251
 31
0.000000
  6
CONTINUOUS
  0
LINE
  8
GREEN
 10
254.541733
 20
388.548251
 30
0.000000
 11
247.542656
 21
388.898108
 31
0.000000
  6
CONTINUOUS
  0
ARC
  8
GREEN
 10
247.718956
 20
379.984152
 30
0.000000
 40
8.915700
 50
91.133047
 51
164.119066
  6
CONTINUOUS
  0
ARC
  8
GREEN
 10
231.415039
 20
384.369676
 30
0.000000
 40
7.969700
 50
-82.228185
 51
-14.131886
  6
CONTINUOUS
  0
ARC
  8
GREEN
 10
234.680033
 20
368.380351
 30
0.000000
 40
8.383200
 50
105.124100
 51
172.504100
  6
CONTINUOUS
  0
LINE
  8
GREEN
 10
226.368474
 20
369.473983
 30
0.000000
 11
226.368533
 21
318.723151
 31
0.000000
  6
CONTINUOUS
  0
LINE
  8
GREEN
 10
226.368533
 20
318.723151
 30
0.000000
 11
220.941833
 21
318.723151
 31
0.000000
  6
CONTINUOUS
  0
LINE
  8
GREEN
 10
220.941833
 20
318.723151
 30
0.000000
 11
220.591758
 21
362.298332
 31
0.000000
  6
CONTINUOUS
  0
ARC
  8
GREEN
 10
217.866498
 20
349.982759
 30
0.000000
 40
12.613500
 50
77.522337
 51
167.680348
  6
CONTINUOUS
  0
ARC
  8
GREEN
 10
198.006646
 20
351.307478
 30
0.000000
 40
7.659700
 50
-80.711556
 51
10.277159
  6
CONTINUOUS
  0
ARC
  8
GREEN
 10
203.396991
 20
336.069983
 30
0.000000
 40
8.729900
 50
118.414034
 51
237.590179
  6
CONTINUOUS
  0
ARC
  8
GREEN
 10
197.102833
 20
320.473551
 30
0.000000
 40
8.383400
 50
-9.610400
 51
78.891700
  6
CONTINUOUS
  0
LINE
  8
GREEN
 10
205.368578
 20
319.073962
 30
0.000000
 11
205.718534
 21
283.549081
 31
0.000000
  6
CONTINUOUS
  0
ARC
  8
GREEN
 10
764.924996
 20
137.076207
 30
0.000000
 40
10.562300
 50
165.623092
 51
369.523998
  6
CONTINUOUS
  0
ARC
  8
GREEN
 10
791.778433
 20
142.872051
 30
0.000000
 40
16.927900
 50
134.602500
 51
193.836000
  6
CONTINUOUS
  0
LINE
  8
GREEN
 10
779.891930
 20
154.924638
 30
0.000000
 11
797.371205
 21
170.347111
 31
0.000000
  6
CONTINUOUS
  0
LINE
  8
GREEN
 10
797.371205
 20
170.347111
 30
0.000000
 11
780.066433
 21
190.099151
 31
0.000000
  6
CONTINUOUS
  0
LINE
  8
GREEN
 10
780.066433
 20
190.099151
 30
0.000000
 11
784.617833
 21
193.950251
 31
0.000000
  6
CONTINUOUS
  0
LINE
  8
GREEN
 10
784.617833
 20
193.950251
 30
0.000000
 11
801.767633
 21
174.175251
 31
0.000000
  6
CONTINUOUS
  0
LINE
  8
GREEN
 10
801.767633
 20
174.175251
 30
0.000000
 11
823.816976
 21
194.124683
 31
0.000000
  6
CONTINUOUS
  0
ARC
  8
GREEN
 10
817.592456
 20
201.839150
 30
0.000000
 40
9.912500
 50
-51.101212
 51
59.708689
  6
CONTINUOUS
  0
ARC
  8
GREEN
 10
898.529939
 20
309.967375
 30
0.000000
 40
125.221900
 50
-140.726180
 51
-127.331431
  6
CONTINUOUS
  0
ARC
  8
GREEN
 10
825.957717
 20
246.533875
 30
0.000000
 40
29.059400
 50
133.465553
 51
213.019956
  6
CONTINUOUS
  0
ARC
  8
GREEN
 10
803.921374
 20
270.979876
 30
0.000000
 40
3.929600
 50
-58.625806
 51
103.668429
  6
CONTINUOUS
  0
ARC
  8
GREEN
 10
806.113993
 20
244.562057
 30
0.000000
 40
30.396800
 50
95.893614
 51
134.079385
  6
CONTINUOUS
  0
ARC
  8
GREEN
 10
772.899991
 20
280.007714
 30
0.000000
 40
18.189500
 50
-137.838000
 51
-48.434324
  6
CONTINUOUS
  0
ARC
  8
GREEN
 10
740.335706
 20
248.960477
 30
0.000000
 40
26.813500
 50
44.632223
 51
172.632833
  6
CONTINUOUS
  0
ARC
  8
GREEN
 10
716.256898
 20
251.399711
 30
0.000000
 40
2.704600
 50
158.323448
 51
331.871371
  6
CONTINUOUS
  0
ARC
  8
GREEN
 10
720.936360
 20
248.001104
 30
0.000000
 40
3.126200
 50
-56.359765
 51
137.213815
  6
CONTINUOUS
  0
ARC
  8
GREEN
 10
742.437208
 20
226.542925
 30
0.000000
 40
27.319300
 50
136.354824
 51
220.917728
  6
CONTINUOUS
  0
ARC
  8
GREEN
 10
726.465162
 20
211.046595
 30
0.000000
 40
5.250900
 50
-152.837492
 51
-81.761845
  6
CONTINUOUS
  0
ARC
  8
GREEN
 10
726.904138
 20
200.113734
 30
0.000000
 40
5.744700
 50
24.811864
 51
86.872544
  6
CONTINUOUS
  0
ARC
  8
GREEN
 10
644.775345
 20
135.670997
 30
0.000000
 40
109.991900
 50
2.098599
 51
37.430839
  6
CONTINUOUS
  0
ARC
  8
GREEN
 10
164.050766
 20
257.531527
 30
0.000000
 40
3.560200
 50
151.621331
 51
267.459690
  6
CONTINUOUS
  0
ARC
  8
GREEN
 10
170.565264
 20
273.201475
 30
0.000000
 40
20.351500
 50
-109.138496
 51
-23.230081
  6
CONTINUOUS
  0
ARC
  8
GREEN
 10
111.843713
 20
284.650466
 30
0.000000
 40
79.835200
 50
-14.120029
 51
3.356491
  6
CONTINUOUS
  0
ARC
  8
GREEN
 10
172.137976
 20
306.319414
 30
0.000000
 40
25.794100
 50
-41.213082
 51
-10.601414
  6
CONTINUOUS
  0
ARC
  8
GREEN
 10
3.559808
 20
254.094861
 30
0.000000
 40
199.659400
 50
13.756749
 51
18.621422
  6
CONTINUOUS
  0
ARC
  8
GREEN
 10
294.311241
 20
343.455617
 30
0.000000
 40
104.723300
 50
171.768430
 51
194.153381
  6
CONTINUOUS
  0
ARC
  8
GREEN
 10
160.973737
 20
369.669763
 30
0.000000
 40
31.742400
 50
-20.700623
 51
28.978799
  6
CONTINUOUS
  0
ARC
  8
GREEN
 10
180.939033
 20
378.080951
 30
0.000000
 40
10.461000
 50
41.763000
 51
110.983500
  6
CONTINUOUS
  0
LINE
  8
GREEN
 10
177.192958
 20
387.848215
 30
0.000000
 11
151.293516
 21
384.699296
 31
0.000000
  6
CONTINUOUS
  0
LINE
  8
GREEN
 10
151.293516
 20
384.699296
 30
0.000000
 11
153.393633
 21
367.198251
 31
0.000000
  6
CONTINUOUS
  0
LINE
  8
GREEN
 10
153.393633
 20
367.198251
 30
0.000000
 11
147.966833
 21
366.498051
 31
0.000000
  6
CONTINUOUS
  0
LINE
  8
GREEN
 10
147.966833
 20
366.498051
 30
0.000000
 11
145.866906
 21
383.998330
 31
0.000000
  6
CONTINUOUS
  0
ARC
  8
GREEN
 10
144.835631
 20
375.645451
 30
0.000000
 40
8.416300
 50
82.961687
 51
168.322740
  6
CONTINUOUS
  0
ARC
  8
GREEN
 10
122.094735
 20
377.997808
 30
0.000000
 40
14.513300
 50
-65.913595
 51
-2.562623
  6
CONTINUOUS
  0
ARC
  8
GREEN
 10
121.364750
 20
395.927755
 30
0.000000
 40
31.881500
 50
-100.430894
 51
-77.954932
  6
CONTINUOUS
  0
ARC
  8
GREEN
 10
116.435837
 20
358.068052
 30
0.000000
 40
6.559500
 50
97.385734
 51
211.922115
  6
CONTINUOUS
  0
ARC
  8
GREEN
 10
26.459572
 20
280.184880
 30
0.000000
 40
112.527300
 50
30.797539
 51
41.399384
  6
CONTINUOUS
  0
ARC
  8
GREEN
 10
15.055055
 20
275.236859
 30
0.000000
 40
124.867100
 50
15.818384
 51
30.068437
  6
CONTINUOUS
  0
ARC
  8
GREEN
 10
-52.144858
 20
274.512500
 30
0.000000
 40
190.536200
 50
2.771079
 51
10.512016
  6
CONTINUOUS
  0
ARC
  8
GREEN
 10
157.225929
 20
285.710194
 30
0.000000
 40
19.160600
 50
-174.050271
 51
-110.812493
  6
CONTINUOUS
  0
ARC
  8
GREEN
 10
159.007967
 20
301.873768
 30
0.000000
 40
35.140000
 50
-104.149390
 51
-81.721685
  6
CONTINUOUS
  0
ARC
  8
GREEN
 10
164.854308
 20
264.444639
 30
0.000000
 40
2.769400
 50
-69.644980
 51
106.505873
  6
CONTINUOUS
  0
ARC
  8
GREEN
 10
165.787534
 20
256.019351
 30
0.000000
 40
5.828900
 50
89.704413
 51
146.651437
  6
CONTINUOUS
  0
ARC
  8
GREEN
 10
177.449642
 20
274.480038
 30
0.000000
 40
4.046700
 50
-73.594098
 51
36.716625
  6
CONTINUOUS
  0
ARC
  8
GREEN
 10
227.788536
 20
284.013880
 30
0.000000
 40
47.629400
 50
172.963935
 51
188.590525
  6
CONTINUOUS
  0
ARC
  8
GREEN
 10
204.566115
 20
284.390605
 30
0.000000
 40
24.659800
 50
148.708841
 51
167.213694
  6
CONTINUOUS
  0
ARC
  8
GREEN
 10
175.593118
 20
304.512778
 30
0.000000
 40
10.766200
 50
-42.794096
 51
28.346437
  6
CONTINUOUS
  0
ARC
  8
GREEN
 10
178.108740
 20
304.877054
 30
0.000000
 40
8.424700
 50
34.299963
 51
113.553055
  6
CONTINUOUS
  0
ARC
  8
GREEN
 10
168.907550
 20
325.527147
 30
0.000000
 40
14.183000
 50
-103.307672
 51
-65.708031
  6
CONTINUOUS
  0
ARC
  8
GREEN
 10
166.554211
 20
302.861815
 30
0.000000
 40
8.909900
 50
95.870479
 51
198.743432
  6
CONTINUOUS
  0
ARC
  8
GREEN
 10
134.446937
 20
271.224205
 30
0.000000
 40
37.259100
 50
33.150067
 51
50.559379
  6
CONTINUOUS
  0
ARC
  8
GREEN
 10
212.717501
 20
295.624124
 30
0.000000
 40
47.247500
 50
-175.112598
 51
-156.188203
  6
CONTINUOUS
  0
ARC
  8
GREEN
 10
178.927064
 20
281.044147
 30
0.000000
 40
10.451400
 50
-154.524379
 51
-91.833918
  6
CONTINUOUS
  0
ARC
  8
GREEN
 10
607.589033
 20
133.143451
 30
0.000000
 40
20.014800
 50
-147.448500
 51
-64.858976
  6
CONTINUOUS
  0
ARC
  8
GREEN
 10
610.185029
 20
129.599750
 30
0.000000
 40
15.726601
 50
-67.937285
 51
-28.795969
  6
CONTINUOUS
  0
ARC
  8
GREEN
 10
620.739443
 20
122.823893
 30
0.000000
 40
3.325000
 50
-13.913550
 51
120.174911
  6
CONTINUOUS
  0
ARC
  8
GREEN
 10
617.463681
 20
128.323080
 30
0.000000
 40
3.076300
 50
136.901808
 51
301.437054
  6
CONTINUOUS
  0
ARC
  8
GREEN
 10
606.672835
 20
156.283619
 30
0.000000
 40
27.233800
 50
-71.714682
 51
-34.778175
  6
CONTINUOUS
  0
ARC
  8
GREEN
 10
608.926233
 20
151.792051
 30
0.000000
 40
22.947200
 50
-28.765000
 51
32.210448
  6
CONTINUOUS
  0
ARC
  8
GREEN
 10
728.284360
 20
211.402583
 30
0.000000
 40
110.604200
 50
-172.843659
 51
-154.636154
  6
CONTINUOUS
  0
ARC
  8
GREEN
 10
718.141917
 20
209.903782
 30
0.000000
 40
100.354300
 50
171.493030
 51
187.028675
  6
CONTINUOUS
  0
ARC
  8
GREEN
 10
564.682283
 20
237.194534
 30
0.000000
 40
55.619700
 50
-12.929870
 51
-1.102874
  6
CONTINUOUS
  0
ARC
  8
GREEN
 10
613.461853
 20
234.213880
 30
0.000000
 40
7.091900
 50
15.624796
 51
142.068597
  6
CONTINUOUS
  0
ARC
  8
GREEN
 10
599.575923
 20
249.334544
 30
0.000000
 40
13.585400
 50
-141.345056
 51
-52.383248
  6
CONTINUOUS
  0
ARC
  8
GREEN
 10
581.265733
 20
236.942251
 30
0.000000
 40
8.635200
 50
26.897000
 51
125.353533
  6
CONTINUOUS
  0
LINE
  8
GREEN
 10
576.269234
 20
243.985097
 30
0.000000
 11
582.843833
 21
227.548551
 31
0.000000
  6
CONTINUOUS
  0
LINE
  8
GREEN
 10
582.843833
 20
227.548551
 30
0.000000
 11
577.417133
 21
225.797951
 31
0.000000
  6
CONTINUOUS
  0
LINE
  8
GREEN
 10
577.417133
 20
225.797951
 30
0.000000
 11
570.767133
 21
242.247951
 31
0.000000
  6
CONTINUOUS
  0
LINE
  8
GREEN
 10
570.767133
 20
242.247951
 30
0.000000
 11
546.092841
 21
232.273187
 31
0.000000
  6
CONTINUOUS
  0
ARC
  8
GREEN
 10
548.602522
 20
222.228773
 30
0.000000
 40
10.353200
 50
104.028606
 51
205.636715
  6
CONTINUOUS
  0
ARC
  8
GREEN
 10
744.920441
 20
320.252835
 30
0.000000
 40
229.781800
 50
-153.506860
 51
-144.967757
  6
CONTINUOUS
  0
ARC
  8
GREEN
 10
474.025199
 20
139.315176
 30
0.000000
 40
96.181100
 50
9.656667
 51
30.651344
  6
CONTINUOUS
  0
ARC
  8
GREEN
 10
583.967051
 20
153.942735
 30
0.000000
 40
15.198400
 50
174.312395
 51
212.285772
  6
CONTINUOUS
  0
ARC
  8
GREEN
 10
590.596342
 20
163.590112
 30
0.000000
 40
26.362900
 50
-137.632597
 51
-111.129214
  6
CONTINUOUS
  0
ARC
  8
GREEN
 10
550.660002
 20
110.281484
 30
0.000000
 40
41.843900
 50
16.798050
 51
43.339138
  6
CONTINUOUS
  0
ARC
  8
GREEN
 10
599.431356
 20
133.934441
 30
0.000000
 40
6.896800
 50
-82.405352
 51
5.738991
  6
CONTINUOUS
  0
ARC
  8
GREEN
 10
576.319358
 20
137.437786
 30
0.000000
 40
30.106000
 50
-5.362652
 51
24.710775
  6
CONTINUOUS
  0
ARC
  8
GREEN
 10
620.510351
 20
152.090407
 30
0.000000
 40
16.968200
 50
155.512225
 51
186.997511
  6
CONTINUOUS
  0
ARC
  8
GREEN
 10
596.455019
 20
162.403416
 30
0.000000
 40
9.216700
 50
-20.845164
 51
45.035471
  6
CONTINUOUS
  0
ARC
  8
GREEN
 10
597.044344
 20
162.508933
 30
0.000000
 40
8.732300
 50
47.282709
 51
118.954167
  6
CONTINUOUS
  0
ARC
  8
GREEN
 10
580.949442
 20
184.465093
 30
0.000000
 40
18.594800
 50
-84.699521
 51
-50.341036
  6
CONTINUOUS
  0
ARC
  8
GREEN
 10
587.023240
 20
158.087355
 30
0.000000
 40
8.988500
 50
118.987748
 51
217.236880
  6
CONTINUOUS
  0
ARC
  8
GREEN
 10
555.645561
 20
114.281570
 30
0.000000
 40
45.372800
 50
34.603859
 51
57.735091
  6
CONTINUOUS
  0
ARC
  8
GREEN
 10
610.461108
 20
141.403073
 30
0.000000
 40
17.521700
 50
-175.566946
 51
-125.272748
  6
CONTINUOUS
  0
LINE
  8
GREEN
 10
451.942926
 20
151.774862
 30
0.000000
 11
427.792878
 21
162.974908
 31
0.000000
  6
CONTINUOUS
  0
ARC
  8
GREEN
 10
428.758233
 20
167.010451
 30
0.000000
 40
4.149400
 50
130.867000
 51
256.546900
  6
CONTINUOUS
  0
ARC
  8
GREEN
 10
423.871019
 20
173.110037
 30
0.000000
 40
3.672900
 50
-53.741906
 51
134.055190
  6
CONTINUOUS
  0
ARC
  8
GREEN
 10
419.305126
 20
179.336526
 30
0.000000
 40
4.112619
 50
119.288738
 51
299.288738
  6
CONTINUOUS
  0
ARC
  8
GREEN
 10
414.460004
 20
186.781467
 30
0.000000
 40
4.786600
 50
-53.708117
 51
61.170198
  6
CONTINUOUS
  0
ARC
  8
GREEN
 10
461.099712
 20
245.143518
 30
0.000000
 40
69.996700
 50
-162.910843
 51
-129.296821
  6
CONTINUOUS
  0
ARC
  8
GREEN
 10
396.992567
 20
225.962225
 30
0.000000
 40
3.124300
 50
51.979490
 51
206.373884
  6
CONTINUOUS
  0
ARC
  8
GREEN
 10
405.365812
 20
232.247168
 30
0.000000
 40
7.497200
 50
-149.335472
 51
-77.662520
  6
CONTINUOUS
  0
ARC
  8
GREEN
 10
406.906114
 20
229.381183
 30
0.000000
 40
4.458500
 50
-89.208095
 51
50.063567
  6
CONTINUOUS
  0
ARC
  8
GREEN
 10
414.560079
 20
237.752885
 30
0.000000
 40
6.891700
 50
126.423072
 51
225.947859
  6
CONTINUOUS
  0
ARC
  8
GREEN
 10
371.459030
 20
282.262250
 30
0.000000
 40
55.135300
 50
-44.966768
 51
-1.754694
  6
CONTINUOUS
  0
ARC
  8
GREEN
 10
433.011043
 20
283.713468
 30
0.000000
 40
7.166800
 50
132.784918
 51
205.980123
  6
CONTINUOUS
  0
ARC
  8
GREEN
 10
427.516720
 20
293.504468
 30
0.000000
 40
4.574300
 50
-82.130668
 51
38.062235
  6
CONTINUOUS
  0
ARC
  8
GREEN
 10
434.988815
 20
299.828247
 30
0.000000
 40
5.220800
 50
103.810398
 51
222.151518
  6
CONTINUOUS
  0
ARC
  8
GREEN
 10
435.930141
 20
309.469895
 30
0.000000
 40
5.068200
 50
-115.570975
 51
-10.183002
  6
CONTINUOUS
  0
ARC
  8
GREEN
 10
433.072470
 20
302.979930
 30
0.000000
 40
9.636000
 50
35.487511
 51
93.298441
  6
CONTINUOUS
  0
ARC
  8
GREEN
 10
441.355236
 20
320.736565
 30
0.000000
 40
12.012500
 50
169.508767
 51
222.636461
  6
CONTINUOUS
  0
ARC
  8
GREEN
 10
351.199597
 20
307.155789
 30
0.000000
 40
79.915000
 50
11.379731
 51
44.505761
  6
CONTINUOUS
  0
ARC
  8
GREEN
 10
411.540954
 20
369.818357
 30
0.000000
 40
7.439400
 50
105.180965
 51
243.257616
  6
CONTINUOUS
  0
ARC
  8
GREEN
 10
407.040121
 20
396.031734
 30
0.000000
 40
19.204000
 50
-82.361361
 51
-36.167937
  6
CONTINUOUS
  0
ARC
  8
GREEN
 10
427.987134
 20
377.427273
 30
0.000000
 40
9.083200
 50
-1.597336
 51
126.821678
  6
CONTINUOUS
  0
ARC
  8
GREEN
 10
503.746640
 20
367.549933
 30
0.000000
 40
67.370800
 50
171.787010
 51
201.966684
  6
CONTINUOUS
  0
ARC
  8
GREEN
 10
505.929842
 20
367.363143
 30
0.000000
 40
69.332700
 50
-158.851382
 51
-129.219330
  6
CONTINUOUS
  0
LINE
  8
GREEN
 10
462.091421
 20
313.648936
 30
0.000000
 11
450.716433
 21
299.998951
 31
0.000000
  6
CONTINUOUS
  0
LINE
  8
GREEN
 10
450.716433
 20
299.998951
 30
0.000000
 11
454.917733
 21
296.322851
 31
0.000000
  6
CONTINUOUS
  0
LINE
  8
GREEN
 10
454.917733
 20
296.322851
 30
0.000000
 11
466.655112
 21
309.987164
 31
0.000000
  6
CONTINUOUS
  0
LINE
  8
GREEN
 10
466.655112
 20
309.987164
 30
0.000000
 11
471.367108
 21
305.948350
 31
0.000000
  6
CONTINUOUS
  0
ARC
  8
GREEN
 10
466.269133
 20
299.591951
 30
0.000000
 40
8.148200
 50
-42.858000
 51
51.269600
  6
CONTINUOUS
  0
ARC
  8
GREEN
 10
480.098125
 20
281.165459
 30
0.000000
 40
15.090400
 50
121.372326
 51
174.929550
  6
CONTINUOUS
  0
ARC
  8
GREEN
 10
460.152583
 20
278.967335
 30
0.000000
 40
6.051700
 50
-108.394595
 51
35.704741
  6
CONTINUOUS
  0
ARC
  8
GREEN
 10
456.786872
 20
269.565908
 30
0.000000
 40
3.938000
 50
68.300354
 51
222.144962
  6
CONTINUOUS
  0
ARC
  8
GREEN
 10
451.727655
 20
263.032211
 30
0.000000
 40
4.440600
 50
-63.741652
 51
61.198330
  6
CONTINUOUS
  0
ARC
  8
GREEN
 10
497.987080
 20
203.976950
 30
0.000000
 40
70.675700
 50
128.809524
 51
152.465208
  6
CONTINUOUS
  0
ARC
  8
GREEN
 10
427.005089
 20
237.086649
 30
0.000000
 40
8.323200
 50
-86.986200
 51
-3.011220
  6
CONTINUOUS
  0
ARC
  8
GREEN
 10
427.052136
 20
224.703349
 30
0.000000
 40
4.090300
 50
84.520832
 51
242.557445
  6
CONTINUOUS
  0
ARC
  8
GREEN
 10
418.494548
 20
213.416976
 30
0.000000
 40
10.155900
 50
-30.258064
 51
48.927697
  6
CONTINUOUS
  0
ARC
  8
GREEN
 10
461.692874
 20
208.160597
 30
0.000000
 40
34.426300
 50
179.768884
 51
217.666287
  6
CONTINUOUS
  0
ARC
  8
GREEN
 10
438.402802
 20
184.693362
 30
0.000000
 40
4.647500
 50
148.466139
 51
251.034698
  6
CONTINUOUS
  0
ARC
  8
GREEN
 10
436.426243
 20
175.017081
 30
0.000000
 40
5.301600
 50
-18.905942
 51
84.955761
  6
CONTINUOUS
  0
ARC
  8
GREEN
 10
456.791496
 20
174.667240
 30
0.000000
 40
15.410500
 50
-174.907262
 51
-99.615236
  6
CONTINUOUS
  0
ARC
  8
GREEN
 10
453.018095
 20
155.642395
 30
0.000000
 40
4.014200
 50
-105.535860
 51
72.615544
  6
CONTINUOUS
  0
ARC
  8
GREEN
 10
385.118297
 20
50.354387
 30
0.000000
 40
48.309800
 50
27.050007
 51
45.100604
  6
CONTINUOUS
  0
ARC
  8
GREEN
 10
427.448514
 20
87.476456
 30
0.000000
 40
8.726700
 50
76.116675
 51
199.422854
  6
CONTINUOUS
  0
ARC
  8
GREEN
 10
418.405216
 20
148.411708
 30
0.000000
 40
53.632600
 50
-78.014868
 51
-27.980790
  6
CONTINUOUS
  0
ARC
  8
GREEN
 10
472.122538
 20
122.390411
 30
0.000000
 40
6.411800
 50
57.504096
 51
172.308098
  6
CONTINUOUS
  0
ARC
  8
GREEN
 10
478.127222
 20
130.939310
 30
0.000000
 40
4.052100
 50
-129.181151
 51
-14.877997
  6
CONTINUOUS
  0
ARC
  8
GREEN
 10
475.322401
 20
129.157863
 30
0.000000
 40
6.761800
 50
6.291660
 51
69.702413
  6
CONTINUOUS
  0
ARC
  8
GREEN
 10
480.843267
 20
139.929523
 30
0.000000
 40
5.450200
 50
112.951251
 51
234.367191
  6
CONTINUOUS
  0
ARC
  8
GREEN
 10
476.725234
 20
148.327225
 30
0.000000
 40
3.922800
 50
-59.470017
 51
104.507405
  6
CONTINUOUS
  0
ARC
  8
GREEN
 10
475.612531
 20
158.587040
 30
0.000000
 40
6.463400
 50
168.968001
 51
271.152673
  6
CONTINUOUS
  0
ARC
  8
GREEN
 10
427.682518
 20
153.203660
 30
0.000000
 40
42.109700
 50
9.045174
 51
58.805377
  6
CONTINUOUS
  0
ARC
  8
GREEN
 10
452.746768
 20
195.046398
 30
0.000000
 40
6.669100
 50
143.392399
 51
240.799187
  6
CONTINUOUS
  0
ARC
  8
GREEN
 10
444.497253
 20
204.210420
 30
0.000000
 40
5.940700
 50
-60.824922
 51
32.754261
  6
CONTINUOUS
  0
ARC
  8
GREEN
 10
445.051460
 20
196.926517
 30
0.000000
 40
11.399100
 50
67.065882
 51
115.092794
  6
CONTINUOUS
  0
ARC
  8
GREEN
 10
436.082632
 20
212.511701
 30
0.000000
 40
6.692000
 50
-117.012150
 51
-51.840891
  6
CONTINUOUS
  0
ARC
  8
GREEN
 10
439.088181
 20
209.545205
 30
0.000000
 40
6.746400
 50
131.495314
 51
206.360082
  6
CONTINUOUS
  0
ARC
  8
GREEN
 10
508.038940
 20
175.469056
 30
0.000000
 40
83.196700
 50
126.614606
 51
151.944775
  6
CONTINUOUS
  0
ARC
  8
GREEN
 10
458.292833
 20
246.046913
 30
0.000000
 40
3.800800
 50
-88.113224
 51
69.192419
  6
CONTINUOUS
  0
ARC
  8
GREEN
 10
461.219503
 20
252.220239
 30
0.000000
 40
3.058100
 50
66.432112
 51
238.967840
  6
CONTINUOUS
  0
ARC
  8
GREEN
 10
463.262547
 20
259.224926
 30
0.000000
 40
4.281000
 50
-101.047096
 51
29.369681
  6
CONTINUOUS
  0
ARC
  8
GREEN
 10
470.434325
 20
263.423957
 30
0.000000
 40
4.030900
 50
86.682461
 51
211.388482
  6
CONTINUOUS
  0
LINE
  8
GREEN
 10
470.667592
 20
267.448102
 30
0.000000
 11
501.992593
 21
265.698178
 31
0.000000
  6
CONTINUOUS
  0
ARC
  8
GREEN
 10
501.722233
 20
261.761551
 30
0.000000
 40
3.945900
 50
-86.069900
 51
86.071200
  6
CONTINUOUS
  0
ARC
  8
GREEN
 10
499.618193
 20
240.807087
 30
0.000000
 40
17.182700
 50
82.056837
 51
120.907735
  6
CONTINUOUS
  0
ARC
  8
GREEN
 10
487.030184
 20
258.611589
 30
0.000000
 40
4.850500
 50
-140.857246
 51
-39.141539
  6
CONTINUOUS
  0
ARC
  8
GREEN
 10
480.426816
 20
252.873354
 30
0.000000
 40
3.903400
 50
43.286096
 51
228.533683
  6
CONTINUOUS
  0
ARC
  8
GREEN
 10
475.130164
 20
246.376759
 30
0.000000
 40
4.484500
 50
-86.645979
 51
52.790768
  6
CONTINUOUS
  0
ARC
  8
GREEN
 10
485.359934
 20
227.100014
 30
0.000000
 40
17.843400
 50
123.959340
 51
180.244060
  6
CONTINUOUS
  0
ARC
  8
GREEN
 10
461.394229
 20
222.899950
 30
0.000000
 40
7.381900
 50
-69.185868
 51
33.963981
  6
CONTINUOUS
  0
ARC
  8
GREEN
 10
465.920769
 20
212.014551
 30
0.000000
 40
4.416500
 50
115.530492
 51
270.282237
  6
CONTINUOUS
  0
ARC
  8
GREEN
 10
463.412477
 20
200.437428
 30
0.000000
 40
7.594500
 50
-24.612880
 51
70.540402
  6
CONTINUOUS
  0
ARC
  8
GREEN
 10
480.533288
 20
196.962163
 30
0.000000
 40
10.221100
 50
178.249266
 51
274.542527
  6
CONTINUOUS
  0
ARC
  8
GREEN
 10
481.792813
 20
171.694184
 30
0.000000
 40
15.085700
 50
31.598855
 51
91.709452
  6
CONTINUOUS
  0
ARC
  8
GREEN
 10
511.893885
 20
186.441078
 30
0.000000
 40
18.559400
 50
-158.365842
 51
-119.722331
  6
CONTINUOUS
  0
ARC
  8
GREEN
 10
501.798370
 20
164.952449
 30
0.000000
 40
5.444800
 50
-54.409072
 51
80.551571
  6
CONTINUOUS
  0
ARC
  8
GREEN
 10
506.947209
 20
156.589515
 30
0.000000
 40
4.405300
 50
116.708909
 51
283.060915
  6
CONTINUOUS
  0
ARC
  8
GREEN
 10
506.948257
 20
145.688779
 30
0.000000
 40
6.683800
 50
-41.332815
 51
81.443110
  6
CONTINUOUS
  0
ARC
  8
GREEN
 10
519.418985
 20
137.334215
 30
0.000000
 40
8.429600
 50
152.131464
 51
235.067170
  6
CONTINUOUS
  0
ARC
  8
GREEN
 10
507.124744
 20
125.329856
 30
0.000000
 40
9.039100
 50
-65.191776
 51
34.298487
  6
CONTINUOUS
  0
LINE
  8
GREEN
 10
510.917391
 20
117.124909
 30
0.000000
 11
503.568333
 21
115.550151
 31
0.000000
  6
CONTINUOUS
  0
LINE
  8
GREEN
 10
503.568333
 20
115.550151
 30
0.000000
 11
499.543333
 21
133.050151
 31
0.000000
  6
CONTINUOUS
  0
LINE
  8
GREEN
 10
499.543333
 20
133.050151
 30
0.000000
 11
494.116533
 21
131.824751
 31
0.000000
  6
CONTINUOUS
  0
LINE
  8
GREEN
 10
494.116533
 20
131.824751
 30
0.000000
 11
498.395689
 21
113.638390
 31
0.000000
  6
CONTINUOUS
  0
ARC
  8
GREEN
 10
498.812133
 20
75.293551
 30
0.000000
 40
38.347100
 50
90.622236
 51
130.334000
  6
CONTINUOUS
  0
ARC
  8
GREEN
 10
508.352767
 20
47.584935
 30
0.000000
 40
66.504200
 50
121.108916
 51
157.998578
  6
CONTINUOUS
  0
ARC
  8
GREEN
 10
437.406125
 20
73.629011
 30
0.000000
 40
9.354100
 50
-171.981228
 51
-6.936169
  6
CONTINUOUS
  0
LINE
  8
GREEN
 10
665.966869
 20
37.115412
 30
0.000000
 11
657.392709
 21
37.674872
 31
0.000000
  6
CONTINUOUS
  0
ARC
  8
GREEN
 10
663.201733
 20
52.354051
 30
0.000000
 40
15.786800
 50
-178.802300
 51
-111.590300
  6
CONTINUOUS
  0
ARC
  8
GREEN
 10
826.622292
 20
105.407215
 30
0.000000
 40
186.986100
 50
-175.380926
 51
-163.411705
  6
CONTINUOUS
  0
ARC
  8
GREEN
 10
797.810281
 20
96.430606
 30
0.000000
 40
157.684100
 50
168.006009
 51
182.210318
  6
CONTINUOUS
  0
ARC
  8
GREEN
 10
778.414838
 20
103.668776
 30
0.000000
 40
137.241800
 50
154.963604
 51
169.279265
  6
CONTINUOUS
  0
ARC
  8
GREEN
 10
663.373494
 20
155.969698
 30
0.000000
 40
10.953600
 50
-22.520133
 51
148.157481
  6
CONTINUOUS
  0
ARC
  8
GREEN
 10
685.159327
 20
147.399055
 30
0.000000
 40
12.460900
 50
159.443897
 51
233.183834
  6
CONTINUOUS
  0
ARC
  8
GREEN
 10
673.792633
 20
126.499047
 30
0.000000
 40
11.599400
 50
0.370922
 51
70.355588
  6
CONTINUOUS
  0
ARC
  8
GREEN
 10
693.658334
 20
124.524299
 30
0.000000
 40
8.516900
 50
166.073380
 51
242.814238
  6
CONTINUOUS
  0
ARC
  8
GREEN
 10
689.404840
 20
110.626837
 30
0.000000
 40
6.331800
 50
-4.553477
 51
86.719621
  6
CONTINUOUS
  0
LINE
  8
GREEN
 10
695.716655
 20
110.124158
 30
0.000000
 11
696.066733
 21
101.024951
 31
0.000000
  6
CONTINUOUS
  0
LINE
  8
GREEN
 10
696.066733
 20
101.024951
 30
0.000000
 11
683.116733
 21
101.024951
 31
0.000000
  6
CONTINUOUS
  0
LINE
  8
GREEN
 10
683.116733
 20
101.024951
 30
0.000000
 11
683.291733
 21
95.073151
 31
0.000000
  6
CONTINUOUS
  0
LINE
  8
GREEN
 10
683.291733
 20
95.073151
 30
0.000000
 11
696.241733
 21
95.073151
 31
0.000000
  6
CONTINUOUS
  0
LINE
  8
GREEN
 10
696.241733
 20
95.073151
 30
0.000000
 11
696.591691
 21
85.623903
 31
0.000000
  6
CONTINUOUS
  0
ARC
  8
GREEN
 10
681.254633
 20
83.312851
 30
0.000000
 40
15.510200
 50
-69.082000
 51
8.569100
  6
CONTINUOUS
  0
ARC
  8
GREEN
 10
690.825473
 20
58.874626
 30
0.000000
 40
10.736600
 50
112.064534
 51
218.448711
  6
CONTINUOUS
  0
ARC
  8
GREEN
 10
677.022751
 20
45.473556
 30
0.000000
 40
8.621000
 50
-74.907123
 51
51.266139
  6
CONTINUOUS
  0
LINE
  8
GREEN
 10
679.267525
 20
37.149937
 30
0.000000
 11
671.568533
 21
37.324951
 31
0.000000
  6
CONTINUOUS
  0
LINE
  8
GREEN
 10
671.568533
 20
37.324951
 30
0.000000
 11
671.568533
 21
80.374951
 31
0.000000
  6
CONTINUOUS
  0
LINE
  8
GREEN
 10
671.568533
 20
80.374951
 30
0.000000
 11
665.791733
 21
80.374951
 31
0.000000
  6
CONTINUOUS
  0
LINE
  8
GREEN
 10
665.791733
 20
80.374951
 30
0.000000
 11
665.966869
 21
37.115412
 31
0.000000
  6
CONTINUOUS
  0
ARC
  8
GREEN
 10
402.619438
 20
261.594737
 30
0.000000
 40
13.064600
 50
-159.990364
 51
-63.041469
  6
CONTINUOUS
  0
ARC
  8
GREEN
 10
402.743516
 20
258.836340
 30
0.000000
 40
10.611100
 50
-56.874489
 51
28.802110
  6
CONTINUOUS
  0
ARC
  8
GREEN
 10
422.347977
 20
272.142295
 30
0.000000
 40
13.166300
 50
130.528904
 51
218.485889
  6
CONTINUOUS
  0
ARC
  8
GREEN
 10
406.606770
 20
290.380396
 30
0.000000
 40
10.925800
 50
-48.879264
 51
21.580316
  6
CONTINUOUS
  0
ARC
  8
GREEN
 10
427.840936
 20
294.816464
 30
0.000000
 40
11.082100
 50
118.564127
 51
182.159048
  6
CONTINUOUS
  0
ARC
  8
GREEN
 10
416.940033
 20
308.865251
 30
0.000000
 40
7.071600
 50
-37.608900
 51
26.981300
  6
CONTINUOUS
  0
LINE
  8
GREEN
 10
423.241922
 20
312.073634
 30
0.000000
 11
421.667033
 21
318.547951
 31
0.000000
  6
CONTINUOUS
  0
LINE
  8
GREEN
 10
421.667033
 20
318.547951
 30
0.000000
 11
409.591933
 21
315.572951
 31
0.000000
  6
CONTINUOUS
  0
LINE
  8
GREEN
 10
409.591933
 20
315.572951
 30
0.000000
 11
408.541633
 21
321.174751
 31
0.000000
  6
CONTINUOUS
  0
LINE
  8
GREEN
 10
408.541633
 20
321.174751
 30
0.000000
 11
420.266633
 21
323.974651
 31
0.000000
  6
CONTINUOUS
  0
LINE
  8
GREEN
 10
420.266633
 20
323.974651
 30
0.000000
 11
416.591769
 21
337.973790
 31
0.000000
  6
CONTINUOUS
  0
ARC
  8
GREEN
 10
404.173101
 20
334.298160
 30
0.000000
 40
12.951200
 50
16.487499
 51
89.250765
  6
CONTINUOUS
  0
ARC
  8
GREEN
 10
406.670068
 20
357.832743
 30
0.000000
 40
10.837400
 50
149.399559
 51
257.597613
  6
CONTINUOUS
  0
ARC
  8
GREEN
 10
390.176009
 20
367.784512
 30
0.000000
 40
8.427300
 50
-31.753588
 51
75.630848
  6
CONTINUOUS
  0
ARC
  8
GREEN
 10
389.117633
 20
366.761551
 30
0.000000
 40
9.711600
 50
71.075000
 51
131.572314
  6
CONTINUOUS
  0
LINE
  8
GREEN
 10
382.673357
 20
374.026982
 30
0.000000
 11
392.618733
 21
331.673351
 31
0.000000
  6
CONTINUOUS
  0
LINE
  8
GREEN
 10
392.618733
 20
331.673351
 30
0.000000
 11
387.542033
 21
330.623051
 31
0.000000
  6
CONTINUOUS
  0
LINE
  8
GREEN
 10
387.542033
 20
330.623051
 30
0.000000
 11
377.392033
 21
373.323051
 31
0.000000
  6
CONTINUOUS
  0
LINE
  8
GREEN
 10
377.392033
 20
373.323051
 30
0.000000
 11
368.992938
 21
371.398261
 31
0.000000
  6
CONTINUOUS
  0
ARC
  8
GREEN
 10
374.258351
 20
361.378861
 30
0.000000
 40
11.318700
 50
117.722904
 51
187.768272
  6
CONTINUOUS
  0
ARC
  8
GREEN
 10
511.477616
 20
344.668789
 30
0.000000
 40
149.208300
 50
174.160738
 51
193.169472
  6
CONTINUOUS
  0
ARC
  8
GREEN
 10
524.790743
 20
349.978111
 30
0.000000
 40
163.394900
 50
-166.081314
 51
-145.369738
  6
CONTINUOUS
  0
ARC
  8
GREEN
 10
516.991933
 20
15.406951
 30
0.000000
 40
8.362400
 50
-176.689900
 51
-92.051700
  6
CONTINUOUS
  0
LINE
  8
GREEN
 10
516.692548
 20
7.049912
 30
0.000000
 11
542.942400
 21
13.349888
 31
0.000000
  6
CONTINUOUS
  0
ARC
  8
GREEN
 10
541.747882
 20
17.318516
 30
0.000000
 40
4.144500
 50
-73.248728
 51
100.144870
  6
CONTINUOUS
  0
ARC
  8
GREEN
 10
534.296563
 20
38.681163
 30
0.000000
 40
18.543900
 50
-126.881774
 51
-68.748998
  6
CONTINUOUS
  0
ARC
  8
GREEN
 10
272.204790
 20
-176.663019
 30
0.000000
 40
321.227200
 50
38.623802
 51
40.774059
  6
CONTINUOUS
  0
ARC
  8
GREEN
 10
519.143021
 20
49.223962
 30
0.000000
 40
16.514900
 50
-130.275327
 51
-102.860382
  6
CONTINUOUS
  0
ARC
  8
GREEN
 10
514.316033
 20
37.414253
 30
0.000000
 40
5.902400
 50
115.316476
 51
187.694514
  6
CONTINUOUS
  0
ARC
  8
GREEN
 10
502.926367
 20
50.779389
 30
0.000000
 40
11.961400
 50
-42.166946
 51
12.774205
  6
CONTINUOUS
  0
ARC
  8
GREEN
 10
586.702362
 20
41.367029
 30
0.000000
 40
73.111700
 50
152.346867
 51
170.507765
  6
CONTINUOUS
  0
ARC
  8
GREEN
 10
578.910761
 20
46.278106
 30
0.000000
 40
63.935000
 50
128.520798
 51
153.004556
  6
CONTINUOUS
  0
ARC
  8
GREEN
 10
521.228199
 20
123.047928
 30
0.000000
 40
32.165000
 50
-56.262827
 51
-37.877454
  6
CONTINUOUS
  0
ARC
  8
GREEN
 10
540.905942
 20
104.431796
 30
0.000000
 40
5.822100
 50
-11.215150
 51
71.357301
  6
CONTINUOUS
  0
ARC
  8
GREEN
 10
545.527867
 20
112.702617
 30
0.000000
 40
3.899700
 50
91.990921
 51
224.931468
  6
CONTINUOUS
  0
ARC
  8
GREEN
 10
542.869940
 20
122.012547
 30
0.000000
 40
5.971500
 50
-65.012887
 51
55.328461
  6
CONTINUOUS
  0
ARC
  8
GREEN
 10
567.129816
 20
139.453880
 30
0.000000
 40
24.336500
 50
158.307669
 51
210.988978
  6
CONTINUOUS
  0
ARC
  8
GREEN
 10
475.214446
 20
156.221465
 30
0.000000
 40
69.736800
 50
-6.398994
 51
23.293848
  6
CONTINUOUS
  0
ARC
  8
GREEN
 10
452.170533
 20
143.342151
 30
0.000000
 40
96.033900
 50
24.915000
 51
43.706300
  6
CONTINUOUS
  0
LINE
  8
GREEN
 10
521.592592
 20
209.697917
 30
0.000000
 11
511.712848
 21
202.709850
 31
0.000000
  6
CONTINUOUS
  0
LINE
  8
GREEN
 10
511.712848
 20
202.709850
 30
0.000000
 11
525.093933
 21
186.073851
 31
0.000000
  6
CONTINUOUS
  0
LINE
  8
GREEN
 10
525.093933
 20
186.073851
 30
0.000000
 11
520.192433
 21
182.397851
 31
0.000000
  6
CONTINUOUS
  0
LINE
  8
GREEN
 10
520.192433
 20
182.397851
 30
0.000000
 11
507.242433
 21
198.847851
 31
0.000000
  6
CONTINUOUS
  0
LINE
  8
GREEN
 10
507.242433
 20
198.847851
 30
0.000000
 11
497.268820
 21
190.973987
 31
0.000000
  6
CONTINUOUS
  0
ARC
  8
GREEN
 10
315.098513
 20
28.168562
 30
0.000000
 40
244.318700
 50
34.179711
 51
41.787128
  6
CONTINUOUS
  0
ARC
  8
GREEN
 10
467.586008
 20
140.591701
 30
0.000000
 40
55.498100
 50
-8.541365
 51
26.580373
  6
CONTINUOUS
  0
ARC
  8
GREEN
 10
609.370104
 20
110.405433
 30
0.000000
 40
89.629200
 50
165.828486
 51
172.326094
  6
CONTINUOUS
  0
ARC
  8
GREEN
 10
527.835753
 20
123.387307
 30
0.000000
 40
7.362200
 50
-172.089334
 51
-108.964958
  6
CONTINUOUS
  0
ARC
  8
GREEN
 10
523.652183
 20
113.493921
 30
0.000000
 40
3.434700
 50
-101.071948
 51
58.572277
  6
CONTINUOUS
  0
ARC
  8
GREEN
 10
523.798949
 20
103.388253
 30
0.000000
 40
6.783000
 50
96.827535
 51
174.836213
  6
CONTINUOUS
  0
ARC
  8
GREEN
 10
381.084225
 20
136.002543
 30
0.000000
 40
139.675200
 50
-26.720660
 51
-13.245865
  6
CONTINUOUS
  0
ARC
  8
GREEN
 10
407.577288
 20
118.822023
 30
0.000000
 40
108.340700
 50
-37.596755
 51
-24.904592
  6
CONTINUOUS
  0
ARC
  8
GREEN
 10
498.387802
 20
46.701525
 30
0.000000
 40
7.807600
 50
129.531502
 51
221.531575
  6
CONTINUOUS
  0
ARC
  8
GREEN
 10
491.793049
 20
37.519048
 30
0.000000
 40
4.075400
 50
-71.770262
 51
79.394536
  6
CONTINUOUS
  0
ARC
  8
GREEN
 10
493.943080
 20
28.731875
 30
0.000000
 40
4.993600
 50
100.093246
 51
282.134249
  6
CONTINUOUS
  0
ARC
  8
GREEN
 10
494.182728
 20
7.709656
 30
0.000000
 40
16.160500
 50
26.514540
 51
87.126927
  6
CONTINUOUS
  0
LINE
  8
GREEN
 10
623.966733
 20
5.999951
 30
0.000000
 11
573.917715
 21
6.349994
 31
0.000000
  6
CONTINUOUS
  0
ARC
  8
GREEN
 10
574.238433
 20
14.719851
 30
0.000000
 40
8.376000
 50
-177.804800
 51
-92.194400
  6
CONTINUOUS
  0
LINE
  8
GREEN
 10
565.868580
 20
14.399016
 30
0.000000
 11
567.093333
 21
19.822951
 31
0.000000
  6
CONTINUOUS
  0
LINE
  8
GREEN
 10
567.093333
 20
19.822951
 30
0.000000
 11
583.893333
 21
15.447951
 31
0.000000
  6
CONTINUOUS
  0
LINE
  8
GREEN
 10
583.893333
 20
15.447951
 30
0.000000
 11
585.118733
 21
21.399751
 31
0.000000
  6
CONTINUOUS
  0
LINE
  8
GREEN
 10
585.118733
 20
21.399751
 30
0.000000
 11
540.492812
 21
32.074838
 31
0.000000
  6
CONTINUOUS
  0
ARC
  8
GREEN
 10
541.780233
 20
39.561551
 30
0.000000
 40
7.596600
 50
177.076800
 51
260.242800
  6
CONTINUOUS
  0
LINE
  8
GREEN
 10
534.193518
 20
39.948957
 30
0.000000
 11
534.718433
 21
44.323051
 31
0.000000
  6
CONTINUOUS
  0
LINE
  8
GREEN
 10
534.718433
 20
44.323051
 30
0.000000
 11
561.143433
 21
41.348051
 31
0.000000
  6
CONTINUOUS
  0
LINE
  8
GREEN
 10
561.143433
 20
41.348051
 30
0.000000
 11
561.843633
 21
46.599851
 31
0.000000
  6
CONTINUOUS
  0
LINE
  8
GREEN
 10
561.843633
 20
46.599851
 30
0.000000
 11
535.632454
 21
49.724355
 31
0.000000
  6
CONTINUOUS
  0
ARC
  8
GREEN
 10
543.733933
 20
52.278951
 30
0.000000
 40
8.494700
 50
90.616000
 51
197.501345
  6
CONTINUOUS
  0
LINE
  8
GREEN
 10
543.642606
 20
60.773160
 30
0.000000
 11
589.843533
 21
60.948151
 31
0.000000
  6
CONTINUOUS
  0
LINE
  8
GREEN
 10
589.843533
 20
60.948151
 30
0.000000
 11
589.843533
 21
66.374951
 31
0.000000
  6
CONTINUOUS
  0
LINE
  8
GREEN
 10
589.843533
 20
66.374951
 30
0.000000
 11
572.343533
 21
66.199951
 31
0.000000
  6
CONTINUOUS
  0
LINE
  8
GREEN
 10
572.343533
 20
66.199951
 30
0.000000
 11
572.168664
 21
71.273996
 31
0.000000
  6
CONTINUOUS
  0
ARC
  8
GREEN
 10
580.284533
 20
70.394351
 30
0.000000
 40
8.163400
 50
80.601300
 51
173.814100
  6
CONTINUOUS
  0
LINE
  8
GREEN
 10
581.617645
 20
78.448165
 30
0.000000
 11
630.791733
 21
67.948351
 31
0.000000
  6
CONTINUOUS
  0
LINE
  8
GREEN
 10
630.791733
 20
67.948351
 30
0.000000
 11
627.641933
 21
39.774951
 31
0.000000
  6
CONTINUOUS
  0
LINE
  8
GREEN
 10
627.641933
 20
39.774951
 30
0.000000
 11
608.041933
 21
41.524951
 31
0.000000
  6
CONTINUOUS
  0
LINE
  8
GREEN
 10
608.041933
 20
41.524951
 30
0.000000
 11
607.341633
 21
36.448251
 31
0.000000
  6
CONTINUOUS
  0
LINE
  8
GREEN
 10
607.341633
 20
36.448251
 30
0.000000
 11
627.116633
 21
34.698251
 31
0.000000
  6
CONTINUOUS
  0
LINE
  8
GREEN
 10
627.116633
 20
34.698251
 30
0.000000
 11
623.966733
 21
5.999951
 31
0.000000
  6
CONTINUOUS
  0
LINE
  8
GREEN
 10
358.316833
 20
175.050051
 30
0.000000
 11
346.243533
 21
176.449851
 31
0.000000
  6
CONTINUOUS
  0
LINE
  8
GREEN
 10
346.243533
 20
176.449851
 30
0.000000
 11
347.818633
 21
197.099851
 31
0.000000
  6
CONTINUOUS
  0
LINE
  8
GREEN
 10
347.818633
 20
197.099851
 30
0.000000
 11
342.216833
 21
197.800051
 31
0.000000
  6
CONTINUOUS
  0
LINE
  8
GREEN
 10
342.216833
 20
197.800051
 30
0.000000
 11
340.454758
 21
176.479260
 31
0.000000
  6
CONTINUOUS
  0
LINE
  8
GREEN
 10
340.454758
 20
176.479260
 30
0.000000
 11
327.868633
 21
178.024851
 31
0.000000
  6
CONTINUOUS
  0
LINE
  8
GREEN
 10
327.868633
 20
178.024851
 30
0.000000
 11
330.143535
 21
197.973902
 31
0.000000
  6
CONTINUOUS
  0
ARC
  8
GREEN
 10
421.990370
 20
182.273466
 30
0.000000
 40
93.179100
 50
156.921652
 51
170.299534
  6
CONTINUOUS
  0
ARC
  8
GREEN
 10
450.279942
 20
168.800888
 30
0.000000
 40
124.492600
 50
146.687113
 51
156.320967
  6
CONTINUOUS
  0
ARC
  8
GREEN
 10
332.523618
 20
245.427860
 30
0.000000
 40
16.011500
 50
-31.032403
 51
21.033080
  6
CONTINUOUS
  0
ARC
  8
GREEN
 10
351.119969
 20
253.349090
 30
0.000000
 40
4.250100
 50
103.987610
 51
210.774243
  6
CONTINUOUS
  0
ARC
  8
GREEN
 10
350.419449
 20
261.195450
 30
0.000000
 40
3.736600
 50
-95.017145
 51
36.626212
  6
CONTINUOUS
  0
ARC
  8
GREEN
 10
349.130087
 20
258.922695
 30
0.000000
 40
6.217400
 50
46.393513
 51
102.186853
  6
CONTINUOUS
  0
ARC
  8
GREEN
 10
347.736408
 20
269.494949
 30
0.000000
 40
4.495700
 50
156.341729
 51
271.034688
  6
CONTINUOUS
  0
ARC
  8
GREEN
 10
248.919200
 20
285.688837
 30
0.000000
 40
95.786400
 50
-8.640170
 51
7.112697
  6
CONTINUOUS
  0
ARC
  8
GREEN
 10
233.620818
 20
283.825373
 30
0.000000
 40
111.197800
 50
7.089437
 51
23.308589
  6
CONTINUOUS
  0
ARC
  8
GREEN
 10
340.595213
 20
330.450588
 30
0.000000
 40
5.516900
 50
107.970691
 51
208.425334
  6
CONTINUOUS
  0
ARC
  8
GREEN
 10
336.761347
 20
338.817961
 30
0.000000
 40
3.778400
 50
-55.653956
 51
78.841943
  6
CONTINUOUS
  0
ARC
  8
GREEN
 10
336.737954
 20
347.861454
 30
0.000000
 40
5.389600
 50
-154.007879
 51
-81.951824
  6
CONTINUOUS
  0
ARC
  8
GREEN
 10
336.436104
 20
348.026103
 30
0.000000
 40
5.198000
 50
95.719330
 51
209.083057
  6
CONTINUOUS
  0
ARC
  8
GREEN
 10
328.671319
 20
366.247543
 30
0.000000
 40
14.926500
 50
-60.954939
 51
17.352140
  6
CONTINUOUS
  0
ARC
  8
GREEN
 10
351.530233
 20
371.416051
 30
0.000000
 40
8.641500
 50
111.643600
 51
184.757900
  6
CONTINUOUS
  0
LINE
  8
GREEN
 10
348.342971
 20
379.448292
 30
0.000000
 11
372.492882
 21
388.023225
 31
0.000000
  6
CONTINUOUS
  0
ARC
  8
GREEN
 10
373.616895
 20
384.413790
 30
0.000000
 40
3.780400
 50
-63.691646
 51
107.297098
  6
CONTINUOUS
  0
ARC
  8
GREEN
 10
378.085356
 20
356.466265
 30
0.000000
 40
24.717000
 50
96.488187
 51
131.161368
  6
CONTINUOUS
  0
ARC
  8
GREEN
 10
376.015502
 20
359.021612
 30
0.000000
 40
21.431200
 50
131.491748
 51
195.280124
  6
CONTINUOUS
  0
ARC
  8
GREEN
 10
347.436451
 20
349.397915
 30
0.000000
 40
8.848900
 50
-42.676049
 51
26.698365
  6
CONTINUOUS
  0
ARC
  8
GREEN
 10
357.037467
 20
339.901892
 30
0.000000
 40
4.670700
 50
131.506915
 51
222.467107
  6
CONTINUOUS
  0
ARC
  8
GREEN
 10
349.047547
 20
331.808238
 30
0.000000
 40
6.712500
 50
-24.270554
 51
47.388664
  6
CONTINUOUS
  0
ARC
  8
GREEN
 10
435.142632
 20
324.499028
 30
0.000000
 40
80.105200
 50
176.743783
 51
193.003943
  6
CONTINUOUS
  0
ARC
  8
GREEN
 10
418.370391
 20
321.051927
 30
0.000000
 40
62.988800
 50
-166.618235
 51
-137.686366
  6
CONTINUOUS
  0
ARC
  8
GREEN
 10
368.161327
 20
276.942864
 30
0.000000
 40
4.011400
 50
-62.038530
 51
25.164602
  6
CONTINUOUS
  0
ARC
  8
GREEN
 10
372.457163
 20
269.731171
 30
0.000000
 40
4.392100
 50
123.356472
 51
214.029397
  6
CONTINUOUS
  0
ARC
  8
GREEN
 10
372.730430
 20
273.958353
 30
0.000000
 40
7.746200
 50
-120.343271
 51
-77.418877
  6
CONTINUOUS
  0
ARC
  8
GREEN
 10
374.128898
 20
261.190253
 30
0.000000
 40
5.215900
 50
-16.036090
 51
86.825713
  6
CONTINUOUS
  0
ARC
  8
GREEN
 10
405.851894
 20
237.392584
 30
0.000000
 40
34.831800
 50
140.070043
 51
152.549445
  6
CONTINUOUS
  0
ARC
  8
GREEN
 10
462.112033
 20
200.676851
 30
0.000000
 40
101.899900
 50
148.809400
 51
173.139500
  6
CONTINUOUS
  0
LINE
  8
GREEN
 10
360.941743
 20
212.849039
 30
0.000000
 11
358.316833
 21
175.050051
 31
0.000000
  6
CONTINUOUS
  0
LINE
  8
GREEN
 10
59.417700
 20
9.144427
 30
0.000000
 11
39.992633
 21
9.324051
 31
0.000000
  6
CONTINUOUS
  0
LINE
  8
GREEN
 10
39.992633
 20
9.324051
 30
0.000000
 11
35.617657
 21
42.924080
 31
0.000000
  6
CONTINUOUS
  0
ARC
  8
GREEN
 10
42.440933
 20
43.433951
 30
0.000000
 40
6.842300
 50
91.451300
 51
184.273500
  6
CONTINUOUS
  0
LINE
  8
GREEN
 10
42.267636
 20
50.274056
 30
0.000000
 11
45.067633
 21
50.624051
 31
0.000000
  6
CONTINUOUS
  0
LINE
  8
GREEN
 10
45.067633
 20
50.624051
 30
0.000000
 11
48.042633
 21
30.149051
 31
0.000000
  6
CONTINUOUS
  0
LINE
  8
GREEN
 10
48.042633
 20
30.149051
 30
0.000000
 11
53.117633
 21
30.849051
 31
0.000000
  6
CONTINUOUS
  0
LINE
  8
GREEN
 10
53.117633
 20
30.849051
 30
0.000000
 11
50.667633
 21
50.974051
 31
0.000000
  6
CONTINUOUS
  0
LINE
  8
GREEN
 10
50.667633
 20
50.974051
 30
0.000000
 11
61.692633
 21
52.374051
 31
0.000000
  6
CONTINUOUS
  0
LINE
  8
GREEN
 10
61.692633
 20
52.374051
 30
0.000000
 11
65.542633
 21
51.674051
 31
0.000000
  6
CONTINUOUS
  0
LINE
  8
GREEN
 10
65.542633
 20
51.674051
 30
0.000000
 11
77.967633
 21
47.124051
 31
0.000000
  6
CONTINUOUS
  0
LINE
  8
GREEN
 10
77.967633
 20
47.124051
 30
0.000000
 11
72.192633
 21
31.024051
 31
0.000000
  6
CONTINUOUS
  0
LINE
  8
GREEN
 10
72.192633
 20
31.024051
 30
0.000000
 11
77.442633
 21
29.274051
 31
0.000000
  6
CONTINUOUS
  0
LINE
  8
GREEN
 10
77.442633
 20
29.274051
 30
0.000000
 11
86.367695
 21
55.174055
 31
0.000000
  6
CONTINUOUS
  0
ARC
  8
GREEN
 10
95.622633
 20
51.536851
 30
0.000000
 40
9.944000
 50
28.122600
 51
158.545100
  6
CONTINUOUS
  0
LINE
  8
GREEN
 10
104.392654
 20
56.224053
 30
0.000000
 11
114.367633
 21
29.799051
 31
0.000000
  6
CONTINUOUS
  0
LINE
  8
GREEN
 10
114.367633
 20
29.799051
 30
0.000000
 11
119.442633
 21
31.549051
 31
0.000000
  6
CONTINUOUS
  0
LINE
  8
GREEN
 10
119.442633
 20
31.549051
 30
0.000000
 11
113.543333
 21
47.315951
 31
0.000000
  6
CONTINUOUS
  0
LINE
  8
GREEN
 10
113.543333
 20
47.315951
 30
0.000000
 11
128.192633
 21
52.199051
 31
0.000000
  6
CONTINUOUS
  0
LINE
  8
GREEN
 10
128.192633
 20
52.199051
 30
0.000000
 11
131.342633
 21
52.549051
 31
0.000000
  6
CONTINUOUS
  0
LINE
  8
GREEN
 10
131.342633
 20
52.549051
 30
0.000000
 11
141.317633
 21
51.674051
 31
0.000000
  6
CONTINUOUS
  0
LINE
  8
GREEN
 10
141.317633
 20
51.674051
 30
0.000000
 11
139.217633
 21
31.024051
 31
0.000000
  6
CONTINUOUS
  0
LINE
  8
GREEN
 10
139.217633
 20
31.024051
 30
0.000000
 11
144.467633
 21
30.674051
 31
0.000000
  6
CONTINUOUS
  0
LINE
  8
GREEN
 10
144.467633
 20
30.674051
 30
0.000000
 11
146.917677
 21
51.324082
 31
0.000000
  6
CONTINUOUS
  0
ARC
  8
GREEN
 10
143.789533
 20
28.650551
 30
0.000000
 40
22.888300
 50
70.863700
 51
82.144800
  6
CONTINUOUS
  0
ARC
  8
GREEN
 10
149.386348
 20
43.920716
 30
0.000000
 40
6.633200
 50
-13.262076
 51
73.297948
  6
CONTINUOUS
  0
LINE
  8
GREEN
 10
155.842647
 20
42.399023
 30
0.000000
 11
152.517633
 21
9.499051
 31
0.000000
  6
CONTINUOUS
  0
LINE
  8
GREEN
 10
152.517633
 20
9.499051
 30
0.000000
 11
133.267633
 21
9.324051
 31
0.000000
  6
CONTINUOUS
  0
LINE
  8
GREEN
 10
133.267633
 20
9.324051
 30
0.000000
 11
133.267633
 21
21.749051
 31
0.000000
  6
CONTINUOUS
  0
LINE
  8
GREEN
 10
133.267633
 20
21.749051
 30
0.000000
 11
127.492633
 21
21.749051
 31
0.000000
  6
CONTINUOUS
  0
LINE
  8
GREEN
 10
127.492633
 20
21.749051
 30
0.000000
 11
127.667633
 21
9.324051
 31
0.000000
  6
CONTINUOUS
  0
LINE
  8
GREEN
 10
127.667633
 20
9.324051
 30
0.000000
 11
98.442633
 21
9.149051
 31
0.000000
  6
CONTINUOUS
  0
LINE
  8
GREEN
 10
98.442633
 20
9.149051
 30
0.000000
 11
98.617633
 21
21.574051
 31
0.000000
  6
CONTINUOUS
  0
LINE
  8
GREEN
 10
98.617633
 20
21.574051
 30
0.000000
 11
93.367633
 21
21.574051
 31
0.000000
  6
CONTINUOUS
  0
LINE
  8
GREEN
 10
93.367633
 20
21.574051
 30
0.000000
 11
93.367633
 21
9.324051
 31
0.000000
  6
CONTINUOUS
  0
LINE
  8
GREEN
 10
93.367633
 20
9.324051
 30
0.000000
 11
65.017633
 21
9.324051
 31
0.000000
  6
CONTINUOUS
  0
LINE
  8
GREEN
 10
65.017633
 20
9.324051
 30
0.000000
 11
64.667633
 21
21.399051
 31
0.000000
  6
CONTINUOUS
  0
LINE
  8
GREEN
 10
64.667633
 20
21.399051
 30
0.000000
 11
59.242633
 21
21.224051
 31
0.000000
  6
CONTINUOUS
  0
LINE
  8
GREEN
 10
59.242633
 20
21.224051
 30
0.000000
 11
59.417700
 21
9.144427
 31
0.000000
  6
CONTINUOUS
  0
ARC
  8
GREEN
 10
77.322701
 20
239.311026
 30
0.000000
 40
5.744200
 50
128.228393
 51
213.690671
  6
CONTINUOUS
  0
ARC
  8
GREEN
 10
75.252495
 20
240.353211
 30
0.000000
 40
5.022000
 50
-122.647647
 51
-16.526387
  6
CONTINUOUS
  0
ARC
  8
GREEN
 10
11.027554
 20
307.803872
 30
0.000000
 40
97.523300
 50
-44.933418
 51
-12.287542
  6
CONTINUOUS
  0
ARC
  8
GREEN
 10
4.477143
 20
309.240995
 30
0.000000
 40
104.229500
 50
-12.293125
 51
17.206481
  6
CONTINUOUS
  0
ARC
  8
GREEN
 10
75.932827
 20
333.066775
 30
0.000000
 40
28.969200
 50
13.997351
 51
68.516460
  6
CONTINUOUS
  0
ARC
  8
GREEN
 10
90.238140
 20
367.649648
 30
0.000000
 40
8.474700
 50
173.567440
 51
244.144749
  6
CONTINUOUS
  0
ARC
  8
GREEN
 10
36.912729
 20
372.449006
 30
0.000000
 40
45.068800
 50
-4.900343
 51
12.330886
  6
CONTINUOUS
  0
ARC
  8
GREEN
 10
71.994152
 20
378.603103
 30
0.000000
 40
9.597200
 50
21.200508
 51
161.024535
  6
CONTINUOUS
  0
ARC
  8
GREEN
 10
-20.264743
 20
396.077191
 30
0.000000
 40
84.412500
 50
-19.626931
 51
-9.790097
  6
CONTINUOUS
  0
ARC
  8
GREEN
 10
49.792692
 20
374.549133
 30
0.000000
 40
11.657800
 50
-82.234731
 51
-35.838199
  6
CONTINUOUS
  0
ARC
  8
GREEN
 10
57.254924
 20
332.390149
 30
0.000000
 40
31.169100
 50
100.887183
 51
152.258772
  6
CONTINUOUS
  0
ARC
  8
GREEN
 10
152.716858
 20
285.896202
 30
0.000000
 40
137.339800
 50
153.629617
 51
167.146416
  6
CONTINUOUS
  0
ARC
  8
GREEN
 10
102.796662
 20
297.339739
 30
0.000000
 40
86.124800
 50
167.180687
 51
188.389390
  6
CONTINUOUS
  0
ARC
  8
GREEN
 10
111.133139
 20
295.329900
 30
0.000000
 40
94.133400
 50
-173.561531
 51
-155.001352
  6
CONTINUOUS
  0
ARC
  8
GREEN
 10
99.594240
 20
284.816985
 30
0.000000
 40
79.369200
 50
-158.361318
 51
-145.904437
  6
CONTINUOUS
  0
ARC
  8
GREEN
 10
36.666926
 20
243.333744
 30
0.000000
 40
4.109400
 50
-132.924059
 51
35.990859
  6
CONTINUOUS
  0
ARC
  8
GREEN
 10
137.982817
 20
295.095984
 30
0.000000
 40
109.715000
 50
-168.314226
 51
-153.270597
  6
CONTINUOUS
  0
ARC
  8
GREEN
 10
135.797282
 20
291.349243
 30
0.000000
 40
106.864600
 50
168.530335
 51
189.955659
  6
CONTINUOUS
  0
ARC
  8
GREEN
 10
74.028739
 20
308.933320
 30
0.000000
 40
43.118100
 50
135.089613
 51
175.122891
  6
CONTINUOUS
  0
ARC
  8
GREEN
 10
62.360233
 20
318.175851
 30
0.000000
 40
28.379600
 50
82.901325
 51
131.671000
  6
CONTINUOUS
  0
LINE
  8
GREEN
 10
65.867342
 20
346.337916
 30
0.000000
 11
67.291933
 21
358.625051
 31
0.000000
  6
CONTINUOUS
  0
LINE
  8
GREEN
 10
67.291933
 20
358.625051
 30
0.000000
 11
72.368633
 21
357.924851
 31
0.000000
  6
CONTINUOUS
  0
LINE
  8
GREEN
 10
72.368633
 20
357.924851
 30
0.000000
 11
71.143609
 21
345.674939
 31
0.000000
  6
CONTINUOUS
  0
ARC
  8
GREEN
 10
69.237570
 20
318.846963
 30
0.000000
 40
26.895600
 50
50.918692
 51
85.936151
  6
CONTINUOUS
  0
ARC
  8
GREEN
 10
67.668924
 20
318.210773
 30
0.000000
 40
28.390100
 50
-7.461695
 51
49.270442
  6
CONTINUOUS
  0
ARC
  8
GREEN
 10
-1.114786
 20
306.452079
 30
0.000000
 40
97.268900
 50
-17.904442
 51
4.760165
  6
CONTINUOUS
  0
ARC
  8
GREEN
 10
-12.343443
 20
311.469022
 30
0.000000
 40
109.504100
 50
-38.151667
 51
-18.596139
  6
CONTINUOUS
  0
ARC
  8
GREEN
 10
303.089020
 20
233.519889
 30
0.000000
 40
14.518000
 50
-160.921041
 51
-68.362457
  6
CONTINUOUS
  0
ARC
  8
GREEN
 10
303.569168
 20
232.642665
 30
0.000000
 40
13.526100
 50
-68.882859
 51
11.109284
  6
CONTINUOUS
  0
ARC
  8
GREEN
 10
334.023934
 20
238.049045
 30
0.000000
 40
17.408800
 50
147.805212
 51
189.256080
  6
CONTINUOUS
  0
ARC
  8
GREEN
 10
309.831933
 20
252.140451
 30
0.000000
 40
10.615300
 50
-26.980400
 51
101.346200
  6
CONTINUOUS
  0
LINE
  8
GREEN
 10
307.743513
 20
262.548289
 30
0.000000
 11
306.343433
 21
245.398151
 31
0.000000
  6
CONTINUOUS
  0
LINE
  8
GREEN
 10
306.343433
 20
245.398151
 30
0.000000
 11
301.091733
 21
245.748251
 31
0.000000
  6
CONTINUOUS
  0
LINE
  8
GREEN
 10
301.091733
 20
245.748251
 30
0.000000
 11
302.316757
 21
262.723377
 31
0.000000
  6
CONTINUOUS
  0
ARC
  8
GREEN
 10
299.377398
 20
252.175161
 30
0.000000
 40
10.950100
 50
74.429009
 51
150.009426
  6
CONTINUOUS
  0
ARC
  8
GREEN
 10
283.211383
 20
262.484420
 30
0.000000
 40
8.248300
 50
173.458664
 51
324.106910
  6
CONTINUOUS
  0
ARC
  8
GREEN
 10
257.867645
 20
261.964904
 30
0.000000
 40
17.211100
 50
4.863392
 51
175.136771
  6
CONTINUOUS
  0
ARC
  8
GREEN
 10
232.124929
 20
263.790748
 30
0.000000
 40
8.601400
 50
-153.282501
 51
-2.443614
  6
CONTINUOUS
  0
ARC
  8
GREEN
 10
215.206633
 20
253.413451
 30
0.000000
 40
11.299200
 50
35.181100
 51
101.812700
  6
CONTINUOUS
  0
LINE
  8
GREEN
 10
212.893540
 20
264.473357
 30
0.000000
 11
213.418533
 21
247.148251
 31
0.000000
  6
CONTINUOUS
  0
LINE
  8
GREEN
 10
213.418533
 20
247.148251
 30
0.000000
 11
207.991833
 21
246.973151
 31
0.000000
  6
CONTINUOUS
  0
LINE
  8
GREEN
 10
207.991833
 20
246.973151
 30
0.000000
 11
207.291768
 21
264.298337
 31
0.000000
  6
CONTINUOUS
  0
ARC
  8
GREEN
 10
204.858831
 20
254.177352
 30
0.000000
 40
10.409300
 50
76.483387
 51
173.398596
  6
CONTINUOUS
  0
ARC
  8
GREEN
 10
209.733822
 20
254.432178
 30
0.000000
 40
15.244400
 50
176.457849
 51
213.135227
  6
CONTINUOUS
  0
ARC
  8
GREEN
 10
173.222028
 20
238.798766
 30
0.000000
 40
24.843300
 50
-12.317425
 51
17.089464
  6
CONTINUOUS
  0
ARC
  8
GREEN
 10
211.767330
 20
234.726991
 30
0.000000
 40
14.326600
 50
-175.082939
 51
-74.825966
  6
CONTINUOUS
  0
ARC
  8
GREEN
 10
208.947850
 20
237.405658
 30
0.000000
 40
17.765100
 50
-68.296859
 51
-19.760492
  6
CONTINUOUS
  0
ARC
  8
GREEN
 10
233.752933
 20
227.202951
 30
0.000000
 40
9.110200
 50
86.918200
 51
152.571600
  6
CONTINUOUS
  0
LINE
  8
GREEN
 10
234.242712
 20
236.299976
 30
0.000000
 11
254.545284
 21
235.719770
 31
0.000000
  6
CONTINUOUS
  0
LINE
  8
GREEN
 10
254.545284
 20
235.719770
 30
0.000000
 11
255.066833
 21
253.449951
 31
0.000000
  6
CONTINUOUS
  0
LINE
  8
GREEN
 10
255.066833
 20
253.449951
 30
0.000000
 11
260.143533
 21
253.099851
 31
0.000000
  6
CONTINUOUS
  0
LINE
  8
GREEN
 10
260.143533
 20
253.099851
 30
0.000000
 11
259.968533
 21
235.424951
 31
0.000000
  6
CONTINUOUS
  0
LINE
  8
GREEN
 10
259.968533
 20
235.424951
 30
0.000000
 11
279.567561
 21
235.249983
 31
0.000000
  6
CONTINUOUS
  0
ARC
  8
GREEN
 10
280.127467
 20
225.442653
 30
0.000000
 40
9.823300
 50
19.826043
 51
93.267500
  6
CONTINUOUS
  0
ARC
  8
GREEN
 10
216.655212
 20
6.261160
 30
0.000000
 40
49.533200
 50
12.342772
 51
24.528098
  6
CONTINUOUS
  0
ARC
  8
GREEN
 10
253.233274
 20
24.689472
 30
0.000000
 40
8.749600
 50
14.122543
 51
70.749788
  6
CONTINUOUS
  0
ARC
  8
GREEN
 10
260.298509
 20
66.034584
 30
0.000000
 40
33.347800
 50
-131.347174
 51
-97.201655
  6
CONTINUOUS
  0
ARC
  8
GREEN
 10
279.148767
 20
82.415522
 30
0.000000
 40
58.193500
 50
-155.922700
 51
-134.627299
  6
CONTINUOUS
  0
ARC
  8
GREEN
 10
337.432246
 20
114.397593
 30
0.000000
 40
124.571800
 50
-168.540962
 51
-153.428264
  6
CONTINUOUS
  0
ARC
  8
GREEN
 10
333.390646
 20
106.953757
 30
0.000000
 40
119.308700
 50
172.912851
 51
188.339584
  6
CONTINUOUS
  0
ARC
  8
GREEN
 10
324.041128
 20
107.397339
 30
0.000000
 40
109.978200
 50
156.003293
 51
172.541217
  6
CONTINUOUS
  0
ARC
  8
GREEN
 10
227.380145
 20
150.386721
 30
0.000000
 40
4.188800
 50
21.897338
 51
155.500905
  6
CONTINUOUS
  0
ARC
  8
GREEN
 10
190.755071
 20
155.536393
 30
0.000000
 40
40.670200
 50
-21.320460
 51
-5.060585
  6
CONTINUOUS
  0
ARC
  8
GREEN
 10
325.166432
 20
115.404764
 30
0.000000
 40
99.796500
 50
165.287865
 51
182.832007
  6
CONTINUOUS
  0
ARC
  8
GREEN
 10
310.027037
 20
109.881370
 30
0.000000
 40
84.537300
 50
179.598307
 51
200.302597
  6
CONTINUOUS
  0
ARC
  8
GREEN
 10
280.584644
 20
92.785941
 30
0.000000
 40
51.323100
 50
-166.205873
 51
-135.398759
  6
CONTINUOUS
  0
ARC
  8
GREEN
 10
260.555761
 20
78.851255
 30
0.000000
 40
27.590500
 50
-126.764633
 51
-82.479159
  6
CONTINUOUS
  0
LINE
  8
GREEN
 10
264.166994
 20
51.498107
 30
0.000000
 11
267.317033
 21
39.598051
 31
0.000000
  6
CONTINUOUS
  0
LINE
  8
GREEN
 10
267.317033
 20
39.598051
 30
0.000000
 11
272.743733
 21
40.648351
 31
0.000000
  6
CONTINUOUS
  0
LINE
  8
GREEN
 10
272.743733
 20
40.648351
 30
0.000000
 11
270.242813
 21
52.974224
 31
0.000000
  6
CONTINUOUS
  0
ARC
  8
GREEN
 10
265.958233
 20
77.390951
 30
0.000000
 40
24.789800
 50
-80.047224
 51
-54.245000
  6
CONTINUOUS
  0
ARC
  8
GREEN
 10
259.986014
 20
81.115585
 30
0.000000
 40
31.415800
 50
-49.369212
 51
-24.077668
  6
CONTINUOUS
  0
ARC
  8
GREEN
 10
228.606521
 20
85.185988
 30
0.000000
 40
62.390800
 50
-15.704078
 51
4.908174
  6
CONTINUOUS
  0
ARC
  8
GREEN
 10
169.102563
 20
81.943186
 30
0.000000
 40
121.968200
 50
4.034296
 51
16.507485
  6
CONTINUOUS
  0
ARC
  8
GREEN
 10
196.026505
 20
87.890838
 30
0.000000
 40
94.484100
 50
17.688654
 51
32.494581
  6
CONTINUOUS
  0
ARC
  8
GREEN
 10
203.588906
 20
96.712073
 30
0.000000
 40
83.435100
 50
30.174561
 51
42.915574
  6
CONTINUOUS
  0
ARC
  8
GREEN
 10
266.945095
 20
157.689736
 30
0.000000
 40
4.734800
 50
111.395211
 51
241.602010
  6
CONTINUOUS
  0
ARC
  8
GREEN
 10
266.125826
 20
156.999662
 30
0.000000
 40
5.178800
 50
33.044361
 51
100.097659
  6
CONTINUOUS
  0
ARC
  8
GREEN
 10
201.246678
 20
84.965037
 30
0.000000
 40
101.957100
 50
32.468043
 51
47.241035
  6
CONTINUOUS
  0
ARC
  8
GREEN
 10
183.426489
 20
75.398275
 30
0.000000
 40
122.136700
 50
19.627138
 51
31.766700
  6
CONTINUOUS
  0
ARC
  8
GREEN
 10
171.406934
 20
78.243337
 30
0.000000
 40
132.672400
 50
5.159306
 51
16.725057
  6
CONTINUOUS
  0
ARC
  8
GREEN
 10
221.588050
 20
81.695115
 30
0.000000
 40
82.391200
 50
-15.213546
 51
5.906725
  6
CONTINUOUS
  0
ARC
  8
GREEN
 10
268.688596
 20
68.153299
 30
0.000000
 40
33.395200
 50
-52.879736
 51
-14.000056
  6
CONTINUOUS
  0
ARC
  8
GREEN
 10
291.077945
 20
33.052560
 30
0.000000
 40
8.762400
 50
104.782148
 51
173.798216
  6
CONTINUOUS
  0
ARC
  8
GREEN
 10
430.917703
 20
34.774356
 30
0.000000
 40
148.552900
 50
-179.701013
 51
-174.427482
  6
CONTINUOUS
  0
ARC
  8
GREEN
 10
273.886976
 20
19.465469
 30
0.000000
 40
9.222300
 50
-163.520526
 51
5.497886
  6
CONTINUOUS
  0
ARC
  8
GREEN
 10
76.329206
 20
196.858328
 30
0.000000
 40
8.960500
 50
-171.437558
 51
-15.430436
  6
CONTINUOUS
  0
ARC
  8
GREEN
 10
171.767411
 20
172.248185
 30
0.000000
 40
89.601100
 50
157.491395
 51
165.637528
  6
CONTINUOUS
  0
ARC
  8
GREEN
 10
98.193106
 20
200.764768
 30
0.000000
 40
10.868500
 50
87.761680
 51
147.842726
  6
CONTINUOUS
  0
ARC
  8
GREEN
 10
89.614259
 20
246.386558
 30
0.000000
 40
35.908600
 50
-75.479343
 51
-32.298448
  6
CONTINUOUS
  0
ARC
  8
GREEN
 10
21.780786
 20
281.859466
 30
0.000000
 40
112.375400
 50
-29.104551
 51
-10.166513
  6
CONTINUOUS
  0
ARC
  8
GREEN
 10
39.908937
 20
276.681274
 30
0.000000
 40
93.637100
 50
-9.005614
 51
13.867425
  6
CONTINUOUS
  0
ARC
  8
GREEN
 10
26.291880
 20
276.320995
 30
0.000000
 40
106.983300
 50
12.306666
 51
27.290873
  6
CONTINUOUS
  0
ARC
  8
GREEN
 10
117.713459
 20
323.682943
 30
0.000000
 40
4.025700
 50
24.833917
 51
195.985361
  6
CONTINUOUS
  0
ARC
  8
GREEN
 10
37.576722
 20
288.736851
 30
0.000000
 40
83.436100
 50
3.650470
 51
23.925550
  6
CONTINUOUS
  0
ARC
  8
GREEN
 10
32.918520
 20
282.336648
 30
0.000000
 40
88.701700
 50
-12.195234
 51
7.587737
  6
CONTINUOUS
  0
ARC
  8
GREEN
 10
72.345926
 20
268.691383
 30
0.000000
 40
47.546100
 50
-44.996122
 51
-6.148418
  6
CONTINUOUS
  0
ARC
  8
GREEN
 10
89.927833
 20
252.130451
 30
0.000000
 40
23.414500
 50
-102.448734
 51
-46.759000
  6
CONTINUOUS
  0
LINE
  8
GREEN
 10
84.880463
 20
229.266443
 30
0.000000
 11
82.693333
 21
216.873051
 31
0.000000
  6
CONTINUOUS
  0
LINE
  8
GREEN
 10
82.693333
 20
216.873051
 30
0.000000
 11
77.266633
 21
217.748351
 31
0.000000
  6
CONTINUOUS
  0
LINE
  8
GREEN
 10
77.266633
 20
217.748351
 30
0.000000
 11
79.191624
 21
229.648360
 31
0.000000
  6
CONTINUOUS
  0
ARC
  8
GREEN
 10
85.562527
 20
258.796131
 30
0.000000
 40
29.835900
 50
-144.271403
 51
-102.329384
  6
CONTINUOUS
  0
ARC
  8
GREEN
 10
85.241346
 20
257.256182
 30
0.000000
 40
28.695600
 50
168.302448
 51
213.606514
  6
CONTINUOUS
  0
ARC
  8
GREEN
 10
169.730527
 20
259.120789
 30
0.000000
 40
112.658200
 50
162.031941
 51
177.989017
  6
CONTINUOUS
  0
ARC
  8
GREEN
 10
158.243094
 20
261.768335
 30
0.000000
 40
100.919500
 50
143.692545
 51
161.449831
  6
CONTINUOUS
  0
ARC
  8
GREEN
 10
56.697615
 20
340.593325
 30
0.000000
 40
27.792800
 50
-43.322444
 51
-25.337515
  6
CONTINUOUS
  0
ARC
  8
GREEN
 10
77.935020
 20
329.845306
 30
0.000000
 40
4.047400
 50
-16.446538
 51
117.868230
  6
CONTINUOUS
  0
ARC
  8
GREEN
 10
148.502904
 20
256.797218
 30
0.000000
 40
105.460800
 50
133.399253
 51
151.790199
  6
CONTINUOUS
  0
ARC
  8
GREEN
 10
143.331133
 20
261.292358
 30
0.000000
 40
98.790100
 50
152.669774
 51
171.629320
  6
CONTINUOUS
  0
ARC
  8
GREEN
 10
138.112969
 20
258.476847
 30
0.000000
 40
94.104200
 50
169.470321
 51
189.929998
  6
CONTINUOUS
  0
ARC
  8
GREEN
 10
74.643527
 20
244.004949
 30
0.000000
 40
29.277700
 50
-176.561708
 51
-122.545517
  6
CONTINUOUS
  0
ARC
  8
GREEN
 10
56.899108
 20
208.763156
 30
0.000000
 40
10.748300
 50
-1.541314
 51
79.309166
  6
CONTINUOUS
  0
ARC
  8
GREEN
 10
149.613276
 20
200.890615
 30
0.000000
 40
82.319800
 50
174.714324
 51
183.737737
  6
CONTINUOUS
  0
ARC
  8
GREEN
 10
84.885234
 20
133.505730
 30
0.000000
 40
9.211600
 50
128.163699
 51
297.700882
  6
CONTINUOUS
  0
ARC
  8
GREEN
 10
170.547316
 20
-8.084352
 30
0.000000
 40
156.292700
 50
116.179948
 51
121.378535
  6
CONTINUOUS
  0
ARC
  8
GREEN
 10
105.358478
 20
126.036079
 30
0.000000
 40
7.201900
 50
53.492826
 51
121.530222
  6
CONTINUOUS
  0
ARC
  8
GREEN
 10
138.325577
 20
192.138378
 30
0.000000
 40
66.786300
 50
-115.433747
 51
-95.850596
  6
CONTINUOUS
  0
ARC
  8
GREEN
 10
129.539699
 20
166.429759
 30
0.000000
 40
40.777800
 50
-87.219633
 51
-52.049627
  6
CONTINUOUS
  0
ARC
  8
GREEN
 10
101.702237
 20
213.990755
 30
0.000000
 40
95.679900
 50
-56.424087
 51
-40.560716
  6
CONTINUOUS
  0
ARC
  8
GREEN
 10
120.346852
 20
201.922072
 30
0.000000
 40
73.726800
 50
-42.857722
 51
-22.991818
  6
CONTINUOUS
  0
ARC
  8
GREEN
 10
105.022097
 20
213.854179
 30
0.000000
 40
92.629800
 50
-26.085050
 51
-14.523826
  6
CONTINUOUS
  0
ARC
  8
GREEN
 10
191.075468
 20
191.283496
 30
0.000000
 40
3.675900
 50
-10.331669
 51
156.935273
  6
CONTINUOUS
  0
ARC
  8
GREEN
 10
92.558090
 20
231.808646
 30
0.000000
 40
102.851200
 50
-40.840527
 51
-22.334636
  6
CONTINUOUS
  0
ARC
  8
GREEN
 10
95.860191
 20
229.463833
 30
0.000000
 40
98.820400
 50
-60.185615
 51
-41.064040
  6
CONTINUOUS
  0
ARC
  8
GREEN
 10
135.641566
 20
168.684364
 30
0.000000
 40
26.655300
 50
-122.379203
 51
-69.462277
  6
CONTINUOUS
  0
ARC
  8
GREEN
 10
138.167633
 20
171.024051
 30
0.000000
 40
29.996900
 50
-142.657395
 51
-124.061000
  6
CONTINUOUS
  0
LINE
  8
GREEN
 10
114.319418
 20
152.828539
 30
0.000000
 11
104.392433
 21
145.297851
 31
0.000000
  6
CONTINUOUS
  0
LINE
  8
GREEN
 10
104.392433
 20
145.297851
 30
0.000000
 11
101.591433
 21
149.149251
 31
0.000000
  6
CONTINUOUS
  0
LINE
  8
GREEN
 10
101.591433
 20
149.149251
 30
0.000000
 11
111.041376
 21
156.849139
 31
0.000000
  6
CONTINUOUS
  0
ARC
  8
GREEN
 10
132.786552
 20
174.961408
 30
0.000000
 40
28.300300
 50
-160.304947
 51
-140.207978
  6
CONTINUOUS
  0
ARC
  8
GREEN
 10
131.566634
 20
173.609049
 30
0.000000
 40
26.709900
 50
158.785042
 51
197.845396
  6
CONTINUOUS
  0
ARC
  8
GREEN
 10
147.514491
 20
160.894774
 30
0.000000
 40
46.576600
 50
124.673517
 51
151.282392
  6
CONTINUOUS
  0
ARC
  8
GREEN
 10
177.026449
 20
126.060387
 30
0.000000
 40
92.121700
 50
111.748535
 51
127.444534
  6
CONTINUOUS
  0
ARC
  8
GREEN
 10
183.811100
 20
118.128437
 30
0.000000
 40
102.058400
 50
99.456681
 51
113.636680
  6
CONTINUOUS
  0
ARC
  8
GREEN
 10
167.163346
 20
222.400954
 30
0.000000
 40
3.603100
 50
-91.918624
 51
97.503002
  6
CONTINUOUS
  0
ARC
  8
GREEN
 10
170.320157
 20
129.187952
 30
0.000000
 40
96.853200
 50
92.146314
 51
110.600169
  6
CONTINUOUS
  0
ARC
  8
GREEN
 10
164.950644
 20
129.832823
 30
0.000000
 40
94.482300
 50
107.688543
 51
122.494408
  6
CONTINUOUS
  0
ARC
  8
GREEN
 10
167.417788
 20
128.824154
 30
0.000000
 40
96.670700
 50
123.406610
 51
139.037140
  6
CONTINUOUS
  0
ARC
  8
GREEN
 10
120.694999
 20
171.445108
 30
0.000000
 40
33.483800
 50
141.698107
 51
182.517912
  6
CONTINUOUS
  0
ARC
  8
GREEN
 10
144.341932
 20
172.800163
 30
0.000000
 40
57.168300
 50
-177.166488
 51
-164.163453
  6
CONTINUOUS
  0
ARC
  8
GREEN
 10
80.580716
 20
155.058921
 30
0.000000
 40
9.020400
 50
-47.124105
 51
13.726045
  6
CONTINUOUS
  0
ARC
  8
GREEN
 10
26.287444
 20
199.977777
 30
0.000000
 40
79.417600
 50
-48.227636
 51
-40.454156
  6
CONTINUOUS
  0
ARC
  8
GREEN
 10
319.645014
 20
135.904973
 30
0.000000
 40
77.049900
 50
-138.747179
 51
-127.497132
  6
CONTINUOUS
  0
ARC
  8
GREEN
 10
274.094890
 20
78.555624
 30
0.000000
 40
4.015200
 50
-109.674508
 51
57.672536
  6
CONTINUOUS
  0
ARC
  8
GREEN
 10
380.985693
 20
172.468829
 30
0.000000
 40
138.438300
 50
-146.878321
 51
-139.166148
  6
CONTINUOUS
  0
ARC
  8
GREEN
 10
391.800871
 20
171.549326
 30
0.000000
 40
147.145400
 50
-158.877591
 51
-149.480176
  6
CONTINUOUS
  0
ARC
  8
GREEN
 10
351.168429
 20
151.858073
 30
0.000000
 40
102.214900
 50
-175.337269
 51
-160.966565
  6
CONTINUOUS
  0
ARC
  8
GREEN
 10
276.486723
 20
148.701401
 30
0.000000
 40
27.678700
 50
151.049638
 51
190.728206
  6
CONTINUOUS
  0
ARC
  8
GREEN
 10
269.019733
 20
153.269851
 30
0.000000
 40
18.937300
 50
100.358579
 51
152.209000
  6
CONTINUOUS
  0
LINE
  8
GREEN
 10
265.614654
 20
171.898506
 30
0.000000
 11
262.416633
 21
183.624651
 31
0.000000
  6
CONTINUOUS
  0
LINE
  8
GREEN
 10
262.416633
 20
183.624651
 30
0.000000
 11
267.668233
 21
185.025151
 31
0.000000
  6
CONTINUOUS
  0
LINE
  8
GREEN
 10
267.668233
 20
185.025151
 30
0.000000
 11
270.993221
 21
173.300067
 31
0.000000
  6
CONTINUOUS
  0
ARC
  8
GREEN
 10
277.849943
 20
151.451317
 30
0.000000
 40
22.899400
 50
79.958280
 51
107.423251
  6
CONTINUOUS
  0
ARC
  8
GREEN
 10
277.860949
 20
152.241466
 30
0.000000
 40
22.119800
 50
40.049341
 51
79.629480
  6
CONTINUOUS
  0
ARC
  8
GREEN
 10
193.409656
 20
102.831836
 30
0.000000
 40
119.704000
 50
24.317123
 51
32.118091
  6
CONTINUOUS
  0
ARC
  8
GREEN
 10
207.931439
 20
111.625438
 30
0.000000
 40
102.869600
 50
9.144578
 51
23.184408
  6
CONTINUOUS
  0
ARC
  8
GREEN
 10
211.267793
 20
112.279302
 30
0.000000
 40
99.471800
 50
-6.902861
 51
9.078153
  6
CONTINUOUS
  0
ARC
  8
GREEN
 10
76.430345
 20
127.462512
 30
0.000000
 40
235.159400
 50
-9.382953
 51
-6.626936
  6
CONTINUOUS
  0
ARC
  8
GREEN
 10
312.278136
 20
88.635774
 30
0.000000
 40
3.865600
 50
172.745549
 51
335.361799
  6
CONTINUOUS
  0
ARC
  8
GREEN
 10
200.716185
 20
124.540712
 30
0.000000
 40
121.036700
 50
-18.056780
 51
-7.592193
  6
CONTINUOUS
  0
ARC
  8
GREEN
 10
216.700695
 20
119.420186
 30
0.000000
 40
104.557800
 50
-5.967899
 51
9.525971
  6
CONTINUOUS
  0
ARC
  8
GREEN
 10
224.862728
 20
121.999882
 30
0.000000
 40
96.088800
 50
8.814382
 51
25.009828
  6
CONTINUOUS
  0
ARC
  8
GREEN
 10
223.636682
 20
123.956795
 30
0.000000
 40
96.399800
 50
23.647577
 51
37.057241
  6
CONTINUOUS
  0
ARC
  8
GREEN
 10
277.989186
 20
161.446793
 30
0.000000
 40
30.564500
 50
42.379748
 51
84.078099
  6
CONTINUOUS
  0
ARC
  8
GREEN
 10
281.889517
 20
202.112645
 30
0.000000
 40
10.291600
 50
-157.346564
 51
-94.161869
  6
CONTINUOUS
  0
ARC
  8
GREEN
 10
189.164093
 20
167.019423
 30
0.000000
 40
88.858900
 50
20.507094
 51
29.350403
  6
CONTINUOUS
  0
ARC
  8
GREEN
 10
259.365287
 20
205.132913
 30
0.000000
 40
9.065700
 50
36.879611
 51
174.358912
  6
CONTINUOUS
  0
ARC
  8
GREEN
 10
80.855171
 20
177.017630
 30
0.000000
 40
171.952500
 50
4.538512
 51
9.711575
  6
CONTINUOUS
  0
ARC
  8
GREEN
 10
243.736439
 20
190.055163
 30
0.000000
 40
8.551000
 50
-63.565186
 51
3.814889
  6
CONTINUOUS
  0
ARC
  8
GREEN
 10
276.128504
 20
152.072224
 30
0.000000
 40
41.674800
 50
133.307546
 51
159.012390
  6
CONTINUOUS
  0
ARC
  8
GREEN
 10
297.642070
 20
153.991658
 30
0.000000
 40
61.807700
 50
167.851622
 51
185.959714
  6
CONTINUOUS
  0
ARC
  8
GREEN
 10
337.508899
 20
154.362965
 30
0.000000
 40
101.567600
 50
-176.167509
 51
-163.710596
  6
CONTINUOUS
  0
ARC
  8
GREEN
 10
324.508350
 20
146.848984
 30
0.000000
 40
87.054400
 50
-166.058146
 51
-148.643726
  6
CONTINUOUS
  0
ARC
  8
GREEN
 10
363.770468
 20
169.032793
 30
0.000000
 40
132.134100
 50
-149.288329
 51
-140.564270
  6
CONTINUOUS
  0
LINE
  8
GREEN
 10
133.442833
 20
63.224851
 30
0.000000
 11
111.218733
 21
69.524651
 31
0.000000
  6
CONTINUOUS
  0
LINE
  8
GREEN
 10
111.218733
 20
69.524651
 30
0.000000
 11
116.993733
 21
89.124651
 31
0.000000
  6
CONTINUOUS
  0
LINE
  8
GREEN
 10
116.993733
 20
89.124651
 30
0.000000
 11
111.392033
 21
90.875151
 31
0.000000
  6
CONTINUOUS
  0
LINE
  8
GREEN
 10
111.392033
 20
90.875151
 30
0.000000
 11
105.614570
 21
71.091479
 31
0.000000
  6
CONTINUOUS
  0
LINE
  8
GREEN
 10
105.614570
 20
71.091479
 30
0.000000
 11
83.743733
 21
77.399651
 31
0.000000
  6
CONTINUOUS
  0
LINE
  8
GREEN
 10
83.743733
 20
77.399651
 30
0.000000
 11
85.668550
 21
85.798786
 31
0.000000
  6
CONTINUOUS
  0
ARC
  8
GREEN
 10
71.317633
 20
90.436551
 30
0.000000
 40
15.081700
 50
-17.909200
 51
17.909300
  6
CONTINUOUS
  0
ARC
  8
GREEN
 10
64.911928
 20
82.164185
 30
0.000000
 40
24.444000
 50
31.880700
 51
55.254870
  6
CONTINUOUS
  0
ARC
  8
GREEN
 10
169.895052
 20
190.944953
 30
0.000000
 40
127.111300
 50
-141.734741
 51
-135.751137
  6
CONTINUOUS
  0
ARC
  8
GREEN
 10
149.010555
 20
166.414903
 30
0.000000
 40
95.731500
 50
-155.291832
 51
-145.523636
  6
CONTINUOUS
  0
ARC
  8
GREEN
 10
101.654463
 20
145.429800
 30
0.000000
 40
43.945300
 50
-173.197030
 51
-154.338975
  6
CONTINUOUS
  0
ARC
  8
GREEN
 10
94.817655
 20
150.199348
 30
0.000000
 40
38.127100
 50
175.789048
 51
195.166670
  6
CONTINUOUS
  0
ARC
  8
GREEN
 10
60.673520
 20
154.192980
 30
0.000000
 40
4.059600
 50
10.372637
 51
197.104687
  6
CONTINUOUS
  0
ARC
  8
GREEN
 10
132.648065
 20
157.317085
 30
0.000000
 40
68.023400
 50
-177.983823
 51
-168.923742
  6
CONTINUOUS
  0
ARC
  8
GREEN
 10
124.176477
 20
160.055656
 30
0.000000
 40
60.390100
 50
-164.826271
 51
-152.128187
  6
CONTINUOUS
  0
ARC
  8
GREEN
 10
108.939952
 20
150.259036
 30
0.000000
 40
42.369100
 50
-154.207362
 51
-133.935924
  6
CONTINUOUS
  0
ARC
  8
GREEN
 10
115.822982
 20
153.909577
 30
0.000000
 40
49.832700
 50
-136.723636
 51
-116.783434
  6
CONTINUOUS
  0
ARC
  8
GREEN
 10
89.342677
 20
98.748982
 30
0.000000
 40
11.407700
 50
32.471609
 51
69.340873
  6
CONTINUOUS
  0
ARC
  8
GREEN
 10
103.251433
 20
108.621661
 30
0.000000
 40
5.692600
 50
-138.820888
 51
-0.732798
  6
CONTINUOUS
  0
ARC
  8
GREEN
 10
118.623656
 20
105.105737
 30
0.000000
 40
10.274200
 50
-15.127894
 51
160.419991
  6
CONTINUOUS
  0
ARC
  8
GREEN
 10
132.967280
 20
100.071270
 30
0.000000
 40
5.012200
 50
151.999004
 51
291.976123
  6
CONTINUOUS
  0
ARC
  8
GREEN
 10
122.439509
 20
117.386516
 30
0.000000
 40
25.223600
 50
-60.545030
 51
-34.434203
  6
CONTINUOUS
  0
ARC
  8
GREEN
 10
79.564630
 20
148.471145
 30
0.000000
 40
78.175300
 50
-35.455832
 51
-26.472059
  6
CONTINUOUS
  0
ARC
  8
GREEN
 10
176.663914
 20
93.327844
 30
0.000000
 40
33.873900
 50
109.928666
 51
143.190474
  6
CONTINUOUS
  0
ARC
  8
GREEN
 10
169.498436
 20
116.573785
 30
0.000000
 40
9.650900
 50
70.988291
 51
116.993484
  6
CONTINUOUS
  0
ARC
  8
GREEN
 10
169.559526
 20
120.773335
 30
0.000000
 40
5.810200
 50
-22.771924
 51
57.955064
  6
CONTINUOUS
  0
ARC
  8
GREEN
 10
183.636337
 20
120.220889
 30
0.000000
 40
8.883000
 50
-168.990034
 51
-120.580182
  6
CONTINUOUS
  0
ARC
  8
GREEN
 10
175.876792
 20
109.422966
 30
0.000000
 40
4.519400
 50
-75.381674
 51
44.193279
  6
CONTINUOUS
  0
ARC
  8
GREEN
 10
172.675735
 20
112.943439
 30
0.000000
 40
9.008800
 50
-96.904156
 51
-61.188131
  6
CONTINUOUS
  0
ARC
  8
GREEN
 10
175.738496
 20
69.152298
 30
0.000000
 40
35.093400
 50
96.784380
 51
119.154391
  6
CONTINUOUS
  0
ARC
  8
GREEN
 10
182.092192
 20
53.773748
 30
0.000000
 40
51.655500
 50
116.998572
 51
132.390537
  6
CONTINUOUS
  0
ARC
  8
GREEN
 10
175.180181
 20
63.136663
 30
0.000000
 40
40.098600
 50
134.115895
 51
156.735875
  6
CONTINUOUS
  0
LINE
  8
GREEN
 10
138.341843
 20
78.974422
 30
0.000000
 11
133.442833
 21
63.224851
 31
0.000000
  6
CONTINUOUS
  0
ARC
  8
GREEN
 10
243.210615
 20
84.565582
 30
0.000000
 40
73.925600
 50
-101.503402
 51
-83.782020
  6
CONTINUOUS
  0
ARC
  8
GREEN
 10
251.932707
 20
18.040875
 30
0.000000
 40
7.002600
 50
-95.861319
 51
-18.671240
  6
CONTINUOUS
  0
ARC
  8
GREEN
 10
253.165024
 20
14.383292
 30
0.000000
 40
5.584200
 50
14.686767
 51
114.289127
  6
CONTINUOUS
  0
ARC
  8
GREEN
 10
246.732234
 20
74.053719
 30
0.000000
 40
54.737000
 50
-107.752811
 51
-85.666758
  6
CONTINUOUS
  0
ARC
  8
GREEN
 10
249.671042
 20
75.729637
 30
0.000000
 40
57.274900
 50
-133.229675
 51
-110.042112
  6
CONTINUOUS
  0
ARC
  8
GREEN
 10
282.871967
 20
107.474890
 30
0.000000
 40
103.174100
 50
-141.889761
 51
-134.589006
  6
CONTINUOUS
  0
ARC
  8
GREEN
 10
204.680134
 20
50.336396
 30
0.000000
 40
7.188600
 50
-179.503035
 51
-114.561659
  6
CONTINUOUS
  0
ARC
  8
GREEN
 10
203.452170
 20
49.559861
 30
0.000000
 40
6.003000
 50
105.308663
 51
173.167268
  6
CONTINUOUS
  0
ARC
  8
GREEN
 10
196.117716
 20
63.798943
 30
0.000000
 40
10.219800
 50
-55.764960
 51
115.499796
  6
CONTINUOUS
  0
ARC
  8
GREEN
 10
189.087433
 20
77.377351
 30
0.000000
 40
5.087100
 50
136.180700
 51
301.138450
  6
CONTINUOUS
  0
ARC
  8
GREEN
 10
211.435246
 20
67.416622
 30
0.000000
 40
29.304300
 50
121.975061
 51
152.606309
  6
CONTINUOUS
  0
ARC
  8
GREEN
 10
176.929271
 20
117.240287
 30
0.000000
 40
31.365800
 50
-52.744606
 51
-15.753858
  6
CONTINUOUS
  0
ARC
  8
GREEN
 10
193.734053
 20
114.580389
 30
0.000000
 40
14.608000
 50
-23.633318
 51
17.811154
  6
CONTINUOUS
  0
ARC
  8
GREEN
 10
202.695160
 20
115.273695
 30
0.000000
 40
6.222600
 50
37.348345
 51
109.256635
  6
CONTINUOUS
  0
ARC
  8
GREEN
 10
199.929192
 20
129.077186
 30
0.000000
 40
7.961100
 50
-138.225433
 51
-84.856223
  6
CONTINUOUS
  0
ARC
  8
GREEN
 10
190.680024
 20
120.618068
 30
0.000000
 40
4.574500
 50
43.613087
 51
184.312064
  6
CONTINUOUS
  0
ARC
  8
GREEN
 10
142.263234
 20
113.097265
 30
0.000000
 40
44.438600
 50
-5.874518
 51
9.293996
  6
CONTINUOUS
  0
ARC
  8
GREEN
 10
128.976854
 20
119.247097
 30
0.000000
 40
58.478500
 50
-27.082230
 51
-10.541125
  6
CONTINUOUS
  0
ARC
  8
GREEN
 10
134.901183
 20
122.575536
 30
0.000000
 40
55.011100
 50
-52.429903
 51
-32.988430
  6
CONTINUOUS
  0
ARC
  8
GREEN
 10
155.679140
 20
93.558411
 30
0.000000
 40
19.381600
 50
-73.779937
 51
-48.809458
  6
CONTINUOUS
  0
LINE
  8
GREEN
 10
161.092951
 20
74.948278
 30
0.000000
 11
152.868833
 21
71.098651
 31
0.000000
  6
CONTINUOUS
  0
LINE
  8
GREEN
 10
152.868833
 20
71.098651
 30
0.000000
 11
163.018103
 21
50.625286
 31
0.000000
  6
CONTINUOUS
  0
LINE
  8
GREEN
 10
163.018103
 20
50.625286
 30
0.000000
 11
181.043033
 21
59.550251
 31
0.000000
  6
CONTINUOUS
  0
LINE
  8
GREEN
 10
181.043033
 20
59.550251
 30
0.000000
 11
183.493833
 21
54.473651
 31
0.000000
  6
CONTINUOUS
  0
LINE
  8
GREEN
 10
183.493833
 20
54.473651
 30
0.000000
 11
165.468833
 21
45.548651
 31
0.000000
  6
CONTINUOUS
  0
LINE
  8
GREEN
 10
165.468833
 20
45.548651
 30
0.000000
 11
175.268033
 21
25.075251
 31
0.000000
  6
CONTINUOUS
  0
LINE
  8
GREEN
 10
175.268033
 20
25.075251
 30
0.000000
 11
184.192226
 21
29.449819
 31
0.000000
  6
CONTINUOUS
  0
ARC
  8
GREEN
 10
189.642433
 20
18.526751
 30
0.000000
 40
12.207300
 50
49.975300
 51
116.517500
  6
CONTINUOUS
  0
ARC
  8
GREEN
 10
222.434668
 20
50.149840
 30
0.000000
 40
33.440400
 50
-138.232110
 51
-118.276379
  6
CONTINUOUS
  0
ARC
  8
GREEN
 10
244.020454
 20
83.989290
 30
0.000000
 40
73.528000
 50
-120.598686
 51
-102.211357
  6
CONTINUOUS
  0
ARC
  8
GREEN
 10
826.415333
 20
230.012351
 30
0.000000
 40
9.156200
 50
162.282900
 51
327.549900
  6
CONTINUOUS
  0
LINE
  8
GREEN
 10
834.141875
 20
225.099456
 30
0.000000
 11
840.441736
 21
234.374465
 31
0.000000
  6
CONTINUOUS
  0
ARC
  8
GREEN
 10
848.758415
 20
230.471412
 30
0.000000
 40
9.187000
 50
85.103254
 51
154.859133
  6
CONTINUOUS
  0
ARC
  8
GREEN
 10
851.626355
 20
270.723350
 30
0.000000
 40
31.168200
 50
-93.833341
 51
-43.548077
  6
CONTINUOUS
  0
ARC
  8
GREEN
 10
803.576918
 20
305.164559
 30
0.000000
 40
90.091600
 50
-38.363287
 51
-9.561872
  6
CONTINUOUS
  0
ARC
  8
GREEN
 10
811.839550
 20
307.342063
 30
0.000000
 40
82.380700
 50
-12.010624
 51
4.268755
  6
CONTINUOUS
  0
ARC
  8
GREEN
 10
890.281694
 20
313.609700
 30
0.000000
 40
3.712500
 50
-2.093771
 51
168.514406
  6
CONTINUOUS
  0
ARC
  8
GREEN
 10
786.527943
 20
322.049378
 30
0.000000
 40
100.411300
 50
-24.506711
 51
-4.398273
  6
CONTINUOUS
  0
ARC
  8
GREEN
 10
775.197026
 20
332.228633
 30
0.000000
 40
115.034300
 50
-38.163308
 51
-26.779613
  6
CONTINUOUS
  0
ARC
  8
GREEN
 10
853.646233
 20
274.766151
 30
0.000000
 40
18.148500
 50
-120.765802
 51
-48.621000
  6
CONTINUOUS
  0
LINE
  8
GREEN
 10
844.362729
 20
259.171774
 30
0.000000
 11
838.518033
 21
247.847851
 31
0.000000
  6
CONTINUOUS
  0
LINE
  8
GREEN
 10
838.518033
 20
247.847851
 30
0.000000
 11
833.616433
 21
250.298651
 31
0.000000
  6
CONTINUOUS
  0
LINE
  8
GREEN
 10
833.616433
 20
250.298651
 30
0.000000
 11
839.041476
 21
261.323593
 31
0.000000
  6
CONTINUOUS
  0
ARC
  8
GREEN
 10
847.473395
 20
278.187270
 30
0.000000
 40
18.854200
 50
158.411749
 51
243.434730
  6
CONTINUOUS
  0
ARC
  8
GREEN
 10
928.668099
 20
251.142142
 30
0.000000
 40
104.411100
 50
133.163769
 51
161.006211
  6
CONTINUOUS
  0
ARC
  8
GREEN
 10
854.656748
 20
330.241552
 30
0.000000
 40
3.916300
 50
-48.691940
 51
108.824096
  6
CONTINUOUS
  0
ARC
  8
GREEN
 10
912.652628
 20
249.046057
 30
0.000000
 40
103.537900
 50
124.913999
 51
155.094265
  6
CONTINUOUS
  0
ARC
  8
GREEN
 10
846.609929
 20
274.430792
 30
0.000000
 40
33.293000
 50
146.825073
 51
205.831049
  6
CONTINUOUS
  0
ARC
  8
GREEN
 10
840.813897
 20
271.609718
 30
0.000000
 40
26.846900
 50
-154.198316
 51
-136.412049
  6
CONTINUOUS
  0
ARC
  8
GREEN
 10
815.388433
 20
248.461551
 30
0.000000
 40
7.567700
 50
-37.796400
 51
37.798200
  6
CONTINUOUS
  0
LINE
  8
GREEN
 10
821.368380
 20
243.823630
 30
0.000000
 11
817.693405
 21
232.798742
 31
0.000000
  6
CONTINUOUS
  0
ARC
  8
GREEN
 10
176.317733
 20
140.690751
 30
0.000000
 40
3.877300
 50
105.709900
 51
291.161919
  6
CONTINUOUS
  0
ARC
  8
GREEN
 10
164.116619
 20
226.985334
 30
0.000000
 40
90.933301
 50
-81.398028
 51
-60.392801
  6
CONTINUOUS
  0
ARC
  8
GREEN
 10
196.807671
 20
177.910067
 30
0.000000
 40
32.385100
 50
-67.803373
 51
-13.546821
  6
CONTINUOUS
  0
ARC
  8
GREEN
 10
197.090544
 20
176.904604
 30
0.000000
 40
31.887600
 50
-11.909297
 51
21.707293
  6
CONTINUOUS
  0
ARC
  8
GREEN
 10
234.609899
 20
191.915035
 30
0.000000
 40
8.523200
 50
131.233960
 51
202.170312
  6
CONTINUOUS
  0
ARC
  8
GREEN
 10
122.252520
 20
293.858060
 30
0.000000
 40
143.247800
 50
-41.829012
 51
-36.153196
  6
CONTINUOUS
  0
ARC
  8
GREEN
 10
229.883250
 20
213.936281
 30
0.000000
 40
9.250800
 50
-29.723813
 51
122.093888
  6
CONTINUOUS
  0
ARC
  8
GREEN
 10
176.386143
 20
284.482937
 30
0.000000
 40
79.326600
 50
-62.028307
 51
-52.234501
  6
CONTINUOUS
  0
ARC
  8
GREEN
 10
208.861253
 20
221.330065
 30
0.000000
 40
8.372200
 50
-130.336435
 51
-55.584664
  6
CONTINUOUS
  0
ARC
  8
GREEN
 10
189.562802
 20
188.152715
 30
0.000000
 40
30.176800
 50
62.617148
 51
101.265006
  6
CONTINUOUS
  0
ARC
  8
GREEN
 10
187.712429
 20
189.551336
 30
0.000000
 40
28.485400
 50
98.162888
 51
142.483921
  6
CONTINUOUS
  0
ARC
  8
GREEN
 10
267.667719
 20
125.640860
 30
0.000000
 40
130.840300
 50
141.607561
 51
151.012428
  6
CONTINUOUS
  0
ARC
  8
GREEN
 10
242.934186
 20
141.438375
 30
0.000000
 40
101.566000
 50
152.046023
 51
162.547928
  6
CONTINUOUS
  0
ARC
  8
GREEN
 10
149.997975
 20
170.823172
 30
0.000000
 40
4.098200
 50
164.783406
 51
342.993265
  6
CONTINUOUS
  0
ARC
  8
GREEN
 10
267.881346
 20
115.944980
 30
0.000000
 40
125.973700
 50
142.647983
 51
154.778614
  6
CONTINUOUS
  0
ARC
  8
GREEN
 10
185.092954
 20
180.784683
 30
0.000000
 40
20.865800
 50
89.588659
 51
146.258505
  6
CONTINUOUS
  0
ARC
  8
GREEN
 10
185.354733
 20
181.151951
 30
0.000000
 40
20.498300
 50
36.232434
 51
90.313000
  6
CONTINUOUS
  0
LINE
  8
GREEN
 10
201.889192
 20
193.267725
 30
0.000000
 11
211.317733
 21
200.950251
 31
0.000000
  6
CONTINUOUS
  0
LINE
  8
GREEN
 10
211.317733
 20
200.950251
 30
0.000000
 11
214.643833
 21
196.923951
 31
0.000000
  6
CONTINUOUS
  0
LINE
  8
GREEN
 10
214.643833
 20
196.923951
 30
0.000000
 11
205.718963
 21
189.048991
 31
0.000000
  6
CONTINUOUS
  0
ARC
  8
GREEN
 10
189.450561
 20
174.420731
 30
0.000000
 40
21.878000
 50
-19.344206
 51
41.961319
  6
CONTINUOUS
  0
ARC
  8
GREEN
 10
190.617723
 20
173.487619
 30
0.000000
 40
20.473600
 50
-68.810355
 51
-17.962105
  6
CONTINUOUS
  0
ARC
  8
GREEN
 10
147.674933
 20
238.285351
 30
0.000000
 40
97.833900
 50
-73.618075
 51
-59.030800
  6
CONTINUOUS
  0
LINE
  8
GREEN
 10
45.592646
 20
57.099072
 30
0.000000
 11
23.717669
 21
58.499054
 31
0.000000
  6
CONTINUOUS
  0
ARC
  8
GREEN
 10
25.109633
 20
64.164151
 30
0.000000
 40
5.833600
 50
153.971800
 51
256.195400
  6
CONTINUOUS
  0
LINE
  8
GREEN
 10
19.867687
 20
66.724013
 30
0.000000
 11
33.167633
 21
93.324051
 31
0.000000
  6
CONTINUOUS
  0
LINE
  8
GREEN
 10
33.167633
 20
93.324051
 30
0.000000
 11
43.667633
 21
93.149051
 31
0.000000
  6
CONTINUOUS
  0
LINE
  8
GREEN
 10
43.667633
 20
93.149051
 30
0.000000
 11
44.017633
 21
98.224051
 31
0.000000
  6
CONTINUOUS
  0
LINE
  8
GREEN
 10
44.017633
 20
98.224051
 30
0.000000
 11
33.477803
 21
98.564046
 31
0.000000
  6
CONTINUOUS
  0
LINE
  8
GREEN
 10
33.477803
 20
98.564046
 30
0.000000
 11
22.667621
 21
128.149065
 31
0.000000
  6
CONTINUOUS
  0
ARC
  8
GREEN
 10
27.856233
 20
129.631751
 30
0.000000
 40
5.396300
 50
81.888800
 51
195.947700
  6
CONTINUOUS
  0
LINE
  8
GREEN
 10
28.617623
 20
134.974067
 30
0.000000
 11
48.917630
 21
134.099028
 31
0.000000
  6
CONTINUOUS
  0
ARC
  8
GREEN
 10
49.373833
 20
128.638251
 30
0.000000
 40
5.479800
 50
-20.167600
 51
94.775500
  6
CONTINUOUS
  0
LINE
  8
GREEN
 10
54.517656
 20
126.748994
 30
0.000000
 11
49.967617
 21
113.274035
 31
0.000000
  6
CONTINUOUS
  0
ARC
  8
GREEN
 10
56.590333
 20
112.090151
 30
0.000000
 40
6.727700
 50
169.864800
 51
250.482300
  6
CONTINUOUS
  0
LINE
  8
GREEN
 10
54.342622
 20
105.749036
 30
0.000000
 11
68.517584
 21
103.299008
 31
0.000000
  6
CONTINUOUS
  0
ARC
  8
GREEN
 10
67.020233
 20
94.573351
 30
0.000000
 40
8.853200
 50
-72.091400
 51
80.262700
  6
CONTINUOUS
  0
LINE
  8
GREEN
 10
69.742587
 20
86.149104
 30
0.000000
 11
52.767631
 21
84.574035
 31
0.000000
  6
CONTINUOUS
  0
ARC
  8
GREEN
 10
54.780133
 20
78.606551
 30
0.000000
 40
6.297700
 50
108.636400
 51
189.436100
  6
CONTINUOUS
  0
LINE
  8
GREEN
 10
48.567647
 20
77.574059
 30
0.000000
 11
51.717643
 21
64.274072
 31
0.000000
  6
CONTINUOUS
  0
ARC
  8
GREEN
 10
45.280633
 20
63.567251
 30
0.000000
 40
6.475700
 50
-87.238300
 51
6.266300
  6
CONTINUOUS
  0
ARC
  8
GREEN
 10
857.068366
 20
303.242839
 30
0.000000
 40
3.781600
 50
130.382208
 51
317.739743
  6
CONTINUOUS
  0
ARC
  8
GREEN
 10
793.653458
 20
400.456335
 30
0.000000
 40
119.731500
 50
-56.425700
 51
-40.356910
  6
CONTINUOUS
  0
ARC
  8
GREEN
 10
863.009560
 20
340.502409
 30
0.000000
 40
28.068100
 50
-38.774514
 51
26.893289
  6
CONTINUOUS
  0
ARC
  8
GREEN
 10
892.659533
 20
359.007351
 30
0.000000
 40
7.420500
 50
144.186500
 51
231.519200
  6
CONTINUOUS
  0
LINE
  8
GREEN
 10
886.642057
 20
363.349447
 30
0.000000
 11
890.141967
 21
370.349391
 31
0.000000
  6
CONTINUOUS
  0
ARC
  8
GREEN
 10
881.299233
 20
374.372251
 30
0.000000
 40
9.714800
 50
-24.462400
 51
136.792100
  6
CONTINUOUS
  0
LINE
  8
GREEN
 10
874.218366
 20
381.023466
 30
0.000000
 11
867.743257
 21
374.198459
 31
0.000000
  6
CONTINUOUS
  0
ARC
  8
GREEN
 10
860.123834
 20
379.129252
 30
0.000000
 40
9.075700
 50
-108.510666
 51
-32.908310
  6
CONTINUOUS
  0
ARC
  8
GREEN
 10
858.306608
 20
338.834850
 30
0.000000
 40
31.706100
 50
91.923355
 51
136.341512
  6
CONTINUOUS
  0
ARC
  8
GREEN
 10
909.430652
 20
315.837183
 30
0.000000
 40
86.602600
 50
148.781625
 51
175.306198
  6
CONTINUOUS
  0
ARC
  8
GREEN
 10
827.202684
 20
322.266266
 30
0.000000
 40
4.136800
 50
170.852311
 51
376.615860
  6
CONTINUOUS
  0
ARC
  8
GREEN
 10
891.519316
 20
310.572769
 30
0.000000
 40
61.710900
 50
140.440966
 51
167.956322
  6
CONTINUOUS
  0
ARC
  8
GREEN
 10
854.464833
 20
333.093651
 30
0.000000
 40
19.807400
 50
64.651623
 51
122.090000
  6
CONTINUOUS
  0
LINE
  8
GREEN
 10
862.944798
 20
350.994022
 30
0.000000
 11
869.842433
 21
361.075251
 31
0.000000
  6
CONTINUOUS
  0
LINE
  8
GREEN
 10
869.842433
 20
361.075251
 30
0.000000
 11
874.393833
 21
358.274351
 31
0.000000
  6
CONTINUOUS
  0
LINE
  8
GREEN
 10
874.393833
 20
358.274351
 30
0.000000
 11
867.568797
 21
348.299324
 31
0.000000
  6
CONTINUOUS
  0
ARC
  8
GREEN
 10
856.787446
 20
334.003541
 30
0.000000
 40
17.905500
 50
-23.815369
 51
52.977752
  6
CONTINUOUS
  0
ARC
  8
GREEN
 10
764.084252
 20
406.107240
 30
0.000000
 40
134.882100
 50
-47.839556
 51
-36.027342
  6
CONTINUOUS
  0
LINE
  8
GREEN
 10
45.242691
 20
141.100005
 30
0.000000
 11
22.842750
 21
143.724853
 31
0.000000
  6
CONTINUOUS
  0
ARC
  8
GREEN
 10
23.795233
 20
149.369151
 30
0.000000
 40
5.724100
 50
138.347500
 51
260.421500
  6
CONTINUOUS
  0
LINE
  8
GREEN
 10
19.518246
 20
153.173452
 30
0.000000
 11
33.518133
 21
176.098151
 31
0.000000
  6
CONTINUOUS
  0
LINE
  8
GREEN
 10
33.518133
 20
176.098151
 30
0.000000
 11
44.543433
 21
175.223151
 31
0.000000
  6
CONTINUOUS
  0
LINE
  8
GREEN
 10
44.543433
 20
175.223151
 30
0.000000
 11
45.068633
 21
180.124851
 31
0.000000
  6
CONTINUOUS
  0
LINE
  8
GREEN
 10
45.068633
 20
180.124851
 30
0.000000
 11
34.363197
 21
181.192064
 31
0.000000
  6
CONTINUOUS
  0
LINE
  8
GREEN
 10
34.363197
 20
181.192064
 30
0.000000
 11
25.818541
 21
211.099168
 31
0.000000
  6
CONTINUOUS
  0
ARC
  8
GREEN
 10
31.429033
 20
211.270251
 30
0.000000
 40
5.613100
 50
86.542100
 51
181.746600
  6
CONTINUOUS
  0
LINE
  8
GREEN
 10
31.767588
 20
216.873132
 30
0.000000
 11
51.892579
 21
214.248141
 31
0.000000
  6
CONTINUOUS
  0
ARC
  8
GREEN
 10
51.552333
 20
208.745851
 30
0.000000
 40
5.512800
 50
-27.509700
 51
86.461500
  6
CONTINUOUS
  0
LINE
  8
GREEN
 10
56.441815
 20
206.199496
 30
0.000000
 11
52.416790
 21
195.699469
 31
0.000000
  6
CONTINUOUS
  0
ARC
  8
GREEN
 10
57.889733
 20
192.899051
 30
0.000000
 40
6.147800
 50
152.901900
 51
238.659700
  6
CONTINUOUS
  0
LINE
  8
GREEN
 10
54.692139
 20
187.648257
 30
0.000000
 11
62.392433
 21
185.373251
 31
0.000000
  6
CONTINUOUS
  0
LINE
  8
GREEN
 10
62.392433
 20
185.373251
 30
0.000000
 11
70.267343
 21
183.098176
 31
0.000000
  6
CONTINUOUS
  0
ARC
  8
GREEN
 10
66.264833
 20
175.052351
 30
0.000000
 40
8.986400
 50
-83.433000
 51
63.551300
  6
CONTINUOUS
  0
LINE
  8
GREEN
 10
67.292563
 20
166.124913
 30
0.000000
 11
53.817690
 21
165.774882
 31
0.000000
  6
CONTINUOUS
  0
ARC
  8
GREEN
 10
53.790233
 20
160.333351
 30
0.000000
 40
5.441600
 50
89.710900
 51
187.225900
  6
CONTINUOUS
  0
LINE
  8
GREEN
 10
48.391850
 20
159.648897
 30
0.000000
 11
50.141802
 21
148.623778
 31
0.000000
  6
CONTINUOUS
  0
ARC
  8
GREEN
 10
44.741533
 20
146.783251
 30
0.000000
 40
5.705300
 50
-84.960600
 51
18.820200
  6
CONTINUOUS
  0
LINE
  8
GREEN
 10
777.967848
 20
81.949778
 30
0.000000
 11
759.943117
 21
91.749783
 31
0.000000
  6
CONTINUOUS
  0
ARC
  8
GREEN
 10
762.874033
 20
96.736551
 30
0.000000
 40
5.784300
 50
120.443700
 51
239.555600
  6
CONTINUOUS
  0
LINE
  8
GREEN
 10
759.943178
 20
101.723355
 30
0.000000
 11
781.292633
 21
116.948051
 31
0.000000
  6
CONTINUOUS
  0
LINE
  8
GREEN
 10
781.292633
 20
116.948051
 30
0.000000
 11
789.868033
 21
111.872851
 31
0.000000
  6
CONTINUOUS
  0
LINE
  8
GREEN
 10
789.868033
 20
111.872851
 30
0.000000
 11
792.493833
 21
116.774351
 31
0.000000
  6
CONTINUOUS
  0
LINE
  8
GREEN
 10
792.493833
 20
116.774351
 30
0.000000
 11
783.482375
 21
121.973365
 31
0.000000
  6
CONTINUOUS
  0
LINE
  8
GREEN
 10
783.482375
 20
121.973365
 30
0.000000
 11
785.843389
 21
147.749196
 31
0.000000
  6
CONTINUOUS
  0
ARC
  8
GREEN
 10
791.179633
 20
148.941851
 30
0.000000
 40
5.467900
 50
53.695400
 51
192.598600
  6
CONTINUOUS
  0
LINE
  8
GREEN
 10
794.417056
 20
153.348326
 30
0.000000
 11
810.167319
 21
144.598210
 31
0.000000
  6
CONTINUOUS
  0
ARC
  8
GREEN
 10
808.373933
 20
139.617651
 30
0.000000
 40
5.293600
 50
-45.382500
 51
70.197200
  6
CONTINUOUS
  0
LINE
  8
GREEN
 10
812.092001
 20
135.849605
 30
0.000000
 11
804.566869
 21
128.149511
 31
0.000000
  6
CONTINUOUS
  0
ARC
  8
GREEN
 10
809.704233
 20
124.351751
 30
0.000000
 40
6.388700
 50
143.526600
 51
236.112100
  6
CONTINUOUS
  0
LINE
  8
GREEN
 10
806.142087
 20
119.048299
 30
0.000000
 11
815.592019
 21
111.173335
 31
0.000000
  6
CONTINUOUS
  0
ARC
  8
GREEN
 10
809.861433
 20
104.497751
 30
0.000000
 40
8.797900
 50
-111.283500
 51
49.355900
  6
CONTINUOUS
  0
LINE
  8
GREEN
 10
806.667946
 20
96.299905
 30
0.000000
 11
795.293002
 21
100.499834
 31
0.000000
  6
CONTINUOUS
  0
ARC
  8
GREEN
 10
793.017633
 20
95.764651
 30
0.000000
 40
5.253500
 50
64.334600
 51
181.805400
  6
CONTINUOUS
  0
LINE
  8
GREEN
 10
787.766741
 20
95.599140
 30
0.000000
 11
785.141712
 21
85.449278
 31
0.000000
  6
CONTINUOUS
  0
ARC
  8
GREEN
 10
779.893133
 20
87.105851
 30
0.000000
 40
5.503800
 50
-110.475700
 51
-17.516900
  6
CONTINUOUS
  0
LINE
  8
GREEN
 10
558.692932
 20
68.299886
 30
0.000000
 11
542.417796
 21
72.849950
 31
0.000000
  6
CONTINUOUS
  0
ARC
  8
GREEN
 10
543.385633
 20
78.291551
 30
0.000000
 40
5.527000
 50
140.950700
 51
259.914900
  6
CONTINUOUS
  0
LINE
  8
GREEN
 10
539.093342
 20
81.773499
 30
0.000000
 11
554.492933
 21
101.023051
 31
0.000000
  6
CONTINUOUS
  0
LINE
  8
GREEN
 10
554.492933
 20
101.023051
 30
0.000000
 11
564.993233
 21
98.047951
 31
0.000000
  6
CONTINUOUS
  0
LINE
  8
GREEN
 10
564.993233
 20
98.047951
 30
0.000000
 11
566.218733
 21
103.124651
 31
0.000000
  6
CONTINUOUS
  0
LINE
  8
GREEN
 10
566.218733
 20
103.124651
 30
0.000000
 11
556.291684
 21
106.012456
 31
0.000000
  6
CONTINUOUS
  0
LINE
  8
GREEN
 10
556.291684
 20
106.012456
 30
0.000000
 11
553.093591
 21
131.999217
 31
0.000000
  6
CONTINUOUS
  0
ARC
  8
GREEN
 10
557.853333
 20
132.745551
 30
0.000000
 40
4.817900
 50
69.158700
 51
188.911500
  6
CONTINUOUS
  0
LINE
  8
GREEN
 10
559.567449
 20
137.248213
 30
0.000000
 11
577.242279
 21
132.173217
 31
0.000000
  6
CONTINUOUS
  0
ARC
  8
GREEN
 10
575.476333
 20
127.600251
 30
0.000000
 40
4.902100
 50
-34.488400
 51
68.884900
  6
CONTINUOUS
  0
LINE
  8
GREEN
 10
579.516844
 20
124.824489
 30
0.000000
 11
574.616796
 21
116.774483
 31
0.000000
  6
CONTINUOUS
  0
ARC
  8
GREEN
 10
579.622833
 20
114.242351
 30
0.000000
 40
5.610000
 50
153.169000
 51
242.899600
  6
CONTINUOUS
  0
LINE
  8
GREEN
 10
577.067191
 20
109.248275
 30
0.000000
 11
585.817383
 21
104.698119
 31
0.000000
  6
CONTINUOUS
  0
ARC
  8
GREEN
 10
584.024233
 20
95.422351
 30
0.000000
 40
9.447500
 50
-89.737200
 51
79.058800
  6
CONTINUOUS
  0
LINE
  8
GREEN
 10
584.067566
 20
85.974950
 30
0.000000
 11
565.516733
 21
82.474751
 31
0.000000
  6
CONTINUOUS
  0
LINE
  8
GREEN
 10
565.516733
 20
82.474751
 30
0.000000
 11
565.516822
 21
73.724003
 31
0.000000
  6
CONTINUOUS
  0
ARC
  8
GREEN
 10
560.120633
 20
73.508251
 30
0.000000
 40
5.400500
 50
-105.329200
 51
2.289600
  6
CONTINUOUS
  0
LINE
  8
GREEN
 10
792.143390
 20
297.899408
 30
0.000000
 11
789.343381
 21
304.899256
 31
0.000000
  6
CONTINUOUS
  0
ARC
  8
GREEN
 10
779.350633
 20
302.029351
 30
0.000000
 40
10.396700
 50
16.024000
 51
90.870500
  6
CONTINUOUS
  0
ARC
  8
GREEN
 10
784.008400
 20
335.356856
 30
0.000000
 40
23.432200
 50
-144.874184
 51
-101.859774
  6
CONTINUOUS
  0
ARC
  8
GREEN
 10
784.994616
 20
337.909727
 30
0.000000
 40
25.752600
 50
144.063735
 51
218.510734
  6
CONTINUOUS
  0
ARC
  8
GREEN
 10
767.602779
 20
350.942107
 30
0.000000
 40
4.037200
 50
-28.763765
 51
148.964852
  6
CONTINUOUS
  0
ARC
  8
GREEN
 10
786.139804
 20
342.810303
 30
0.000000
 40
16.224800
 50
157.575877
 51
209.489109
  6
CONTINUOUS
  0
ARC
  8
GREEN
 10
785.386376
 20
343.452132
 30
0.000000
 40
15.912100
 50
-147.161850
 51
-71.664084
  6
CONTINUOUS
  0
LINE
  8
GREEN
 10
790.392124
 20
328.347914
 30
0.000000
 11
793.366933
 21
316.973051
 31
0.000000
  6
CONTINUOUS
  0
LINE
  8
GREEN
 10
793.366933
 20
316.973051
 30
0.000000
 11
798.968733
 21
318.373451
 31
0.000000
  6
CONTINUOUS
  0
LINE
  8
GREEN
 10
798.968733
 20
318.373451
 30
0.000000
 11
795.818997
 21
329.747575
 31
0.000000
  6
CONTINUOUS
  0
ARC
  8
GREEN
 10
790.903333
 20
345.895551
 30
0.000000
 40
16.879600
 50
-73.069036
 51
-15.186000
  6
CONTINUOUS
  0
ARC
  8
GREEN
 10
792.005554
 20
344.633864
 30
0.000000
 40
15.513200
 50
-11.753191
 51
54.254951
  6
CONTINUOUS
  0
ARC
  8
GREEN
 10
802.958811
 20
360.879537
 30
0.000000
 40
4.114900
 50
58.772879
 51
242.645683
  6
CONTINUOUS
  0
ARC
  8
GREEN
 10
789.978023
 20
337.053211
 30
0.000000
 40
31.244000
 50
32.626205
 51
61.069815
  6
CONTINUOUS
  0
ARC
  8
GREEN
 10
794.338717
 20
340.229333
 30
0.000000
 40
25.861000
 50
-40.454146
 51
31.908680
  6
CONTINUOUS
  0
ARC
  8
GREEN
 10
823.540129
 20
311.808487
 30
0.000000
 40
15.040200
 50
129.284953
 51
186.335037
  6
CONTINUOUS
  0
LINE
  8
GREEN
 10
808.591769
 20
310.148919
 30
0.000000
 11
809.641727
 21
303.148961
 31
0.000000
  6
CONTINUOUS
  0
ARC
  8
GREEN
 10
800.348033
 20
302.339251
 30
0.000000
 40
9.328900
 50
-151.580500
 51
4.979300
  6
CONTINUOUS
  0
LINE
  8
GREEN
 10
346.592813
 20
104.699933
 30
0.000000
 11
329.618026
 21
110.649932
 31
0.000000
  6
CONTINUOUS
  0
ARC
  8
GREEN
 10
332.714833
 20
115.747251
 30
0.000000
 40
5.964300
 50
144.348600
 51
238.719800
  6
CONTINUOUS
  0
LINE
  8
GREEN
 10
327.868373
 20
119.223556
 30
0.000000
 11
342.392933
 21
136.373051
 31
0.000000
  6
CONTINUOUS
  0
LINE
  8
GREEN
 10
342.392933
 20
136.373051
 30
0.000000
 11
353.068333
 21
133.222951
 31
0.000000
  6
CONTINUOUS
  0
LINE
  8
GREEN
 10
353.068333
 20
133.222951
 30
0.000000
 11
354.293733
 21
138.299651
 31
0.000000
  6
CONTINUOUS
  0
LINE
  8
GREEN
 10
354.293733
 20
138.299651
 30
0.000000
 11
344.019486
 21
141.235120
 31
0.000000
  6
CONTINUOUS
  0
LINE
  8
GREEN
 10
344.019486
 20
141.235120
 30
0.000000
 11
342.218570
 21
165.249051
 31
0.000000
  6
CONTINUOUS
  0
ARC
  8
GREEN
 10
347.817733
 20
165.073951
 30
0.000000
 40
5.601900
 50
75.530600
 51
178.208800
  6
CONTINUOUS
  0
LINE
  8
GREEN
 10
349.217440
 20
170.498166
 30
0.000000
 11
365.842330
 21
165.073246
 31
0.000000
  6
CONTINUOUS
  0
ARC
  8
GREEN
 10
364.050333
 20
160.394051
 30
0.000000
 40
5.010600
 50
-45.021700
 51
69.044600
  6
CONTINUOUS
  0
LINE
  8
GREEN
 10
367.592020
 20
156.849680
 30
0.000000
 11
363.391897
 21
150.199364
 31
0.000000
  6
CONTINUOUS
  0
ARC
  8
GREEN
 10
369.186033
 20
147.854051
 30
0.000000
 40
6.250800
 50
157.963200
 51
250.187800
  6
CONTINUOUS
  0
LINE
  8
GREEN
 10
367.067398
 20
141.973245
 30
0.000000
 11
374.942291
 21
138.823279
 31
0.000000
  6
CONTINUOUS
  0
ARC
  8
GREEN
 10
370.193733
 20
130.530151
 30
0.000000
 40
9.556400
 50
-90.905200
 51
60.205000
  6
CONTINUOUS
  0
LINE
  8
GREEN
 10
370.042760
 20
120.974944
 30
0.000000
 11
360.767847
 21
122.724928
 31
0.000000
  6
CONTINUOUS
  0
ARC
  8
GREEN
 10
358.943633
 20
117.480751
 30
0.000000
 40
5.552400
 50
70.819500
 51
185.495000
  6
CONTINUOUS
  0
LINE
  8
GREEN
 10
353.416749
 20
116.949059
 30
0.000000
 11
353.066790
 21
110.824113
 31
0.000000
  6
CONTINUOUS
  0
ARC
  8
GREEN
 10
346.532033
 20
111.248151
 30
0.000000
 40
6.548500
 50
-89.468200
 51
-3.712700
  6
CONTINUOUS
  0
ARC
  8
GREEN
 10
760.231792
 20
356.344496
 30
0.000000
 40
33.132200
 50
-133.219140
 51
-104.890387
  6
CONTINUOUS
  0
ARC
  8
GREEN
 10
752.716101
 20
328.264583
 30
0.000000
 40
4.064200
 50
-104.219399
 51
48.815796
  6
CONTINUOUS
  0
ARC
  8
GREEN
 10
759.145938
 20
344.347778
 30
0.000000
 40
13.554600
 50
-170.770994
 51
-106.076882
  6
CONTINUOUS
  0
ARC
  8
GREEN
 10
757.307533
 20
345.568751
 30
0.000000
 40
12.029700
 50
128.703731
 51
196.392000
  6
CONTINUOUS
  0
LINE
  8
GREEN
 10
749.785440
 20
354.956605
 30
0.000000
 11
742.266433
 21
364.399151
 31
0.000000
  6
CONTINUOUS
  0
LINE
  8
GREEN
 10
742.266433
 20
364.399151
 30
0.000000
 11
746.467833
 21
367.900251
 31
0.000000
  6
CONTINUOUS
  0
LINE
  8
GREEN
 10
746.467833
 20
367.900251
 30
0.000000
 11
753.992809
 21
358.800232
 31
0.000000
  6
CONTINUOUS
  0
ARC
  8
GREEN
 10
762.955155
 20
347.631069
 30
0.000000
 40
14.320400
 50
55.975917
 51
128.744215
  6
CONTINUOUS
  0
ARC
  8
GREEN
 10
765.989688
 20
350.146275
 30
0.000000
 40
10.595900
 50
3.261628
 51
61.976425
  6
CONTINUOUS
  0
ARC
  8
GREEN
 10
780.722981
 20
351.724874
 30
0.000000
 40
4.267600
 50
-166.783023
 51
-6.063640
  6
CONTINUOUS
  0
ARC
  8
GREEN
 10
759.741733
 20
352.121446
 30
0.000000
 40
25.239200
 50
-1.923989
 51
52.326271
  6
CONTINUOUS
  0
ARC
  8
GREEN
 10
758.890560
 20
353.066728
 30
0.000000
 40
25.042500
 50
49.461881
 51
94.002030
  6
CONTINUOUS
  0
ARC
  8
GREEN
 10
753.601833
 20
384.567151
 30
0.000000
 40
7.418600
 50
-145.107200
 51
-61.490200
  6
CONTINUOUS
  0
LINE
  8
GREEN
 10
747.516921
 20
380.323394
 30
0.000000
 11
741.392269
 21
384.523384
 31
0.000000
  6
CONTINUOUS
  0
ARC
  8
GREEN
 10
735.299533
 20
376.967151
 30
0.000000
 40
9.706600
 50
51.120100
 51
199.829900
  6
CONTINUOUS
  0
LINE
  8
GREEN
 10
726.168497
 20
373.674392
 30
0.000000
 11
730.718476
 21
364.924578
 31
0.000000
  6
CONTINUOUS
  0
ARC
  8
GREEN
 10
721.617620
 20
359.265772
 30
0.000000
 40
10.716700
 50
-30.053507
 51
31.872869
  6
CONTINUOUS
  0
ARC
  8
GREEN
 10
758.418221
 20
350.465254
 30
0.000000
 40
27.738000
 50
172.889498
 51
221.185689
  6
CONTINUOUS
  0
ARC
  8
GREEN
 10
477.087933
 20
354.945546
 30
0.000000
 40
13.126400
 50
-174.660620
 51
-118.408672
  6
CONTINUOUS
  0
ARC
  8
GREEN
 10
473.341225
 20
352.766527
 30
0.000000
 40
9.694100
 50
-104.934260
 51
-14.135218
  6
CONTINUOUS
  0
ARC
  8
GREEN
 10
504.765936
 20
350.715448
 30
0.000000
 40
22.026400
 50
149.861051
 51
180.822871
  6
CONTINUOUS
  0
ARC
  8
GREEN
 10
490.270315
 20
352.429042
 30
0.000000
 40
10.395900
 50
56.269277
 51
115.974090
  6
CONTINUOUS
  0
ARC
  8
GREEN
 10
498.286033
 20
366.371951
 30
0.000000
 40
5.752400
 50
-112.949500
 51
11.805900
  6
CONTINUOUS
  0
LINE
  8
GREEN
 10
503.916749
 20
367.548874
 30
0.000000
 11
503.916776
 21
379.974120
 31
0.000000
  6
CONTINUOUS
  0
ARC
  8
GREEN
 10
498.667633
 20
380.667951
 30
0.000000
 40
5.294800
 50
-7.529700
 51
124.178800
  6
CONTINUOUS
  0
LINE
  8
GREEN
 10
495.693134
 20
385.048278
 30
0.000000
 11
476.622211
 21
379.327086
 31
0.000000
  6
CONTINUOUS
  0
LINE
  8
GREEN
 10
476.622211
 20
379.327086
 30
0.000000
 11
476.443533
 21
368.248151
 31
0.000000
  6
CONTINUOUS
  0
LINE
  8
GREEN
 10
476.443533
 20
368.248151
 30
0.000000
 11
470.841733
 21
368.598251
 31
0.000000
  6
CONTINUOUS
  0
LINE
  8
GREEN
 10
470.841733
 20
368.598251
 30
0.000000
 11
471.191733
 21
379.098451
 31
0.000000
  6
CONTINUOUS
  0
LINE
  8
GREEN
 10
471.191733
 20
379.098451
 30
0.000000
 11
450.717432
 21
385.748282
 31
0.000000
  6
CONTINUOUS
  0
ARC
  8
GREEN
 10
448.990433
 20
381.100251
 30
0.000000
 40
4.958500
 50
69.617200
 51
186.962700
  6
CONTINUOUS
  0
LINE
  8
GREEN
 10
444.068501
 20
380.499166
 30
0.000000
 11
444.068504
 21
364.574183
 31
0.000000
  6
CONTINUOUS
  0
ARC
  8
GREEN
 10
449.150548
 20
365.752685
 30
0.000000
 40
5.216900
 50
-166.944142
 51
-74.526624
  6
CONTINUOUS
  0
ARC
  8
GREEN
 10
458.827867
 20
345.480861
 30
0.000000
 40
17.350200
 50
88.463573
 51
118.525178
  6
CONTINUOUS
  0
ARC
  8
GREEN
 10
453.994518
 20
354.296460
 30
0.000000
 40
10.040300
 50
-3.268162
 51
58.147901
  6
CONTINUOUS
  0
ARC
  8
GREEN
 10
420.387833
 20
106.726151
 30
0.000000
 40
5.230900
 50
163.648100
 51
278.295300
  6
CONTINUOUS
  0
LINE
  8
GREEN
 10
421.142521
 20
101.549979
 30
0.000000
 11
435.142405
 21
104.524959
 31
0.000000
  6
CONTINUOUS
  0
ARC
  8
GREEN
 10
433.166088
 20
109.777134
 30
0.000000
 40
5.611700
 50
-69.379414
 51
48.399171
  6
CONTINUOUS
  0
ARC
  8
GREEN
 10
441.853370
 20
118.043584
 30
0.000000
 40
6.417300
 50
120.022582
 51
219.363372
  6
CONTINUOUS
  0
ARC
  8
GREEN
 10
434.250382
 20
143.632118
 30
0.000000
 40
20.508100
 50
-77.633368
 51
-47.551198
  6
CONTINUOUS
  0
ARC
  8
GREEN
 10
441.307537
 20
134.138856
 30
0.000000
 40
8.822100
 50
-39.733745
 51
75.324769
  6
CONTINUOUS
  0
ARC
  8
GREEN
 10
440.567749
 20
218.799056
 30
0.000000
 40
76.184000
 50
-95.933283
 51
-87.762187
  6
CONTINUOUS
  0
ARC
  8
GREEN
 10
433.411066
 20
147.959161
 30
0.000000
 40
4.988000
 50
162.013871
 51
261.718173
  6
CONTINUOUS
  0
ARC
  8
GREEN
 10
422.745733
 20
152.208451
 30
0.000000
 40
6.511400
 50
-24.585400
 51
101.094300
  6
CONTINUOUS
  0
LINE
  8
GREEN
 10
421.492781
 20
158.598165
 30
0.000000
 11
410.642810
 21
156.498202
 31
0.000000
  6
CONTINUOUS
  0
ARC
  8
GREEN
 10
411.458333
 20
151.036451
 30
0.000000
 40
5.522300
 50
98.492400
 51
199.981200
  6
CONTINUOUS
  0
LINE
  8
GREEN
 10
406.268449
 20
149.149416
 30
0.000000
 11
415.592962
 21
131.095908
 31
0.000000
  6
CONTINUOUS
  0
LINE
  8
GREEN
 10
415.592962
 20
131.095908
 30
0.000000
 11
426.218333
 21
133.575151
 31
0.000000
  6
CONTINUOUS
  0
LINE
  8
GREEN
 10
426.218333
 20
133.575151
 30
0.000000
 11
427.443733
 21
128.323351
 31
0.000000
  6
CONTINUOUS
  0
LINE
  8
GREEN
 10
427.443733
 20
128.323351
 30
0.000000
 11
416.593533
 21
125.873351
 31
0.000000
  6
CONTINUOUS
  0
LINE
  8
GREEN
 10
416.593533
 20
125.873351
 30
0.000000
 11
415.368519
 21
108.198838
 31
0.000000
  6
CONTINUOUS
  0
ENDSEC
  0
EOF
