ISO-10303-21;
HEADER;
/* Generated by software containing ST-Developer
 * from STEP Tools, Inc. (www.steptools.com) 
 */

FILE_DESCRIPTION(
/* description */ (''),
/* implementation_level */ '2;1');

FILE_NAME(
/* name */ 'C:/Users/Louis/Desktop/LID.step',
/* time_stamp */ '2022-06-20T00:11:31+02:00',
/* author */ (''),
/* organization */ (''),
/* preprocessor_version */ 'ST-DEVELOPER v19',
/* originating_system */ 'Autodesk Translation Framework v11.7.0.108',
/* authorisation */ '');

FILE_SCHEMA (('AUTOMOTIVE_DESIGN { 1 0 10303 214 3 1 1 }'));
ENDSEC;

DATA;
#10=MECHANICAL_DESIGN_GEOMETRIC_PRESENTATION_REPRESENTATION('',(#13),#323);
#11=SHAPE_REPRESENTATION_RELATIONSHIP('SRR','None',#330,#12);
#12=ADVANCED_BREP_SHAPE_REPRESENTATION('',(#14),#322);
#13=STYLED_ITEM('',(#339),#14);
#14=MANIFOLD_SOLID_BREP('Body1',#183);
#15=PLANE('',#200);
#16=PLANE('',#204);
#17=PLANE('',#209);
#18=PLANE('',#212);
#19=PLANE('',#213);
#20=PLANE('',#214);
#21=FACE_OUTER_BOUND('',#31,.T.);
#22=FACE_OUTER_BOUND('',#32,.T.);
#23=FACE_OUTER_BOUND('',#33,.T.);
#24=FACE_OUTER_BOUND('',#34,.T.);
#25=FACE_OUTER_BOUND('',#35,.T.);
#26=FACE_OUTER_BOUND('',#36,.T.);
#27=FACE_OUTER_BOUND('',#37,.T.);
#28=FACE_OUTER_BOUND('',#38,.T.);
#29=FACE_OUTER_BOUND('',#39,.T.);
#30=FACE_OUTER_BOUND('',#40,.T.);
#31=EDGE_LOOP('',(#121,#122,#123,#124));
#32=EDGE_LOOP('',(#125,#126,#127,#128,#129,#130,#131,#132));
#33=EDGE_LOOP('',(#133,#134,#135,#136));
#34=EDGE_LOOP('',(#137,#138,#139,#140));
#35=EDGE_LOOP('',(#141,#142,#143,#144));
#36=EDGE_LOOP('',(#145,#146,#147,#148));
#37=EDGE_LOOP('',(#149,#150,#151,#152));
#38=EDGE_LOOP('',(#153,#154,#155,#156));
#39=EDGE_LOOP('',(#157,#158,#159,#160));
#40=EDGE_LOOP('',(#161,#162,#163,#164,#165,#166,#167,#168));
#41=LINE('',#275,#57);
#42=LINE('',#278,#58);
#43=LINE('',#281,#59);
#44=LINE('',#285,#60);
#45=LINE('',#289,#61);
#46=LINE('',#292,#62);
#47=LINE('',#295,#63);
#48=LINE('',#296,#64);
#49=LINE('',#300,#65);
#50=LINE('',#305,#66);
#51=LINE('',#306,#67);
#52=LINE('',#309,#68);
#53=LINE('',#310,#69);
#54=LINE('',#314,#70);
#55=LINE('',#316,#71);
#56=LINE('',#318,#72);
#57=VECTOR('',#221,10.);
#58=VECTOR('',#224,10.);
#59=VECTOR('',#227,10.);
#60=VECTOR('',#230,10.);
#61=VECTOR('',#233,10.);
#62=VECTOR('',#236,10.);
#63=VECTOR('',#239,10.);
#64=VECTOR('',#240,10.);
#65=VECTOR('',#245,10.);
#66=VECTOR('',#250,10.);
#67=VECTOR('',#251,10.);
#68=VECTOR('',#254,10.);
#69=VECTOR('',#255,10.);
#70=VECTOR('',#260,10.);
#71=VECTOR('',#263,10.);
#72=VECTOR('',#266,10.);
#73=CIRCLE('',#198,18.);
#74=CIRCLE('',#199,18.);
#75=CIRCLE('',#201,18.);
#76=CIRCLE('',#202,18.);
#77=CIRCLE('',#203,18.);
#78=CIRCLE('',#206,18.);
#79=CIRCLE('',#208,18.);
#80=CIRCLE('',#211,18.);
#81=VERTEX_POINT('',#271);
#82=VERTEX_POINT('',#272);
#83=VERTEX_POINT('',#274);
#84=VERTEX_POINT('',#276);
#85=VERTEX_POINT('',#280);
#86=VERTEX_POINT('',#282);
#87=VERTEX_POINT('',#284);
#88=VERTEX_POINT('',#286);
#89=VERTEX_POINT('',#288);
#90=VERTEX_POINT('',#290);
#91=VERTEX_POINT('',#294);
#92=VERTEX_POINT('',#298);
#93=VERTEX_POINT('',#302);
#94=VERTEX_POINT('',#303);
#95=VERTEX_POINT('',#308);
#96=VERTEX_POINT('',#312);
#97=EDGE_CURVE('',#81,#82,#73,.T.);
#98=EDGE_CURVE('',#82,#83,#41,.T.);
#99=EDGE_CURVE('',#83,#84,#74,.T.);
#100=EDGE_CURVE('',#84,#81,#42,.T.);
#101=EDGE_CURVE('',#85,#83,#43,.T.);
#102=EDGE_CURVE('',#86,#85,#75,.T.);
#103=EDGE_CURVE('',#87,#86,#44,.T.);
#104=EDGE_CURVE('',#88,#87,#76,.T.);
#105=EDGE_CURVE('',#89,#88,#45,.T.);
#106=EDGE_CURVE('',#90,#89,#77,.T.);
#107=EDGE_CURVE('',#84,#90,#46,.T.);
#108=EDGE_CURVE('',#91,#82,#47,.T.);
#109=EDGE_CURVE('',#85,#91,#48,.T.);
#110=EDGE_CURVE('',#91,#92,#78,.T.);
#111=EDGE_CURVE('',#92,#86,#49,.T.);
#112=EDGE_CURVE('',#93,#94,#79,.T.);
#113=EDGE_CURVE('',#94,#90,#50,.T.);
#114=EDGE_CURVE('',#89,#93,#51,.T.);
#115=EDGE_CURVE('',#95,#88,#52,.T.);
#116=EDGE_CURVE('',#93,#95,#53,.T.);
#117=EDGE_CURVE('',#96,#95,#80,.T.);
#118=EDGE_CURVE('',#87,#96,#54,.T.);
#119=EDGE_CURVE('',#81,#94,#55,.T.);
#120=EDGE_CURVE('',#96,#92,#56,.T.);
#121=ORIENTED_EDGE('',*,*,#97,.T.);
#122=ORIENTED_EDGE('',*,*,#98,.T.);
#123=ORIENTED_EDGE('',*,*,#99,.T.);
#124=ORIENTED_EDGE('',*,*,#100,.T.);
#125=ORIENTED_EDGE('',*,*,#99,.F.);
#126=ORIENTED_EDGE('',*,*,#101,.F.);
#127=ORIENTED_EDGE('',*,*,#102,.F.);
#128=ORIENTED_EDGE('',*,*,#103,.F.);
#129=ORIENTED_EDGE('',*,*,#104,.F.);
#130=ORIENTED_EDGE('',*,*,#105,.F.);
#131=ORIENTED_EDGE('',*,*,#106,.F.);
#132=ORIENTED_EDGE('',*,*,#107,.F.);
#133=ORIENTED_EDGE('',*,*,#98,.F.);
#134=ORIENTED_EDGE('',*,*,#108,.F.);
#135=ORIENTED_EDGE('',*,*,#109,.F.);
#136=ORIENTED_EDGE('',*,*,#101,.T.);
#137=ORIENTED_EDGE('',*,*,#110,.T.);
#138=ORIENTED_EDGE('',*,*,#111,.T.);
#139=ORIENTED_EDGE('',*,*,#102,.T.);
#140=ORIENTED_EDGE('',*,*,#109,.T.);
#141=ORIENTED_EDGE('',*,*,#112,.T.);
#142=ORIENTED_EDGE('',*,*,#113,.T.);
#143=ORIENTED_EDGE('',*,*,#106,.T.);
#144=ORIENTED_EDGE('',*,*,#114,.T.);
#145=ORIENTED_EDGE('',*,*,#114,.F.);
#146=ORIENTED_EDGE('',*,*,#105,.T.);
#147=ORIENTED_EDGE('',*,*,#115,.F.);
#148=ORIENTED_EDGE('',*,*,#116,.F.);
#149=ORIENTED_EDGE('',*,*,#117,.T.);
#150=ORIENTED_EDGE('',*,*,#115,.T.);
#151=ORIENTED_EDGE('',*,*,#104,.T.);
#152=ORIENTED_EDGE('',*,*,#118,.T.);
#153=ORIENTED_EDGE('',*,*,#100,.F.);
#154=ORIENTED_EDGE('',*,*,#107,.T.);
#155=ORIENTED_EDGE('',*,*,#113,.F.);
#156=ORIENTED_EDGE('',*,*,#119,.F.);
#157=ORIENTED_EDGE('',*,*,#111,.F.);
#158=ORIENTED_EDGE('',*,*,#120,.F.);
#159=ORIENTED_EDGE('',*,*,#118,.F.);
#160=ORIENTED_EDGE('',*,*,#103,.T.);
#161=ORIENTED_EDGE('',*,*,#97,.F.);
#162=ORIENTED_EDGE('',*,*,#119,.T.);
#163=ORIENTED_EDGE('',*,*,#112,.F.);
#164=ORIENTED_EDGE('',*,*,#116,.T.);
#165=ORIENTED_EDGE('',*,*,#117,.F.);
#166=ORIENTED_EDGE('',*,*,#120,.T.);
#167=ORIENTED_EDGE('',*,*,#110,.F.);
#168=ORIENTED_EDGE('',*,*,#108,.T.);
#169=CYLINDRICAL_SURFACE('',#197,18.);
#170=CYLINDRICAL_SURFACE('',#205,18.);
#171=CYLINDRICAL_SURFACE('',#207,18.);
#172=CYLINDRICAL_SURFACE('',#210,18.);
#173=ADVANCED_FACE('',(#21),#169,.T.);
#174=ADVANCED_FACE('',(#22),#15,.F.);
#175=ADVANCED_FACE('',(#23),#16,.T.);
#176=ADVANCED_FACE('',(#24),#170,.T.);
#177=ADVANCED_FACE('',(#25),#171,.T.);
#178=ADVANCED_FACE('',(#26),#17,.T.);
#179=ADVANCED_FACE('',(#27),#172,.T.);
#180=ADVANCED_FACE('',(#28),#18,.T.);
#181=ADVANCED_FACE('',(#29),#19,.T.);
#182=ADVANCED_FACE('',(#30),#20,.T.);
#183=CLOSED_SHELL('',(#173,#174,#175,#176,#177,#178,#179,#180,#181,#182));
#184=DERIVED_UNIT_ELEMENT(#186,1.);
#185=DERIVED_UNIT_ELEMENT(#325,-3.);
#186=(
MASS_UNIT()
NAMED_UNIT(*)
SI_UNIT(.KILO.,.GRAM.)
);
#187=DERIVED_UNIT((#184,#185));
#188=MEASURE_REPRESENTATION_ITEM('density measure',
POSITIVE_RATIO_MEASURE(7850.),#187);
#189=PROPERTY_DEFINITION_REPRESENTATION(#194,#191);
#190=PROPERTY_DEFINITION_REPRESENTATION(#195,#192);
#191=REPRESENTATION('material name',(#193),#322);
#192=REPRESENTATION('density',(#188),#322);
#193=DESCRIPTIVE_REPRESENTATION_ITEM('Steel','Steel');
#194=PROPERTY_DEFINITION('material property','material name',#332);
#195=PROPERTY_DEFINITION('material property','density of part',#332);
#196=AXIS2_PLACEMENT_3D('placement',#269,#215,#216);
#197=AXIS2_PLACEMENT_3D('',#270,#217,#218);
#198=AXIS2_PLACEMENT_3D('',#273,#219,#220);
#199=AXIS2_PLACEMENT_3D('',#277,#222,#223);
#200=AXIS2_PLACEMENT_3D('',#279,#225,#226);
#201=AXIS2_PLACEMENT_3D('',#283,#228,#229);
#202=AXIS2_PLACEMENT_3D('',#287,#231,#232);
#203=AXIS2_PLACEMENT_3D('',#291,#234,#235);
#204=AXIS2_PLACEMENT_3D('',#293,#237,#238);
#205=AXIS2_PLACEMENT_3D('',#297,#241,#242);
#206=AXIS2_PLACEMENT_3D('',#299,#243,#244);
#207=AXIS2_PLACEMENT_3D('',#301,#246,#247);
#208=AXIS2_PLACEMENT_3D('',#304,#248,#249);
#209=AXIS2_PLACEMENT_3D('',#307,#252,#253);
#210=AXIS2_PLACEMENT_3D('',#311,#256,#257);
#211=AXIS2_PLACEMENT_3D('',#313,#258,#259);
#212=AXIS2_PLACEMENT_3D('',#315,#261,#262);
#213=AXIS2_PLACEMENT_3D('',#317,#264,#265);
#214=AXIS2_PLACEMENT_3D('',#319,#267,#268);
#215=DIRECTION('axis',(0.,0.,1.));
#216=DIRECTION('refdir',(1.,0.,0.));
#217=DIRECTION('center_axis',(0.,0.,1.));
#218=DIRECTION('ref_axis',(0.707106781186546,0.707106781186549,0.));
#219=DIRECTION('center_axis',(0.,0.,-1.));
#220=DIRECTION('ref_axis',(0.707106781186546,0.707106781186549,0.));
#221=DIRECTION('',(0.,0.,-1.));
#222=DIRECTION('center_axis',(0.,0.,1.));
#223=DIRECTION('ref_axis',(0.707106781186546,0.707106781186549,0.));
#224=DIRECTION('',(0.,0.,1.));
#225=DIRECTION('center_axis',(0.,0.,1.));
#226=DIRECTION('ref_axis',(1.,0.,0.));
#227=DIRECTION('',(0.,1.,0.));
#228=DIRECTION('center_axis',(0.,0.,1.));
#229=DIRECTION('ref_axis',(0.707106781186548,-0.707106781186547,0.));
#230=DIRECTION('',(1.,0.,0.));
#231=DIRECTION('center_axis',(0.,0.,1.));
#232=DIRECTION('ref_axis',(-0.707106781186547,-0.707106781186548,0.));
#233=DIRECTION('',(0.,-1.,0.));
#234=DIRECTION('center_axis',(0.,0.,1.));
#235=DIRECTION('ref_axis',(-0.707106781186548,0.707106781186547,0.));
#236=DIRECTION('',(-1.,0.,0.));
#237=DIRECTION('center_axis',(1.,0.,0.));
#238=DIRECTION('ref_axis',(0.,1.,0.));
#239=DIRECTION('',(0.,1.,0.));
#240=DIRECTION('',(0.,0.,1.));
#241=DIRECTION('center_axis',(0.,0.,1.));
#242=DIRECTION('ref_axis',(0.707106781186548,-0.707106781186547,0.));
#243=DIRECTION('center_axis',(0.,0.,-1.));
#244=DIRECTION('ref_axis',(0.707106781186548,-0.707106781186547,0.));
#245=DIRECTION('',(0.,0.,-1.));
#246=DIRECTION('center_axis',(0.,0.,1.));
#247=DIRECTION('ref_axis',(-0.707106781186548,0.707106781186547,0.));
#248=DIRECTION('center_axis',(0.,0.,-1.));
#249=DIRECTION('ref_axis',(-0.707106781186548,0.707106781186547,0.));
#250=DIRECTION('',(0.,0.,-1.));
#251=DIRECTION('',(0.,0.,1.));
#252=DIRECTION('center_axis',(-1.,0.,0.));
#253=DIRECTION('ref_axis',(0.,-1.,0.));
#254=DIRECTION('',(0.,0.,-1.));
#255=DIRECTION('',(0.,-1.,0.));
#256=DIRECTION('center_axis',(0.,0.,1.));
#257=DIRECTION('ref_axis',(-0.707106781186547,-0.707106781186548,0.));
#258=DIRECTION('center_axis',(0.,0.,-1.));
#259=DIRECTION('ref_axis',(-0.707106781186547,-0.707106781186548,0.));
#260=DIRECTION('',(0.,0.,1.));
#261=DIRECTION('center_axis',(0.,1.,0.));
#262=DIRECTION('ref_axis',(-1.,0.,0.));
#263=DIRECTION('',(-1.,0.,0.));
#264=DIRECTION('center_axis',(0.,-1.,0.));
#265=DIRECTION('ref_axis',(1.,0.,0.));
#266=DIRECTION('',(1.,0.,0.));
#267=DIRECTION('center_axis',(0.,0.,1.));
#268=DIRECTION('ref_axis',(1.,0.,0.));
#269=CARTESIAN_POINT('',(0.,0.,0.));
#270=CARTESIAN_POINT('Origin',(207.,207.,0.));
#271=CARTESIAN_POINT('',(207.,225.,18.));
#272=CARTESIAN_POINT('',(225.,207.,18.));
#273=CARTESIAN_POINT('Origin',(207.,207.,18.));
#274=CARTESIAN_POINT('',(225.,207.,0.));
#275=CARTESIAN_POINT('',(225.,207.,0.));
#276=CARTESIAN_POINT('',(207.,225.,0.));
#277=CARTESIAN_POINT('Origin',(207.,207.,0.));
#278=CARTESIAN_POINT('',(207.,225.,0.));
#279=CARTESIAN_POINT('Origin',(112.5,112.5,0.));
#280=CARTESIAN_POINT('',(225.,18.,0.));
#281=CARTESIAN_POINT('',(225.,0.,0.));
#282=CARTESIAN_POINT('',(207.,0.,0.));
#283=CARTESIAN_POINT('Origin',(207.,18.,0.));
#284=CARTESIAN_POINT('',(18.,0.,0.));
#285=CARTESIAN_POINT('',(0.,0.,0.));
#286=CARTESIAN_POINT('',(0.,18.,0.));
#287=CARTESIAN_POINT('Origin',(18.,18.,0.));
#288=CARTESIAN_POINT('',(0.,207.,0.));
#289=CARTESIAN_POINT('',(0.,225.,0.));
#290=CARTESIAN_POINT('',(18.,225.,0.));
#291=CARTESIAN_POINT('Origin',(18.,207.,0.));
#292=CARTESIAN_POINT('',(225.,225.,0.));
#293=CARTESIAN_POINT('Origin',(225.,0.,0.));
#294=CARTESIAN_POINT('',(225.,18.,18.));
#295=CARTESIAN_POINT('',(225.,0.,18.));
#296=CARTESIAN_POINT('',(225.,18.,0.));
#297=CARTESIAN_POINT('Origin',(207.,18.,0.));
#298=CARTESIAN_POINT('',(207.,0.,18.));
#299=CARTESIAN_POINT('Origin',(207.,18.,18.));
#300=CARTESIAN_POINT('',(207.,0.,0.));
#301=CARTESIAN_POINT('Origin',(18.,207.,0.));
#302=CARTESIAN_POINT('',(0.,207.,18.));
#303=CARTESIAN_POINT('',(18.,225.,18.));
#304=CARTESIAN_POINT('Origin',(18.,207.,18.));
#305=CARTESIAN_POINT('',(18.,225.,0.));
#306=CARTESIAN_POINT('',(0.,207.,0.));
#307=CARTESIAN_POINT('Origin',(0.,225.,0.));
#308=CARTESIAN_POINT('',(0.,18.,18.));
#309=CARTESIAN_POINT('',(0.,18.,0.));
#310=CARTESIAN_POINT('',(0.,225.,18.));
#311=CARTESIAN_POINT('Origin',(18.,18.,0.));
#312=CARTESIAN_POINT('',(18.,0.,18.));
#313=CARTESIAN_POINT('Origin',(18.,18.,18.));
#314=CARTESIAN_POINT('',(18.,0.,0.));
#315=CARTESIAN_POINT('Origin',(225.,225.,0.));
#316=CARTESIAN_POINT('',(225.,225.,18.));
#317=CARTESIAN_POINT('Origin',(0.,0.,0.));
#318=CARTESIAN_POINT('',(0.,0.,18.));
#319=CARTESIAN_POINT('Origin',(112.5,112.5,18.));
#320=UNCERTAINTY_MEASURE_WITH_UNIT(LENGTH_MEASURE(0.01),#324,
'DISTANCE_ACCURACY_VALUE',
'Maximum model space distance between geometric entities at asserted c
onnectivities');
#321=UNCERTAINTY_MEASURE_WITH_UNIT(LENGTH_MEASURE(0.01),#324,
'DISTANCE_ACCURACY_VALUE',
'Maximum model space distance between geometric entities at asserted c
onnectivities');
#322=(
GEOMETRIC_REPRESENTATION_CONTEXT(3)
GLOBAL_UNCERTAINTY_ASSIGNED_CONTEXT((#320))
GLOBAL_UNIT_ASSIGNED_CONTEXT((#324,#326,#327))
REPRESENTATION_CONTEXT('','3D')
);
#323=(
GEOMETRIC_REPRESENTATION_CONTEXT(3)
GLOBAL_UNCERTAINTY_ASSIGNED_CONTEXT((#321))
GLOBAL_UNIT_ASSIGNED_CONTEXT((#324,#326,#327))
REPRESENTATION_CONTEXT('','3D')
);
#324=(
LENGTH_UNIT()
NAMED_UNIT(*)
SI_UNIT(.MILLI.,.METRE.)
);
#325=(
LENGTH_UNIT()
NAMED_UNIT(*)
SI_UNIT($,.METRE.)
);
#326=(
NAMED_UNIT(*)
PLANE_ANGLE_UNIT()
SI_UNIT($,.RADIAN.)
);
#327=(
NAMED_UNIT(*)
SI_UNIT($,.STERADIAN.)
SOLID_ANGLE_UNIT()
);
#328=SHAPE_DEFINITION_REPRESENTATION(#329,#330);
#329=PRODUCT_DEFINITION_SHAPE('',$,#332);
#330=SHAPE_REPRESENTATION('',(#196),#322);
#331=PRODUCT_DEFINITION_CONTEXT('part definition',#336,'design');
#332=PRODUCT_DEFINITION('lid','lid v8',#333,#331);
#333=PRODUCT_DEFINITION_FORMATION('',$,#338);
#334=PRODUCT_RELATED_PRODUCT_CATEGORY('lid v8','lid v8',(#338));
#335=APPLICATION_PROTOCOL_DEFINITION('international standard',
'automotive_design',2009,#336);
#336=APPLICATION_CONTEXT(
'Core Data for Automotive Mechanical Design Process');
#337=PRODUCT_CONTEXT('part definition',#336,'mechanical');
#338=PRODUCT('lid','lid v8',$,(#337));
#339=PRESENTATION_STYLE_ASSIGNMENT((#340));
#340=SURFACE_STYLE_USAGE(.BOTH.,#341);
#341=SURFACE_SIDE_STYLE('',(#342));
#342=SURFACE_STYLE_FILL_AREA(#343);
#343=FILL_AREA_STYLE('Steel - Satin',(#344));
#344=FILL_AREA_STYLE_COLOUR('Steel - Satin',#345);
#345=COLOUR_RGB('Steel - Satin',0.627450980392157,0.627450980392157,0.627450980392157);
ENDSEC;
END-ISO-10303-21;
