ISO-10303-21;
HEADER;
/* Generated by software containing ST-Developer
 * from STEP Tools, Inc. (www.steptools.com) 
 */

FILE_DESCRIPTION(
/* description */ (''),
/* implementation_level */ '2;1');

FILE_NAME(
/* name */ 'C:/Users/peanu/Dropbox/3d/Tap/STP/T-BUSHING.0.3.step',
/* time_stamp */ '2020-05-25T15:43:57+01:00',
/* author */ (''),
/* organization */ (''),
/* preprocessor_version */ 'ST-DEVELOPER v18.1',
/* originating_system */ 'Autodesk Translation Framework v9.3.0.1241',
/* authorisation */ '');

FILE_SCHEMA (('AUTOMOTIVE_DESIGN { 1 0 10303 214 3 1 1 }'));
ENDSEC;

DATA;
#10=MECHANICAL_DESIGN_GEOMETRIC_PRESENTATION_REPRESENTATION('',(#20,#21),
#434);
#11=CONTEXT_DEPENDENT_OVER_RIDING_STYLED_ITEM('',(#459),#445,#21,(#15));
#12=MAPPED_ITEM('',#13,#284);
#13=REPRESENTATION_MAP(#284,#444);
#14=ITEM_DEFINED_TRANSFORMATION($,$,#251,#283);
#15=(
REPRESENTATION_RELATIONSHIP($,$,#445,#444)
REPRESENTATION_RELATIONSHIP_WITH_TRANSFORMATION(#14)
SHAPE_REPRESENTATION_RELATIONSHIP()
);
#16=CONTEXT_DEPENDENT_SHAPE_REPRESENTATION(#15,#443);
#17=NEXT_ASSEMBLY_USAGE_OCCURRENCE('T-BUSHING.0.2:1','T-BUSHING.0.2:1',
'T-BUSHING.0.2:1',#447,#448,'T-BUSHING.0.2:1');
#18=SHAPE_REPRESENTATION_RELATIONSHIP('SRR','None',#445,#19);
#19=ADVANCED_BREP_SHAPE_REPRESENTATION('',(#22),#433);
#20=STYLED_ITEM('',(#459),#22);
#21=STYLED_ITEM('',(#460),#12);
#22=MANIFOLD_SOLID_BREP('Body1',#237);
#23=CYLINDRICAL_SURFACE('',#257,11.);
#24=CYLINDRICAL_SURFACE('',#262,20.);
#25=CYLINDRICAL_SURFACE('',#277,6.);
#26=CYLINDRICAL_SURFACE('',#280,1.666);
#27=CYLINDRICAL_SURFACE('',#281,1.666);
#28=CYLINDRICAL_SURFACE('',#282,1.666);
#29=FACE_BOUND('',#57,.T.);
#30=FACE_BOUND('',#62,.T.);
#31=FACE_BOUND('',#63,.T.);
#32=FACE_BOUND('',#64,.T.);
#33=FACE_BOUND('',#65,.T.);
#34=FACE_BOUND('',#68,.T.);
#35=FACE_BOUND('',#69,.T.);
#36=FACE_BOUND('',#70,.T.);
#37=FACE_BOUND('',#71,.T.);
#38=PLANE('',#255);
#39=PLANE('',#264);
#40=PLANE('',#270);
#41=FACE_OUTER_BOUND('',#55,.T.);
#42=FACE_OUTER_BOUND('',#56,.T.);
#43=FACE_OUTER_BOUND('',#58,.T.);
#44=FACE_OUTER_BOUND('',#59,.T.);
#45=FACE_OUTER_BOUND('',#60,.T.);
#46=FACE_OUTER_BOUND('',#61,.T.);
#47=FACE_OUTER_BOUND('',#66,.T.);
#48=FACE_OUTER_BOUND('',#67,.T.);
#49=FACE_OUTER_BOUND('',#72,.T.);
#50=FACE_OUTER_BOUND('',#73,.T.);
#51=FACE_OUTER_BOUND('',#74,.T.);
#52=FACE_OUTER_BOUND('',#75,.T.);
#53=FACE_OUTER_BOUND('',#76,.T.);
#54=FACE_OUTER_BOUND('',#77,.T.);
#55=EDGE_LOOP('',(#162,#163,#164,#165));
#56=EDGE_LOOP('',(#166));
#57=EDGE_LOOP('',(#167));
#58=EDGE_LOOP('',(#168,#169,#170,#171));
#59=EDGE_LOOP('',(#172,#173,#174,#175));
#60=EDGE_LOOP('',(#176,#177,#178,#179));
#61=EDGE_LOOP('',(#180));
#62=EDGE_LOOP('',(#181));
#63=EDGE_LOOP('',(#182));
#64=EDGE_LOOP('',(#183));
#65=EDGE_LOOP('',(#184));
#66=EDGE_LOOP('',(#185,#186,#187,#188));
#67=EDGE_LOOP('',(#189));
#68=EDGE_LOOP('',(#190));
#69=EDGE_LOOP('',(#191));
#70=EDGE_LOOP('',(#192));
#71=EDGE_LOOP('',(#193));
#72=EDGE_LOOP('',(#194,#195,#196,#197));
#73=EDGE_LOOP('',(#198,#199,#200,#201));
#74=EDGE_LOOP('',(#202,#203,#204,#205));
#75=EDGE_LOOP('',(#206,#207,#208,#209));
#76=EDGE_LOOP('',(#210,#211,#212,#213));
#77=EDGE_LOOP('',(#214,#215,#216,#217));
#78=LINE('',#372,#89);
#79=LINE('',#379,#90);
#80=LINE('',#385,#91);
#81=LINE('',#389,#92);
#82=LINE('',#400,#93);
#83=LINE('',#413,#94);
#84=LINE('',#417,#95);
#85=LINE('',#420,#96);
#86=LINE('',#422,#97);
#87=LINE('',#424,#98);
#88=LINE('',#426,#99);
#89=VECTOR('',#293,10.9);
#90=VECTOR('',#302,11.);
#91=VECTOR('',#309,19.9);
#92=VECTOR('',#314,20.);
#93=VECTOR('',#327,19.5);
#94=VECTOR('',#342,6.25);
#95=VECTOR('',#347,6.);
#96=VECTOR('',#352,6.25);
#97=VECTOR('',#355,1.65);
#98=VECTOR('',#358,1.65);
#99=VECTOR('',#361,1.65);
#100=CIRCLE('',#253,10.8);
#101=CIRCLE('',#254,11.);
#102=CIRCLE('',#256,6.5);
#103=CIRCLE('',#258,11.);
#104=CIRCLE('',#260,19.8);
#105=CIRCLE('',#261,20.);
#106=CIRCLE('',#263,20.);
#107=CIRCLE('',#265,1.666);
#108=CIRCLE('',#266,1.666);
#109=CIRCLE('',#267,1.666);
#110=CIRCLE('',#269,19.);
#111=CIRCLE('',#271,6.5);
#112=CIRCLE('',#272,1.666);
#113=CIRCLE('',#273,1.666);
#114=CIRCLE('',#274,1.666);
#115=CIRCLE('',#276,6.);
#116=CIRCLE('',#278,6.);
#117=VERTEX_POINT('',#369);
#118=VERTEX_POINT('',#371);
#119=VERTEX_POINT('',#375);
#120=VERTEX_POINT('',#378);
#121=VERTEX_POINT('',#382);
#122=VERTEX_POINT('',#384);
#123=VERTEX_POINT('',#388);
#124=VERTEX_POINT('',#392);
#125=VERTEX_POINT('',#394);
#126=VERTEX_POINT('',#396);
#127=VERTEX_POINT('',#399);
#128=VERTEX_POINT('',#403);
#129=VERTEX_POINT('',#405);
#130=VERTEX_POINT('',#407);
#131=VERTEX_POINT('',#409);
#132=VERTEX_POINT('',#412);
#133=VERTEX_POINT('',#416);
#134=EDGE_CURVE('',#117,#117,#100,.T.);
#135=EDGE_CURVE('',#117,#118,#78,.T.);
#136=EDGE_CURVE('',#118,#118,#101,.T.);
#137=EDGE_CURVE('',#119,#119,#102,.T.);
#138=EDGE_CURVE('',#118,#120,#79,.T.);
#139=EDGE_CURVE('',#120,#120,#103,.T.);
#140=EDGE_CURVE('',#121,#121,#104,.T.);
#141=EDGE_CURVE('',#121,#122,#80,.T.);
#142=EDGE_CURVE('',#122,#122,#105,.T.);
#143=EDGE_CURVE('',#122,#123,#81,.T.);
#144=EDGE_CURVE('',#123,#123,#106,.T.);
#145=EDGE_CURVE('',#124,#124,#107,.F.);
#146=EDGE_CURVE('',#125,#125,#108,.F.);
#147=EDGE_CURVE('',#126,#126,#109,.F.);
#148=EDGE_CURVE('',#123,#127,#82,.T.);
#149=EDGE_CURVE('',#127,#127,#110,.T.);
#150=EDGE_CURVE('',#128,#128,#111,.T.);
#151=EDGE_CURVE('',#129,#129,#112,.F.);
#152=EDGE_CURVE('',#130,#130,#113,.F.);
#153=EDGE_CURVE('',#131,#131,#114,.F.);
#154=EDGE_CURVE('',#119,#132,#83,.T.);
#155=EDGE_CURVE('',#132,#132,#115,.T.);
#156=EDGE_CURVE('',#132,#133,#84,.T.);
#157=EDGE_CURVE('',#133,#133,#116,.T.);
#158=EDGE_CURVE('',#133,#128,#85,.T.);
#159=EDGE_CURVE('',#124,#131,#86,.T.);
#160=EDGE_CURVE('',#125,#130,#87,.T.);
#161=EDGE_CURVE('',#126,#129,#88,.T.);
#162=ORIENTED_EDGE('',*,*,#134,.T.);
#163=ORIENTED_EDGE('',*,*,#135,.T.);
#164=ORIENTED_EDGE('',*,*,#136,.T.);
#165=ORIENTED_EDGE('',*,*,#135,.F.);
#166=ORIENTED_EDGE('',*,*,#134,.F.);
#167=ORIENTED_EDGE('',*,*,#137,.F.);
#168=ORIENTED_EDGE('',*,*,#136,.F.);
#169=ORIENTED_EDGE('',*,*,#138,.T.);
#170=ORIENTED_EDGE('',*,*,#139,.F.);
#171=ORIENTED_EDGE('',*,*,#138,.F.);
#172=ORIENTED_EDGE('',*,*,#140,.T.);
#173=ORIENTED_EDGE('',*,*,#141,.T.);
#174=ORIENTED_EDGE('',*,*,#142,.T.);
#175=ORIENTED_EDGE('',*,*,#141,.F.);
#176=ORIENTED_EDGE('',*,*,#142,.F.);
#177=ORIENTED_EDGE('',*,*,#143,.T.);
#178=ORIENTED_EDGE('',*,*,#144,.F.);
#179=ORIENTED_EDGE('',*,*,#143,.F.);
#180=ORIENTED_EDGE('',*,*,#140,.F.);
#181=ORIENTED_EDGE('',*,*,#145,.T.);
#182=ORIENTED_EDGE('',*,*,#146,.T.);
#183=ORIENTED_EDGE('',*,*,#139,.T.);
#184=ORIENTED_EDGE('',*,*,#147,.T.);
#185=ORIENTED_EDGE('',*,*,#144,.T.);
#186=ORIENTED_EDGE('',*,*,#148,.T.);
#187=ORIENTED_EDGE('',*,*,#149,.T.);
#188=ORIENTED_EDGE('',*,*,#148,.F.);
#189=ORIENTED_EDGE('',*,*,#149,.F.);
#190=ORIENTED_EDGE('',*,*,#150,.F.);
#191=ORIENTED_EDGE('',*,*,#151,.F.);
#192=ORIENTED_EDGE('',*,*,#152,.F.);
#193=ORIENTED_EDGE('',*,*,#153,.F.);
#194=ORIENTED_EDGE('',*,*,#137,.T.);
#195=ORIENTED_EDGE('',*,*,#154,.T.);
#196=ORIENTED_EDGE('',*,*,#155,.T.);
#197=ORIENTED_EDGE('',*,*,#154,.F.);
#198=ORIENTED_EDGE('',*,*,#155,.F.);
#199=ORIENTED_EDGE('',*,*,#156,.T.);
#200=ORIENTED_EDGE('',*,*,#157,.F.);
#201=ORIENTED_EDGE('',*,*,#156,.F.);
#202=ORIENTED_EDGE('',*,*,#157,.T.);
#203=ORIENTED_EDGE('',*,*,#158,.T.);
#204=ORIENTED_EDGE('',*,*,#150,.T.);
#205=ORIENTED_EDGE('',*,*,#158,.F.);
#206=ORIENTED_EDGE('',*,*,#145,.F.);
#207=ORIENTED_EDGE('',*,*,#159,.T.);
#208=ORIENTED_EDGE('',*,*,#153,.T.);
#209=ORIENTED_EDGE('',*,*,#159,.F.);
#210=ORIENTED_EDGE('',*,*,#146,.F.);
#211=ORIENTED_EDGE('',*,*,#160,.T.);
#212=ORIENTED_EDGE('',*,*,#152,.T.);
#213=ORIENTED_EDGE('',*,*,#160,.F.);
#214=ORIENTED_EDGE('',*,*,#147,.F.);
#215=ORIENTED_EDGE('',*,*,#161,.T.);
#216=ORIENTED_EDGE('',*,*,#151,.T.);
#217=ORIENTED_EDGE('',*,*,#161,.F.);
#218=CONICAL_SURFACE('',#252,10.9,0.785398163397448);
#219=CONICAL_SURFACE('',#259,19.9,0.785398163397448);
#220=CONICAL_SURFACE('',#268,19.5,0.785398163397449);
#221=CONICAL_SURFACE('',#275,6.25,0.785398163397451);
#222=CONICAL_SURFACE('',#279,6.25,0.785398163397449);
#223=ADVANCED_FACE('',(#41),#218,.T.);
#224=ADVANCED_FACE('',(#42,#29),#38,.T.);
#225=ADVANCED_FACE('',(#43),#23,.T.);
#226=ADVANCED_FACE('',(#44),#219,.T.);
#227=ADVANCED_FACE('',(#45),#24,.T.);
#228=ADVANCED_FACE('',(#46,#30,#31,#32,#33),#39,.T.);
#229=ADVANCED_FACE('',(#47),#220,.T.);
#230=ADVANCED_FACE('',(#48,#34,#35,#36,#37),#40,.F.);
#231=ADVANCED_FACE('',(#49),#221,.F.);
#232=ADVANCED_FACE('',(#50),#25,.F.);
#233=ADVANCED_FACE('',(#51),#222,.F.);
#234=ADVANCED_FACE('',(#52),#26,.F.);
#235=ADVANCED_FACE('',(#53),#27,.F.);
#236=ADVANCED_FACE('',(#54),#28,.F.);
#237=CLOSED_SHELL('',(#223,#224,#225,#226,#227,#228,#229,#230,#231,#232,
#233,#234,#235,#236));
#238=DERIVED_UNIT_ELEMENT(#240,1.);
#239=DERIVED_UNIT_ELEMENT(#436,3.);
#240=(
MASS_UNIT()
NAMED_UNIT(*)
SI_UNIT(.KILO.,.GRAM.)
);
#241=DERIVED_UNIT((#238,#239));
#242=MEASURE_REPRESENTATION_ITEM('density measure',
POSITIVE_RATIO_MEASURE(8870.),#241);
#243=PROPERTY_DEFINITION_REPRESENTATION(#248,#245);
#244=PROPERTY_DEFINITION_REPRESENTATION(#249,#246);
#245=REPRESENTATION('material name',(#247),#433);
#246=REPRESENTATION('density',(#242),#433);
#247=DESCRIPTIVE_REPRESENTATION_ITEM('Bronze, Cast','Bronze, Cast');
#248=PROPERTY_DEFINITION('material property','material name',#448);
#249=PROPERTY_DEFINITION('material property','density of part',#448);
#250=AXIS2_PLACEMENT_3D('placement',#366,#285,#286);
#251=AXIS2_PLACEMENT_3D('placement',#367,#287,#288);
#252=AXIS2_PLACEMENT_3D('',#368,#289,#290);
#253=AXIS2_PLACEMENT_3D('',#370,#291,#292);
#254=AXIS2_PLACEMENT_3D('',#373,#294,#295);
#255=AXIS2_PLACEMENT_3D('',#374,#296,#297);
#256=AXIS2_PLACEMENT_3D('',#376,#298,#299);
#257=AXIS2_PLACEMENT_3D('',#377,#300,#301);
#258=AXIS2_PLACEMENT_3D('',#380,#303,#304);
#259=AXIS2_PLACEMENT_3D('',#381,#305,#306);
#260=AXIS2_PLACEMENT_3D('',#383,#307,#308);
#261=AXIS2_PLACEMENT_3D('',#386,#310,#311);
#262=AXIS2_PLACEMENT_3D('',#387,#312,#313);
#263=AXIS2_PLACEMENT_3D('',#390,#315,#316);
#264=AXIS2_PLACEMENT_3D('',#391,#317,#318);
#265=AXIS2_PLACEMENT_3D('',#393,#319,#320);
#266=AXIS2_PLACEMENT_3D('',#395,#321,#322);
#267=AXIS2_PLACEMENT_3D('',#397,#323,#324);
#268=AXIS2_PLACEMENT_3D('',#398,#325,#326);
#269=AXIS2_PLACEMENT_3D('',#401,#328,#329);
#270=AXIS2_PLACEMENT_3D('',#402,#330,#331);
#271=AXIS2_PLACEMENT_3D('',#404,#332,#333);
#272=AXIS2_PLACEMENT_3D('',#406,#334,#335);
#273=AXIS2_PLACEMENT_3D('',#408,#336,#337);
#274=AXIS2_PLACEMENT_3D('',#410,#338,#339);
#275=AXIS2_PLACEMENT_3D('',#411,#340,#341);
#276=AXIS2_PLACEMENT_3D('',#414,#343,#344);
#277=AXIS2_PLACEMENT_3D('',#415,#345,#346);
#278=AXIS2_PLACEMENT_3D('',#418,#348,#349);
#279=AXIS2_PLACEMENT_3D('',#419,#350,#351);
#280=AXIS2_PLACEMENT_3D('',#421,#353,#354);
#281=AXIS2_PLACEMENT_3D('',#423,#356,#357);
#282=AXIS2_PLACEMENT_3D('',#425,#359,#360);
#283=AXIS2_PLACEMENT_3D('',#427,#362,#363);
#284=AXIS2_PLACEMENT_3D('',#428,#364,#365);
#285=DIRECTION('axis',(0.,0.,1.));
#286=DIRECTION('refdir',(1.,0.,0.));
#287=DIRECTION('axis',(0.,0.,1.));
#288=DIRECTION('refdir',(1.,0.,0.));
#289=DIRECTION('center_axis',(0.,0.,-1.));
#290=DIRECTION('ref_axis',(1.,0.,0.));
#291=DIRECTION('center_axis',(0.,0.,-1.));
#292=DIRECTION('ref_axis',(1.,0.,0.));
#293=DIRECTION('',(-0.707106781186547,-8.65956056235493E-17,-0.707106781186547));
#294=DIRECTION('center_axis',(0.,0.,1.));
#295=DIRECTION('ref_axis',(1.,0.,0.));
#296=DIRECTION('center_axis',(0.,0.,1.));
#297=DIRECTION('ref_axis',(1.,0.,0.));
#298=DIRECTION('center_axis',(0.,0.,1.));
#299=DIRECTION('ref_axis',(1.,0.,0.));
#300=DIRECTION('center_axis',(0.,0.,1.));
#301=DIRECTION('ref_axis',(1.,0.,0.));
#302=DIRECTION('',(0.,0.,-1.));
#303=DIRECTION('center_axis',(0.,0.,-1.));
#304=DIRECTION('ref_axis',(1.,0.,0.));
#305=DIRECTION('center_axis',(0.,0.,-1.));
#306=DIRECTION('ref_axis',(1.,0.,0.));
#307=DIRECTION('center_axis',(0.,0.,-1.));
#308=DIRECTION('ref_axis',(1.,0.,0.));
#309=DIRECTION('',(-0.707106781186547,-8.65956056235493E-17,-0.707106781186547));
#310=DIRECTION('center_axis',(0.,0.,1.));
#311=DIRECTION('ref_axis',(1.,0.,0.));
#312=DIRECTION('center_axis',(0.,0.,1.));
#313=DIRECTION('ref_axis',(1.,0.,0.));
#314=DIRECTION('',(0.,0.,-1.));
#315=DIRECTION('center_axis',(0.,0.,-1.));
#316=DIRECTION('ref_axis',(1.,0.,0.));
#317=DIRECTION('center_axis',(0.,0.,1.));
#318=DIRECTION('ref_axis',(1.,0.,0.));
#319=DIRECTION('center_axis',(0.,0.,1.));
#320=DIRECTION('ref_axis',(1.,0.,0.));
#321=DIRECTION('center_axis',(0.,0.,1.));
#322=DIRECTION('ref_axis',(1.,0.,0.));
#323=DIRECTION('center_axis',(0.,0.,1.));
#324=DIRECTION('ref_axis',(1.,0.,0.));
#325=DIRECTION('center_axis',(0.,0.,1.));
#326=DIRECTION('ref_axis',(1.,0.,0.));
#327=DIRECTION('',(0.707106781186548,8.65956056235494E-17,-0.707106781186547));
#328=DIRECTION('center_axis',(0.,0.,1.));
#329=DIRECTION('ref_axis',(1.,0.,0.));
#330=DIRECTION('center_axis',(0.,0.,1.));
#331=DIRECTION('ref_axis',(1.,0.,0.));
#332=DIRECTION('center_axis',(0.,0.,-1.));
#333=DIRECTION('ref_axis',(1.,0.,0.));
#334=DIRECTION('center_axis',(0.,0.,1.));
#335=DIRECTION('ref_axis',(1.,0.,0.));
#336=DIRECTION('center_axis',(0.,0.,1.));
#337=DIRECTION('ref_axis',(1.,0.,0.));
#338=DIRECTION('center_axis',(0.,0.,1.));
#339=DIRECTION('ref_axis',(1.,0.,0.));
#340=DIRECTION('center_axis',(0.,0.,1.));
#341=DIRECTION('ref_axis',(1.,0.,0.));
#342=DIRECTION('',(0.707106781186549,8.65956056235495E-17,-0.707106781186546));
#343=DIRECTION('center_axis',(0.,0.,-1.));
#344=DIRECTION('ref_axis',(1.,0.,0.));
#345=DIRECTION('center_axis',(0.,0.,1.));
#346=DIRECTION('ref_axis',(1.,0.,0.));
#347=DIRECTION('',(0.,0.,-1.));
#348=DIRECTION('center_axis',(0.,0.,1.));
#349=DIRECTION('ref_axis',(1.,0.,0.));
#350=DIRECTION('center_axis',(0.,0.,-1.));
#351=DIRECTION('ref_axis',(1.,0.,0.));
#352=DIRECTION('',(-0.707106781186548,-8.65956056235494E-17,-0.707106781186547));
#353=DIRECTION('center_axis',(0.,0.,1.));
#354=DIRECTION('ref_axis',(1.,0.,0.));
#355=DIRECTION('',(0.,0.,-1.));
#356=DIRECTION('center_axis',(0.,0.,1.));
#357=DIRECTION('ref_axis',(1.,0.,0.));
#358=DIRECTION('',(0.,0.,-1.));
#359=DIRECTION('center_axis',(0.,0.,1.));
#360=DIRECTION('ref_axis',(1.,0.,0.));
#361=DIRECTION('',(0.,0.,-1.));
#362=DIRECTION('',(0.,0.,1.));
#363=DIRECTION('',(1.,0.,0.));
#364=DIRECTION('center_axis',(0.,0.,1.));
#365=DIRECTION('ref_axis',(1.,0.,0.));
#366=CARTESIAN_POINT('',(0.,0.,0.));
#367=CARTESIAN_POINT('',(0.,0.,0.));
#368=CARTESIAN_POINT('Origin',(0.,0.,39.9));
#369=CARTESIAN_POINT('',(-10.8,1.32261854307914E-15,40.));
#370=CARTESIAN_POINT('Origin',(0.,0.,40.));
#371=CARTESIAN_POINT('',(-11.,-1.34711147906209E-15,39.8));
#372=CARTESIAN_POINT('',(-10.9,-1.33486501107062E-15,39.9));
#373=CARTESIAN_POINT('Origin',(0.,0.,39.8));
#374=CARTESIAN_POINT('Origin',(0.,0.,40.));
#375=CARTESIAN_POINT('',(-6.5,-7.9602041944578E-16,40.));
#376=CARTESIAN_POINT('Origin',(0.,0.,40.));
#377=CARTESIAN_POINT('Origin',(0.,0.,0.));
#378=CARTESIAN_POINT('',(-11.,-1.34711147906209E-15,6.));
#379=CARTESIAN_POINT('',(-11.,-1.34711147906209E-15,0.));
#380=CARTESIAN_POINT('Origin',(0.,0.,6.));
#381=CARTESIAN_POINT('Origin',(0.,0.,5.9));
#382=CARTESIAN_POINT('',(-19.8,2.42480066231176E-15,6.));
#383=CARTESIAN_POINT('Origin',(0.,0.,6.));
#384=CARTESIAN_POINT('',(-20.,-2.44929359829471E-15,5.8));
#385=CARTESIAN_POINT('',(-19.9,-2.43704713030323E-15,5.9));
#386=CARTESIAN_POINT('Origin',(0.,0.,5.8));
#387=CARTESIAN_POINT('Origin',(0.,0.,0.));
#388=CARTESIAN_POINT('',(-20.,2.44929359829471E-15,1.));
#389=CARTESIAN_POINT('',(-20.,-2.44929359829471E-15,0.));
#390=CARTESIAN_POINT('Origin',(0.,0.,1.));
#391=CARTESIAN_POINT('Origin',(0.,0.,6.));
#392=CARTESIAN_POINT('',(-9.166,12.9903810567666,6.));
#393=CARTESIAN_POINT('Origin',(-7.5,12.9903810567666,6.));
#394=CARTESIAN_POINT('',(-9.166,-12.9903810567666,6.));
#395=CARTESIAN_POINT('Origin',(-7.5,-12.9903810567666,6.));
#396=CARTESIAN_POINT('',(13.334,-2.04026156737949E-16,6.));
#397=CARTESIAN_POINT('Origin',(15.,0.,6.));
#398=CARTESIAN_POINT('Origin',(0.,0.,0.5));
#399=CARTESIAN_POINT('',(-19.,-2.32682891837997E-15,0.));
#400=CARTESIAN_POINT('',(-19.5,-2.38806125833734E-15,0.5));
#401=CARTESIAN_POINT('Origin',(0.,0.,0.));
#402=CARTESIAN_POINT('Origin',(0.,0.,0.));
#403=CARTESIAN_POINT('',(-6.5,7.9602041944578E-16,0.));
#404=CARTESIAN_POINT('Origin',(0.,0.,0.));
#405=CARTESIAN_POINT('',(13.334,-2.04026156737949E-16,0.));
#406=CARTESIAN_POINT('Origin',(15.,0.,0.));
#407=CARTESIAN_POINT('',(-9.166,-12.9903810567666,0.));
#408=CARTESIAN_POINT('Origin',(-7.5,-12.9903810567666,0.));
#409=CARTESIAN_POINT('',(-9.166,12.9903810567666,0.));
#410=CARTESIAN_POINT('Origin',(-7.5,12.9903810567666,0.));
#411=CARTESIAN_POINT('Origin',(0.,0.,39.75));
#412=CARTESIAN_POINT('',(-6.,7.34788079488412E-16,39.5));
#413=CARTESIAN_POINT('',(-6.25,-7.65404249467096E-16,39.75));
#414=CARTESIAN_POINT('Origin',(0.,0.,39.5));
#415=CARTESIAN_POINT('Origin',(0.,0.,0.));
#416=CARTESIAN_POINT('',(-6.,-7.34788079488412E-16,0.5));
#417=CARTESIAN_POINT('',(-6.,-7.34788079488412E-16,0.));
#418=CARTESIAN_POINT('Origin',(0.,0.,0.5));
#419=CARTESIAN_POINT('Origin',(0.,0.,0.25));
#420=CARTESIAN_POINT('',(-6.25,-7.65404249467096E-16,0.25));
#421=CARTESIAN_POINT('Origin',(-7.5,12.9903810567666,0.));
#422=CARTESIAN_POINT('',(-9.166,12.9903810567666,0.));
#423=CARTESIAN_POINT('Origin',(-7.5,-12.9903810567666,0.));
#424=CARTESIAN_POINT('',(-9.166,-12.9903810567666,0.));
#425=CARTESIAN_POINT('Origin',(15.,0.,0.));
#426=CARTESIAN_POINT('',(13.334,-2.04026156737949E-16,0.));
#427=CARTESIAN_POINT('',(0.,0.,0.));
#428=CARTESIAN_POINT('Origin',(0.,0.,0.));
#429=UNCERTAINTY_MEASURE_WITH_UNIT(LENGTH_MEASURE(0.01),#435,
'DISTANCE_ACCURACY_VALUE',
'Maximum model space distance between geometric entities at asserted c
onnectivities');
#430=UNCERTAINTY_MEASURE_WITH_UNIT(LENGTH_MEASURE(0.01),#435,
'DISTANCE_ACCURACY_VALUE',
'Maximum model space distance between geometric entities at asserted c
onnectivities');
#431=UNCERTAINTY_MEASURE_WITH_UNIT(LENGTH_MEASURE(0.01),#435,
'DISTANCE_ACCURACY_VALUE',
'Maximum model space distance between geometric entities at asserted c
onnectivities');
#432=(
GEOMETRIC_REPRESENTATION_CONTEXT(3)
GLOBAL_UNCERTAINTY_ASSIGNED_CONTEXT((#429))
GLOBAL_UNIT_ASSIGNED_CONTEXT((#435,#437,#438))
REPRESENTATION_CONTEXT('','3D')
);
#433=(
GEOMETRIC_REPRESENTATION_CONTEXT(3)
GLOBAL_UNCERTAINTY_ASSIGNED_CONTEXT((#430))
GLOBAL_UNIT_ASSIGNED_CONTEXT((#435,#437,#438))
REPRESENTATION_CONTEXT('','3D')
);
#434=(
GEOMETRIC_REPRESENTATION_CONTEXT(3)
GLOBAL_UNCERTAINTY_ASSIGNED_CONTEXT((#431))
GLOBAL_UNIT_ASSIGNED_CONTEXT((#435,#437,#438))
REPRESENTATION_CONTEXT('','3D')
);
#435=(
LENGTH_UNIT()
NAMED_UNIT(*)
SI_UNIT(.MILLI.,.METRE.)
);
#436=(
LENGTH_UNIT()
NAMED_UNIT(*)
SI_UNIT($,.METRE.)
);
#437=(
NAMED_UNIT(*)
PLANE_ANGLE_UNIT()
SI_UNIT($,.RADIAN.)
);
#438=(
NAMED_UNIT(*)
SI_UNIT($,.STERADIAN.)
SOLID_ANGLE_UNIT()
);
#439=SHAPE_DEFINITION_REPRESENTATION(#441,#444);
#440=SHAPE_DEFINITION_REPRESENTATION(#442,#445);
#441=PRODUCT_DEFINITION_SHAPE('',$,#447);
#442=PRODUCT_DEFINITION_SHAPE('',$,#448);
#443=PRODUCT_DEFINITION_SHAPE($,$,#17);
#444=SHAPE_REPRESENTATION('',(#250,#283),#432);
#445=SHAPE_REPRESENTATION('',(#251),#433);
#446=PRODUCT_DEFINITION_CONTEXT('part definition',#454,'design');
#447=PRODUCT_DEFINITION('T-BUSHING','T-BUSHING v24',#449,#446);
#448=PRODUCT_DEFINITION('T-BUSHING.0.2','T-BUSHING.0.2',#450,#446);
#449=PRODUCT_DEFINITION_FORMATION('',$,#456);
#450=PRODUCT_DEFINITION_FORMATION('',$,#457);
#451=PRODUCT_RELATED_PRODUCT_CATEGORY('T-BUSHING v24','T-BUSHING v24',(#456));
#452=PRODUCT_RELATED_PRODUCT_CATEGORY('T-BUSHING.0.2','T-BUSHING.0.2',(#457));
#453=APPLICATION_PROTOCOL_DEFINITION('international standard',
'automotive_design',2009,#454);
#454=APPLICATION_CONTEXT(
'Core Data for Automotive Mechanical Design Process');
#455=PRODUCT_CONTEXT('part definition',#454,'mechanical');
#456=PRODUCT('T-BUSHING','T-BUSHING v24',$,(#455));
#457=PRODUCT('T-BUSHING.0.2','T-BUSHING.0.2',$,(#455));
#458=PRESENTATION_STYLE_ASSIGNMENT((#461));
#459=PRESENTATION_STYLE_ASSIGNMENT((#462));
#460=PRESENTATION_STYLE_ASSIGNMENT((NULL_STYLE(.NULL.)));
#461=SURFACE_STYLE_USAGE(.BOTH.,#463);
#462=SURFACE_STYLE_USAGE(.BOTH.,#464);
#463=SURFACE_SIDE_STYLE('',(#465));
#464=SURFACE_SIDE_STYLE('',(#466));
#465=SURFACE_STYLE_FILL_AREA(#467);
#466=SURFACE_STYLE_FILL_AREA(#468);
#467=FILL_AREA_STYLE('Steel - Satin',(#469));
#468=FILL_AREA_STYLE('Plastic - Matte (Black)',(#470));
#469=FILL_AREA_STYLE_COLOUR('Steel - Satin',#471);
#470=FILL_AREA_STYLE_COLOUR('Plastic - Matte (Black)',#472);
#471=COLOUR_RGB('Steel - Satin',0.627450980392157,0.627450980392157,0.627450980392157);
#472=COLOUR_RGB('Plastic - Matte (Black)',0.0980392156862745,0.0980392156862745,
0.0980392156862745);
ENDSEC;
END-ISO-10303-21;
