999
"DXF R12 Output" (www.mydxf.blogspot.com)
 0 
SECTION
 2 
HEADER
 9 
$ACADVER
 1 
AC1009
 9 
$EXTMIN
 10 
 0 
 20 
 0 
 9 
$EXTMAX
 10 
 8.5 
 20 
 11 
 0 
ENDSEC
 0 
SECTION
 2 
ENTITIES
0
LINE
8
0
10
7.499991
20
0.000374
11
42.499946
21
0.000374
0
LINE
8
0
10
42.499946
20
0.000374
11
43.969955
21
0.145816
0
LINE
8
0
10
43.969955
20
0.145816
11
45.370069
21
0.571277
0
LINE
8
0
10
45.370069
20
0.571277
11
46.660945
21
1.260461
0
LINE
8
0
10
46.660945
20
1.260461
11
47.803241
21
2.197071
0
LINE
8
0
10
47.803241
20
2.197071
11
48.739851
21
3.339366
0
LINE
8
0
10
48.739851
20
3.339366
11
49.429034
21
4.630243
0
LINE
8
0
10
49.429034
20
4.630243
11
49.854495
21
6.030357
0
LINE
8
0
10
49.854495
20
6.030357
11
49.999937
21
7.500365
0
LINE
8
0
10
49.999937
20
7.500365
11
49.999937
21
87.000265
0
LINE
8
0
10
49.999937
20
87.000265
11
46.999941
21
87.000265
0
LINE
8
0
10
46.999941
20
87.000265
11
46.999941
21
90.000261
0
LINE
8
0
10
46.999941
20
90.000261
11
2.999996
21
90.000261
0
LINE
8
0
10
2.999996
20
90.000261
11
2.999996
21
87.000265
0
LINE
8
0
10
2.999996
20
87.000265
11
0.000000
21
87.000265
0
LINE
8
0
10
0.000000
20
87.000265
11
0.000000
21
7.500365
0
LINE
8
0
10
0.000000
20
7.500365
11
0.145442
21
6.030357
0
LINE
8
0
10
0.145442
20
6.030357
11
0.570903
21
4.630243
0
LINE
8
0
10
0.570903
20
4.630243
11
1.260087
21
3.339366
0
LINE
8
0
10
1.260087
20
3.339366
11
2.196696
21
2.197071
0
LINE
8
0
10
2.196696
20
2.197071
11
3.338992
21
1.260461
0
LINE
8
0
10
3.338992
20
1.260461
11
4.629868
21
0.571277
0
LINE
8
0
10
4.629868
20
0.571277
11
6.029982
21
0.145816
0
LINE
8
0
10
6.029982
20
0.145816
11
7.499991
21
0.000374
0
LINE
8
0
10
7.499991
20
0.000374
11
7.499991
21
0.000374
0
LINE
8
0
10
13.599983
20
10.000362
11
36.399954
21
10.000362
0
LINE
8
0
10
36.399954
20
10.000362
11
36.399954
21
51.900309
0
LINE
8
0
10
36.399954
20
51.900309
11
13.599983
21
51.900309
0
LINE
8
0
10
13.599983
20
51.900309
11
13.599983
21
10.000362
0
LINE
8
0
10
13.599983
20
10.000362
11
13.599983
21
10.000362
0
LINE
8
0
10
109.999861
20
7.500365
11
109.999861
21
87.000265
0
LINE
8
0
10
109.999861
20
87.000265
11
106.999865
21
87.000265
0
LINE
8
0
10
106.999865
20
87.000265
11
106.999865
21
90.000261
0
LINE
8
0
10
106.999865
20
90.000261
11
62.999921
21
90.000261
0
LINE
8
0
10
62.999921
20
90.000261
11
62.999921
21
87.000265
0
LINE
8
0
10
62.999921
20
87.000265
11
59.999925
21
87.000265
0
LINE
8
0
10
59.999925
20
87.000265
11
59.999925
21
7.500365
0
LINE
8
0
10
59.999925
20
7.500365
11
60.152298
21
5.988855
0
LINE
8
0
10
60.152298
20
5.988855
11
60.589311
21
4.581030
0
LINE
8
0
10
60.589311
20
4.581030
11
61.280805
21
3.307049
0
LINE
8
0
10
61.280805
20
3.307049
11
62.196621
21
2.197071
0
LINE
8
0
10
62.196621
20
2.197071
11
63.306599
21
1.281255
0
LINE
8
0
10
63.306599
20
1.281255
11
64.580580
21
0.589761
0
LINE
8
0
10
64.580580
20
0.589761
11
65.988405
21
0.152747
0
LINE
8
0
10
65.988405
20
0.152747
11
67.499915
21
0.000374
0
LINE
8
0
10
67.499915
20
0.000374
11
102.499871
21
0.000374
0
LINE
8
0
10
102.499871
20
0.000374
11
104.011381
21
0.152747
0
LINE
8
0
10
104.011381
20
0.152747
11
105.419206
21
0.589761
0
LINE
8
0
10
105.419206
20
0.589761
11
106.693187
21
1.281255
0
LINE
8
0
10
106.693187
20
1.281255
11
107.803165
21
2.197071
0
LINE
8
0
10
107.803165
20
2.197071
11
108.718981
21
3.307049
0
LINE
8
0
10
108.718981
20
3.307049
11
109.410475
21
4.581030
0
LINE
8
0
10
109.410475
20
4.581030
11
109.847488
21
5.988855
0
LINE
8
0
10
109.847488
20
5.988855
11
109.999861
21
7.500365
0
LINE
8
0
10
109.999861
20
7.500365
11
109.999861
21
7.500365
0
LINE
8
0
10
96.399879
20
51.900309
11
73.599907
21
51.900309
0
LINE
8
0
10
73.599907
20
51.900309
11
73.599907
21
10.000362
0
LINE
8
0
10
73.599907
20
10.000362
11
96.399879
21
10.000362
0
LINE
8
0
10
96.399879
20
10.000362
11
96.399879
21
51.900309
0
LINE
8
0
10
96.399879
20
51.900309
11
96.399879
21
51.900309
0
LINE
8
0
10
185.485164
20
0.000374
11
185.485164
21
120.000223
0
LINE
8
0
10
185.485164
20
120.000223
11
182.485168
21
120.000223
0
LINE
8
0
10
182.485168
20
120.000223
11
182.485168
21
117.000227
0
LINE
8
0
10
182.485168
20
117.000227
11
138.485223
21
117.000227
0
LINE
8
0
10
138.485223
20
117.000227
11
138.485223
21
120.000223
0
LINE
8
0
10
138.485223
20
120.000223
11
135.485227
21
120.000223
0
LINE
8
0
10
135.485227
20
120.000223
11
135.485227
21
0.000374
0
LINE
8
0
10
135.485227
20
0.000374
11
138.485223
21
0.000374
0
LINE
8
0
10
138.485223
20
0.000374
11
138.485223
21
3.000370
0
LINE
8
0
10
138.485223
20
3.000370
11
182.485168
21
3.000370
0
LINE
8
0
10
182.485168
20
3.000370
11
182.485168
21
0.000374
0
LINE
8
0
10
182.485168
20
0.000374
11
185.485164
21
0.000374
0
LINE
8
0
10
185.485164
20
0.000374
11
185.485164
21
0.000374
0
LINE
8
0
10
135.485281
20
3.000662
11
135.485281
21
0.000291
0
LINE
8
0
10
185.485118
20
3.000662
11
185.485118
21
0.000291
0
LINE
8
0
10
135.485281
20
120.000323
11
138.485123
21
120.000323
0
LINE
8
0
10
185.485118
20
120.000323
11
182.485276
21
120.000323
0
LINE
8
0
10
135.485281
20
0.000291
11
138.485123
21
0.000291
0
LINE
8
0
10
177.319293
20
108.315279
11
177.315325
21
110.526400
0
LINE
8
0
10
177.315325
20
110.526400
11
177.760089
21
110.527193
0
LINE
8
0
10
177.760160
20
110.527230
11
178.476530
21
110.596427
0
LINE
8
0
10
178.476530
20
110.596427
11
178.630384
21
110.917883
0
LINE
8
0
10
178.630384
20
110.917883
11
178.487770
21
111.232642
0
LINE
8
0
10
178.487770
20
111.232642
11
178.073751
21
111.336921
0
LINE
8
0
10
178.073751
20
111.336921
11
177.517941
21
111.286535
0
LINE
8
0
10
177.517941
20
111.286535
11
177.135541
21
110.970856
0
LINE
8
0
10
177.135541
20
110.970856
11
176.525946
21
109.888875
0
LINE
8
0
10
176.525946
20
109.888875
11
176.011772
21
108.987727
0
LINE
8
0
10
176.011772
20
108.987727
11
175.527829
21
108.460320
0
LINE
8
0
10
175.527829
20
108.460320
11
174.952303
21
108.204526
0
LINE
8
0
10
174.952303
20
108.204526
11
174.163387
21
108.118217
0
LINE
8
0
10
174.163387
20
108.118217
11
173.284647
21
108.181533
0
LINE
8
0
10
173.284647
20
108.181533
11
172.649657
21
108.374986
0
LINE
8
0
10
172.649657
20
108.374986
11
172.199699
21
108.721636
0
LINE
8
0
10
172.199699
20
108.721636
11
171.863700
21
109.244519
0
LINE
8
0
10
171.863700
20
109.244519
11
171.658701
21
109.912783
0
LINE
8
0
10
171.658701
20
109.912783
11
171.589366
21
110.707906
0
LINE
8
0
10
171.589366
20
110.707906
11
171.661940
21
111.591294
0
LINE
8
0
10
171.661940
20
111.591294
11
171.882990
21
112.339056
0
LINE
8
0
10
171.882990
20
112.339056
11
172.230975
21
112.907918
0
LINE
8
0
10
172.230975
20
112.907918
11
172.684331
21
113.266957
0
LINE
8
0
10
172.684331
20
113.266957
11
173.320192
21
113.458002
0
LINE
8
0
10
173.320192
20
113.458002
11
174.215693
21
113.522880
0
LINE
8
0
10
174.215735
20
113.522802
11
174.611022
21
113.523596
0
LINE
8
0
10
174.611022
20
113.523596
11
174.614990
21
111.312211
0
LINE
8
0
10
174.614990
20
111.312211
11
174.096143
21
111.311417
0
LINE
8
0
10
174.096031
20
111.311429
11
173.237619
21
111.229630
0
LINE
8
0
10
173.237619
20
111.229630
11
173.040550
21
110.895745
0
LINE
8
0
10
173.040550
20
110.895745
11
173.170909
21
110.525374
0
LINE
8
0
10
173.170909
20
110.525374
11
173.733166
21
110.421356
0
LINE
8
0
10
173.733166
20
110.421356
11
174.467949
21
110.558528
0
LINE
8
0
10
174.467949
20
110.558528
11
175.342489
21
112.011572
0
LINE
8
0
10
175.342489
20
112.011572
11
175.929265
21
112.897405
0
LINE
8
0
10
175.929265
20
112.897405
11
176.458115
21
113.353859
0
LINE
8
0
10
176.458115
20
113.353859
11
177.655960
21
113.596845
0
LINE
8
0
10
177.655960
20
113.596845
11
178.508449
21
113.533482
0
LINE
8
0
10
178.508449
20
113.533482
11
179.101747
21
113.339956
0
LINE
8
0
10
179.101747
20
113.339956
11
179.517736
21
112.991703
0
LINE
8
0
10
179.517736
20
112.991703
11
179.825948
21
112.464139
0
LINE
8
0
10
179.825948
20
112.464139
11
180.081720
21
111.019249
0
LINE
8
0
10
180.081720
20
111.019249
11
179.874136
21
109.635315
0
LINE
8
0
10
179.874136
20
109.635315
11
179.332127
21
108.757282
0
LINE
8
0
10
179.332127
20
108.757282
11
178.702759
21
108.385581
0
LINE
8
0
10
178.702759
20
108.385581
11
177.794913
21
108.316049
0
LINE
8
0
10
177.795014
20
108.316073
11
177.319293
21
108.315279
0
LINE
8
0
10
175.706131
20
101.802304
11
175.700574
21
105.032598
0
LINE
8
0
10
175.700574
20
105.032598
11
173.927868
21
105.029423
0
LINE
8
0
10
173.927903
20
105.029477
11
173.211554
21
104.947927
0
LINE
8
0
10
173.211554
20
104.947927
11
173.051502
21
104.638814
0
LINE
8
0
10
173.051502
20
104.638814
11
173.262167
21
104.262407
0
LINE
8
0
10
173.262167
20
104.262407
11
174.090009
21
104.165029
0
LINE
8
0
10
174.090058
20
104.165030
11
175.170879
21
104.166883
0
LINE
8
0
10
175.170879
20
104.166883
11
175.175113
21
101.801246
0
LINE
8
0
10
175.175113
20
101.801246
11
174.569747
21
101.800188
0
LINE
8
0
10
174.569750
20
101.800210
11
173.402194
21
101.896994
0
LINE
8
0
10
173.402194
20
101.896994
11
172.530510
21
102.340187
0
LINE
8
0
10
172.530510
20
102.340187
11
171.830983
21
103.234577
0
LINE
8
0
10
171.830983
20
103.234577
11
171.600080
21
104.586860
0
LINE
8
0
10
171.600080
20
104.586860
11
171.826172
21
105.983180
0
LINE
8
0
10
171.826172
20
105.983180
11
172.448358
21
106.929297
0
LINE
8
0
10
172.448358
20
106.929297
11
173.324629
21
107.394080
0
LINE
8
0
10
173.324629
20
107.394080
11
174.720322
21
107.526232
0
LINE
8
0
10
174.720294
20
107.526293
11
177.110802
21
107.530526
0
LINE
8
0
10
177.110679
20
107.530416
11
178.071273
21
107.459522
0
LINE
8
0
10
178.071273
20
107.459522
11
178.803586
21
107.243077
0
LINE
8
0
10
178.803586
20
107.243077
11
179.353976
21
106.861087
0
LINE
8
0
10
179.353976
20
106.861087
11
179.756452
21
106.293540
0
LINE
8
0
10
179.756452
20
106.293540
11
180.007849
21
105.583664
0
LINE
8
0
10
180.007849
20
105.583664
11
180.092650
21
104.774671
0
LINE
8
0
10
180.092650
20
104.774671
11
179.993955
21
103.817117
0
LINE
8
0
10
179.993955
20
103.817117
11
179.694196
21
103.044510
0
LINE
8
0
10
179.694196
20
103.044510
11
179.233511
21
102.461554
0
LINE
8
0
10
179.233511
20
102.461554
11
178.639667
21
102.085284
0
LINE
8
0
10
178.639667
20
102.085284
11
177.850967
21
101.875441
0
LINE
8
0
10
177.850967
20
101.875441
11
176.793340
21
101.804102
0
LINE
8
0
10
176.793302
20
101.804156
11
175.706131
21
101.802304
0
LINE
8
0
10
177.035925
20
104.306053
11
177.635205
21
104.307112
0
LINE
8
0
10
177.635160
20
104.307121
11
178.456534
21
104.376502
0
LINE
8
0
10
178.456534
20
104.376502
11
178.641347
21
104.654774
0
LINE
8
0
10
178.641347
20
104.654774
11
178.480191
21
104.975679
0
LINE
8
0
10
178.480191
20
104.975679
11
177.633884
21
105.035964
0
LINE
8
0
10
177.633882
20
105.036038
11
177.034867
21
105.034979
0
LINE
8
0
10
177.034867
20
105.034979
11
177.035925
21
104.306053
0
LINE
8
0
10
179.960890
20
95.324254
11
173.648469
21
95.313142
0
LINE
8
0
10
173.648430
20
95.313110
11
171.992984
21
95.371980
0
LINE
8
0
10
171.992984
20
95.371980
11
171.207827
21
95.784442
0
LINE
8
0
10
171.207827
20
95.784442
11
170.838021
21
96.213071
0
LINE
8
0
10
170.838021
20
96.213071
11
170.569882
21
96.783942
0
LINE
8
0
10
170.569882
20
96.783942
11
170.344712
21
98.389479
0
LINE
8
0
10
170.344712
20
98.389479
11
170.444746
21
99.464392
0
LINE
8
0
10
170.444746
20
99.464392
11
170.749020
21
100.304949
0
LINE
8
0
10
170.749020
20
100.304949
11
171.345649
21
100.854171
0
LINE
8
0
10
171.345649
20
100.854171
11
172.335106
21
101.055100
0
LINE
8
0
10
172.335079
20
101.055122
11
172.339312
21
98.633923
0
LINE
8
0
10
172.339344
20
98.633860
11
171.931859
21
98.534320
0
LINE
8
0
10
171.931859
20
98.534320
11
171.796492
21
98.237603
0
LINE
8
0
10
171.796492
20
98.237603
11
171.963921
21
97.861121
0
LINE
8
0
10
171.963921
20
97.861121
11
172.662042
21
97.769692
0
LINE
8
0
10
172.662103
20
97.769795
11
173.279640
21
97.770853
0
LINE
8
0
10
173.279706
20
97.770773
11
172.839975
21
98.449436
0
LINE
8
0
10
172.839975
20
98.449436
11
172.690439
21
99.190372
0
LINE
8
0
10
172.690439
20
99.190372
11
172.757307
21
99.805067
0
LINE
8
0
10
172.757307
20
99.805067
11
172.960266
21
100.302643
0
LINE
8
0
10
172.960266
20
100.302643
11
173.273092
21
100.667613
0
LINE
8
0
10
173.273092
20
100.667613
11
173.669541
21
100.896842
0
LINE
8
0
10
173.669541
20
100.896842
11
174.929293
21
101.059640
0
LINE
8
0
10
174.929315
20
101.059620
11
177.906403
21
101.064911
0
LINE
8
0
10
177.906431
20
101.064851
11
178.910318
21
100.961605
0
LINE
8
0
10
178.910318
20
100.961605
11
179.587211
21
100.647782
0
LINE
8
0
10
179.587211
20
100.647782
11
179.972634
21
100.118808
0
LINE
8
0
10
179.972634
20
100.118808
11
180.102110
21
99.370115
0
LINE
8
0
10
180.102110
20
99.370115
11
179.912126
21
98.517404
0
LINE
8
0
10
179.912126
20
98.517404
11
179.338910
21
97.824616
0
LINE
8
0
10
179.338855
20
97.824563
11
179.956921
21
97.646499
0
LINE
8
0
10
179.956921
20
97.646499
11
179.960890
21
95.324254
0
LINE
8
0
10
177.782398
20
97.821891
11
178.498768
21
97.891089
0
LINE
8
0
10
178.498768
20
97.891089
11
178.652687
21
98.175484
0
LINE
8
0
10
178.652687
20
98.175484
11
178.473024
21
98.484001
0
LINE
8
0
10
178.473024
20
98.484001
11
177.781090
21
98.569264
0
LINE
8
0
10
177.780991
20
98.569365
11
175.026417
21
98.564337
0
LINE
8
0
10
175.026310
20
98.564442
11
174.309939
21
98.495246
0
LINE
8
0
10
174.309939
20
98.495246
11
174.149844
21
98.210838
0
LINE
8
0
10
174.149844
20
98.210838
11
174.348058
21
97.890000
0
LINE
8
0
10
174.348058
20
97.890000
11
175.243800
21
97.817448
0
LINE
8
0
10
175.243904
20
97.817420
11
177.782314
21
97.821918
0
LINE
8
0
10
179.976500
20
86.374205
11
171.778396
21
87.354220
0
LINE
8
0
10
171.778396
20
87.354220
11
171.773634
21
90.065932
0
LINE
8
0
10
171.773735
20
90.065852
11
175.725884
21
90.585432
0
LINE
8
0
10
175.725884
20
90.585432
11
173.551222
21
90.859574
0
LINE
8
0
10
173.551102
20
90.859681
11
171.771782
21
91.134318
0
LINE
8
0
10
171.771782
20
91.134318
11
171.767019
21
93.846029
0
LINE
8
0
10
171.767019
20
93.846029
11
179.961684
21
94.916532
0
LINE
8
0
10
179.961684
20
94.916532
11
179.965388
21
92.767059
0
LINE
8
0
10
179.965427
20
92.767035
11
175.278313
21
92.215284
0
LINE
8
0
10
175.278313
20
92.215284
11
179.967352
21
91.667592
0
LINE
8
0
10
179.967240
20
91.667717
11
179.970944
21
89.598413
0
LINE
8
0
10
179.970944
20
89.598413
11
175.283856
21
89.083799
0
LINE
8
0
10
175.283794
20
89.083729
11
179.972854
21
88.523685
0
LINE
8
0
10
179.972796
20
88.523677
11
179.976500
21
86.374205
0
LINE
8
0
10
175.743966
20
80.307581
11
175.738145
21
83.537875
0
LINE
8
0
10
175.738145
20
83.537875
11
173.965439
21
83.534700
0
LINE
8
0
10
173.965525
20
83.534786
11
173.249176
21
83.453235
0
LINE
8
0
10
173.249176
20
83.453235
11
173.089124
21
83.144124
0
LINE
8
0
10
173.089124
20
83.144124
11
173.299789
21
82.767715
0
LINE
8
0
10
173.299789
20
82.767715
11
174.127631
21
82.670340
0
LINE
8
0
10
174.127629
20
82.670308
11
175.208450
21
82.672160
0
LINE
8
0
10
175.208450
20
82.672160
11
175.212683
21
80.306523
0
LINE
8
0
10
175.212683
20
80.306523
11
174.607318
21
80.305465
0
LINE
8
0
10
174.607373
20
80.305520
11
173.439816
21
80.402304
0
LINE
8
0
10
173.439816
20
80.402304
11
172.568132
21
80.845496
0
LINE
8
0
10
172.568132
20
80.845496
11
171.868605
21
81.739886
0
LINE
8
0
10
171.868605
20
81.739886
11
171.637702
21
83.092169
0
LINE
8
0
10
171.637702
20
83.092169
11
171.863794
21
84.488490
0
LINE
8
0
10
171.863794
20
84.488490
11
172.485980
21
85.434606
0
LINE
8
0
10
172.485980
20
85.434606
11
173.362251
21
85.899389
0
LINE
8
0
10
173.362251
20
85.899389
11
174.757944
21
86.031541
0
LINE
8
0
10
174.757865
20
86.031570
11
177.148373
21
86.035803
0
LINE
8
0
10
177.148301
20
86.035725
11
178.108895
21
85.964831
0
LINE
8
0
10
178.108895
20
85.964831
11
178.841208
21
85.748385
0
LINE
8
0
10
178.841208
20
85.748385
11
179.391599
21
85.366397
0
LINE
8
0
10
179.391599
20
85.366397
11
179.794074
21
84.798848
0
LINE
8
0
10
179.794074
20
84.798848
11
180.045471
21
84.088974
0
LINE
8
0
10
180.045471
20
84.088974
11
180.130272
21
83.279980
0
LINE
8
0
10
180.130272
20
83.279980
11
180.031578
21
82.322426
0
LINE
8
0
10
180.031578
20
82.322426
11
179.731818
21
81.549820
0
LINE
8
0
10
179.731818
20
81.549820
11
179.271133
21
80.966864
0
LINE
8
0
10
179.271133
20
80.966864
11
178.677289
21
80.590593
0
LINE
8
0
10
178.677289
20
80.590593
11
177.888589
21
80.380751
0
LINE
8
0
10
177.888589
20
80.380751
11
176.830962
21
80.309413
0
LINE
8
0
10
176.830873
20
80.309433
11
175.743966
21
80.307581
0
LINE
8
0
10
177.073760
20
82.811330
11
177.672776
21
82.812389
0
LINE
8
0
10
177.672782
20
82.812429
11
178.494156
21
82.881811
0
LINE
8
0
10
178.494156
20
82.881811
11
178.678968
21
83.160083
0
LINE
8
0
10
178.678968
20
83.160083
11
178.517813
21
83.480987
0
LINE
8
0
10
178.517813
20
83.480987
11
177.671506
21
83.541273
0
LINE
8
0
10
177.671453
20
83.541315
11
177.072437
21
83.540256
0
LINE
8
0
10
177.072437
20
83.540256
11
177.073760
21
82.811330
0
LINE
8
0
10
181.796831
20
76.933354
11
180.493496
21
76.930973
0
LINE
8
0
10
180.493496
20
76.930973
11
180.488998
21
79.500603
0
LINE
8
0
10
180.488998
20
79.500603
11
181.792333
21
79.502720
0
LINE
8
0
10
181.792333
20
79.502720
11
181.796831
21
76.933354
0
LINE
8
0
10
179.993169
20
76.930179
11
171.796652
21
76.915892
0
LINE
8
0
10
171.796652
20
76.915892
11
171.792154
21
79.485257
0
LINE
8
0
10
171.792154
20
79.485257
11
179.988671
21
79.499545
0
LINE
8
0
10
179.988671
20
79.499545
11
179.993169
21
76.930179
0
LINE
8
0
10
181.802917
20
73.468111
11
180.499581
21
73.465994
0
LINE
8
0
10
180.499581
20
73.465994
11
180.495083
21
76.035360
0
LINE
8
0
10
180.495083
20
76.035360
11
181.798419
21
76.037741
0
LINE
8
0
10
181.798419
20
76.037741
11
181.802917
21
73.468111
0
LINE
8
0
10
179.999254
20
73.464936
11
171.802738
21
73.450648
0
LINE
8
0
10
171.802738
20
73.450648
11
171.798240
21
76.020278
0
LINE
8
0
10
171.798240
20
76.020278
11
179.994757
21
76.034566
0
LINE
8
0
10
179.994757
20
76.034566
11
179.999254
21
73.464936
0
LINE
8
0
10
181.808738
20
70.003132
11
180.505666
21
70.000751
0
LINE
8
0
10
180.505666
20
70.000751
11
180.501168
21
72.570381
0
LINE
8
0
10
180.501168
20
72.570381
11
181.804240
21
72.572497
0
LINE
8
0
10
181.804240
20
72.572497
11
181.808738
21
70.003132
0
LINE
8
0
10
180.005340
20
69.999957
11
171.808823
21
69.985669
0
LINE
8
0
10
171.808823
20
69.985669
11
171.804325
21
72.555035
0
LINE
8
0
10
171.804325
20
72.555035
11
180.000842
21
72.569322
0
LINE
8
0
10
180.000842
20
72.569322
11
180.005340
21
69.999957
0
LINE
8
0
10
181.814823
20
66.537888
11
180.511752
21
66.535772
0
LINE
8
0
10
180.511752
20
66.535772
11
180.507254
21
69.105137
0
LINE
8
0
10
180.507254
20
69.105137
11
181.810325
21
69.107518
0
LINE
8
0
10
181.810325
20
69.107518
11
181.814823
21
66.537888
0
LINE
8
0
10
180.011425
20
66.534978
11
171.814909
21
66.520426
0
LINE
8
0
10
171.814909
20
66.520426
11
171.810411
21
69.090056
0
LINE
8
0
10
171.810411
20
69.090056
11
180.006927
21
69.104343
0
LINE
8
0
10
180.006927
20
69.104343
11
180.011425
21
66.534978
0
LINE
8
0
10
181.820908
20
63.072909
11
180.517837
21
63.070528
0
LINE
8
0
10
180.517837
20
63.070528
11
180.513339
21
65.640158
0
LINE
8
0
10
180.513339
20
65.640158
11
181.816411
21
65.642539
0
LINE
8
0
10
181.816411
20
65.642539
11
181.820908
21
63.072909
0
LINE
8
0
10
180.017511
20
63.069734
11
171.820994
21
63.055447
0
LINE
8
0
10
171.820994
20
63.055447
11
171.816496
21
65.624812
0
LINE
8
0
10
171.816496
20
65.624812
11
180.013013
21
65.639364
0
LINE
8
0
10
180.013013
20
65.639364
11
180.017511
21
63.069734
0
LINE
8
0
10
162.319289
20
98.315100
11
162.315585
21
100.526485
0
LINE
8
0
10
162.315585
20
100.526485
11
162.760085
21
100.527279
0
LINE
8
0
10
162.760179
20
100.527243
11
163.476549
21
100.596440
0
LINE
8
0
10
163.476549
20
100.596440
11
163.630403
21
100.917895
0
LINE
8
0
10
163.630403
20
100.917895
11
163.487789
21
101.232655
0
LINE
8
0
10
163.487789
20
101.232655
11
163.073770
21
101.336933
0
LINE
8
0
10
163.073770
20
101.336933
11
162.517960
21
101.286547
0
LINE
8
0
10
162.517960
20
101.286547
11
162.135560
21
100.970869
0
LINE
8
0
10
162.135560
20
100.970869
11
161.525965
21
99.888887
0
LINE
8
0
10
161.525965
20
99.888887
11
161.011791
21
98.987740
0
LINE
8
0
10
161.011791
20
98.987740
11
160.527847
21
98.460333
0
LINE
8
0
10
160.527847
20
98.460333
11
159.952322
21
98.204539
0
LINE
8
0
10
159.952322
20
98.204539
11
159.163406
21
98.118229
0
LINE
8
0
10
159.163406
20
98.118229
11
158.284666
21
98.181546
0
LINE
8
0
10
158.284666
20
98.181546
11
157.649676
21
98.374999
0
LINE
8
0
10
157.649676
20
98.374999
11
157.199718
21
98.721648
0
LINE
8
0
10
157.199718
20
98.721648
11
156.863719
21
99.244531
0
LINE
8
0
10
156.863719
20
99.244531
11
156.658720
21
99.912796
0
LINE
8
0
10
156.658720
20
99.912796
11
156.589385
21
100.707919
0
LINE
8
0
10
156.589385
20
100.707919
11
156.661959
21
101.591307
0
LINE
8
0
10
156.661959
20
101.591307
11
156.883008
21
102.339069
0
LINE
8
0
10
156.883008
20
102.339069
11
157.230994
21
102.907930
0
LINE
8
0
10
157.230994
20
102.907930
11
157.684350
21
103.266970
0
LINE
8
0
10
157.684350
20
103.266970
11
158.320211
21
103.458015
0
LINE
8
0
10
158.320211
20
103.458015
11
159.215712
21
103.522893
0
LINE
8
0
10
159.215731
20
103.522888
11
159.611018
21
103.523681
0
LINE
8
0
10
159.611018
20
103.523681
11
159.614986
21
101.312297
0
LINE
8
0
10
159.614986
20
101.312297
11
159.096139
21
101.311503
0
LINE
8
0
10
159.096049
20
101.311441
11
158.237638
21
101.229642
0
LINE
8
0
10
158.237638
20
101.229642
11
158.040569
21
100.895758
0
LINE
8
0
10
158.040569
20
100.895758
11
158.170928
21
100.525387
0
LINE
8
0
10
158.170928
20
100.525387
11
158.733184
21
100.421368
0
LINE
8
0
10
158.733184
20
100.421368
11
159.467968
21
100.558540
0
LINE
8
0
10
159.467968
20
100.558540
11
160.342508
21
102.011585
0
LINE
8
0
10
160.342508
20
102.011585
11
160.929284
21
102.897418
0
LINE
8
0
10
160.929284
20
102.897418
11
161.458134
21
103.353871
0
LINE
8
0
10
161.458134
20
103.353871
11
162.655979
21
103.596857
0
LINE
8
0
10
162.655979
20
103.596857
11
163.508468
21
103.533495
0
LINE
8
0
10
163.508468
20
103.533495
11
164.101766
21
103.339969
0
LINE
8
0
10
164.101766
20
103.339969
11
164.517755
21
102.991716
0
LINE
8
0
10
164.517755
20
102.991716
11
164.825967
21
102.464151
0
LINE
8
0
10
164.825967
20
102.464151
11
165.081739
21
101.019262
0
LINE
8
0
10
165.081739
20
101.019262
11
164.874155
21
99.635328
0
LINE
8
0
10
164.874155
20
99.635328
11
164.332146
21
98.757294
0
LINE
8
0
10
164.332146
20
98.757294
11
163.702778
21
98.385594
0
LINE
8
0
10
163.702778
20
98.385594
11
162.794932
21
98.316061
0
LINE
8
0
10
162.795009
20
98.316159
11
162.319289
21
98.315100
0
LINE
8
0
10
160.706391
20
91.802125
11
160.700570
21
95.032684
0
LINE
8
0
10
160.700570
20
95.032684
11
158.927864
21
95.029509
0
LINE
8
0
10
158.927922
20
95.029490
11
158.211573
21
94.947940
0
LINE
8
0
10
158.211573
20
94.947940
11
158.051521
21
94.638826
0
LINE
8
0
10
158.051521
20
94.638826
11
158.262186
21
94.262420
0
LINE
8
0
10
158.262186
20
94.262420
11
159.090028
21
94.165042
0
LINE
8
0
10
159.090054
20
94.165116
11
160.170875
21
94.166968
0
LINE
8
0
10
160.170875
20
94.166968
11
160.175109
21
91.801331
0
LINE
8
0
10
160.175109
20
91.801331
11
159.569743
21
91.800273
0
LINE
8
0
10
159.569769
20
91.800223
11
158.402213
21
91.897006
0
LINE
8
0
10
158.402213
20
91.897006
11
157.530529
21
92.340199
0
LINE
8
0
10
157.530529
20
92.340199
11
156.831002
21
93.234590
0
LINE
8
0
10
156.831002
20
93.234590
11
156.600099
21
94.586873
0
LINE
8
0
10
156.600099
20
94.586873
11
156.826191
21
95.983192
0
LINE
8
0
10
156.826191
20
95.983192
11
157.448377
21
96.929309
0
LINE
8
0
10
157.448377
20
96.929309
11
158.324648
21
97.394092
0
LINE
8
0
10
158.324648
20
97.394092
11
159.720340
21
97.526245
0
LINE
8
0
10
159.720290
20
97.526114
11
162.110798
21
97.530347
0
LINE
8
0
10
162.110698
20
97.530429
11
163.071292
21
97.459534
0
LINE
8
0
10
163.071292
20
97.459534
11
163.803605
21
97.243089
0
LINE
8
0
10
163.803605
20
97.243089
11
164.353995
21
96.861100
0
LINE
8
0
10
164.353995
20
96.861100
11
164.756471
21
96.293552
0
LINE
8
0
10
164.756471
20
96.293552
11
165.007868
21
95.583677
0
LINE
8
0
10
165.007868
20
95.583677
11
165.092669
21
94.774684
0
LINE
8
0
10
165.092669
20
94.774684
11
164.993974
21
93.817130
0
LINE
8
0
10
164.993974
20
93.817130
11
164.694215
21
93.044523
0
LINE
8
0
10
164.694215
20
93.044523
11
164.233530
21
92.461567
0
LINE
8
0
10
164.233530
20
92.461567
11
163.639686
21
92.085296
0
LINE
8
0
10
163.639686
20
92.085296
11
162.850985
21
91.875453
0
LINE
8
0
10
162.850985
20
91.875453
11
161.793359
21
91.804115
0
LINE
8
0
10
161.793298
20
91.804242
11
160.706391
21
91.802125
0
LINE
8
0
10
162.035921
20
94.306139
11
162.635201
21
94.307197
0
LINE
8
0
10
162.635179
20
94.307133
11
163.456553
21
94.376514
0
LINE
8
0
10
163.456553
20
94.376514
11
163.641365
21
94.654787
0
LINE
8
0
10
163.641365
20
94.654787
11
163.480210
21
94.975691
0
LINE
8
0
10
163.480210
20
94.975691
11
162.633903
21
95.035976
0
LINE
8
0
10
162.633878
20
95.035859
11
162.034863
21
95.034800
0
LINE
8
0
10
162.034863
20
95.034800
11
162.035921
21
94.306139
0
LINE
8
0
10
164.960886
20
85.324075
11
158.648465
21
85.313227
0
LINE
8
0
10
158.648449
20
85.313123
11
156.993003
21
85.371992
0
LINE
8
0
10
156.993003
20
85.371992
11
156.207846
21
85.784454
0
LINE
8
0
10
156.207846
20
85.784454
11
155.838040
21
86.213084
0
LINE
8
0
10
155.838040
20
86.213084
11
155.569901
21
86.783955
0
LINE
8
0
10
155.569901
20
86.783955
11
155.344731
21
88.389491
0
LINE
8
0
10
155.344731
20
88.389491
11
155.444764
21
89.464404
0
LINE
8
0
10
155.444764
20
89.464404
11
155.749039
21
90.304962
0
LINE
8
0
10
155.749039
20
90.304962
11
156.345668
21
90.854184
0
LINE
8
0
10
156.345668
20
90.854184
11
157.335125
21
91.055112
0
LINE
8
0
10
157.335075
20
91.055207
11
157.339308
21
88.633744
0
LINE
8
0
10
157.339363
20
88.633872
11
156.931878
21
88.534332
0
LINE
8
0
10
156.931878
20
88.534332
11
156.796511
21
88.237616
0
LINE
8
0
10
156.796511
20
88.237616
11
156.963940
21
87.861133
0
LINE
8
0
10
156.963940
20
87.861133
11
157.662061
21
87.769705
0
LINE
8
0
10
157.662099
20
87.769616
11
158.279636
21
87.770674
0
LINE
8
0
10
158.279725
20
87.770786
11
157.839994
21
88.449448
0
LINE
8
0
10
157.839994
20
88.449448
11
157.690458
21
89.190385
0
LINE
8
0
10
157.690458
20
89.190385
11
157.757326
21
89.805080
0
LINE
8
0
10
157.757326
20
89.805080
11
157.960285
21
90.302656
0
LINE
8
0
10
157.960285
20
90.302656
11
158.273111
21
90.667625
0
LINE
8
0
10
158.273111
20
90.667625
11
158.669559
21
90.896855
0
LINE
8
0
10
158.669559
20
90.896855
11
159.929312
21
91.059653
0
LINE
8
0
10
159.929311
20
91.059705
11
162.906399
21
91.064732
0
LINE
8
0
10
162.906450
20
91.064864
11
163.910337
21
90.961618
0
LINE
8
0
10
163.910337
20
90.961618
11
164.587230
21
90.647794
0
LINE
8
0
10
164.587230
20
90.647794
11
164.972653
21
90.118821
0
LINE
8
0
10
164.972653
20
90.118821
11
165.102129
21
89.370128
0
LINE
8
0
10
165.102129
20
89.370128
11
164.912145
21
88.517416
0
LINE
8
0
10
164.912145
20
88.517416
11
164.338929
21
87.824628
0
LINE
8
0
10
164.338851
20
87.824649
11
164.956917
21
87.646585
0
LINE
8
0
10
164.956917
20
87.646585
11
164.960886
21
85.324075
0
LINE
8
0
10
162.782417
20
87.821904
11
163.498787
21
87.891101
0
LINE
8
0
10
163.498787
20
87.891101
11
163.652706
21
88.175496
0
LINE
8
0
10
163.652706
20
88.175496
11
163.473043
21
88.484014
0
LINE
8
0
10
163.473043
20
88.484014
11
162.781109
21
88.569276
0
LINE
8
0
10
162.780987
20
88.569186
11
160.026413
21
88.564423
0
LINE
8
0
10
160.026329
20
88.564454
11
159.309958
21
88.495258
0
LINE
8
0
10
159.309958
20
88.495258
11
159.149863
21
88.210851
0
LINE
8
0
10
159.149863
20
88.210851
11
159.348077
21
87.890012
0
LINE
8
0
10
159.348077
20
87.890012
11
160.243819
21
87.817460
0
LINE
8
0
10
160.243900
20
87.817505
11
162.782310
21
87.822003
0
LINE
8
0
10
164.976761
20
76.374290
11
156.778392
21
77.354306
0
LINE
8
0
10
156.778392
20
77.354306
11
156.773630
21
80.065752
0
LINE
8
0
10
156.773754
20
80.065865
11
160.725903
21
80.585445
0
LINE
8
0
10
160.725903
20
80.585445
11
158.551241
21
80.859587
0
LINE
8
0
10
158.551363
20
80.859501
11
156.771777
21
81.134403
0
LINE
8
0
10
156.771777
20
81.134403
11
156.767015
21
83.845850
0
LINE
8
0
10
156.767015
20
83.845850
11
164.961680
21
84.916617
0
LINE
8
0
10
164.961680
20
84.916617
11
164.965384
21
82.767145
0
LINE
8
0
10
164.965446
20
82.767048
11
160.278332
21
82.215297
0
LINE
8
0
10
160.278332
20
82.215297
11
164.967371
21
81.667605
0
LINE
8
0
10
164.967500
20
81.667538
11
164.970940
21
79.598499
0
LINE
8
0
10
164.970940
20
79.598499
11
160.283852
21
79.083620
0
LINE
8
0
10
160.283813
20
79.083742
11
164.972873
21
78.523697
0
LINE
8
0
10
164.972792
20
78.523763
11
164.976761
21
76.374290
0
LINE
8
0
10
160.743962
20
70.307402
11
160.738141
21
73.537961
0
LINE
8
0
10
160.738141
20
73.537961
11
158.965435
21
73.534786
0
LINE
8
0
10
158.965544
20
73.534799
11
158.249195
21
73.453248
0
LINE
8
0
10
158.249195
20
73.453248
11
158.089143
21
73.144137
0
LINE
8
0
10
158.089143
20
73.144137
11
158.299808
21
72.767728
0
LINE
8
0
10
158.299808
20
72.767728
11
159.127650
21
72.670353
0
LINE
8
0
10
159.127625
20
72.670393
11
160.208446
21
72.672245
0
LINE
8
0
10
160.208446
20
72.672245
11
160.212679
21
70.306609
0
LINE
8
0
10
160.212679
20
70.306609
11
159.607314
21
70.305550
0
LINE
8
0
10
159.607392
20
70.305533
11
158.439835
21
70.402317
0
LINE
8
0
10
158.439835
20
70.402317
11
157.568151
21
70.845508
0
LINE
8
0
10
157.568151
20
70.845508
11
156.868624
21
71.739899
0
LINE
8
0
10
156.868624
20
71.739899
11
156.637721
21
73.092182
0
LINE
8
0
10
156.637721
20
73.092182
11
156.863813
21
74.488502
0
LINE
8
0
10
156.863813
20
74.488502
11
157.485999
21
75.434618
0
LINE
8
0
10
157.485999
20
75.434618
11
158.362270
21
75.899402
0
LINE
8
0
10
158.362270
20
75.899402
11
159.757963
21
76.031554
0
LINE
8
0
10
159.757861
20
76.031655
11
162.148369
21
76.035624
0
LINE
8
0
10
162.148320
20
76.035738
11
163.108914
21
75.964843
0
LINE
8
0
10
163.108914
20
75.964843
11
163.841227
21
75.748398
0
LINE
8
0
10
163.841227
20
75.748398
11
164.391617
21
75.366409
0
LINE
8
0
10
164.391617
20
75.366409
11
164.794093
21
74.798861
0
LINE
8
0
10
164.794093
20
74.798861
11
165.045490
21
74.088986
0
LINE
8
0
10
165.045490
20
74.088986
11
165.130291
21
73.279993
0
LINE
8
0
10
165.130291
20
73.279993
11
165.031596
21
72.322439
0
LINE
8
0
10
165.031596
20
72.322439
11
164.731837
21
71.549833
0
LINE
8
0
10
164.731837
20
71.549833
11
164.271152
21
70.966877
0
LINE
8
0
10
164.271152
20
70.966877
11
163.677308
21
70.590605
0
LINE
8
0
10
163.677308
20
70.590605
11
162.888608
21
70.380764
0
LINE
8
0
10
162.888608
20
70.380764
11
161.830981
21
70.309425
0
LINE
8
0
10
161.830869
20
70.309519
11
160.743962
21
70.307402
0
LINE
8
0
10
162.073756
20
72.811416
11
162.672772
21
72.812474
0
LINE
8
0
10
162.672801
20
72.812442
11
163.494175
21
72.881824
0
LINE
8
0
10
163.494175
20
72.881824
11
163.678987
21
73.160096
0
LINE
8
0
10
163.678987
20
73.160096
11
163.517832
21
73.481000
0
LINE
8
0
10
163.517832
20
73.481000
11
162.671525
21
73.541285
0
LINE
8
0
10
162.671449
20
73.541400
11
162.072433
21
73.540342
0
LINE
8
0
10
162.072433
20
73.540342
11
162.073756
21
72.811416
0
LINE
8
0
10
166.796827
20
66.933440
11
165.493492
21
66.931059
0
LINE
8
0
10
165.493492
20
66.931059
11
165.488994
21
69.500424
0
LINE
8
0
10
165.488994
20
69.500424
11
166.792329
21
69.502805
0
LINE
8
0
10
166.792329
20
69.502805
11
166.796827
21
66.933440
0
LINE
8
0
10
164.993165
20
66.930265
11
156.796648
21
66.915713
0
LINE
8
0
10
156.796648
20
66.915713
11
156.792150
21
69.485343
0
LINE
8
0
10
156.792150
20
69.485343
11
164.988667
21
69.499630
0
LINE
8
0
10
164.988667
20
69.499630
11
164.993165
21
66.930265
0
LINE
8
0
10
166.802913
20
63.468196
11
165.499577
21
63.465815
0
LINE
8
0
10
165.499577
20
63.465815
11
165.495079
21
66.035445
0
LINE
8
0
10
165.495079
20
66.035445
11
166.798415
21
66.037826
0
LINE
8
0
10
166.798415
20
66.037826
11
166.802913
21
63.468196
0
LINE
8
0
10
164.999250
20
63.465021
11
156.802734
21
63.450734
0
LINE
8
0
10
156.802734
20
63.450734
11
156.798236
21
66.020099
0
LINE
8
0
10
156.798236
20
66.020099
11
164.994753
21
66.034651
0
LINE
8
0
10
164.994753
20
66.034651
11
164.999250
21
63.465021
0
LINE
8
0
10
166.808998
20
60.003217
11
165.505662
21
60.000836
0
LINE
8
0
10
165.505662
20
60.000836
11
165.501164
21
62.570202
0
LINE
8
0
10
165.501164
20
62.570202
11
166.804500
21
62.572583
0
LINE
8
0
10
166.804500
20
62.572583
11
166.808998
21
60.003217
0
LINE
8
0
10
165.005336
20
60.000042
11
156.808819
21
59.985755
0
LINE
8
0
10
156.808819
20
59.985755
11
156.804321
21
62.555120
0
LINE
8
0
10
156.804321
20
62.555120
11
165.000838
21
62.569408
0
LINE
8
0
10
165.000838
20
62.569408
11
165.005336
21
60.000042
0
LINE
8
0
10
166.814819
20
56.537974
11
165.511748
21
56.535857
0
LINE
8
0
10
165.511748
20
56.535857
11
165.507250
21
59.105223
0
LINE
8
0
10
165.507250
20
59.105223
11
166.810321
21
59.107604
0
LINE
8
0
10
166.810321
20
59.107604
11
166.814819
21
56.537974
0
LINE
8
0
10
165.011421
20
56.534799
11
156.814905
21
56.520511
0
LINE
8
0
10
156.814905
20
56.520511
11
156.810407
21
59.090141
0
LINE
8
0
10
156.810407
20
59.090141
11
165.006923
21
59.104429
0
LINE
8
0
10
165.006923
20
59.104429
11
165.011421
21
56.534799
0
LINE
8
0
10
166.820904
20
53.072995
11
165.517833
21
53.070614
0
LINE
8
0
10
165.517833
20
53.070614
11
165.513335
21
55.640244
0
LINE
8
0
10
165.513335
20
55.640244
11
166.816407
21
55.642360
0
LINE
8
0
10
166.816407
20
55.642360
11
166.820904
21
53.072995
0
LINE
8
0
10
165.017507
20
53.069820
11
156.820990
21
53.055532
0
LINE
8
0
10
156.820990
20
53.055532
11
156.816492
21
55.624898
0
LINE
8
0
10
156.816492
20
55.624898
11
165.013009
21
55.639185
0
LINE
8
0
10
165.013009
20
55.639185
11
165.017507
21
53.069820
0
LINE
8
0
10
147.319285
20
88.315186
11
147.315581
21
90.526571
0
LINE
8
0
10
147.315581
20
90.526571
11
147.760081
21
90.527364
0
LINE
8
0
10
147.760197
20
90.527255
11
148.476568
21
90.596453
0
LINE
8
0
10
148.476568
20
90.596453
11
148.630422
21
90.917908
0
LINE
8
0
10
148.630422
20
90.917908
11
148.487808
21
91.232667
0
LINE
8
0
10
148.487808
20
91.232667
11
148.073789
21
91.336946
0
LINE
8
0
10
148.073789
20
91.336946
11
147.517979
21
91.286560
0
LINE
8
0
10
147.517979
20
91.286560
11
147.135579
21
90.970881
0
LINE
8
0
10
147.135579
20
90.970881
11
146.525984
21
89.888900
0
LINE
8
0
10
146.525984
20
89.888900
11
146.011810
21
88.987753
0
LINE
8
0
10
146.011810
20
88.987753
11
145.527866
21
88.460346
0
LINE
8
0
10
145.527866
20
88.460346
11
144.952341
21
88.204552
0
LINE
8
0
10
144.952341
20
88.204552
11
144.163425
21
88.118242
0
LINE
8
0
10
144.163425
20
88.118242
11
143.284685
21
88.181559
0
LINE
8
0
10
143.284685
20
88.181559
11
142.649695
21
88.375011
0
LINE
8
0
10
142.649695
20
88.375011
11
142.199737
21
88.721661
0
LINE
8
0
10
142.199737
20
88.721661
11
141.863738
21
89.244544
0
LINE
8
0
10
141.863738
20
89.244544
11
141.658739
21
89.912808
0
LINE
8
0
10
141.658739
20
89.912808
11
141.589404
21
90.707931
0
LINE
8
0
10
141.589404
20
90.707931
11
141.661978
21
91.591319
0
LINE
8
0
10
141.661978
20
91.591319
11
141.883027
21
92.339082
0
LINE
8
0
10
141.883027
20
92.339082
11
142.231013
21
92.907943
0
LINE
8
0
10
142.231013
20
92.907943
11
142.684369
21
93.266982
0
LINE
8
0
10
142.684369
20
93.266982
11
143.320230
21
93.458027
0
LINE
8
0
10
143.320230
20
93.458027
11
144.215731
21
93.522906
0
LINE
8
0
10
144.215727
20
93.522973
11
144.611014
21
93.523502
0
LINE
8
0
10
144.611014
20
93.523502
11
144.614982
21
91.312382
0
LINE
8
0
10
144.614982
20
91.312382
11
144.096135
21
91.311324
0
LINE
8
0
10
144.096068
20
91.311454
11
143.237656
21
91.229655
0
LINE
8
0
10
143.237656
20
91.229655
11
143.040588
21
90.895771
0
LINE
8
0
10
143.040588
20
90.895771
11
143.170947
21
90.525399
0
LINE
8
0
10
143.170947
20
90.525399
11
143.733203
21
90.421381
0
LINE
8
0
10
143.733203
20
90.421381
11
144.467987
21
90.558553
0
LINE
8
0
10
144.467987
20
90.558553
11
145.342527
21
92.011597
0
LINE
8
0
10
145.342527
20
92.011597
11
145.929303
21
92.897430
0
LINE
8
0
10
145.929303
20
92.897430
11
146.458153
21
93.353884
0
LINE
8
0
10
146.458153
20
93.353884
11
147.655998
21
93.596870
0
LINE
8
0
10
147.655998
20
93.596870
11
148.508487
21
93.533507
0
LINE
8
0
10
148.508487
20
93.533507
11
149.101785
21
93.339981
0
LINE
8
0
10
149.101785
20
93.339981
11
149.517774
21
92.991728
0
LINE
8
0
10
149.517774
20
92.991728
11
149.825986
21
92.464164
0
LINE
8
0
10
149.825986
20
92.464164
11
150.081758
21
91.019274
0
LINE
8
0
10
150.081758
20
91.019274
11
149.874174
21
89.635341
0
LINE
8
0
10
149.874174
20
89.635341
11
149.332165
21
88.757307
0
LINE
8
0
10
149.332165
20
88.757307
11
148.702797
21
88.385606
0
LINE
8
0
10
148.702797
20
88.385606
11
147.794951
21
88.316074
0
LINE
8
0
10
147.795005
20
88.315980
11
147.319285
21
88.315186
0
LINE
8
0
10
145.706387
20
81.802211
11
145.700566
21
85.032505
0
LINE
8
0
10
145.700566
20
85.032505
11
143.927860
21
85.029594
0
LINE
8
0
10
143.927941
20
85.029502
11
143.211592
21
84.947952
0
LINE
8
0
10
143.211592
20
84.947952
11
143.051540
21
84.638839
0
LINE
8
0
10
143.051540
20
84.638839
11
143.262205
21
84.262432
0
LINE
8
0
10
143.262205
20
84.262432
11
144.090047
21
84.165054
0
LINE
8
0
10
144.090050
20
84.164937
11
145.170871
21
84.167054
0
LINE
8
0
10
145.170871
20
84.167054
11
145.175105
21
81.801417
0
LINE
8
0
10
145.175105
20
81.801417
11
144.569739
21
81.800359
0
LINE
8
0
10
144.569788
20
81.800236
11
143.402232
21
81.897019
0
LINE
8
0
10
143.402232
20
81.897019
11
142.530547
21
82.340212
0
LINE
8
0
10
142.530547
20
82.340212
11
141.831021
21
83.234602
0
LINE
8
0
10
141.831021
20
83.234602
11
141.600118
21
84.586885
0
LINE
8
0
10
141.600118
20
84.586885
11
141.826210
21
85.983205
0
LINE
8
0
10
141.826210
20
85.983205
11
142.448396
21
86.929322
0
LINE
8
0
10
142.448396
20
86.929322
11
143.324667
21
87.394105
0
LINE
8
0
10
143.324667
20
87.394105
11
144.720359
21
87.526258
0
LINE
8
0
10
144.720286
20
87.526199
11
147.110794
21
87.530433
0
LINE
8
0
10
147.110717
20
87.530441
11
148.071311
21
87.459547
0
LINE
8
0
10
148.071311
20
87.459547
11
148.803624
21
87.243102
0
LINE
8
0
10
148.803624
20
87.243102
11
149.354014
21
86.861113
0
LINE
8
0
10
149.354014
20
86.861113
11
149.756490
21
86.293565
0
LINE
8
0
10
149.756490
20
86.293565
11
150.007887
21
85.583690
0
LINE
8
0
10
150.007887
20
85.583690
11
150.092688
21
84.774696
0
LINE
8
0
10
150.092688
20
84.774696
11
149.993993
21
83.817142
0
LINE
8
0
10
149.993993
20
83.817142
11
149.694234
21
83.044535
0
LINE
8
0
10
149.694234
20
83.044535
11
149.233549
21
82.461579
0
LINE
8
0
10
149.233549
20
82.461579
11
148.639705
21
82.085309
0
LINE
8
0
10
148.639705
20
82.085309
11
147.851004
21
81.875466
0
LINE
8
0
10
147.851004
20
81.875466
11
146.793378
21
81.804128
0
LINE
8
0
10
146.793294
20
81.804063
11
145.706387
21
81.802211
0
LINE
8
0
10
147.036181
20
84.306224
11
147.635197
21
84.307018
0
LINE
8
0
10
147.635198
20
84.307146
11
148.456572
21
84.376527
0
LINE
8
0
10
148.456572
20
84.376527
11
148.641384
21
84.654800
0
LINE
8
0
10
148.641384
20
84.654800
11
148.480229
21
84.975704
0
LINE
8
0
10
148.480229
20
84.975704
11
147.633922
21
85.035989
0
LINE
8
0
10
147.633874
20
85.035944
11
147.034859
21
85.034886
0
LINE
8
0
10
147.034859
20
85.034886
11
147.036181
21
84.306224
0
LINE
8
0
10
149.960882
20
75.324161
11
143.648461
21
75.313048
0
LINE
8
0
10
143.648468
20
75.313135
11
141.993022
21
75.372005
0
LINE
8
0
10
141.993022
20
75.372005
11
141.207865
21
75.784467
0
LINE
8
0
10
141.207865
20
75.784467
11
140.838059
21
76.213097
0
LINE
8
0
10
140.838059
20
76.213097
11
140.569920
21
76.783967
0
LINE
8
0
10
140.569920
20
76.783967
11
140.344750
21
78.389504
0
LINE
8
0
10
140.344750
20
78.389504
11
140.444783
21
79.464417
0
LINE
8
0
10
140.444783
20
79.464417
11
140.749057
21
80.304974
0
LINE
8
0
10
140.749057
20
80.304974
11
141.345687
21
80.854196
0
LINE
8
0
10
141.345687
20
80.854196
11
142.335144
21
81.055125
0
LINE
8
0
10
142.335071
20
81.055028
11
142.339304
21
78.633829
0
LINE
8
0
10
142.339382
20
78.633885
11
141.931897
21
78.534345
0
LINE
8
0
10
141.931897
20
78.534345
11
141.796530
21
78.237628
0
LINE
8
0
10
141.796530
20
78.237628
11
141.963959
21
77.861146
0
LINE
8
0
10
141.963959
20
77.861146
11
142.662080
21
77.769717
0
LINE
8
0
10
142.662095
20
77.769701
11
143.279632
21
77.770760
0
LINE
8
0
10
143.279743
20
77.770798
11
142.840013
21
78.449461
0
LINE
8
0
10
142.840013
20
78.449461
11
142.690477
21
79.190397
0
LINE
8
0
10
142.690477
20
79.190397
11
142.757344
21
79.805092
0
LINE
8
0
10
142.757344
20
79.805092
11
142.960304
21
80.302668
0
LINE
8
0
10
142.960304
20
80.302668
11
143.273130
21
80.667638
0
LINE
8
0
10
143.273130
20
80.667638
11
143.669578
21
80.896868
0
LINE
8
0
10
143.669578
20
80.896868
11
144.929331
21
81.059665
0
LINE
8
0
10
144.929307
20
81.059791
11
147.906395
21
81.064818
0
LINE
8
0
10
147.906469
20
81.064876
11
148.910356
21
80.961631
0
LINE
8
0
10
148.910356
20
80.961631
11
149.587249
21
80.647807
0
LINE
8
0
10
149.587249
20
80.647807
11
149.972672
21
80.118833
0
LINE
8
0
10
149.972672
20
80.118833
11
150.102148
21
79.370140
0
LINE
8
0
10
150.102148
20
79.370140
11
149.912163
21
78.517429
0
LINE
8
0
10
149.912163
20
78.517429
11
149.338948
21
77.824641
0
LINE
8
0
10
149.338847
20
77.824734
11
149.956913
21
77.646670
0
LINE
8
0
10
149.956913
20
77.646670
11
149.960882
21
75.324161
0
LINE
8
0
10
147.782436
20
77.821916
11
148.498806
21
77.891114
0
LINE
8
0
10
148.498806
20
77.891114
11
148.652725
21
78.175509
0
LINE
8
0
10
148.652725
20
78.175509
11
148.473062
21
78.484027
0
LINE
8
0
10
148.473062
20
78.484027
11
147.781128
21
78.569289
0
LINE
8
0
10
147.781247
20
78.569271
11
145.026409
21
78.564509
0
LINE
8
0
10
145.026348
20
78.564467
11
144.309977
21
78.495271
0
LINE
8
0
10
144.309977
20
78.495271
11
144.149882
21
78.210864
0
LINE
8
0
10
144.149882
20
78.210864
11
144.348096
21
77.890025
0
LINE
8
0
10
144.348096
20
77.890025
11
145.243838
21
77.817473
0
LINE
8
0
10
145.243896
20
77.817591
11
147.782305
21
77.821824
0
LINE
8
0
10
149.976757
20
66.374111
11
141.778388
21
67.354391
0
LINE
8
0
10
141.778388
20
67.354391
11
141.773890
21
70.065838
0
LINE
8
0
10
141.773773
20
70.065878
11
145.725922
21
70.585457
0
LINE
8
0
10
145.725922
20
70.585457
11
143.551260
21
70.859599
0
LINE
8
0
10
143.551359
20
70.859587
11
141.771773
21
71.134489
0
LINE
8
0
10
141.771773
20
71.134489
11
141.767276
21
73.845935
0
LINE
8
0
10
141.767276
20
73.845935
11
149.961676
21
74.916438
0
LINE
8
0
10
149.961676
20
74.916438
11
149.965380
21
72.766966
0
LINE
8
0
10
149.965465
20
72.767060
11
145.278351
21
72.215309
0
LINE
8
0
10
145.278351
20
72.215309
11
149.967389
21
71.667617
0
LINE
8
0
10
149.967496
20
71.667623
11
149.970936
21
69.598320
0
LINE
8
0
10
149.970936
20
69.598320
11
145.283848
21
69.083706
0
LINE
8
0
10
145.283832
20
69.083755
11
149.972892
21
68.523710
0
LINE
8
0
10
149.972788
20
68.523584
11
149.976757
21
66.374111
0
LINE
8
0
10
145.743958
20
60.307488
11
145.738137
21
63.538046
0
LINE
8
0
10
145.738137
20
63.538046
11
143.965431
21
63.534871
0
LINE
8
0
10
143.965563
20
63.534811
11
143.249214
21
63.453261
0
LINE
8
0
10
143.249214
20
63.453261
11
143.089162
21
63.144150
0
LINE
8
0
10
143.089162
20
63.144150
11
143.299827
21
62.767741
0
LINE
8
0
10
143.299827
20
62.767741
11
144.127669
21
62.670365
0
LINE
8
0
10
144.127621
20
62.670479
11
145.208707
21
62.672331
0
LINE
8
0
10
145.208707
20
62.672331
11
145.212675
21
60.306694
0
LINE
8
0
10
145.212675
20
60.306694
11
144.607309
21
60.305636
0
LINE
8
0
10
144.607410
20
60.305546
11
143.439854
21
60.402329
0
LINE
8
0
10
143.439854
20
60.402329
11
142.568169
21
60.845521
0
LINE
8
0
10
142.568169
20
60.845521
11
141.868643
21
61.739912
0
LINE
8
0
10
141.868643
20
61.739912
11
141.637740
21
63.092194
0
LINE
8
0
10
141.637740
20
63.092194
11
141.863832
21
64.488515
0
LINE
8
0
10
141.863832
20
64.488515
11
142.486017
21
65.434631
0
LINE
8
0
10
142.486017
20
65.434631
11
143.362289
21
65.899415
0
LINE
8
0
10
143.362289
20
65.899415
11
144.757982
21
66.031567
0
LINE
8
0
10
144.757857
20
66.031476
11
147.148365
21
66.035710
0
LINE
8
0
10
147.148339
20
66.035750
11
148.108933
21
65.964856
0
LINE
8
0
10
148.108933
20
65.964856
11
148.841246
21
65.748410
0
LINE
8
0
10
148.841246
20
65.748410
11
149.391636
21
65.366422
0
LINE
8
0
10
149.391636
20
65.366422
11
149.794112
21
64.798873
0
LINE
8
0
10
149.794112
20
64.798873
11
150.045509
21
64.088999
0
LINE
8
0
10
150.045509
20
64.088999
11
150.130310
21
63.280006
0
LINE
8
0
10
150.130310
20
63.280006
11
150.031615
21
62.322451
0
LINE
8
0
10
150.031615
20
62.322451
11
149.731856
21
61.549845
0
LINE
8
0
10
149.731856
20
61.549845
11
149.271171
21
60.966889
0
LINE
8
0
10
149.271171
20
60.966889
11
148.677327
21
60.590618
0
LINE
8
0
10
148.677327
20
60.590618
11
147.888626
21
60.380776
0
LINE
8
0
10
147.888626
20
60.380776
11
146.830999
21
60.309438
0
LINE
8
0
10
146.831130
20
60.309340
11
145.743958
21
60.307488
0
LINE
8
0
10
147.073752
20
62.811501
11
147.672768
21
62.812560
0
LINE
8
0
10
147.672820
20
62.812454
11
148.494194
21
62.881837
0
LINE
8
0
10
148.494194
20
62.881837
11
148.679006
21
63.160108
0
LINE
8
0
10
148.679006
20
63.160108
11
148.517851
21
63.481012
0
LINE
8
0
10
148.517851
20
63.481012
11
147.671544
21
63.541298
0
LINE
8
0
10
147.671445
20
63.541221
11
147.072429
21
63.540163
0
LINE
8
0
10
147.072429
20
63.540163
11
147.073752
21
62.811501
0
LINE
8
0
10
151.796823
20
56.933261
11
150.493487
21
56.931144
0
LINE
8
0
10
150.493487
20
56.931144
11
150.488990
21
59.500510
0
LINE
8
0
10
150.488990
20
59.500510
11
151.792325
21
59.502891
0
LINE
8
0
10
151.792325
20
59.502891
11
151.796823
21
56.933261
0
LINE
8
0
10
149.993161
20
56.930086
11
141.796909
21
56.915798
0
LINE
8
0
10
141.796909
20
56.915798
11
141.792411
21
59.485428
0
LINE
8
0
10
141.792411
20
59.485428
11
149.988663
21
59.499716
0
LINE
8
0
10
149.988663
20
59.499716
11
149.993161
21
56.930086
0
LINE
8
0
10
151.802909
20
53.468282
11
150.499573
21
53.465901
0
LINE
8
0
10
150.499573
20
53.465901
11
150.495075
21
56.035531
0
LINE
8
0
10
150.495075
20
56.035531
11
151.798411
21
56.037647
0
LINE
8
0
10
151.798411
20
56.037647
11
151.802909
21
53.468282
0
LINE
8
0
10
149.999246
20
53.465107
11
141.802730
21
53.450819
0
LINE
8
0
10
141.802730
20
53.450819
11
141.798232
21
56.020185
0
LINE
8
0
10
141.798232
20
56.020185
11
149.994749
21
56.034472
0
LINE
8
0
10
149.994749
20
56.034472
11
149.999246
21
53.465107
0
LINE
8
0
10
151.808994
20
50.003038
11
150.505658
21
50.000922
0
LINE
8
0
10
150.505658
20
50.000922
11
150.501160
21
52.570287
0
LINE
8
0
10
150.501160
20
52.570287
11
151.804496
21
52.572668
0
LINE
8
0
10
151.804496
20
52.572668
11
151.808994
21
50.003038
0
LINE
8
0
10
150.005332
20
49.999863
11
141.808815
21
49.985576
0
LINE
8
0
10
141.808815
20
49.985576
11
141.804317
21
52.555206
0
LINE
8
0
10
141.804317
20
52.555206
11
150.000834
21
52.569493
0
LINE
8
0
10
150.000834
20
52.569493
11
150.005332
21
49.999863
0
LINE
8
0
10
151.815080
20
46.538059
11
150.511744
21
46.535678
0
LINE
8
0
10
150.511744
20
46.535678
11
150.507246
21
49.105308
0
LINE
8
0
10
150.507246
20
49.105308
11
151.810582
21
49.107425
0
LINE
8
0
10
151.810582
20
49.107425
11
151.815080
21
46.538059
0
LINE
8
0
10
150.011417
20
46.534884
11
141.814901
21
46.520597
0
LINE
8
0
10
141.814901
20
46.520597
11
141.810403
21
49.089962
0
LINE
8
0
10
141.810403
20
49.089962
11
150.006919
21
49.104250
0
LINE
8
0
10
150.006919
20
49.104250
11
150.011417
21
46.534884
0
LINE
8
0
10
151.820900
20
43.073080
11
150.517829
21
43.070699
0
LINE
8
0
10
150.517829
20
43.070699
11
150.513331
21
45.640065
0
LINE
8
0
10
150.513331
20
45.640065
11
151.816402
21
45.642446
0
LINE
8
0
10
151.816402
20
45.642446
11
151.820900
21
43.073080
0
LINE
8
0
10
150.017503
20
43.069905
11
141.820986
21
43.055353
0
LINE
8
0
10
141.820986
20
43.055353
11
141.816488
21
45.624983
0
LINE
8
0
10
141.816488
20
45.624983
11
150.013005
21
45.639271
0
LINE
8
0
10
150.013005
20
45.639271
11
150.017503
21
43.069905
0
LINE
8
0
10
177.319293
20
53.315353
11
177.315325
21
55.526473
0
LINE
8
0
10
177.315325
20
55.526473
11
177.760089
21
55.527267
0
LINE
8
0
10
177.760160
20
55.527300
11
178.476530
21
55.596497
0
LINE
8
0
10
178.476530
20
55.596497
11
178.630384
21
55.917952
0
LINE
8
0
10
178.630384
20
55.917952
11
178.487770
21
56.232711
0
LINE
8
0
10
178.487770
20
56.232711
11
178.073751
21
56.336990
0
LINE
8
0
10
178.073751
20
56.336990
11
177.517941
21
56.286604
0
LINE
8
0
10
177.517941
20
56.286604
11
177.135541
21
55.970925
0
LINE
8
0
10
177.135541
20
55.970925
11
176.525946
21
54.888944
0
LINE
8
0
10
176.525946
20
54.888944
11
176.011772
21
53.987797
0
LINE
8
0
10
176.011772
20
53.987797
11
175.527829
21
53.460390
0
LINE
8
0
10
175.527829
20
53.460390
11
174.952303
21
53.204596
0
LINE
8
0
10
174.952303
20
53.204596
11
174.163387
21
53.118286
0
LINE
8
0
10
174.163387
20
53.118286
11
173.284647
21
53.181603
0
LINE
8
0
10
173.284647
20
53.181603
11
172.649657
21
53.375056
0
LINE
8
0
10
172.649657
20
53.375056
11
172.199699
21
53.721705
0
LINE
8
0
10
172.199699
20
53.721705
11
171.863700
21
54.244588
0
LINE
8
0
10
171.863700
20
54.244588
11
171.658701
21
54.912852
0
LINE
8
0
10
171.658701
20
54.912852
11
171.589366
21
55.707975
0
LINE
8
0
10
171.589366
20
55.707975
11
171.661940
21
56.591364
0
LINE
8
0
10
171.661940
20
56.591364
11
171.882990
21
57.339126
0
LINE
8
0
10
171.882990
20
57.339126
11
172.230975
21
57.907987
0
LINE
8
0
10
172.230975
20
57.907987
11
172.684331
21
58.267026
0
LINE
8
0
10
172.684331
20
58.267026
11
173.320192
21
58.458071
0
LINE
8
0
10
173.320192
20
58.458071
11
174.215693
21
58.522950
0
LINE
8
0
10
174.215735
20
58.522875
11
174.611022
21
58.523669
0
LINE
8
0
10
174.611022
20
58.523669
11
174.614990
21
56.312284
0
LINE
8
0
10
174.614990
20
56.312284
11
174.096143
21
56.311491
0
LINE
8
0
10
174.096031
20
56.311498
11
173.237619
21
56.229699
0
LINE
8
0
10
173.237619
20
56.229699
11
173.040550
21
55.895815
0
LINE
8
0
10
173.040550
20
55.895815
11
173.170909
21
55.525443
0
LINE
8
0
10
173.170909
20
55.525443
11
173.733166
21
55.421425
0
LINE
8
0
10
173.733166
20
55.421425
11
174.467949
21
55.558597
0
LINE
8
0
10
174.467949
20
55.558597
11
175.342489
21
57.011641
0
LINE
8
0
10
175.342489
20
57.011641
11
175.929265
21
57.897474
0
LINE
8
0
10
175.929265
20
57.897474
11
176.458115
21
58.353928
0
LINE
8
0
10
176.458115
20
58.353928
11
177.655960
21
58.596914
0
LINE
8
0
10
177.655960
20
58.596914
11
178.508449
21
58.533552
0
LINE
8
0
10
178.508449
20
58.533552
11
179.101747
21
58.340025
0
LINE
8
0
10
179.101747
20
58.340025
11
179.517736
21
57.991772
0
LINE
8
0
10
179.517736
20
57.991772
11
179.825948
21
57.464208
0
LINE
8
0
10
179.825948
20
57.464208
11
180.081720
21
56.019319
0
LINE
8
0
10
180.081720
20
56.019319
11
179.874136
21
54.635385
0
LINE
8
0
10
179.874136
20
54.635385
11
179.332127
21
53.757351
0
LINE
8
0
10
179.332127
20
53.757351
11
178.702759
21
53.385650
0
LINE
8
0
10
178.702759
20
53.385650
11
177.794913
21
53.316118
0
LINE
8
0
10
177.795014
20
53.316147
11
177.319293
21
53.315353
0
LINE
8
0
10
175.706131
20
46.802378
11
175.700574
21
50.032672
0
LINE
8
0
10
175.700574
20
50.032672
11
173.927868
21
50.029497
0
LINE
8
0
10
173.927903
20
50.029547
11
173.211554
21
49.947996
0
LINE
8
0
10
173.211554
20
49.947996
11
173.051502
21
49.638883
0
LINE
8
0
10
173.051502
20
49.638883
11
173.262167
21
49.262476
0
LINE
8
0
10
173.262167
20
49.262476
11
174.090009
21
49.165098
0
LINE
8
0
10
174.090058
20
49.165104
11
175.170879
21
49.166956
0
LINE
8
0
10
175.170879
20
49.166956
11
175.175113
21
46.801319
0
LINE
8
0
10
175.175113
20
46.801319
11
174.569747
21
46.800261
0
LINE
8
0
10
174.569750
20
46.800280
11
173.402194
21
46.897063
0
LINE
8
0
10
173.402194
20
46.897063
11
172.530510
21
47.340256
0
LINE
8
0
10
172.530510
20
47.340256
11
171.830983
21
48.234646
0
LINE
8
0
10
171.830983
20
48.234646
11
171.600080
21
49.586930
0
LINE
8
0
10
171.600080
20
49.586930
11
171.826172
21
50.983249
0
LINE
8
0
10
171.826172
20
50.983249
11
172.448358
21
51.929366
0
LINE
8
0
10
172.448358
20
51.929366
11
173.324629
21
52.394149
0
LINE
8
0
10
173.324629
20
52.394149
11
174.720322
21
52.526302
0
LINE
8
0
10
174.720294
20
52.526366
11
177.110802
21
52.530600
0
LINE
8
0
10
177.110679
20
52.530485
11
178.071273
21
52.459591
0
LINE
8
0
10
178.071273
20
52.459591
11
178.803586
21
52.243146
0
LINE
8
0
10
178.803586
20
52.243146
11
179.353976
21
51.861157
0
LINE
8
0
10
179.353976
20
51.861157
11
179.756452
21
51.293609
0
LINE
8
0
10
179.756452
20
51.293609
11
180.007849
21
50.583734
0
LINE
8
0
10
180.007849
20
50.583734
11
180.092650
21
49.774741
0
LINE
8
0
10
180.092650
20
49.774741
11
179.993955
21
48.817186
0
LINE
8
0
10
179.993955
20
48.817186
11
179.694196
21
48.044579
0
LINE
8
0
10
179.694196
20
48.044579
11
179.233511
21
47.461624
0
LINE
8
0
10
179.233511
20
47.461624
11
178.639667
21
47.085353
0
LINE
8
0
10
178.639667
20
47.085353
11
177.850967
21
46.875510
0
LINE
8
0
10
177.850967
20
46.875510
11
176.793340
21
46.804172
0
LINE
8
0
10
176.793302
20
46.804230
11
175.706131
21
46.802378
0
LINE
8
0
10
177.035925
20
49.306127
11
177.635205
21
49.307185
0
LINE
8
0
10
177.635160
20
49.307190
11
178.456534
21
49.376571
0
LINE
8
0
10
178.456534
20
49.376571
11
178.641347
21
49.654844
0
LINE
8
0
10
178.641347
20
49.654844
11
178.480191
21
49.975748
0
LINE
8
0
10
178.480191
20
49.975748
11
177.633884
21
50.036033
0
LINE
8
0
10
177.633882
20
50.036111
11
177.034867
21
50.035053
0
LINE
8
0
10
177.034867
20
50.035053
11
177.035925
21
49.306127
0
LINE
8
0
10
179.960890
20
40.324328
11
173.648469
21
40.313215
0
LINE
8
0
10
173.648430
20
40.313179
11
171.992984
21
40.372049
0
LINE
8
0
10
171.992984
20
40.372049
11
171.207827
21
40.784511
0
LINE
8
0
10
171.207827
20
40.784511
11
170.838021
21
41.213141
0
LINE
8
0
10
170.838021
20
41.213141
11
170.569882
21
41.784011
0
LINE
8
0
10
170.569882
20
41.784011
11
170.344712
21
43.389548
0
LINE
8
0
10
170.344712
20
43.389548
11
170.444746
21
44.464461
0
LINE
8
0
10
170.444746
20
44.464461
11
170.749020
21
45.305018
0
LINE
8
0
10
170.749020
20
45.305018
11
171.345649
21
45.854240
0
LINE
8
0
10
171.345649
20
45.854240
11
172.335106
21
46.055169
0
LINE
8
0
10
172.335079
20
46.055195
11
172.339312
21
43.633996
0
LINE
8
0
10
172.339344
20
43.633929
11
171.931859
21
43.534389
0
LINE
8
0
10
171.931859
20
43.534389
11
171.796492
21
43.237672
0
LINE
8
0
10
171.796492
20
43.237672
11
171.963921
21
42.861190
0
LINE
8
0
10
171.963921
20
42.861190
11
172.662042
21
42.769761
0
LINE
8
0
10
172.662103
20
42.769868
11
173.279640
21
42.770927
0
LINE
8
0
10
173.279706
20
42.770842
11
172.839975
21
43.449505
0
LINE
8
0
10
172.839975
20
43.449505
11
172.690439
21
44.190442
0
LINE
8
0
10
172.690439
20
44.190442
11
172.757307
21
44.805136
0
LINE
8
0
10
172.757307
20
44.805136
11
172.960266
21
45.302713
0
LINE
8
0
10
172.960266
20
45.302713
11
173.273092
21
45.667682
0
LINE
8
0
10
173.273092
20
45.667682
11
173.669541
21
45.896912
0
LINE
8
0
10
173.669541
20
45.896912
11
174.929293
21
46.059710
0
LINE
8
0
10
174.929315
20
46.059693
11
177.906403
21
46.064985
0
LINE
8
0
10
177.906431
20
46.064920
11
178.910318
21
45.961675
0
LINE
8
0
10
178.910318
20
45.961675
11
179.587211
21
45.647851
0
LINE
8
0
10
179.587211
20
45.647851
11
179.972634
21
45.118877
0
LINE
8
0
10
179.972634
20
45.118877
11
180.102110
21
44.370184
0
LINE
8
0
10
180.102110
20
44.370184
11
179.912126
21
43.517473
0
LINE
8
0
10
179.912126
20
43.517473
11
179.338910
21
42.824685
0
LINE
8
0
10
179.338855
20
42.824637
11
179.956921
21
42.646573
0
LINE
8
0
10
179.956921
20
42.646573
11
179.960890
21
40.324328
0
LINE
8
0
10
177.782398
20
42.821961
11
178.498768
21
42.891158
0
LINE
8
0
10
178.498768
20
42.891158
11
178.652687
21
43.175553
0
LINE
8
0
10
178.652687
20
43.175553
11
178.473024
21
43.484071
0
LINE
8
0
10
178.473024
20
43.484071
11
177.781090
21
43.569333
0
LINE
8
0
10
177.780991
20
43.569438
11
175.026417
21
43.564411
0
LINE
8
0
10
175.026310
20
43.564511
11
174.309939
21
43.495315
0
LINE
8
0
10
174.309939
20
43.495315
11
174.149844
21
43.210908
0
LINE
8
0
10
174.149844
20
43.210908
11
174.348058
21
42.890069
0
LINE
8
0
10
174.348058
20
42.890069
11
175.243800
21
42.817517
0
LINE
8
0
10
175.243904
20
42.817493
11
177.782314
21
42.821991
0
LINE
8
0
10
179.976500
20
31.374543
11
171.778396
21
32.353500
0
LINE
8
0
10
171.778396
20
32.353500
11
171.773634
21
35.066005
0
LINE
8
0
10
171.773735
20
35.065922
11
175.725884
21
35.585501
0
LINE
8
0
10
175.725884
20
35.585501
11
173.551222
21
35.859643
0
LINE
8
0
10
173.551102
20
35.859754
11
171.771782
21
36.134391
0
LINE
8
0
10
171.771782
20
36.134391
11
171.767019
21
38.846102
0
LINE
8
0
10
171.767019
20
38.846102
11
179.961684
21
39.916605
0
LINE
8
0
10
179.961684
20
39.916605
11
179.965388
21
37.767133
0
LINE
8
0
10
179.965427
20
37.767104
11
175.278313
21
37.215353
0
LINE
8
0
10
175.278313
20
37.215353
11
179.967352
21
36.667661
0
LINE
8
0
10
179.967240
20
36.667790
11
179.970944
21
34.598487
0
LINE
8
0
10
179.970944
20
34.598487
11
175.283856
21
34.083873
0
LINE
8
0
10
175.283794
20
34.083799
11
179.972854
21
33.523754
0
LINE
8
0
10
179.972796
20
33.523751
11
179.976500
21
31.374543
0
LINE
8
0
10
175.743966
20
25.307655
11
175.738145
21
28.538213
0
LINE
8
0
10
175.738145
20
28.538213
11
173.965439
21
28.535567
0
LINE
8
0
10
173.965525
20
28.534855
11
173.249176
21
28.453305
0
LINE
8
0
10
173.249176
20
28.453305
11
173.089124
21
28.144194
0
LINE
8
0
10
173.089124
20
28.144194
11
173.299789
21
27.767785
0
LINE
8
0
10
173.299789
20
27.767785
11
174.127631
21
27.670409
0
LINE
8
0
10
174.127629
20
27.670381
11
175.208450
21
27.673027
0
LINE
8
0
10
175.208450
20
27.673027
11
175.212683
21
25.307655
0
LINE
8
0
10
175.212683
20
25.307655
11
174.607318
21
25.305009
0
LINE
8
0
10
174.607373
20
25.305590
11
173.439816
21
25.402373
0
LINE
8
0
10
173.439816
20
25.402373
11
172.568132
21
25.845565
0
LINE
8
0
10
172.568132
20
25.845565
11
171.868605
21
26.739956
0
LINE
8
0
10
171.868605
20
26.739956
11
171.637702
21
28.092239
0
LINE
8
0
10
171.637702
20
28.092239
11
171.863794
21
29.488559
0
LINE
8
0
10
171.863794
20
29.488559
11
172.485980
21
30.434675
0
LINE
8
0
10
172.485980
20
30.434675
11
173.362251
21
30.899459
0
LINE
8
0
10
173.362251
20
30.899459
11
174.757944
21
31.031611
0
LINE
8
0
10
174.757865
20
31.030585
11
177.148373
21
31.035877
0
LINE
8
0
10
177.148301
20
31.035794
11
178.108895
21
30.964900
0
LINE
8
0
10
178.108895
20
30.964900
11
178.841208
21
30.748454
0
LINE
8
0
10
178.841208
20
30.748454
11
179.391599
21
30.366466
0
LINE
8
0
10
179.391599
20
30.366466
11
179.794074
21
29.798918
0
LINE
8
0
10
179.794074
20
29.798918
11
180.045471
21
29.089043
0
LINE
8
0
10
180.045471
20
29.089043
11
180.130272
21
28.280050
0
LINE
8
0
10
180.130272
20
28.280050
11
180.031578
21
27.322496
0
LINE
8
0
10
180.031578
20
27.322496
11
179.731818
21
26.549890
0
LINE
8
0
10
179.731818
20
26.549890
11
179.271133
21
25.966934
0
LINE
8
0
10
179.271133
20
25.966934
11
178.677289
21
25.590662
0
LINE
8
0
10
178.677289
20
25.590662
11
177.888589
21
25.380820
0
LINE
8
0
10
177.888589
20
25.380820
11
176.830962
21
25.309482
0
LINE
8
0
10
176.830873
20
25.310301
11
175.743966
21
25.307655
0
LINE
8
0
10
177.073760
20
27.810610
11
177.672776
21
27.813256
0
LINE
8
0
10
177.672782
20
27.812499
11
178.494156
21
27.881881
0
LINE
8
0
10
178.494156
20
27.881881
11
178.678968
21
28.160153
0
LINE
8
0
10
178.678968
20
28.160153
11
178.517813
21
28.481056
0
LINE
8
0
10
178.517813
20
28.481056
11
177.671506
21
28.541342
0
LINE
8
0
10
177.671453
20
28.540859
11
177.072437
21
28.540859
0
LINE
8
0
10
177.072437
20
28.540859
11
177.073760
21
27.810610
0
LINE
8
0
10
181.796831
20
21.934222
11
180.493496
21
21.931576
0
LINE
8
0
10
180.493496
20
21.931576
11
180.488998
21
24.500677
0
LINE
8
0
10
180.488998
20
24.500677
11
181.792333
21
24.503322
0
LINE
8
0
10
181.792333
20
24.503322
11
181.796831
21
21.934222
0
LINE
8
0
10
179.993169
20
21.928930
11
171.796652
21
21.915701
0
LINE
8
0
10
171.796652
20
21.915701
11
171.792154
21
24.484802
0
LINE
8
0
10
171.792154
20
24.484802
11
179.988671
21
24.500677
0
LINE
8
0
10
179.988671
20
24.500677
11
179.993169
21
21.928930
0
LINE
8
0
10
181.802917
20
18.468184
11
180.499581
21
18.465538
0
LINE
8
0
10
180.499581
20
18.465538
11
180.495083
21
21.034639
0
LINE
8
0
10
180.495083
20
21.034639
11
181.798419
21
21.037285
0
LINE
8
0
10
181.798419
20
21.037285
11
181.802917
21
18.468184
0
LINE
8
0
10
179.999254
20
18.465538
11
171.802738
21
18.449663
0
LINE
8
0
10
171.802738
20
18.449663
11
171.798240
21
21.021410
0
LINE
8
0
10
171.798240
20
21.021410
11
179.994757
21
21.034639
0
LINE
8
0
10
179.994757
20
21.034639
11
179.999254
21
18.465538
0
LINE
8
0
10
181.808738
20
15.002147
11
180.505666
21
15.002147
0
LINE
8
0
10
180.505666
20
15.002147
11
180.501168
21
17.571248
0
LINE
8
0
10
180.501168
20
17.571248
11
181.804240
21
17.573894
0
LINE
8
0
10
181.804240
20
17.573894
11
181.808738
21
15.002147
0
LINE
8
0
10
180.005340
20
14.999501
11
171.808823
21
14.986272
0
LINE
8
0
10
171.808823
20
14.986272
11
171.804325
21
17.555373
0
LINE
8
0
10
171.804325
20
17.555373
11
180.000842
21
17.568602
0
LINE
8
0
10
180.000842
20
17.568602
11
180.005340
21
14.999501
0
LINE
8
0
10
181.814823
20
11.538755
11
180.511752
21
11.536110
0
LINE
8
0
10
180.511752
20
11.536110
11
180.507254
21
14.105211
0
LINE
8
0
10
180.507254
20
14.105211
11
181.810325
21
14.107856
0
LINE
8
0
10
181.810325
20
14.107856
11
181.814823
21
11.538755
0
LINE
8
0
10
180.011425
20
11.536110
11
171.814909
21
11.520235
0
LINE
8
0
10
171.814909
20
11.520235
11
171.810411
21
14.089336
0
LINE
8
0
10
171.810411
20
14.089336
11
180.006927
21
14.105211
0
LINE
8
0
10
180.006927
20
14.105211
11
180.011425
21
11.536110
0
LINE
8
0
10
181.820908
20
8.072718
11
180.517837
21
8.070072
0
LINE
8
0
10
180.517837
20
8.070072
11
180.513339
21
10.639173
0
LINE
8
0
10
180.513339
20
10.639173
11
181.816411
21
10.641819
0
LINE
8
0
10
181.816411
20
10.641819
11
181.820908
21
8.072718
0
LINE
8
0
10
180.017511
20
8.070072
11
171.820994
21
8.054197
0
LINE
8
0
10
171.820994
20
8.054197
11
171.816496
21
10.625944
0
LINE
8
0
10
171.816496
20
10.625944
11
180.013013
21
10.639173
0
LINE
8
0
10
180.013013
20
10.639173
11
180.017511
21
8.070072
0
LINE
8
0
10
162.319289
20
43.315174
11
162.315585
21
45.526558
0
LINE
8
0
10
162.315585
20
45.526558
11
162.760085
21
45.527352
0
LINE
8
0
10
162.760179
20
45.527312
11
163.476549
21
45.596509
0
LINE
8
0
10
163.476549
20
45.596509
11
163.630403
21
45.917965
0
LINE
8
0
10
163.630403
20
45.917965
11
163.487789
21
46.232724
0
LINE
8
0
10
163.487789
20
46.232724
11
163.073770
21
46.337003
0
LINE
8
0
10
163.073770
20
46.337003
11
162.517960
21
46.286617
0
LINE
8
0
10
162.517960
20
46.286617
11
162.135560
21
45.970938
0
LINE
8
0
10
162.135560
20
45.970938
11
161.525965
21
44.888956
0
LINE
8
0
10
161.525965
20
44.888956
11
161.011791
21
43.987809
0
LINE
8
0
10
161.011791
20
43.987809
11
160.527847
21
43.460402
0
LINE
8
0
10
160.527847
20
43.460402
11
159.952322
21
43.204608
0
LINE
8
0
10
159.952322
20
43.204608
11
159.163406
21
43.118299
0
LINE
8
0
10
159.163406
20
43.118299
11
158.284666
21
43.181615
0
LINE
8
0
10
158.284666
20
43.181615
11
157.649676
21
43.375068
0
LINE
8
0
10
157.649676
20
43.375068
11
157.199718
21
43.721718
0
LINE
8
0
10
157.199718
20
43.721718
11
156.863719
21
44.244601
0
LINE
8
0
10
156.863719
20
44.244601
11
156.658720
21
44.912865
0
LINE
8
0
10
156.658720
20
44.912865
11
156.589385
21
45.707988
0
LINE
8
0
10
156.589385
20
45.707988
11
156.661959
21
46.591376
0
LINE
8
0
10
156.661959
20
46.591376
11
156.883008
21
47.339138
0
LINE
8
0
10
156.883008
20
47.339138
11
157.230994
21
47.908000
0
LINE
8
0
10
157.230994
20
47.908000
11
157.684350
21
48.267039
0
LINE
8
0
10
157.684350
20
48.267039
11
158.320211
21
48.458084
0
LINE
8
0
10
158.320211
20
48.458084
11
159.215712
21
48.522962
0
LINE
8
0
10
159.215731
20
48.522961
11
159.611018
21
48.523755
0
LINE
8
0
10
159.611018
20
48.523755
11
159.614986
21
46.312370
0
LINE
8
0
10
159.614986
20
46.312370
11
159.096139
21
46.311576
0
LINE
8
0
10
159.096049
20
46.311510
11
158.237638
21
46.229712
0
LINE
8
0
10
158.237638
20
46.229712
11
158.040569
21
45.895827
0
LINE
8
0
10
158.040569
20
45.895827
11
158.170928
21
45.525456
0
LINE
8
0
10
158.170928
20
45.525456
11
158.733184
21
45.421437
0
LINE
8
0
10
158.733184
20
45.421437
11
159.467968
21
45.558610
0
LINE
8
0
10
159.467968
20
45.558610
11
160.342508
21
47.011654
0
LINE
8
0
10
160.342508
20
47.011654
11
160.929284
21
47.897487
0
LINE
8
0
10
160.929284
20
47.897487
11
161.458134
21
48.353941
0
LINE
8
0
10
161.458134
20
48.353941
11
162.655979
21
48.596927
0
LINE
8
0
10
162.655979
20
48.596927
11
163.508468
21
48.533564
0
LINE
8
0
10
163.508468
20
48.533564
11
164.101766
21
48.340038
0
LINE
8
0
10
164.101766
20
48.340038
11
164.517755
21
47.991785
0
LINE
8
0
10
164.517755
20
47.991785
11
164.825967
21
47.464220
0
LINE
8
0
10
164.825967
20
47.464220
11
165.081739
21
46.019331
0
LINE
8
0
10
165.081739
20
46.019331
11
164.874155
21
44.635397
0
LINE
8
0
10
164.874155
20
44.635397
11
164.332146
21
43.757364
0
LINE
8
0
10
164.332146
20
43.757364
11
163.702778
21
43.385663
0
LINE
8
0
10
163.702778
20
43.385663
11
162.794932
21
43.316131
0
LINE
8
0
10
162.795009
20
43.316232
11
162.319289
21
43.315174
0
LINE
8
0
10
160.706391
20
36.802199
11
160.700570
21
40.032757
0
LINE
8
0
10
160.700570
20
40.032757
11
158.927864
21
40.029582
0
LINE
8
0
10
158.927922
20
40.029559
11
158.211573
21
39.948009
0
LINE
8
0
10
158.211573
20
39.948009
11
158.051521
21
39.638895
0
LINE
8
0
10
158.051521
20
39.638895
11
158.262186
21
39.262489
0
LINE
8
0
10
158.262186
20
39.262489
11
159.090028
21
39.165111
0
LINE
8
0
10
159.090054
20
39.165189
11
160.170875
21
39.167041
0
LINE
8
0
10
160.170875
20
39.167041
11
160.175109
21
36.801405
0
LINE
8
0
10
160.175109
20
36.801405
11
159.569743
21
36.800347
0
LINE
8
0
10
159.569769
20
36.800292
11
158.402213
21
36.897076
0
LINE
8
0
10
158.402213
20
36.897076
11
157.530529
21
37.340269
0
LINE
8
0
10
157.530529
20
37.340269
11
156.831002
21
38.234659
0
LINE
8
0
10
156.831002
20
38.234659
11
156.600099
21
39.586942
0
LINE
8
0
10
156.600099
20
39.586942
11
156.826191
21
40.983262
0
LINE
8
0
10
156.826191
20
40.983262
11
157.448377
21
41.929379
0
LINE
8
0
10
157.448377
20
41.929379
11
158.324648
21
42.394161
0
LINE
8
0
10
158.324648
20
42.394161
11
159.720340
21
42.526314
0
LINE
8
0
10
159.720290
20
42.526187
11
162.110798
21
42.530421
0
LINE
8
0
10
162.110698
20
42.530498
11
163.071292
21
42.459604
0
LINE
8
0
10
163.071292
20
42.459604
11
163.803605
21
42.243158
0
LINE
8
0
10
163.803605
20
42.243158
11
164.353995
21
41.861169
0
LINE
8
0
10
164.353995
20
41.861169
11
164.756471
21
41.293622
0
LINE
8
0
10
164.756471
20
41.293622
11
165.007868
21
40.583746
0
LINE
8
0
10
165.007868
20
40.583746
11
165.092669
21
39.774753
0
LINE
8
0
10
165.092669
20
39.774753
11
164.993974
21
38.817199
0
LINE
8
0
10
164.993974
20
38.817199
11
164.694215
21
38.044592
0
LINE
8
0
10
164.694215
20
38.044592
11
164.233530
21
37.461636
0
LINE
8
0
10
164.233530
20
37.461636
11
163.639686
21
37.085365
0
LINE
8
0
10
163.639686
20
37.085365
11
162.850985
21
36.875523
0
LINE
8
0
10
162.850985
20
36.875523
11
161.793359
21
36.804184
0
LINE
8
0
10
161.793298
20
36.804315
11
160.706391
21
36.802199
0
LINE
8
0
10
162.035921
20
39.306212
11
162.635201
21
39.307270
0
LINE
8
0
10
162.635179
20
39.307203
11
163.456553
21
39.376584
0
LINE
8
0
10
163.456553
20
39.376584
11
163.641365
21
39.654856
0
LINE
8
0
10
163.641365
20
39.654856
11
163.480210
21
39.975760
0
LINE
8
0
10
163.480210
20
39.975760
11
162.633903
21
40.036046
0
LINE
8
0
10
162.633878
20
40.035932
11
162.034863
21
40.034874
0
LINE
8
0
10
162.034863
20
40.034874
11
162.035921
21
39.306212
0
LINE
8
0
10
164.960886
20
30.324148
11
158.648465
21
30.313565
0
LINE
8
0
10
158.648449
20
30.313192
11
156.993003
21
30.372062
0
LINE
8
0
10
156.993003
20
30.372062
11
156.207846
21
30.784524
0
LINE
8
0
10
156.207846
20
30.784524
11
155.838040
21
31.213153
0
LINE
8
0
10
155.838040
20
31.213153
11
155.569901
21
31.784024
0
LINE
8
0
10
155.569901
20
31.784024
11
155.344731
21
33.389561
0
LINE
8
0
10
155.344731
20
33.389561
11
155.444764
21
34.464473
0
LINE
8
0
10
155.444764
20
34.464473
11
155.749039
21
35.305031
0
LINE
8
0
10
155.749039
20
35.305031
11
156.345668
21
35.854253
0
LINE
8
0
10
156.345668
20
35.854253
11
157.335125
21
36.055182
0
LINE
8
0
10
157.335075
20
36.055281
11
157.339308
21
33.633817
0
LINE
8
0
10
157.339363
20
33.633942
11
156.931878
21
33.534402
0
LINE
8
0
10
156.931878
20
33.534402
11
156.796511
21
33.237685
0
LINE
8
0
10
156.796511
20
33.237685
11
156.963940
21
32.861203
0
LINE
8
0
10
156.963940
20
32.861203
11
157.662061
21
32.769774
0
LINE
8
0
10
157.662099
20
32.769689
11
158.279636
21
32.770747
0
LINE
8
0
10
158.279725
20
32.770855
11
157.839994
21
33.449518
0
LINE
8
0
10
157.839994
20
33.449518
11
157.690458
21
34.190454
0
LINE
8
0
10
157.690458
20
34.190454
11
157.757326
21
34.805149
0
LINE
8
0
10
157.757326
20
34.805149
11
157.960285
21
35.302725
0
LINE
8
0
10
157.960285
20
35.302725
11
158.273111
21
35.667695
0
LINE
8
0
10
158.273111
20
35.667695
11
158.669559
21
35.896924
0
LINE
8
0
10
158.669559
20
35.896924
11
159.929312
21
36.059722
0
LINE
8
0
10
159.929311
20
36.059779
11
162.906399
21
36.064806
0
LINE
8
0
10
162.906450
20
36.064933
11
163.910337
21
35.961687
0
LINE
8
0
10
163.910337
20
35.961687
11
164.587230
21
35.647863
0
LINE
8
0
10
164.587230
20
35.647863
11
164.972653
21
35.118890
0
LINE
8
0
10
164.972653
20
35.118890
11
165.102129
21
34.370197
0
LINE
8
0
10
165.102129
20
34.370197
11
164.912145
21
33.517486
0
LINE
8
0
10
164.912145
20
33.517486
11
164.338929
21
32.824698
0
LINE
8
0
10
164.338851
20
32.824722
11
164.956917
21
32.646658
0
LINE
8
0
10
164.956917
20
32.646658
11
164.960886
21
30.324148
0
LINE
8
0
10
162.782417
20
32.821973
11
163.498787
21
32.891170
0
LINE
8
0
10
163.498787
20
32.891170
11
163.652706
21
33.175566
0
LINE
8
0
10
163.652706
20
33.175566
11
163.473043
21
33.484083
0
LINE
8
0
10
163.473043
20
33.484083
11
162.781109
21
33.569345
0
LINE
8
0
10
162.780987
20
33.569259
11
160.026413
21
33.564496
0
LINE
8
0
10
160.026329
20
33.564524
11
159.309958
21
33.495328
0
LINE
8
0
10
159.309958
20
33.495328
11
159.149863
21
33.210920
0
LINE
8
0
10
159.149863
20
33.210920
11
159.348077
21
32.890082
0
LINE
8
0
10
159.348077
20
32.890082
11
160.243819
21
32.817530
0
LINE
8
0
10
160.243900
20
32.817579
11
162.782310
21
32.822077
0
LINE
8
0
10
164.976761
20
21.373306
11
156.778392
21
22.354909
0
LINE
8
0
10
156.778392
20
22.354909
11
156.773630
21
25.066884
0
LINE
8
0
10
156.773754
20
25.065934
11
160.725903
21
25.585514
0
LINE
8
0
10
160.725903
20
25.585514
11
158.551241
21
25.859656
0
LINE
8
0
10
158.551363
20
25.860633
11
156.771777
21
26.135800
0
LINE
8
0
10
156.771777
20
26.135800
11
156.767015
21
28.845129
0
LINE
8
0
10
156.767015
20
28.845129
11
164.961680
21
29.916691
0
LINE
8
0
10
164.961680
20
29.916691
11
164.965384
21
27.768277
0
LINE
8
0
10
164.965446
20
27.767117
11
160.278332
21
27.215366
0
LINE
8
0
10
160.278332
20
27.215366
11
164.967371
21
26.667674
0
LINE
8
0
10
164.967500
20
26.667611
11
164.970940
21
24.598572
0
LINE
8
0
10
164.970940
20
24.598572
11
160.283852
21
24.082635
0
LINE
8
0
10
160.283813
20
24.083811
11
164.972873
21
23.523767
0
LINE
8
0
10
164.972792
20
23.524365
11
164.976761
21
21.373306
0
LINE
8
0
10
160.743962
20
15.306417
11
160.738141
21
18.536976
0
LINE
8
0
10
160.738141
20
18.536976
11
158.965435
21
18.534330
0
LINE
8
0
10
158.965544
20
18.534868
11
158.249195
21
18.453317
0
LINE
8
0
10
158.249195
20
18.453317
11
158.089143
21
18.144206
0
LINE
8
0
10
158.089143
20
18.144206
11
158.299808
21
17.767797
0
LINE
8
0
10
158.299808
20
17.767797
11
159.127650
21
17.670422
0
LINE
8
0
10
159.127625
20
17.669144
11
160.208446
21
17.671789
0
LINE
8
0
10
160.208446
20
17.671789
11
160.212679
21
15.306417
0
LINE
8
0
10
160.212679
20
15.306417
11
159.607314
21
15.306417
0
LINE
8
0
10
159.607392
20
15.305602
11
158.439835
21
15.402386
0
LINE
8
0
10
158.439835
20
15.402386
11
157.568151
21
15.845578
0
LINE
8
0
10
157.568151
20
15.845578
11
156.868624
21
16.739968
0
LINE
8
0
10
156.868624
20
16.739968
11
156.637721
21
18.092251
0
LINE
8
0
10
156.637721
20
18.092251
11
156.863813
21
19.488571
0
LINE
8
0
10
156.863813
20
19.488571
11
157.485999
21
20.434688
0
LINE
8
0
10
157.485999
20
20.434688
11
158.362270
21
20.899471
0
LINE
8
0
10
158.362270
20
20.899471
11
159.757963
21
21.031623
0
LINE
8
0
10
159.757861
20
21.031994
11
162.148369
21
21.034639
0
LINE
8
0
10
162.148320
20
21.035807
11
163.108914
21
20.964913
0
LINE
8
0
10
163.108914
20
20.964913
11
163.841227
21
20.748467
0
LINE
8
0
10
163.841227
20
20.748467
11
164.391617
21
20.366479
0
LINE
8
0
10
164.391617
20
20.366479
11
164.794093
21
19.798930
0
LINE
8
0
10
164.794093
20
19.798930
11
165.045490
21
19.089056
0
LINE
8
0
10
165.045490
20
19.089056
11
165.130291
21
18.280062
0
LINE
8
0
10
165.130291
20
18.280062
11
165.031596
21
17.322508
0
LINE
8
0
10
165.031596
20
17.322508
11
164.731837
21
16.549902
0
LINE
8
0
10
164.731837
20
16.549902
11
164.271152
21
15.966946
0
LINE
8
0
10
164.271152
20
15.966946
11
163.677308
21
15.590675
0
LINE
8
0
10
163.677308
20
15.590675
11
162.888608
21
15.380833
0
LINE
8
0
10
162.888608
20
15.380833
11
161.830981
21
15.309494
0
LINE
8
0
10
161.830869
20
15.309063
11
160.743962
21
15.306417
0
LINE
8
0
10
162.073756
20
17.812018
11
162.672772
21
17.812018
0
LINE
8
0
10
162.672801
20
17.812511
11
163.494175
21
17.881893
0
LINE
8
0
10
163.494175
20
17.881893
11
163.678987
21
18.160165
0
LINE
8
0
10
163.678987
20
18.160165
11
163.517832
21
18.481069
0
LINE
8
0
10
163.517832
20
18.481069
11
162.671525
21
18.541355
0
LINE
8
0
10
162.671449
20
18.542267
11
162.072433
21
18.539622
0
LINE
8
0
10
162.072433
20
18.539622
11
162.073756
21
17.812018
0
LINE
8
0
10
166.796827
20
11.932984
11
165.493492
21
11.930338
0
LINE
8
0
10
165.493492
20
11.930338
11
165.488994
21
14.499439
0
LINE
8
0
10
165.488994
20
14.499439
11
166.792329
21
14.502085
0
LINE
8
0
10
166.792329
20
14.502085
11
166.796827
21
11.932984
0
LINE
8
0
10
164.993165
20
11.930338
11
156.796648
21
11.917109
0
LINE
8
0
10
156.796648
20
11.917109
11
156.792150
21
14.486210
0
LINE
8
0
10
156.792150
20
14.486210
11
164.988667
21
14.499439
0
LINE
8
0
10
164.988667
20
14.499439
11
164.993165
21
11.930338
0
LINE
8
0
10
166.802913
20
8.469593
11
165.499577
21
8.466947
0
LINE
8
0
10
165.499577
20
8.466947
11
165.495079
21
11.036048
0
LINE
8
0
10
165.495079
20
11.036048
11
166.798415
21
11.038694
0
LINE
8
0
10
166.798415
20
11.038694
11
166.802913
21
8.469593
0
LINE
8
0
10
164.999250
20
8.464301
11
156.802734
21
8.451072
0
LINE
8
0
10
156.802734
20
8.451072
11
156.798236
21
11.020173
0
LINE
8
0
10
156.798236
20
11.020173
11
164.994753
21
11.033402
0
LINE
8
0
10
164.994753
20
11.033402
11
164.999250
21
8.464301
0
LINE
8
0
10
166.808998
20
5.003555
11
165.505662
21
5.000910
0
LINE
8
0
10
165.505662
20
5.000910
11
165.501164
21
7.570010
0
LINE
8
0
10
165.501164
20
7.570010
11
166.804500
21
7.572656
0
LINE
8
0
10
166.804500
20
7.572656
11
166.808998
21
5.003555
0
LINE
8
0
10
165.005336
20
5.000910
11
156.808819
21
4.985035
0
LINE
8
0
10
156.808819
20
4.985035
11
156.804321
21
7.554135
0
LINE
8
0
10
156.804321
20
7.554135
11
165.000838
21
7.570010
0
LINE
8
0
10
165.000838
20
7.570010
11
165.005336
21
5.000910
0
LINE
8
0
10
165.525525
20
2.940125
11
165.507250
21
4.106619
0
LINE
8
0
10
165.507250
20
4.106619
11
166.810321
21
4.106619
0
LINE
8
0
10
166.810321
20
4.106619
11
166.828604
21
2.915228
0
LINE
8
0
10
156.828681
20
2.982009
11
156.810407
21
4.090744
0
LINE
8
0
10
156.810407
20
4.090744
11
165.006923
21
4.103973
0
LINE
8
0
10
165.006923
20
4.103973
11
165.011421
21
3.009023
0
LINE
8
0
10
147.319285
20
33.315259
11
147.315581
21
35.526644
0
LINE
8
0
10
147.315581
20
35.526644
11
147.760081
21
35.527438
0
LINE
8
0
10
147.760197
20
35.527325
11
148.476568
21
35.596522
0
LINE
8
0
10
148.476568
20
35.596522
11
148.630422
21
35.917977
0
LINE
8
0
10
148.630422
20
35.917977
11
148.487808
21
36.232737
0
LINE
8
0
10
148.487808
20
36.232737
11
148.073789
21
36.337015
0
LINE
8
0
10
148.073789
20
36.337015
11
147.517979
21
36.286629
0
LINE
8
0
10
147.517979
20
36.286629
11
147.135579
21
35.970951
0
LINE
8
0
10
147.135579
20
35.970951
11
146.525984
21
34.888969
0
LINE
8
0
10
146.525984
20
34.888969
11
146.011810
21
33.987822
0
LINE
8
0
10
146.011810
20
33.987822
11
145.527866
21
33.460415
0
LINE
8
0
10
145.527866
20
33.460415
11
144.952341
21
33.204621
0
LINE
8
0
10
144.952341
20
33.204621
11
144.163425
21
33.118311
0
LINE
8
0
10
144.163425
20
33.118311
11
143.284685
21
33.181628
0
LINE
8
0
10
143.284685
20
33.181628
11
142.649695
21
33.375081
0
LINE
8
0
10
142.649695
20
33.375081
11
142.199737
21
33.721730
0
LINE
8
0
10
142.199737
20
33.721730
11
141.863738
21
34.244613
0
LINE
8
0
10
141.863738
20
34.244613
11
141.658739
21
34.912877
0
LINE
8
0
10
141.658739
20
34.912877
11
141.589404
21
35.708000
0
LINE
8
0
10
141.589404
20
35.708000
11
141.661978
21
36.591389
0
LINE
8
0
10
141.661978
20
36.591389
11
141.883027
21
37.339151
0
LINE
8
0
10
141.883027
20
37.339151
11
142.231013
21
37.908012
0
LINE
8
0
10
142.231013
20
37.908012
11
142.684369
21
38.267052
0
LINE
8
0
10
142.684369
20
38.267052
11
143.320230
21
38.458097
0
LINE
8
0
10
143.320230
20
38.458097
11
144.215731
21
38.522975
0
LINE
8
0
10
144.215727
20
38.523046
11
144.611014
21
38.523576
0
LINE
8
0
10
144.611014
20
38.523576
11
144.614982
21
36.312456
0
LINE
8
0
10
144.614982
20
36.312456
11
144.096135
21
36.311397
0
LINE
8
0
10
144.096068
20
36.311523
11
143.237656
21
36.229724
0
LINE
8
0
10
143.237656
20
36.229724
11
143.040588
21
35.895840
0
LINE
8
0
10
143.040588
20
35.895840
11
143.170947
21
35.525469
0
LINE
8
0
10
143.170947
20
35.525469
11
143.733203
21
35.421450
0
LINE
8
0
10
143.733203
20
35.421450
11
144.467987
21
35.558622
0
LINE
8
0
10
144.467987
20
35.558622
11
145.342527
21
37.011667
0
LINE
8
0
10
145.342527
20
37.011667
11
145.929303
21
37.897499
0
LINE
8
0
10
145.929303
20
37.897499
11
146.458153
21
38.353953
0
LINE
8
0
10
146.458153
20
38.353953
11
147.655998
21
38.596939
0
LINE
8
0
10
147.655998
20
38.596939
11
148.508487
21
38.533577
0
LINE
8
0
10
148.508487
20
38.533577
11
149.101785
21
38.340051
0
LINE
8
0
10
149.101785
20
38.340051
11
149.517774
21
37.991798
0
LINE
8
0
10
149.517774
20
37.991798
11
149.825986
21
37.464233
0
LINE
8
0
10
149.825986
20
37.464233
11
150.081758
21
36.019344
0
LINE
8
0
10
150.081758
20
36.019344
11
149.874174
21
34.635410
0
LINE
8
0
10
149.874174
20
34.635410
11
149.332165
21
33.757376
0
LINE
8
0
10
149.332165
20
33.757376
11
148.702797
21
33.385676
0
LINE
8
0
10
148.702797
20
33.385676
11
147.794951
21
33.316143
0
LINE
8
0
10
147.795005
20
33.316053
11
147.319285
21
33.315259
0
LINE
8
0
10
145.706387
20
26.802549
11
145.700566
21
30.033107
0
LINE
8
0
10
145.700566
20
30.033107
11
143.927860
21
30.030461
0
LINE
8
0
10
143.927941
20
30.029572
11
143.211592
21
29.948022
0
LINE
8
0
10
143.211592
20
29.948022
11
143.051540
21
29.638908
0
LINE
8
0
10
143.051540
20
29.638908
11
143.262205
21
29.262502
0
LINE
8
0
10
143.262205
20
29.262502
11
144.090047
21
29.165124
0
LINE
8
0
10
144.090050
20
29.165275
11
145.170871
21
29.167921
0
LINE
8
0
10
145.170871
20
29.167921
11
145.175105
21
26.802549
0
LINE
8
0
10
145.175105
20
26.802549
11
144.569739
21
26.799903
0
LINE
8
0
10
144.569788
20
26.800305
11
143.402232
21
26.897088
0
LINE
8
0
10
143.402232
20
26.897088
11
142.530547
21
27.340281
0
LINE
8
0
10
142.530547
20
27.340281
11
141.831021
21
28.234672
0
LINE
8
0
10
141.831021
20
28.234672
11
141.600118
21
29.586955
0
LINE
8
0
10
141.600118
20
29.586955
11
141.826210
21
30.983274
0
LINE
8
0
10
141.826210
20
30.983274
11
142.448396
21
31.929391
0
LINE
8
0
10
142.448396
20
31.929391
11
143.324667
21
32.394174
0
LINE
8
0
10
143.324667
20
32.394174
11
144.720359
21
32.526327
0
LINE
8
0
10
144.720286
20
32.526273
11
147.110794
21
32.530506
0
LINE
8
0
10
147.110717
20
32.530511
11
148.071311
21
32.459616
0
LINE
8
0
10
148.071311
20
32.459616
11
148.803624
21
32.243171
0
LINE
8
0
10
148.803624
20
32.243171
11
149.354014
21
31.861182
0
LINE
8
0
10
149.354014
20
31.861182
11
149.756490
21
31.293634
0
LINE
8
0
10
149.756490
20
31.293634
11
150.007887
21
30.583759
0
LINE
8
0
10
150.007887
20
30.583759
11
150.092688
21
29.774766
0
LINE
8
0
10
150.092688
20
29.774766
11
149.993993
21
28.817211
0
LINE
8
0
10
149.993993
20
28.817211
11
149.694234
21
28.044605
0
LINE
8
0
10
149.694234
20
28.044605
11
149.233549
21
27.461649
0
LINE
8
0
10
149.233549
20
27.461649
11
148.639705
21
27.085378
0
LINE
8
0
10
148.639705
20
27.085378
11
147.851004
21
26.875535
0
LINE
8
0
10
147.851004
20
26.875535
11
146.793378
21
26.804197
0
LINE
8
0
10
146.793294
20
26.805195
11
145.706387
21
26.802549
0
LINE
8
0
10
147.036181
20
29.305504
11
147.635197
21
29.308150
0
LINE
8
0
10
147.635198
20
29.307215
11
148.456572
21
29.376596
0
LINE
8
0
10
148.456572
20
29.376596
11
148.641384
21
29.654869
0
LINE
8
0
10
148.641384
20
29.654869
11
148.480229
21
29.975773
0
LINE
8
0
10
148.480229
20
29.975773
11
147.633922
21
30.036058
0
LINE
8
0
10
147.633874
20
30.035753
11
147.034859
21
30.035753
0
LINE
8
0
10
147.034859
20
30.035753
11
147.036181
21
29.305504
0
LINE
8
0
10
149.960882
20
20.325557
11
143.648461
21
20.312328
0
LINE
8
0
10
143.648468
20
20.313205
11
141.993022
21
20.372074
0
LINE
8
0
10
141.993022
20
20.372074
11
141.207865
21
20.784536
0
LINE
8
0
10
141.207865
20
20.784536
11
140.838059
21
21.213166
0
LINE
8
0
10
140.838059
20
21.213166
11
140.569920
21
21.784036
0
LINE
8
0
10
140.569920
20
21.784036
11
140.344750
21
23.389573
0
LINE
8
0
10
140.344750
20
23.389573
11
140.444783
21
24.464486
0
LINE
8
0
10
140.444783
20
24.464486
11
140.749057
21
25.305044
0
LINE
8
0
10
140.749057
20
25.305044
11
141.345687
21
25.854266
0
LINE
8
0
10
141.345687
20
25.854266
11
142.335144
21
26.055194
0
LINE
8
0
10
142.335071
20
26.056425
11
142.339304
21
23.632844
0
LINE
8
0
10
142.339382
20
23.633954
11
141.931897
21
23.534414
0
LINE
8
0
10
141.931897
20
23.534414
11
141.796530
21
23.237698
0
LINE
8
0
10
141.796530
20
23.237698
11
141.963959
21
22.861215
0
LINE
8
0
10
141.963959
20
22.861215
11
142.662080
21
22.769787
0
LINE
8
0
10
142.662095
20
22.770304
11
143.279632
21
22.770304
0
LINE
8
0
10
143.279743
20
22.770868
11
142.840013
21
23.449530
0
LINE
8
0
10
142.840013
20
23.449530
11
142.690477
21
24.190467
0
LINE
8
0
10
142.690477
20
24.190467
11
142.757344
21
24.805161
0
LINE
8
0
10
142.757344
20
24.805161
11
142.960304
21
25.302738
0
LINE
8
0
10
142.960304
20
25.302738
11
143.273130
21
25.667707
0
LINE
8
0
10
143.273130
20
25.667707
11
143.669578
21
25.896937
0
LINE
8
0
10
143.669578
20
25.896937
11
144.929331
21
26.059735
0
LINE
8
0
10
144.929307
20
26.059071
11
147.906395
21
26.064362
0
LINE
8
0
10
147.906469
20
26.064946
11
148.910356
21
25.961700
0
LINE
8
0
10
148.910356
20
25.961700
11
149.587249
21
25.647876
0
LINE
8
0
10
149.587249
20
25.647876
11
149.972672
21
25.118902
0
LINE
8
0
10
149.972672
20
25.118902
11
150.102148
21
24.370210
0
LINE
8
0
10
150.102148
20
24.370210
11
149.912163
21
23.517498
0
LINE
8
0
10
149.912163
20
23.517498
11
149.338948
21
22.824710
0
LINE
8
0
10
149.338847
20
22.825866
11
149.956913
21
22.645950
0
LINE
8
0
10
149.956913
20
22.645950
11
149.960882
21
20.325557
0
LINE
8
0
10
147.782436
20
22.821986
11
148.498806
21
22.891183
0
LINE
8
0
10
148.498806
20
22.891183
11
148.652725
21
23.175578
0
LINE
8
0
10
148.652725
20
23.175578
11
148.473062
21
23.484096
0
LINE
8
0
10
148.473062
20
23.484096
11
147.781128
21
23.569358
0
LINE
8
0
10
147.781247
20
23.569344
11
145.026409
21
23.564053
0
LINE
8
0
10
145.026348
20
23.564536
11
144.309977
21
23.495340
0
LINE
8
0
10
144.309977
20
23.495340
11
144.149882
21
23.210933
0
LINE
8
0
10
144.149882
20
23.210933
11
144.348096
21
22.890094
0
LINE
8
0
10
144.348096
20
22.890094
11
145.243838
21
22.817542
0
LINE
8
0
10
145.243896
20
22.817929
11
147.782305
21
22.823220
0
LINE
8
0
10
149.976757
20
11.374714
11
141.778388
21
12.353671
0
LINE
8
0
10
141.778388
20
12.353671
11
141.773890
21
15.065647
0
LINE
8
0
10
141.773773
20
15.065947
11
145.725922
21
15.585526
0
LINE
8
0
10
145.725922
20
15.585526
11
143.551260
21
15.859669
0
LINE
8
0
10
143.551359
20
15.859396
11
141.771773
21
16.134562
0
LINE
8
0
10
141.771773
20
16.134562
11
141.767276
21
18.846538
0
LINE
8
0
10
141.767276
20
18.846538
11
149.961676
21
19.915453
0
LINE
8
0
10
149.961676
20
19.915453
11
149.965380
21
17.767039
0
LINE
8
0
10
149.965465
20
17.767129
11
145.278351
21
17.215379
0
LINE
8
0
10
145.278351
20
17.215379
11
149.967389
21
16.667687
0
LINE
8
0
10
149.967496
20
16.666374
11
149.970936
21
14.597335
0
LINE
8
0
10
149.970936
20
14.597335
11
145.283848
21
14.084044
0
LINE
8
0
10
145.283832
20
14.083824
11
149.972892
21
13.523779
0
LINE
8
0
10
149.972788
20
13.523128
11
149.976757
21
11.374714
0
LINE
8
0
10
145.743958
20
5.307826
11
145.738137
21
8.538384
0
LINE
8
0
10
145.738137
20
8.538384
11
143.965431
21
8.535738
0
LINE
8
0
10
143.965563
20
8.534881
11
143.249214
21
8.453330
0
LINE
8
0
10
143.249214
20
8.453330
11
143.089162
21
8.144219
0
LINE
8
0
10
143.089162
20
8.144219
11
143.299827
21
7.767810
0
LINE
8
0
10
143.299827
20
7.767810
11
144.127669
21
7.670434
0
LINE
8
0
10
144.127621
20
7.670552
11
145.208707
21
7.673198
0
LINE
8
0
10
145.208707
20
7.673198
11
145.212675
21
5.307826
0
LINE
8
0
10
145.212675
20
5.307826
11
144.607309
21
5.305180
0
LINE
8
0
10
144.607410
20
5.305615
11
143.439854
21
5.402398
0
LINE
8
0
10
143.439854
20
5.402398
11
142.568169
21
5.845590
0
LINE
8
0
10
142.568169
20
5.845590
11
141.868643
21
6.739981
0
LINE
8
0
10
141.868643
20
6.739981
11
141.637740
21
8.092264
0
LINE
8
0
10
141.637740
20
8.092264
11
141.863832
21
9.488584
0
LINE
8
0
10
141.863832
20
9.488584
11
142.486017
21
10.434700
0
LINE
8
0
10
142.486017
20
10.434700
11
143.362289
21
10.899484
0
LINE
8
0
10
143.362289
20
10.899484
11
144.757982
21
11.031636
0
LINE
8
0
10
144.757857
20
11.030756
11
147.148365
21
11.036048
0
LINE
8
0
10
147.148339
20
11.035820
11
148.108933
21
10.964925
0
LINE
8
0
10
148.108933
20
10.964925
11
148.841246
21
10.748479
0
LINE
8
0
10
148.841246
20
10.748479
11
149.391636
21
10.366491
0
LINE
8
0
10
149.391636
20
10.366491
11
149.794112
21
9.798943
0
LINE
8
0
10
149.794112
20
9.798943
11
150.045509
21
9.089068
0
LINE
8
0
10
150.045509
20
9.089068
11
150.130310
21
8.280075
0
LINE
8
0
10
150.130310
20
8.280075
11
150.031615
21
7.322521
0
LINE
8
0
10
150.031615
20
7.322521
11
149.731856
21
6.549915
0
LINE
8
0
10
149.731856
20
6.549915
11
149.271171
21
5.966959
0
LINE
8
0
10
149.271171
20
5.966959
11
148.677327
21
5.590687
0
LINE
8
0
10
148.677327
20
5.590687
11
147.888626
21
5.380845
0
LINE
8
0
10
147.888626
20
5.380845
11
146.830999
21
5.309507
0
LINE
8
0
10
146.831130
20
5.310472
11
145.743958
21
5.307826
0
LINE
8
0
10
147.073752
20
7.810781
11
147.672768
21
7.813427
0
LINE
8
0
10
147.672820
20
7.812524
11
148.494194
21
7.881906
0
LINE
8
0
10
148.494194
20
7.881906
11
148.679006
21
8.160178
0
LINE
8
0
10
148.679006
20
8.160178
11
148.517851
21
8.481081
0
LINE
8
0
10
148.517851
20
8.481081
11
147.671544
21
8.541367
0
LINE
8
0
10
147.671445
20
8.541030
11
147.072429
21
8.541030
0
LINE
8
0
10
147.072429
20
8.541030
11
147.073752
21
7.810781
0
LINE
8
0
10
150.493487
20
2.999471
11
150.488990
21
4.500848
0
LINE
8
0
10
150.488990
20
4.500848
11
151.792325
21
4.503493
0
LINE
8
0
10
151.792325
20
4.503493
11
151.796823
21
3.002117
0
LINE
8
0
10
141.814705
20
2.948010
11
141.792400
21
4.484973
0
LINE
8
0
10
141.792411
20
4.484973
11
149.988663
21
4.500848
0
LINE
8
0
10
149.988663
20
4.500848
11
149.975355
21
2.961239
0
LINE
8
0
10
166.808998
20
115.003144
11
165.505662
21
115.000763
0
LINE
8
0
10
165.505662
20
115.000763
11
165.501164
21
117.006762
0
LINE
8
0
10
166.790054
20
116.980251
11
166.808998
21
115.003144
0
LINE
8
0
10
165.005336
20
114.999969
11
156.808819
21
114.985681
0
LINE
8
0
10
156.808819
20
114.985681
11
156.789875
21
117.049461
0
LINE
8
0
10
165.000838
20
117.034858
11
165.005336
21
114.999969
0
LINE
8
0
10
166.814819
20
111.537900
11
165.511748
21
111.535784
0
LINE
8
0
10
165.511748
20
111.535784
11
165.507250
21
114.105149
0
LINE
8
0
10
165.507250
20
114.105149
11
166.810321
21
114.107530
0
LINE
8
0
10
166.810321
20
114.107530
11
166.814819
21
111.537900
0
LINE
8
0
10
165.011421
20
111.534725
11
156.814905
21
111.520438
0
LINE
8
0
10
156.814905
20
111.520438
11
156.810407
21
114.090068
0
LINE
8
0
10
156.810407
20
114.090068
11
165.006923
21
114.104355
0
LINE
8
0
10
165.006923
20
114.104355
11
165.011421
21
111.534725
0
LINE
8
0
10
166.820904
20
108.072921
11
165.517833
21
108.070540
0
LINE
8
0
10
165.517833
20
108.070540
11
165.513335
21
110.640170
0
LINE
8
0
10
165.513335
20
110.640170
11
166.816407
21
110.642287
0
LINE
8
0
10
166.816407
20
110.642287
11
166.820904
21
108.072921
0
LINE
8
0
10
165.017507
20
108.069746
11
156.820990
21
108.055459
0
LINE
8
0
10
156.820990
20
108.055459
11
156.816492
21
110.624824
0
LINE
8
0
10
156.816492
20
110.624824
11
165.013009
21
110.639112
0
LINE
8
0
10
165.013009
20
110.639112
11
165.017507
21
108.069746
0
LINE
8
0
10
145.743958
20
115.307414
11
145.711383
21
117.023460
0
LINE
8
0
10
145.200576
20
117.029876
11
145.212667
21
115.306621
0
LINE
8
0
10
145.212675
20
115.306621
11
144.607309
21
115.305562
0
LINE
8
0
10
144.607410
20
115.305477
11
143.439854
21
115.402260
0
LINE
8
0
10
143.439854
20
115.402260
11
142.568169
21
115.845452
0
LINE
8
0
10
142.568169
20
115.845452
11
141.868643
21
116.739842
0
LINE
8
0
10
141.881112
20
116.714393
11
141.798904
21
117.050125
0
LINE
8
0
10
149.961062
20
117.035742
11
149.731856
21
116.549777
0
LINE
8
0
10
149.731856
20
116.549776
11
149.271171
21
115.966820
0
LINE
8
0
10
149.271171
20
115.966820
11
148.677327
21
115.590549
0
LINE
8
0
10
148.677327
20
115.590549
11
147.888626
21
115.380707
0
LINE
8
0
10
147.888626
20
115.380707
11
146.830999
21
115.309369
0
LINE
8
0
10
146.831130
20
115.309266
11
145.743958
21
115.307414
0
LINE
8
0
10
151.796823
20
111.933187
11
150.493487
21
111.931071
0
LINE
8
0
10
150.493487
20
111.931071
11
150.488990
21
114.500436
0
LINE
8
0
10
150.488990
20
114.500436
11
151.792325
21
114.502817
0
LINE
8
0
10
151.792325
20
114.502817
11
151.796823
21
111.933187
0
LINE
8
0
10
149.993161
20
111.930012
11
141.796909
21
111.915725
0
LINE
8
0
10
141.796909
20
111.915725
11
141.792411
21
114.485355
0
LINE
8
0
10
141.792411
20
114.485355
11
149.988663
21
114.499642
0
LINE
8
0
10
149.988663
20
114.499642
11
149.993161
21
111.930012
0
LINE
8
0
10
151.802909
20
108.468208
11
150.499573
21
108.465827
0
LINE
8
0
10
150.499573
20
108.465827
11
150.495075
21
111.035457
0
LINE
8
0
10
150.495075
20
111.035457
11
151.798411
21
111.037574
0
LINE
8
0
10
151.798411
20
111.037574
11
151.802909
21
108.468208
0
LINE
8
0
10
149.999246
20
108.465033
11
141.802730
21
108.450746
0
LINE
8
0
10
141.802730
20
108.450746
11
141.798232
21
111.020111
0
LINE
8
0
10
141.798232
20
111.020111
11
149.994749
21
111.034399
0
LINE
8
0
10
149.994749
20
111.034399
11
149.999246
21
108.465033
0
LINE
8
0
10
151.808994
20
105.002965
11
150.505658
21
105.000848
0
LINE
8
0
10
150.505658
20
105.000848
11
150.501160
21
107.570214
0
LINE
8
0
10
150.501160
20
107.570214
11
151.804496
21
107.572595
0
LINE
8
0
10
151.804496
20
107.572595
11
151.808994
21
105.002965
0
LINE
8
0
10
150.005332
20
104.999790
11
141.808815
21
104.985502
0
LINE
8
0
10
141.808815
20
104.985502
11
141.804317
21
107.555132
0
LINE
8
0
10
141.804317
20
107.555132
11
150.000834
21
107.569420
0
LINE
8
0
10
150.000834
20
107.569420
11
150.005332
21
104.999790
0
LINE
8
0
10
151.815080
20
101.537986
11
150.511744
21
101.535605
0
LINE
8
0
10
150.511744
20
101.535605
11
150.507246
21
104.105235
0
LINE
8
0
10
150.507246
20
104.105235
11
151.810582
21
104.107351
0
LINE
8
0
10
151.810582
20
104.107351
11
151.815080
21
101.537986
0
LINE
8
0
10
150.011417
20
101.534811
11
141.814901
21
101.520523
0
LINE
8
0
10
141.814901
20
101.520523
11
141.810403
21
104.089889
0
LINE
8
0
10
141.810403
20
104.089889
11
150.006919
21
104.104176
0
LINE
8
0
10
150.006919
20
104.104176
11
150.011417
21
101.534811
0
LINE
8
0
10
151.820900
20
98.073007
11
150.517829
21
98.070626
0
LINE
8
0
10
150.517829
20
98.070626
11
150.513331
21
100.639991
0
LINE
8
0
10
150.513331
20
100.639991
11
151.816402
21
100.642372
0
LINE
8
0
10
151.816402
20
100.642372
11
151.820900
21
98.073007
0
LINE
8
0
10
150.017503
20
98.069832
11
141.820986
21
98.055280
0
LINE
8
0
10
141.820986
20
98.055280
11
141.816488
21
100.624910
0
LINE
8
0
10
141.816488
20
100.624910
11
150.013005
21
100.639197
0
LINE
8
0
10
150.013005
20
100.639197
11
150.017503
21
98.069832
 0 
ENDSEC
 0 
EOF