ISO-10303-21;
HEADER;
/* Generated by software containing ST-Developer
 * from STEP Tools, Inc. (www.steptools.com) 
 */

FILE_DESCRIPTION(
/* description */ (''),
/* implementation_level */ '2;1');

FILE_NAME(
/* name */ 'C:/Users/Louis/Desktop/NAIL.step',
/* time_stamp */ '2022-06-20T00:11:51+02:00',
/* author */ (''),
/* organization */ (''),
/* preprocessor_version */ 'ST-DEVELOPER v19',
/* originating_system */ 'Autodesk Translation Framework v11.7.0.108',
/* authorisation */ '');

FILE_SCHEMA (('AUTOMOTIVE_DESIGN { 1 0 10303 214 3 1 1 }'));
ENDSEC;

DATA;
#10=MECHANICAL_DESIGN_GEOMETRIC_PRESENTATION_REPRESENTATION('',(#13),#180);
#11=SHAPE_REPRESENTATION_RELATIONSHIP('SRR','None',#187,#12);
#12=ADVANCED_BREP_SHAPE_REPRESENTATION('',(#14),#179);
#13=STYLED_ITEM('',(#197),#14);
#14=MANIFOLD_SOLID_BREP('Body1',#80);
#15=FACE_BOUND('',#33,.T.);
#16=(
BOUNDED_SURFACE()
B_SPLINE_SURFACE(2,2,((#143,#144,#145,#146,#147,#148,#149,#150,#151),(#152,
#153,#154,#155,#156,#157,#158,#159,#160),(#161,#162,#163,#164,#165,#166,
#167,#168,#169)),.UNSPECIFIED.,.F.,.T.,.F.)
B_SPLINE_SURFACE_WITH_KNOTS((3,3),(3,2,2,2,3),(0.,1.5707963267949),(-3.14159265358979,
-1.5707963267949,0.,1.5707963267949,3.14159265358979),.UNSPECIFIED.)
GEOMETRIC_REPRESENTATION_ITEM()
RATIONAL_B_SPLINE_SURFACE(((1.,0.707106781186548,1.,0.707106781186548,1.,
0.707106781186548,1.,0.707106781186548,1.),(0.707106781186548,0.500000000000001,
0.707106781186548,0.500000000000001,0.707106781186548,0.500000000000001,
0.707106781186548,0.500000000000001,0.707106781186548),(1.,0.707106781186548,
1.,0.707106781186548,1.,0.707106781186548,1.,0.707106781186548,1.)))
REPRESENTATION_ITEM('')
SURFACE()
);
#17=PLANE('',#99);
#18=PLANE('',#103);
#19=PLANE('',#104);
#20=CYLINDRICAL_SURFACE('',#97,0.8);
#21=FACE_OUTER_BOUND('',#27,.T.);
#22=FACE_OUTER_BOUND('',#28,.T.);
#23=FACE_OUTER_BOUND('',#29,.T.);
#24=FACE_OUTER_BOUND('',#30,.T.);
#25=FACE_OUTER_BOUND('',#31,.T.);
#26=FACE_OUTER_BOUND('',#32,.T.);
#27=EDGE_LOOP('',(#57,#58,#59,#60));
#28=EDGE_LOOP('',(#61,#62,#63,#64));
#29=EDGE_LOOP('',(#65));
#30=EDGE_LOOP('',(#66,#67,#68,#69));
#31=EDGE_LOOP('',(#70));
#32=EDGE_LOOP('',(#71));
#33=EDGE_LOOP('',(#72));
#34=LINE('',#136,#36);
#35=LINE('',#140,#37);
#36=VECTOR('',#111,0.425);
#37=VECTOR('',#116,0.8);
#38=CIRCLE('',#95,0.05);
#39=CIRCLE('',#96,0.8);
#40=CIRCLE('',#98,0.8);
#41=CIRCLE('',#100,0.75);
#42=CIRCLE('',#101,1.);
#43=CIRCLE('',#102,1.75);
#44=VERTEX_POINT('',#133);
#45=VERTEX_POINT('',#135);
#46=VERTEX_POINT('',#139);
#47=VERTEX_POINT('',#170);
#48=VERTEX_POINT('',#172);
#49=EDGE_CURVE('',#44,#44,#38,.T.);
#50=EDGE_CURVE('',#44,#45,#34,.T.);
#51=EDGE_CURVE('',#45,#45,#39,.T.);
#52=EDGE_CURVE('',#45,#46,#35,.T.);
#53=EDGE_CURVE('',#46,#46,#40,.T.);
#54=EDGE_CURVE('',#47,#47,#41,.T.);
#55=EDGE_CURVE('',#47,#48,#42,.T.);
#56=EDGE_CURVE('',#48,#48,#43,.T.);
#57=ORIENTED_EDGE('',*,*,#49,.T.);
#58=ORIENTED_EDGE('',*,*,#50,.T.);
#59=ORIENTED_EDGE('',*,*,#51,.T.);
#60=ORIENTED_EDGE('',*,*,#50,.F.);
#61=ORIENTED_EDGE('',*,*,#51,.F.);
#62=ORIENTED_EDGE('',*,*,#52,.T.);
#63=ORIENTED_EDGE('',*,*,#53,.F.);
#64=ORIENTED_EDGE('',*,*,#52,.F.);
#65=ORIENTED_EDGE('',*,*,#49,.F.);
#66=ORIENTED_EDGE('',*,*,#54,.T.);
#67=ORIENTED_EDGE('',*,*,#55,.T.);
#68=ORIENTED_EDGE('',*,*,#56,.T.);
#69=ORIENTED_EDGE('',*,*,#55,.F.);
#70=ORIENTED_EDGE('',*,*,#54,.F.);
#71=ORIENTED_EDGE('',*,*,#56,.F.);
#72=ORIENTED_EDGE('',*,*,#53,.T.);
#73=CONICAL_SURFACE('',#94,0.425,0.266252049150925);
#74=ADVANCED_FACE('',(#21),#73,.T.);
#75=ADVANCED_FACE('',(#22),#20,.T.);
#76=ADVANCED_FACE('',(#23),#17,.F.);
#77=ADVANCED_FACE('',(#24),#16,.F.);
#78=ADVANCED_FACE('',(#25),#18,.T.);
#79=ADVANCED_FACE('',(#26,#15),#19,.F.);
#80=CLOSED_SHELL('',(#74,#75,#76,#77,#78,#79));
#81=DERIVED_UNIT_ELEMENT(#83,1.);
#82=DERIVED_UNIT_ELEMENT(#182,-3.);
#83=(
MASS_UNIT()
NAMED_UNIT(*)
SI_UNIT(.KILO.,.GRAM.)
);
#84=DERIVED_UNIT((#81,#82));
#85=MEASURE_REPRESENTATION_ITEM('density measure',
POSITIVE_RATIO_MEASURE(7850.),#84);
#86=PROPERTY_DEFINITION_REPRESENTATION(#91,#88);
#87=PROPERTY_DEFINITION_REPRESENTATION(#92,#89);
#88=REPRESENTATION('material name',(#90),#179);
#89=REPRESENTATION('density',(#85),#179);
#90=DESCRIPTIVE_REPRESENTATION_ITEM('Steel','Steel');
#91=PROPERTY_DEFINITION('material property','material name',#189);
#92=PROPERTY_DEFINITION('material property','density of part',#189);
#93=AXIS2_PLACEMENT_3D('placement',#131,#105,#106);
#94=AXIS2_PLACEMENT_3D('',#132,#107,#108);
#95=AXIS2_PLACEMENT_3D('',#134,#109,#110);
#96=AXIS2_PLACEMENT_3D('',#137,#112,#113);
#97=AXIS2_PLACEMENT_3D('',#138,#114,#115);
#98=AXIS2_PLACEMENT_3D('',#141,#117,#118);
#99=AXIS2_PLACEMENT_3D('',#142,#119,#120);
#100=AXIS2_PLACEMENT_3D('',#171,#121,#122);
#101=AXIS2_PLACEMENT_3D('',#173,#123,#124);
#102=AXIS2_PLACEMENT_3D('',#174,#125,#126);
#103=AXIS2_PLACEMENT_3D('',#175,#127,#128);
#104=AXIS2_PLACEMENT_3D('',#176,#129,#130);
#105=DIRECTION('axis',(0.,0.,1.));
#106=DIRECTION('refdir',(1.,0.,0.));
#107=DIRECTION('center_axis',(0.,0.,1.));
#108=DIRECTION('ref_axis',(1.,0.,0.));
#109=DIRECTION('center_axis',(0.,0.,1.));
#110=DIRECTION('ref_axis',(1.,0.,0.));
#111=DIRECTION('',(-0.263117405792109,3.22225888803261E-17,0.964763821237732));
#112=DIRECTION('center_axis',(0.,0.,-1.));
#113=DIRECTION('ref_axis',(1.,0.,0.));
#114=DIRECTION('center_axis',(0.,0.,-1.));
#115=DIRECTION('ref_axis',(1.,0.,0.));
#116=DIRECTION('',(0.,0.,1.));
#117=DIRECTION('center_axis',(0.,0.,1.));
#118=DIRECTION('ref_axis',(1.,0.,0.));
#119=DIRECTION('center_axis',(0.,0.,1.));
#120=DIRECTION('ref_axis',(1.,0.,0.));
#121=DIRECTION('center_axis',(0.,0.,-1.));
#122=DIRECTION('ref_axis',(1.,0.,0.));
#123=DIRECTION('center_axis',(1.22464679914735E-16,-1.,0.));
#124=DIRECTION('ref_axis',(-1.,-1.22464679914735E-16,0.));
#125=DIRECTION('center_axis',(0.,0.,1.));
#126=DIRECTION('ref_axis',(1.,0.,0.));
#127=DIRECTION('center_axis',(0.,0.,1.));
#128=DIRECTION('ref_axis',(1.,0.,0.));
#129=DIRECTION('center_axis',(0.,0.,1.));
#130=DIRECTION('ref_axis',(1.,0.,0.));
#131=CARTESIAN_POINT('',(0.,0.,0.));
#132=CARTESIAN_POINT('Origin',(0.,0.,-18.625));
#133=CARTESIAN_POINT('',(-0.05,-6.12323399573677E-18,-20.));
#134=CARTESIAN_POINT('Origin',(0.,0.,-20.));
#135=CARTESIAN_POINT('',(-0.8,9.79717439317883E-17,-17.25));
#136=CARTESIAN_POINT('',(-0.425,5.20474889637625E-17,-18.625));
#137=CARTESIAN_POINT('Origin',(0.,0.,-17.25));
#138=CARTESIAN_POINT('Origin',(0.,0.,0.));
#139=CARTESIAN_POINT('',(-0.8,-9.79717439317883E-17,0.));
#140=CARTESIAN_POINT('',(-0.8,9.79717439317883E-17,0.));
#141=CARTESIAN_POINT('Origin',(0.,0.,0.));
#142=CARTESIAN_POINT('Origin',(0.,0.,-20.));
#143=CARTESIAN_POINT('Ctrl Pts',(-1.75,0.,0.));
#144=CARTESIAN_POINT('Ctrl Pts',(-1.75,-1.75,0.));
#145=CARTESIAN_POINT('Ctrl Pts',(0.,-1.75,0.));
#146=CARTESIAN_POINT('Ctrl Pts',(1.75,-1.75,0.));
#147=CARTESIAN_POINT('Ctrl Pts',(1.75,0.,0.));
#148=CARTESIAN_POINT('Ctrl Pts',(1.75,1.75,0.));
#149=CARTESIAN_POINT('Ctrl Pts',(0.,1.75,0.));
#150=CARTESIAN_POINT('Ctrl Pts',(-1.75,1.75,0.));
#151=CARTESIAN_POINT('Ctrl Pts',(-1.75,0.,0.));
#152=CARTESIAN_POINT('Ctrl Pts',(-1.75,0.,1.));
#153=CARTESIAN_POINT('Ctrl Pts',(-1.75,-1.75,1.));
#154=CARTESIAN_POINT('Ctrl Pts',(0.,-1.75,1.));
#155=CARTESIAN_POINT('Ctrl Pts',(1.75,-1.75,1.));
#156=CARTESIAN_POINT('Ctrl Pts',(1.75,0.,1.));
#157=CARTESIAN_POINT('Ctrl Pts',(1.75,1.75,1.));
#158=CARTESIAN_POINT('Ctrl Pts',(0.,1.75,1.));
#159=CARTESIAN_POINT('Ctrl Pts',(-1.75,1.75,1.));
#160=CARTESIAN_POINT('Ctrl Pts',(-1.75,0.,1.));
#161=CARTESIAN_POINT('Ctrl Pts',(-0.75,0.,1.));
#162=CARTESIAN_POINT('Ctrl Pts',(-0.75,-0.75,1.));
#163=CARTESIAN_POINT('Ctrl Pts',(0.,-0.75,1.));
#164=CARTESIAN_POINT('Ctrl Pts',(0.75,-0.75,1.));
#165=CARTESIAN_POINT('Ctrl Pts',(0.75,0.,1.));
#166=CARTESIAN_POINT('Ctrl Pts',(0.75,0.75,1.));
#167=CARTESIAN_POINT('Ctrl Pts',(0.,0.75,1.));
#168=CARTESIAN_POINT('Ctrl Pts',(-0.75,0.75,1.));
#169=CARTESIAN_POINT('Ctrl Pts',(-0.75,0.,1.));
#170=CARTESIAN_POINT('',(-0.75,9.18485099360515E-17,1.));
#171=CARTESIAN_POINT('Origin',(0.,0.,1.));
#172=CARTESIAN_POINT('',(-1.75,-2.14313189850787E-16,0.));
#173=CARTESIAN_POINT('Origin',(-0.75,-9.18485099360515E-17,0.));
#174=CARTESIAN_POINT('Origin',(0.,0.,0.));
#175=CARTESIAN_POINT('Origin',(0.,0.,1.));
#176=CARTESIAN_POINT('Origin',(0.,0.,0.));
#177=UNCERTAINTY_MEASURE_WITH_UNIT(LENGTH_MEASURE(0.01),#181,
'DISTANCE_ACCURACY_VALUE',
'Maximum model space distance between geometric entities at asserted c
onnectivities');
#178=UNCERTAINTY_MEASURE_WITH_UNIT(LENGTH_MEASURE(0.01),#181,
'DISTANCE_ACCURACY_VALUE',
'Maximum model space distance between geometric entities at asserted c
onnectivities');
#179=(
GEOMETRIC_REPRESENTATION_CONTEXT(3)
GLOBAL_UNCERTAINTY_ASSIGNED_CONTEXT((#177))
GLOBAL_UNIT_ASSIGNED_CONTEXT((#181,#183,#184))
REPRESENTATION_CONTEXT('','3D')
);
#180=(
GEOMETRIC_REPRESENTATION_CONTEXT(3)
GLOBAL_UNCERTAINTY_ASSIGNED_CONTEXT((#178))
GLOBAL_UNIT_ASSIGNED_CONTEXT((#181,#183,#184))
REPRESENTATION_CONTEXT('','3D')
);
#181=(
LENGTH_UNIT()
NAMED_UNIT(*)
SI_UNIT(.MILLI.,.METRE.)
);
#182=(
LENGTH_UNIT()
NAMED_UNIT(*)
SI_UNIT($,.METRE.)
);
#183=(
NAMED_UNIT(*)
PLANE_ANGLE_UNIT()
SI_UNIT($,.RADIAN.)
);
#184=(
NAMED_UNIT(*)
SI_UNIT($,.STERADIAN.)
SOLID_ANGLE_UNIT()
);
#185=SHAPE_DEFINITION_REPRESENTATION(#186,#187);
#186=PRODUCT_DEFINITION_SHAPE('',$,#189);
#187=SHAPE_REPRESENTATION('',(#93),#179);
#188=PRODUCT_DEFINITION_CONTEXT('part definition',#193,'design');
#189=PRODUCT_DEFINITION('nail','nail v1',#190,#188);
#190=PRODUCT_DEFINITION_FORMATION('',$,#195);
#191=PRODUCT_RELATED_PRODUCT_CATEGORY('nail v1','nail v1',(#195));
#192=APPLICATION_PROTOCOL_DEFINITION('international standard',
'automotive_design',2009,#193);
#193=APPLICATION_CONTEXT(
'Core Data for Automotive Mechanical Design Process');
#194=PRODUCT_CONTEXT('part definition',#193,'mechanical');
#195=PRODUCT('nail','nail v1',$,(#194));
#196=PRESENTATION_STYLE_ASSIGNMENT((#198));
#197=PRESENTATION_STYLE_ASSIGNMENT((#199));
#198=SURFACE_STYLE_USAGE(.BOTH.,#200);
#199=SURFACE_STYLE_USAGE(.BOTH.,#201);
#200=SURFACE_SIDE_STYLE('',(#202));
#201=SURFACE_SIDE_STYLE('',(#203));
#202=SURFACE_STYLE_FILL_AREA(#204);
#203=SURFACE_STYLE_FILL_AREA(#205);
#204=FILL_AREA_STYLE('Steel - Satin',(#206));
#205=FILL_AREA_STYLE('Gold - Polished',(#207));
#206=FILL_AREA_STYLE_COLOUR('Steel - Satin',#208);
#207=FILL_AREA_STYLE_COLOUR('Gold - Polished',#209);
#208=COLOUR_RGB('Steel - Satin',0.627450980392157,0.627450980392157,0.627450980392157);
#209=COLOUR_RGB('Gold - Polished',0.956862745098039,0.898039215686275,0.654901960784314);
ENDSEC;
END-ISO-10303-21;
