  0
SECTION
  2
HEADER
  9
$ACADVER
  1
AC1015
  9
$ACADMAINTVER
 70
     6
  9
$DWGCODEPAGE
  3
ANSI_1252
  9
$INSBASE
 10
0.0
 20
0.0
 30
0.0
  9
$EXTMIN
 10
-8.65
 20
-6.2
 30
0.0
  9
$EXTMAX
 10
8.65
 20
6.2
 30
0.0
  9
$LIMMIN
 10
0.0
 20
0.0
  9
$LIMMAX
 10
420.0
 20
297.0
  9
$ORTHOMODE
 70
     0
  9
$REGENMODE
 70
     1
  9
$FILLMODE
 70
     1
  9
$QTEXTMODE
 70
     0
  9
$MIRRTEXT
 70
     1
  9
$LTSCALE
 40
1.0
  9
$ATTMODE
 70
     1
  9
$TEXTSIZE
 40
0.35
  9
$TRACEWID
 40
1.0
  9
$TEXTSTYLE
  7
Standard
  9
$CLAYER
  8
0
  9
$CELTYPE
  6
ByLayer
  9
$CECOLOR
 62
   256
  9
$CELTSCALE
 40
1.0
  9
$DISPSILH
 70
     0
  9
$DIMSCALE
 40
1.0
  9
$DIMASZ
 40
0.3302
  9
$DIMEXO
 40
0.0
  9
$DIMDLI
 40
3.75
  9
$DIMRND
 40
0.0
  9
$DIMDLE
 40
0.0
  9
$DIMEXE
 40
0.1
  9
$DIMTP
 40
0.0
  9
$DIMTM
 40
0.0
  9
$DIMTXT
 40
0.35
  9
$DIMCEN
 40
2.5
  9
$DIMTSZ
 40
0.0
  9
$DIMTOL
 70
     0
  9
$DIMLIM
 70
     0
  9
$DIMTIH
 70
     1
  9
$DIMTOH
 70
     1
  9
$DIMSE1
 70
     0
  9
$DIMSE2
 70
     0
  9
$DIMTAD
 70
     1
  9
$DIMZIN
 70
     1
  9
$DIMBLK
  1

  9
$DIMASO
 70
     1
  9
$DIMSHO
 70
     1
  9
$DIMPOST
  1

  9
$DIMAPOST
  1

  9
$DIMALT
 70
     0
  9
$DIMALTD
 70
     3
  9
$DIMALTF
 40
0.3937007874
  9
$DIMLFAC
 40
1.0
  9
$DIMTOFL
 70
     1
  9
$DIMTVP
 40
0.0
  9
$DIMTIX
 70
     0
  9
$DIMSOXD
 70
     0
  9
$DIMSAH
 70
     0
  9
$DIMBLK1
  1

  9
$DIMBLK2
  1

  9
$DIMSTYLE
  2
ISO-25
  9
$DIMCLRD
 70
     0
  9
$DIMCLRE
 70
     0
  9
$DIMCLRT
 70
     0
  9
$DIMTFAC
 40
1.0
  9
$DIMGAP
 40
0.1524
  9
$DIMJUST
 70
     0
  9
$DIMSD1
 70
     0
  9
$DIMSD2
 70
     0
  9
$DIMTOLJ
 70
     0
  9
$DIMTZIN
 70
     1
  9
$DIMALTZ
 70
     0
  9
$DIMALTTZ
 70
     0
  9
$DIMUPT
 70
     0
  9
$DIMDEC
 70
     2
  9
$DIMTDEC
 70
     2
  9
$DIMALTU
 70
     2
  9
$DIMALTTD
 70
     3
  9
$DIMTXSTY
  7
Standard
  9
$DIMAUNIT
 70
     0
  9
$DIMADEC
 70
     2
  9
$DIMALTRND
 40
0.0
  9
$DIMAZIN
 70
     0
  9
$DIMDSEP
 70
    44
  9
$DIMATFIT
 70
     3
  9
$DIMFRAC
 70
     0
  9
$DIMLDRBLK
  1

  9
$DIMLUNIT
 70
     2
  9
$DIMLWD
 70
    -2
  9
$DIMLWE
 70
    -2
  9
$DIMTMOVE
 70
     0
  9
$LUNITS
 70
     2
  9
$LUPREC
 70
     2
  9
$SKETCHINC
 40
1.0
  9
$FILLETRAD
 40
0.0
  9
$AUNITS
 70
     0
  9
$AUPREC
 70
     2
  9
$MENU
  1
.
  9
$ELEVATION
 40
0.0
  9
$PELEVATION
 40
0.0
  9
$THICKNESS
 40
0.0
  9
$LIMCHECK
 70
     0
  9
$CHAMFERA
 40
0.0
  9
$CHAMFERB
 40
0.0
  9
$CHAMFERC
 40
0.0
  9
$CHAMFERD
 40
0.0
  9
$SKPOLY
 70
     0
  9
$TDCREATE
 40
2459944.594443379
  9
$TDUCREATE
 40
2459944.552776713
  9
$TDUPDATE
 40
2459944.594546597
  9
$TDUUPDATE
 40
2459944.55287993
  9
$TDINDWG
 40
0.0000000116
  9
$TDUSRTIMER
 40
0.0000000116
  9
$USRTIMER
 70
     1
  9
$ANGBASE
 50
0.0
  9
$ANGDIR
 70
     0
  9
$PDMODE
 70
     0
  9
$PDSIZE
 40
-1.0
  9
$PLINEWID
 40
0.0
  9
$SPLFRAME
 70
     0
  9
$SPLINETYPE
 70
     6
  9
$SPLINESEGS
 70
     8
  9
$HANDSEED
  5
94
  9
$SURFTAB1
 70
     6
  9
$SURFTAB2
 70
     6
  9
$SURFTYPE
 70
     6
  9
$SURFU
 70
     6
  9
$SURFV
 70
     6
  9
$UCSBASE
  2

  9
$UCSNAME
  2

  9
$UCSORG
 10
0.0
 20
0.0
 30
0.0
  9
$UCSXDIR
 10
1.0
 20
0.0
 30
0.0
  9
$UCSYDIR
 10
0.0
 20
1.0
 30
0.0
  9
$UCSORTHOREF
  2

  9
$UCSORTHOVIEW
 70
     0
  9
$UCSORGTOP
 10
0.0
 20
0.0
 30
0.0
  9
$UCSORGBOTTOM
 10
0.0
 20
0.0
 30
0.0
  9
$UCSORGLEFT
 10
0.0
 20
0.0
 30
0.0
  9
$UCSORGRIGHT
 10
0.0
 20
0.0
 30
0.0
  9
$UCSORGFRONT
 10
0.0
 20
0.0
 30
0.0
  9
$UCSORGBACK
 10
0.0
 20
0.0
 30
0.0
  9
$PUCSBASE
  2

  9
$PUCSNAME
  2

  9
$PUCSORG
 10
0.0
 20
0.0
 30
0.0
  9
$PUCSXDIR
 10
1.0
 20
0.0
 30
0.0
  9
$PUCSYDIR
 10
0.0
 20
1.0
 30
0.0
  9
$PUCSORTHOREF
  2

  9
$PUCSORTHOVIEW
 70
     0
  9
$PUCSORGTOP
 10
0.0
 20
0.0
 30
0.0
  9
$PUCSORGBOTTOM
 10
0.0
 20
0.0
 30
0.0
  9
$PUCSORGLEFT
 10
0.0
 20
0.0
 30
0.0
  9
$PUCSORGRIGHT
 10
0.0
 20
0.0
 30
0.0
  9
$PUCSORGFRONT
 10
0.0
 20
0.0
 30
0.0
  9
$PUCSORGBACK
 10
0.0
 20
0.0
 30
0.0
  9
$USERI1
 70
     0
  9
$USERI2
 70
     0
  9
$USERI3
 70
     0
  9
$USERI4
 70
     0
  9
$USERI5
 70
     0
  9
$USERR1
 40
0.0
  9
$USERR2
 40
0.0
  9
$USERR3
 40
0.0
  9
$USERR4
 40
0.0
  9
$USERR5
 40
0.0
  9
$WORLDVIEW
 70
     1
  9
$SHADEDGE
 70
     3
  9
$SHADEDIF
 70
    70
  9
$TILEMODE
 70
     1
  9
$MAXACTVP
 70
    64
  9
$PINSBASE
 10
0.0
 20
0.0
 30
0.0
  9
$PLIMCHECK
 70
     0
  9
$PEXTMIN
 10
1.0000000000E+20
 20
1.0000000000E+20
 30
1.0000000000E+20
  9
$PEXTMAX
 10
-1.0000000000E+20
 20
-1.0000000000E+20
 30
-1.0000000000E+20
  9
$PLIMMIN
 10
0.0
 20
0.0
  9
$PLIMMAX
 10
420.0
 20
297.0
  9
$UNITMODE
 70
     0
  9
$VISRETAIN
 70
     1
  9
$PLINEGEN
 70
     0
  9
$PSLTSCALE
 70
     1
  9
$TREEDEPTH
 70
  3020
  9
$CMLSTYLE
  2
Standard
  9
$CMLJUST
 70
     0
  9
$CMLSCALE
 40
20.0
  9
$PROXYGRAPHICS
 70
     1
  9
$MEASUREMENT
 70
     1
  9
$CELWEIGHT
370
    -1
  9
$ENDCAPS
280
     0
  9
$JOINSTYLE
280
     0
  9
$LWDISPLAY
290
     1
  9
$INSUNITS
 70
     4
  9
$HYPERLINKBASE
  1

  9
$STYLESHEET
  1

  9
$XEDIT
290
     1
  9
$CEPSNTYPE
380
     0
  9
$PSTYLEMODE
290
     1
  9
$FINGERPRINTGUID
  2
{8d8e2d8a-b693-408d-9347-0885736f9a0f}
  9
$VERSIONGUID
  2
{FAEB1C32-E019-11D5-929B-00C0DF256EC4}
  9
$EXTNAMES
290
     1
  9
$PSVPSCALE
 40
0.0
  9
$OLESTARTUP
290
     0
  0
ENDSEC
  0
SECTION
  2
CLASSES
  0
CLASS
  1
ACDBDICTIONARYWDFLT
  2
AcDbDictionaryWithDefault
  3
ObjectDBX Classes
 90
        0
280
     0
281
     0
  0
CLASS
  1
VISUALSTYLE
  2
AcDbVisualStyle
  3
ObjectDBX Classes
 90
     4095
280
     0
281
     0
  0
CLASS
  1
MATERIAL
  2
AcDbMaterial
  3
ObjectDBX Classes
 90
     1153
280
     0
281
     0
  0
CLASS
  1
SCALE
  2
AcDbScale
  3
ObjectDBX Classes
 90
     1153
280
     0
281
     0
  0
CLASS
  1
TABLESTYLE
  2
AcDbTableStyle
  3
ObjectDBX Classes
 90
     4095
280
     0
281
     0
  0
CLASS
  1
MLEADERSTYLE
  2
AcDbMLeaderStyle
  3
ACDB_MLEADERSTYLE_CLASS
 90
     4095
280
     0
281
     0
  0
CLASS
  1
SUN
  2
AcDbSun
  3
SCENEOE
 90
     1153
280
     0
281
     0
  0
CLASS
  1
ACDBPLACEHOLDER
  2
AcDbPlaceHolder
  3
ObjectDBX Classes
 90
        0
280
     0
281
     0
  0
CLASS
  1
LAYOUT
  2
AcDbLayout
  3
ObjectDBX Classes
 90
        0
280
     0
281
     0
  0
ENDSEC
  0
SECTION
  2
TABLES
  0
TABLE
  2
VPORT
  5
8
330
0
100
AcDbSymbolTable
 70
     1
  0
VPORT
  5
29
330
8
100
AcDbSymbolTableRecord
100
AcDbViewportTableRecord
  2
*Active
 70
     0
 10
0.0
 20
0.0
 11
1.0
 21
1.0
 12
0.0
 22
0.0
 13
0.0
 23
0.0
 14
10.0
 24
10.0
 15
10.0
 25
10.0
 16
0.0
 26
0.0
 36
1.0
 17
0.0
 27
0.0
 37
0.0
 40
12.648
 41
1.3951612903
 42
50.0
 43
0.0
 44
0.0
 50
0.0
 51
0.0
 71
     0
 72
   100
 73
     1
 74
     3
 75
     0
 76
     0
 77
     0
 78
     0
281
     0
 65
     1
110
0.0
120
0.0
130
0.0
111
1.0
121
0.0
131
0.0
112
0.0
122
1.0
132
0.0
 79
     0
146
0.0
  0
ENDTAB
  0
TABLE
  2
LTYPE
  5
5
330
0
100
AcDbSymbolTable
 70
     6
  0
LTYPE
  5
14
330
5
100
AcDbSymbolTableRecord
100
AcDbLinetypeTableRecord
  2
ByBlock
 70
     0
  3

 72
    65
 73
     0
 40
0.0
  0
LTYPE
  5
15
330
5
100
AcDbSymbolTableRecord
100
AcDbLinetypeTableRecord
  2
ByLayer
 70
     0
  3

 72
    65
 73
     0
 40
0.0
  0
LTYPE
  5
16
330
5
100
AcDbSymbolTableRecord
100
AcDbLinetypeTableRecord
  2
Continuous
 70
     0
  3
Solid line
 72
    65
 73
     0
 40
0.0
  0
LTYPE
  5
5E
330
5
100
AcDbSymbolTableRecord
100
AcDbLinetypeTableRecord
  2
HIDDEN
 70
     0
  3
Hidden __ __ __ __ __ __ __ __ __ __ __ __ __ __
 72
    65
 73
     2
 40
0.1905
 49
0.127
 74
     0
 49
-0.0635
 74
     0
  0
LTYPE
  5
5F
330
5
100
AcDbSymbolTableRecord
100
AcDbLinetypeTableRecord
  2
PHANTOM
 70
     0
  3
Phantom ______  __  __  ______  __  __  ______
 72
    65
 73
     6
 40
1.27
 49
0.635
 74
     0
 49
-0.127
 74
     0
 49
0.127
 74
     0
 49
-0.127
 74
     0
 49
0.127
 74
     0
 49
-0.127
 74
     0
  0
LTYPE
  5
60
330
5
100
AcDbSymbolTableRecord
100
AcDbLinetypeTableRecord
  2
CENTER
 70
     0
  3
Center ____ _ ____ _ ____ _ ____ _ ____ _ ____
 72
    65
 73
     4
 40
1.016
 49
0.635
 74
     0
 49
-0.127
 74
     0
 49
0.127
 74
     0
 49
-0.127
 74
     0
  0
LTYPE
  5
61
330
5
100
AcDbSymbolTableRecord
100
AcDbLinetypeTableRecord
  2
CENTERX2
 70
     0
  3
Center (2x) ________  __  ________  __  _____
 72
    65
 73
     4
 40
2.032
 49
1.27
 74
     0
 49
-0.254
 74
     0
 49
0.254
 74
     0
 49
-0.254
 74
     0
  0
LTYPE
  5
62
330
5
100
AcDbSymbolTableRecord
100
AcDbLinetypeTableRecord
  2
DOT2
 70
     0
  3
Dot (.5x) ........................................
 72
    65
 73
     2
 40
0.0635
 49
0.0
 74
     0
 49
-0.0635
 74
     0
  0
ENDTAB
  0
TABLE
  2
LAYER
  5
2
330
0
100
AcDbSymbolTable
 70
     1
  0
LAYER
  5
10
330
2
100
AcDbSymbolTableRecord
100
AcDbLayerTableRecord
  2
0
 70
     0
 62
     7
  6
Continuous
370
    -3
390
F
  0
ENDTAB
  0
TABLE
  2
STYLE
  5
3
330
0
100
AcDbSymbolTable
 70
     2
  0
STYLE
  5
11
330
3
100
AcDbSymbolTableRecord
100
AcDbTextStyleTableRecord
  2
Standard
 70
     0
 40
0.0
 41
1.0
 50
0.0
 71
     0
 42
0.35
  3
txt
  4

  0
STYLE
  5
91
330
3
100
AcDbSymbolTableRecord
100
AcDbTextStyleTableRecord
  2
SLDTEXTSTYLE0
 70
     0
 40
0.0
 41
0.7
 50
0.0
 71
     0
 42
0.35
  3
TXT
  4
bigfont
  0
ENDTAB
  0
TABLE
  2
VIEW
  5
6
330
0
100
AcDbSymbolTable
 70
     0
  0
ENDTAB
  0
TABLE
  2
UCS
  5
7
330
0
100
AcDbSymbolTable
 70
     0
  0
ENDTAB
  0
TABLE
  2
APPID
  5
9
330
0
100
AcDbSymbolTable
 70
     1
  0
APPID
  5
12
330
9
100
AcDbSymbolTableRecord
100
AcDbRegAppTableRecord
  2
ACAD
 70
     0
  0
ENDTAB
  0
TABLE
  2
DIMSTYLE
  5
A
330
0
100
AcDbSymbolTable
 70
     1
100
AcDbDimStyleTable
  0
DIMSTYLE
105
27
330
A
100
AcDbSymbolTableRecord
100
AcDbDimStyleTableRecord
  2
ISO-25
 70
     0
 41
2.5
 42
0.625
 43
3.75
 44
1.25
 73
     0
 74
     0
 77
     1
 78
     8
140
2.5
141
2.5
143
0.0393700787
147
0.625
171
     3
172
     1
178
     0
271
     2
272
     2
274
     3
278
    44
283
     0
284
     8
340
11
  0
ENDTAB
  0
TABLE
  2
BLOCK_RECORD
  5
1
330
0
100
AcDbSymbolTable
 70
     1
  0
BLOCK_RECORD
  5
1F
330
1
100
AcDbSymbolTableRecord
100
AcDbBlockTableRecord
  2
*Model_Space
340
22
  0
BLOCK_RECORD
  5
1B
330
1
100
AcDbSymbolTableRecord
100
AcDbBlockTableRecord
  2
*Paper_Space
340
1E
  0
BLOCK_RECORD
  5
23
330
1
100
AcDbSymbolTableRecord
100
AcDbBlockTableRecord
  2
*Paper_Space0
340
26
  0
ENDTAB
  0
ENDSEC
  0
SECTION
  2
BLOCKS
  0
BLOCK
  5
20
330
1F
100
AcDbEntity
  8
0
100
AcDbBlockBegin
  2
*Model_Space
 70
     0
 10
0.0
 20
0.0
 30
0.0
  3
*Model_Space
  1

  0
ENDBLK
  5
21
330
1F
100
AcDbEntity
  8
0
100
AcDbBlockEnd
  0
BLOCK
  5
1C
330
1B
100
AcDbEntity
 67
     1
  8
0
100
AcDbBlockBegin
  2
*Paper_Space
 70
     0
 10
0.0
 20
0.0
 30
0.0
  3
*Paper_Space
  1

  0
ENDBLK
  5
1D
330
1B
100
AcDbEntity
 67
     1
  8
0
100
AcDbBlockEnd
  0
BLOCK
  5
24
330
23
100
AcDbEntity
  8
0
100
AcDbBlockBegin
  2
*Paper_Space0
 70
     0
 10
0.0
 20
0.0
 30
0.0
  3
*Paper_Space0
  1

  0
ENDBLK
  5
25
330
23
100
AcDbEntity
  8
0
100
AcDbBlockEnd
  0
ENDSEC
  0
SECTION
  2
ENTITIES
  0
LWPOLYLINE
  5
64
330
1F
100
AcDbEntity
  8
0
  6
Continuous
 62
     7
100
AcDbPolyline
 90
      106
 70
   128
 43
0.0
 10
0.3717947751
 20
-4.8486850116
 10
0.3269230769
 20
-4.8486850116
 10
0.3269230769
 20
-4.8486850116
 10
0.328125
 20
-4.830856486
 10
0.3307291667
 20
-4.8138292424
 10
0.3346354167
 20
-4.7977034411
 10
0.3400440705
 20
-4.7822787616
 10
0.3467548077
 20
-4.7677555245
 10
0.3548677885
 20
-4.7539334091
 10
0.3643830128
 20
-4.741012736
 10
0.3753004808
 20
-4.728893345
 10
0.3872195513
 20
-4.7178757168
 10
0.3999399038
 20
-4.7083604924
 10
0.4132612179
 20
-4.7003476719
 10
0.4271834936
 20
-4.693737095
 10
0.4419070513
 20
-4.6886289219
 10
0.4572315705
 20
-4.6849229924
 10
0.4732572115
 20
-4.6827194668
 10
0.4899839744
 20
-4.682018345
 10
0.4899839744
 20
-4.682018345
 10
0.5064102564
 20
-4.6827194668
 10
0.5221354167
 20
-4.6848228322
 10
0.5369591346
 20
-4.6882282809
 10
0.5510817308
 20
-4.6930359732
 10
0.5643028846
 20
-4.6993460693
 10
0.5767227564
 20
-4.7069582488
 10
0.5884415064
 20
-4.7158725116
 10
0.5992588141
 20
-4.7262891783
 10
0.6090745192
 20
-4.7376072873
 10
0.6174879808
 20
-4.7494261975
 10
0.6246995192
 20
-4.7617459091
 10
0.6306089744
 20
-4.7744662616
 10
0.6351161859
 20
-4.7877875757
 10
0.6384214744
 20
-4.8016096911
 10
0.6403245192
 20
-4.8158324475
 10
0.641025641
 20
-4.8306561655
 10
0.641025641
 20
-4.8306561655
 10
0.6397235577
 20
-4.8514894988
 10
0.6358173077
 20
-4.8716217104
 10
0.6294070513
 20
-4.8910528001
 10
0.6202924679
 20
-4.9098829283
 10
0.6144831731
 20
-4.9194983129
 10
0.6074719551
 20
-4.9300151398
 10
0.5992588141
 20
-4.9413332488
 10
0.58984375
 20
-4.9533524796
 10
0.5791266026
 20
-4.9663733129
 10
0.5673076923
 20
-4.9800952681
 10
0.5541866987
 20
-4.9946185052
 10
0.5398637821
 20
-5.0100431847
 10
0.5398637821
 20
-5.0100431847
 10
0.4147636218
 20
-5.1435568065
 10
0.4147636218
 20
-5.1435568065
 10
0.6474358974
 20
-5.1435568065
 10
0.6474358974
 20
-5.1435568065
 10
0.6474358974
 20
-5.1948388578
 10
0.6474358974
 20
-5.1948388578
 10
0.3076923077
 20
-5.1948388578
 10
0.3076923077
 20
-5.1948388578
 10
0.5016025641
 20
-4.9879077681
 10
0.5016025641
 20
-4.9879077681
 10
0.5157251603
 20
-4.9730840501
 10
0.5285456731
 20
-4.9592619347
 10
0.5400641026
 20
-4.9464414219
 10
0.5502804487
 20
-4.9346225116
 10
0.5591947115
 20
-4.9237050437
 10
0.5669070513
 20
-4.9138893386
 10
0.5732171474
 20
-4.9049750757
 10
0.5783253205
 20
-4.8970624155
 10
0.5861378205
 20
-4.882038377
 10
0.5917467949
 20
-4.8666136975
 10
0.5950520833
 20
-4.8508885373
 10
0.5961538462
 20
-4.8346625757
 10
0.5961538462
 20
-4.8346625757
 10
0.5956530449
 20
-4.8244462296
 10
0.594150641
 20
-4.8146305245
 10
0.5917467949
 20
-4.8052154604
 10
0.5883413462
 20
-4.796100877
 10
0.5838341346
 20
-4.7872867745
 10
0.5784254808
 20
-4.7789734732
 10
0.5721153846
 20
-4.7709606527
 10
0.5647035256
 20
-4.7632483129
 10
0.5565905449
 20
-4.756237095
 10
0.5480769231
 20
-4.7501273193
 10
0.5391626603
 20
-4.7450191463
 10
0.5297475962
 20
-4.7408124155
 10
0.5198317308
 20
-4.737507127
 10
0.5096153846
 20
-4.7352034411
 10
0.4988982372
 20
-4.7338011975
 10
0.4876802885
 20
-4.7333003963
 10
0.4876802885
 20
-4.7333003963
 10
0.4759615385
 20
-4.7338011975
 10
0.4647435897
 20
-4.7352034411
 10
0.4540264423
 20
-4.7376072873
 10
0.4438100962
 20
-4.7409125757
 10
0.4340945513
 20
-4.7451193065
 10
0.4248798077
 20
-4.7503276398
 10
0.4161658654
 20
-4.7565375757
 10
0.4079527244
 20
-4.7636489539
 10
0.4004407051
 20
-4.7715616142
 10
0.3938301282
 20
-4.7802755565
 10
0.3880208333
 20
-4.7897907809
 10
0.3830128205
 20
-4.800007127
 10
0.37890625
 20
-4.8110247552
 10
0.3757011218
 20
-4.8228436655
 10
0.3732972756
 20
-4.8353636975
 10
0.3717948718
 20
-4.8486850116
  0
LWPOLYLINE
  5
65
330
1F
100
AcDbEntity
  8
0
  6
Continuous
 62
     7
100
AcDbPolyline
 90
      106
 70
   128
 43
0.0
 10
-0.0128205051
 20
-4.8486850116
 10
-0.0576923077
 20
-4.8486850116
 10
-0.0576923077
 20
-4.8486850116
 10
-0.0564903846
 20
-4.830856486
 10
-0.0538862179
 20
-4.8138292424
 10
-0.0499799679
 20
-4.7977034411
 10
-0.0445713141
 20
-4.7822787616
 10
-0.0378605769
 20
-4.7677555245
 10
-0.0297475962
 20
-4.7539334091
 10
-0.0202323718
 20
-4.741012736
 10
-0.0093149038
 20
-4.728893345
 10
0.0026041667
 20
-4.7178757168
 10
0.0153245192
 20
-4.7083604924
 10
0.0286458333
 20
-4.7003476719
 10
0.042568109
 20
-4.693737095
 10
0.0572916667
 20
-4.6886289219
 10
0.0726161859
 20
-4.6849229924
 10
0.0886418269
 20
-4.6827194668
 10
0.1053685897
 20
-4.682018345
 10
0.1053685897
 20
-4.682018345
 10
0.1217948718
 20
-4.6827194668
 10
0.1375200321
 20
-4.6848228322
 10
0.15234375
 20
-4.6882282809
 10
0.1664663462
 20
-4.6930359732
 10
0.1796875
 20
-4.6993460693
 10
0.1921073718
 20
-4.7069582488
 10
0.2038261218
 20
-4.7158725116
 10
0.2146434295
 20
-4.7262891783
 10
0.2244591346
 20
-4.7376072873
 10
0.2328725962
 20
-4.7494261975
 10
0.2400841346
 20
-4.7617459091
 10
0.2459935897
 20
-4.7744662616
 10
0.2505008013
 20
-4.7877875757
 10
0.2538060897
 20
-4.8016096911
 10
0.2557091346
 20
-4.8158324475
 10
0.2564102564
 20
-4.8306561655
 10
0.2564102564
 20
-4.8306561655
 10
0.2551081731
 20
-4.8514894988
 10
0.2512019231
 20
-4.8716217104
 10
0.2447916667
 20
-4.8910528001
 10
0.2356770833
 20
-4.9098829283
 10
0.2298677885
 20
-4.9194983129
 10
0.2228565705
 20
-4.9300151398
 10
0.2146434295
 20
-4.9413332488
 10
0.2052283654
 20
-4.9533524796
 10
0.1945112179
 20
-4.9663733129
 10
0.1826923077
 20
-4.9800952681
 10
0.1695713141
 20
-4.9946185052
 10
0.1552483974
 20
-5.0100431847
 10
0.1552483974
 20
-5.0100431847
 10
0.0301482372
 20
-5.1435568065
 10
0.0301482372
 20
-5.1435568065
 10
0.2628205128
 20
-5.1435568065
 10
0.2628205128
 20
-5.1435568065
 10
0.2628205128
 20
-5.1948388578
 10
0.2628205128
 20
-5.1948388578
 10
-0.0769230769
 20
-5.1948388578
 10
-0.0769230769
 20
-5.1948388578
 10
0.1169871795
 20
-4.9879077681
 10
0.1169871795
 20
-4.9879077681
 10
0.1311097756
 20
-4.9730840501
 10
0.1439302885
 20
-4.9592619347
 10
0.1554487179
 20
-4.9464414219
 10
0.1656650641
 20
-4.9346225116
 10
0.1745793269
 20
-4.9237050437
 10
0.1822916667
 20
-4.9138893386
 10
0.1886017628
 20
-4.9049750757
 10
0.1937099359
 20
-4.8970624155
 10
0.2015224359
 20
-4.882038377
 10
0.2071314103
 20
-4.8666136975
 10
0.2104366987
 20
-4.8508885373
 10
0.2115384615
 20
-4.8346625757
 10
0.2115384615
 20
-4.8346625757
 10
0.2110376603
 20
-4.8244462296
 10
0.2095352564
 20
-4.8146305245
 10
0.2071314103
 20
-4.8052154604
 10
0.2037259615
 20
-4.796100877
 10
0.19921875
 20
-4.7872867745
 10
0.1938100962
 20
-4.7789734732
 10
0.1875
 20
-4.7709606527
 10
0.180088141
 20
-4.7632483129
 10
0.1719751603
 20
-4.756237095
 10
0.1634615385
 20
-4.7501273193
 10
0.1545472756
 20
-4.7450191463
 10
0.1451322115
 20
-4.7408124155
 10
0.1352163462
 20
-4.737507127
 10
0.125
 20
-4.7352034411
 10
0.1142828526
 20
-4.7338011975
 10
0.1030649038
 20
-4.7333003963
 10
0.1030649038
 20
-4.7333003963
 10
0.0913461538
 20
-4.7338011975
 10
0.0801282051
 20
-4.7352034411
 10
0.0694110577
 20
-4.7376072873
 10
0.0591947115
 20
-4.7409125757
 10
0.0494791667
 20
-4.7451193065
 10
0.0402644231
 20
-4.7503276398
 10
0.0315504808
 20
-4.7565375757
 10
0.0233373397
 20
-4.7636489539
 10
0.0158253205
 20
-4.7715616142
 10
0.0092147436
 20
-4.7802755565
 10
0.0034054487
 20
-4.7897907809
 10
-0.0016025641
 20
-4.800007127
 10
-0.0057091346
 20
-4.8110247552
 10
-0.0089142628
 20
-4.8228436655
 10
-0.011318109
 20
-4.8353636975
 10
-0.0128205128
 20
-4.8486850116
  0
LWPOLYLINE
  5
66
330
1F
100
AcDbEntity
  8
0
  6
Continuous
 62
     7
100
AcDbPolyline
 90
      100
 70
   128
 43
0.0
 10
-0.461538136
 20
-4.9450391783
 10
-0.4612379808
 20
-4.9210007168
 10
-0.4602363782
 20
-4.8983644988
 10
-0.4585336538
 20
-4.8770303642
 10
-0.4562299679
 20
-4.8571986334
 10
-0.4533253205
 20
-4.8387691463
 10
-0.449619391
 20
-4.8217419027
 10
-0.4453125
 20
-4.8061169027
 10
-0.4404046474
 20
-4.7918941463
 10
-0.4348958333
 20
-4.7787731527
 10
-0.4287860577
 20
-4.7664534411
 10
-0.4220753205
 20
-4.7550351719
 10
-0.4148637821
 20
-4.7443180245
 10
-0.4071514423
 20
-4.7345023193
 10
-0.3989383013
 20
-4.7254878963
 10
-0.3901241987
 20
-4.7173749155
 10
-0.3807091346
 20
-4.7099630565
 10
-0.3708934295
 20
-4.7034526398
 10
-0.3607772436
 20
-4.6977435052
 10
-0.3504607372
 20
-4.6929358129
 10
-0.3397435897
 20
-4.6890295629
 10
-0.3288261218
 20
-4.685924595
 10
-0.3176081731
 20
-4.6837210693
 10
-0.3061899038
 20
-4.682418986
 10
-0.2943709936
 20
-4.682018345
 10
-0.2943709936
 20
-4.682018345
 10
-0.2824519231
 20
-4.682418986
 10
-0.2707331731
 20
-4.6837210693
 10
-0.2594150641
 20
-4.685924595
 10
-0.2482972756
 20
-4.6890295629
 10
-0.2374799679
 20
-4.6929358129
 10
-0.226963141
 20
-4.6977435052
 10
-0.2166466346
 20
-4.7034526398
 10
-0.2067307692
 20
-4.7100632168
 10
-0.1972155449
 20
-4.7174750757
 10
-0.1881009615
 20
-4.7258885373
 10
-0.1795873397
 20
-4.7351032809
 10
-0.1715745192
 20
-4.7451193065
 10
-0.1640625
 20
-4.7561369347
 10
-0.1570512821
 20
-4.767955845
 10
-0.1506410256
 20
-4.7806761975
 10
-0.1446314103
 20
-4.7942979924
 10
-0.1393229167
 20
-4.8089213898
 10
-0.1346153846
 20
-4.8247467104
 10
-0.1307091346
 20
-4.8417739539
 10
-0.1275040064
 20
-4.8600031206
 10
-0.125
 20
-4.8794342104
 10
-0.1231971154
 20
-4.9001673834
 10
-0.1221955128
 20
-4.9220023193
 10
-0.1217948718
 20
-4.9450391783
 10
-0.1217948718
 20
-4.9450391783
 10
-0.1221955128
 20
-4.967975877
 10
-0.1231971154
 20
-4.9897106527
 10
-0.125
 20
-5.0103436655
 10
-0.1274038462
 20
-5.029674595
 10
-0.1306089744
 20
-5.0478036014
 10
-0.1345152244
 20
-5.0647306847
 10
-0.1390224359
 20
-5.0805560052
 10
-0.1443309295
 20
-5.0950792424
 10
-0.1502403846
 20
-5.108600877
 10
-0.156650641
 20
-5.1212210693
 10
-0.1635616987
 20
-5.1330399796
 10
-0.1710737179
 20
-5.1440576078
 10
-0.1790865385
 20
-5.1541737937
 10
-0.1877003205
 20
-5.1633885373
 10
-0.1968149038
 20
-5.1718019988
 10
-0.2064302885
 20
-5.1793140181
 10
-0.2164463141
 20
-5.185924595
 10
-0.2267628205
 20
-5.1917338898
 10
-0.2373798077
 20
-5.1965415822
 10
-0.2481971154
 20
-5.2005479924
 10
-0.2593149038
 20
-5.2036529604
 10
-0.2707331731
 20
-5.205856486
 10
-0.2824519231
 20
-5.2072587296
 10
-0.2943709936
 20
-5.2076593706
 10
-0.2943709936
 20
-5.2076593706
 10
-0.3061899038
 20
-5.2072587296
 10
-0.3176081731
 20
-5.2059566463
 10
-0.3288261218
 20
-5.2037531206
 10
-0.3396434295
 20
-5.2007483129
 10
-0.3502604167
 20
-5.1969422232
 10
-0.3605769231
 20
-5.1921345309
 10
-0.3705929487
 20
-5.1865255565
 10
-0.3803084936
 20
-5.1801153001
 10
-0.3896233974
 20
-5.1728036014
 10
-0.3984375
 20
-5.1646906206
 10
-0.406650641
 20
-5.1556761975
 10
-0.4143629808
 20
-5.1457603322
 10
-0.4215745192
 20
-5.135143345
 10
-0.4282852564
 20
-5.1236249155
 10
-0.4344951923
 20
-5.1112050437
 10
-0.4401041667
 20
-5.0979838898
 10
-0.4451121795
 20
-5.0836609732
 10
-0.4495192308
 20
-5.0679358129
 10
-0.453125
 20
-5.0508084091
 10
-0.4561298077
 20
-5.0323789219
 10
-0.4585336538
 20
-5.0126473514
 10
-0.4602363782
 20
-4.991413377
 10
-0.4612379808
 20
-4.9688773193
 10
-0.4615384615
 20
-4.9450391783
  0
LWPOLYLINE
  5
67
330
1F
100
AcDbEntity
  8
0
  6
Continuous
 62
     7
100
AcDbPolyline
 90
       85
 70
   128
 43
0.0
 10
-0.4166666418
 20
-4.9448388578
 10
-0.4164663462
 20
-4.9648709091
 10
-0.4156650641
 20
-4.9837010373
 10
-0.414463141
 20
-5.0013292424
 10
-0.4128605769
 20
-5.0175552039
 10
-0.4106570513
 20
-5.0325792424
 10
-0.4080528846
 20
-5.0464013578
 10
-0.4049479167
 20
-5.0589213898
 10
-0.4013421474
 20
-5.0701393386
 10
-0.3972355769
 20
-5.080455845
 10
-0.3927283654
 20
-5.0900712296
 10
-0.3878205128
 20
-5.0990856527
 10
-0.382411859
 20
-5.1073989539
 10
-0.3765024038
 20
-5.1151112937
 10
-0.3701923077
 20
-5.1222226719
 10
-0.3633814103
 20
-5.1286329283
 10
-0.3561698718
 20
-5.1344422232
 10
-0.3409455128
 20
-5.1440576078
 10
-0.3253205128
 20
-5.1508685052
 10
-0.3092948718
 20
-5.1549750757
 10
-0.2928685897
 20
-5.1563773193
 10
-0.2928685897
 20
-5.1563773193
 10
-0.2763421474
 20
-5.155075236
 10
-0.2603165064
 20
-5.1509686655
 10
-0.2448918269
 20
-5.1443580886
 10
-0.2299679487
 20
-5.1349430245
 10
-0.2228565705
 20
-5.1292338898
 10
-0.2162459936
 20
-5.1229237937
 10
-0.2100360577
 20
-5.1158124155
 10
-0.2042267628
 20
-5.1081000757
 10
-0.1989182692
 20
-5.0997867745
 10
-0.1940104167
 20
-5.0906721911
 10
-0.1896033654
 20
-5.0809566463
 10
-0.1855969551
 20
-5.0705399796
 10
-0.1855969551
 20
-5.0705399796
 10
-0.1811899038
 20
-5.0571185052
 10
-0.1772836538
 20
-5.0430960693
 10
-0.1740785256
 20
-5.0283725116
 10
-0.1713741987
 20
-5.0130479924
 10
-0.1693709936
 20
-4.9970223514
 10
-0.1678685897
 20
-4.9802955886
 10
-0.1669671474
 20
-4.9628677039
 10
-0.1666666667
 20
-4.9448388578
 10
-0.1666666667
 20
-4.9448388578
 10
-0.1669671474
 20
-4.9268100116
 10
-0.1676682692
 20
-4.9095824475
 10
-0.1690705128
 20
-4.8932563257
 10
-0.1708733974
 20
-4.877731486
 10
-0.1732772436
 20
-4.8630079283
 10
-0.1760817308
 20
-4.8491858129
 10
-0.1795873397
 20
-4.8361649796
 10
-0.1834935897
 20
-4.8239454283
 10
-0.187900641
 20
-4.8125271591
 10
-0.1927083333
 20
-4.8020103322
 10
-0.1979166667
 20
-4.792194627
 10
-0.203525641
 20
-4.7831802039
 10
-0.2095352564
 20
-4.7749670629
 10
-0.2160456731
 20
-4.7675552039
 10
-0.2228565705
 20
-4.760944627
 10
-0.230068109
 20
-4.7551353322
 10
-0.2451923077
 20
-4.7456201078
 10
-0.2606169872
 20
-4.7387090501
 10
-0.2765424679
 20
-4.7347026398
 10
-0.2928685897
 20
-4.7333003963
 10
-0.2928685897
 20
-4.7333003963
 10
-0.3093950321
 20
-4.7347026398
 10
-0.3255208333
 20
-4.7387090501
 10
-0.3410456731
 20
-4.7456201078
 10
-0.3561698718
 20
-4.7551353322
 10
-0.3633814103
 20
-4.7608444668
 10
-0.3700921474
 20
-4.7672547232
 10
-0.3764022436
 20
-4.7743661014
 10
-0.3822115385
 20
-4.7820784411
 10
-0.3876201923
 20
-4.7903917424
 10
-0.3926282051
 20
-4.7994061655
 10
-0.3971354167
 20
-4.8090215501
 10
-0.4012419872
 20
-4.8193380565
 10
-0.4048477564
 20
-4.8305560052
 10
-0.4079527244
 20
-4.8430760373
 10
-0.4106570513
 20
-4.8567979924
 10
-0.4127604167
 20
-4.8719221911
 10
-0.414463141
 20
-4.8882483129
 10
-0.4156650641
 20
-4.9057763578
 10
-0.4164663462
 20
-4.9247066463
 10
-0.4166666667
 20
-4.9448388578
  0
LWPOLYLINE
  5
68
330
1F
100
AcDbEntity
  8
0
  6
Continuous
 62
     7
100
AcDbPolyline
 90
      106
 70
   128
 43
0.0
 10
-0.7820509374
 20
-4.8486850116
 10
-0.8269230769
 20
-4.8486850116
 10
-0.8269230769
 20
-4.8486850116
 10
-0.8257211538
 20
-4.830856486
 10
-0.8231169872
 20
-4.8138292424
 10
-0.8192107372
 20
-4.7977034411
 10
-0.8138020833
 20
-4.7822787616
 10
-0.8070913462
 20
-4.7677555245
 10
-0.7989783654
 20
-4.7539334091
 10
-0.789463141
 20
-4.741012736
 10
-0.7785456731
 20
-4.728893345
 10
-0.7666266026
 20
-4.7178757168
 10
-0.75390625
 20
-4.7083604924
 10
-0.7405849359
 20
-4.7003476719
 10
-0.7266626603
 20
-4.693737095
 10
-0.7119391026
 20
-4.6886289219
 10
-0.6966145833
 20
-4.6849229924
 10
-0.6805889423
 20
-4.6827194668
 10
-0.6638621795
 20
-4.682018345
 10
-0.6638621795
 20
-4.682018345
 10
-0.6474358974
 20
-4.6827194668
 10
-0.6317107372
 20
-4.6848228322
 10
-0.6168870192
 20
-4.6882282809
 10
-0.6027644231
 20
-4.6930359732
 10
-0.5895432692
 20
-4.6993460693
 10
-0.5771233974
 20
-4.7069582488
 10
-0.5654046474
 20
-4.7158725116
 10
-0.5545873397
 20
-4.7262891783
 10
-0.5447716346
 20
-4.7376072873
 10
-0.5363581731
 20
-4.7494261975
 10
-0.5291466346
 20
-4.7617459091
 10
-0.5232371795
 20
-4.7744662616
 10
-0.5187299679
 20
-4.7877875757
 10
-0.5154246795
 20
-4.8016096911
 10
-0.5135216346
 20
-4.8158324475
 10
-0.5128205128
 20
-4.8306561655
 10
-0.5128205128
 20
-4.8306561655
 10
-0.5141225962
 20
-4.8514894988
 10
-0.5180288462
 20
-4.8716217104
 10
-0.5244391026
 20
-4.8910528001
 10
-0.5335536859
 20
-4.9098829283
 10
-0.5393629808
 20
-4.9194983129
 10
-0.5463741987
 20
-4.9300151398
 10
-0.5545873397
 20
-4.9413332488
 10
-0.5640024038
 20
-4.9533524796
 10
-0.5747195513
 20
-4.9663733129
 10
-0.5865384615
 20
-4.9800952681
 10
-0.5996594551
 20
-4.9946185052
 10
-0.6139823718
 20
-5.0100431847
 10
-0.6139823718
 20
-5.0100431847
 10
-0.7390825321
 20
-5.1435568065
 10
-0.7390825321
 20
-5.1435568065
 10
-0.5064102564
 20
-5.1435568065
 10
-0.5064102564
 20
-5.1435568065
 10
-0.5064102564
 20
-5.1948388578
 10
-0.5064102564
 20
-5.1948388578
 10
-0.8461538462
 20
-5.1948388578
 10
-0.8461538462
 20
-5.1948388578
 10
-0.6522435897
 20
-4.9879077681
 10
-0.6522435897
 20
-4.9879077681
 10
-0.6381209936
 20
-4.9730840501
 10
-0.6253004808
 20
-4.9592619347
 10
-0.6137820513
 20
-4.9464414219
 10
-0.6035657051
 20
-4.9346225116
 10
-0.5946514423
 20
-4.9237050437
 10
-0.5869391026
 20
-4.9138893386
 10
-0.5806290064
 20
-4.9049750757
 10
-0.5755208333
 20
-4.8970624155
 10
-0.5677083333
 20
-4.882038377
 10
-0.562099359
 20
-4.8666136975
 10
-0.5587940705
 20
-4.8508885373
 10
-0.5576923077
 20
-4.8346625757
 10
-0.5576923077
 20
-4.8346625757
 10
-0.558193109
 20
-4.8244462296
 10
-0.5596955128
 20
-4.8146305245
 10
-0.562099359
 20
-4.8052154604
 10
-0.5655048077
 20
-4.796100877
 10
-0.5700120192
 20
-4.7872867745
 10
-0.5754206731
 20
-4.7789734732
 10
-0.5817307692
 20
-4.7709606527
 10
-0.5891426282
 20
-4.7632483129
 10
-0.597255609
 20
-4.756237095
 10
-0.6057692308
 20
-4.7501273193
 10
-0.6146834936
 20
-4.7450191463
 10
-0.6240985577
 20
-4.7408124155
 10
-0.6340144231
 20
-4.737507127
 10
-0.6442307692
 20
-4.7352034411
 10
-0.6549479167
 20
-4.7338011975
 10
-0.6661658654
 20
-4.7333003963
 10
-0.6661658654
 20
-4.7333003963
 10
-0.6778846154
 20
-4.7338011975
 10
-0.6891025641
 20
-4.7352034411
 10
-0.6998197115
 20
-4.7376072873
 10
-0.7100360577
 20
-4.7409125757
 10
-0.7197516026
 20
-4.7451193065
 10
-0.7289663462
 20
-4.7503276398
 10
-0.7376802885
 20
-4.7565375757
 10
-0.7458934295
 20
-4.7636489539
 10
-0.7534054487
 20
-4.7715616142
 10
-0.7600160256
 20
-4.7802755565
 10
-0.7658253205
 20
-4.7897907809
 10
-0.7708333333
 20
-4.800007127
 10
-0.7749399038
 20
-4.8110247552
 10
-0.7781450321
 20
-4.8228436655
 10
-0.7805488782
 20
-4.8353636975
 10
-0.7820512821
 20
-4.8486850116
  0
LINE
  5
7D
330
1F
100
AcDbEntity
  8
0
  6
Continuous
 62
     7
370
    25
100
AcDbLine
 10
8.65
 20
-5.8
 30
0.0
 11
8.65
 21
6.2
 31
0.0
  0
LINE
  5
7E
330
1F
100
AcDbEntity
  8
0
  6
Continuous
 62
     7
370
    25
100
AcDbLine
 10
6.485
 20
-5.8
 30
0.0
 11
8.65
 21
-5.8
 31
0.0
  0
LINE
  5
7F
330
1F
100
AcDbEntity
  8
0
  6
Continuous
 62
     7
370
    25
100
AcDbLine
 10
6.485
 20
-6.2
 30
0.0
 11
6.485
 21
-5.8
 31
0.0
  0
LINE
  5
80
330
1F
100
AcDbEntity
  8
0
  6
Continuous
 62
     7
370
    25
100
AcDbLine
 10
5.015
 20
-6.2
 30
0.0
 11
6.485
 21
-6.2
 31
0.0
  0
LINE
  5
81
330
1F
100
AcDbEntity
  8
0
  6
Continuous
 62
     7
370
    25
100
AcDbLine
 10
5.015
 20
-5.8
 30
0.0
 11
5.015
 21
-6.2
 31
0.0
  0
LINE
  5
82
330
1F
100
AcDbEntity
  8
0
  6
Continuous
 62
     7
370
    25
100
AcDbLine
 10
2.485
 20
-5.8
 30
0.0
 11
5.015
 21
-5.8
 31
0.0
  0
LINE
  5
83
330
1F
100
AcDbEntity
  8
0
  6
Continuous
 62
     7
370
    25
100
AcDbLine
 10
2.485
 20
-6.2
 30
0.0
 11
2.485
 21
-5.8
 31
0.0
  0
LINE
  5
84
330
1F
100
AcDbEntity
  8
0
  6
Continuous
 62
     7
370
    25
100
AcDbLine
 10
1.015
 20
-6.2
 30
0.0
 11
2.485
 21
-6.2
 31
0.0
  0
LINE
  5
85
330
1F
100
AcDbEntity
  8
0
  6
Continuous
 62
     7
370
    25
100
AcDbLine
 10
1.015
 20
-5.8
 30
0.0
 11
1.015
 21
-6.2
 31
0.0
  0
LINE
  5
86
330
1F
100
AcDbEntity
  8
0
  6
Continuous
 62
     7
370
    25
100
AcDbLine
 10
-1.515
 20
-5.8
 30
0.0
 11
1.015
 21
-5.8
 31
0.0
  0
LINE
  5
87
330
1F
100
AcDbEntity
  8
0
  6
Continuous
 62
     7
370
    25
100
AcDbLine
 10
-1.515
 20
-6.2
 30
0.0
 11
-1.515
 21
-5.8
 31
0.0
  0
LINE
  5
88
330
1F
100
AcDbEntity
  8
0
  6
Continuous
 62
     7
370
    25
100
AcDbLine
 10
-2.985
 20
-6.2
 30
0.0
 11
-1.515
 21
-6.2
 31
0.0
  0
LINE
  5
89
330
1F
100
AcDbEntity
  8
0
  6
Continuous
 62
     7
370
    25
100
AcDbLine
 10
-2.985
 20
-5.8
 30
0.0
 11
-2.985
 21
-6.2
 31
0.0
  0
LINE
  5
8A
330
1F
100
AcDbEntity
  8
0
  6
Continuous
 62
     7
370
    25
100
AcDbLine
 10
-5.515
 20
-5.8
 30
0.0
 11
-2.985
 21
-5.8
 31
0.0
  0
LINE
  5
8B
330
1F
100
AcDbEntity
  8
0
  6
Continuous
 62
     7
370
    25
100
AcDbLine
 10
-5.515
 20
-6.2
 30
0.0
 11
-5.515
 21
-5.8
 31
0.0
  0
LINE
  5
8C
330
1F
100
AcDbEntity
  8
0
  6
Continuous
 62
     7
370
    25
100
AcDbLine
 10
-6.985
 20
-6.2
 30
0.0
 11
-5.515
 21
-6.2
 31
0.0
  0
LINE
  5
8D
330
1F
100
AcDbEntity
  8
0
  6
Continuous
 62
     7
370
    25
100
AcDbLine
 10
-6.985
 20
-5.8
 30
0.0
 11
-6.985
 21
-6.2
 31
0.0
  0
LINE
  5
8E
330
1F
100
AcDbEntity
  8
0
  6
Continuous
 62
     7
370
    25
100
AcDbLine
 10
-8.65
 20
-5.8
 30
0.0
 11
-6.985
 21
-5.8
 31
0.0
  0
LINE
  5
8F
330
1F
100
AcDbEntity
  8
0
  6
Continuous
 62
     7
370
    25
100
AcDbLine
 10
-8.65
 20
6.2
 30
0.0
 11
-8.65
 21
-5.8
 31
0.0
  0
LINE
  5
90
330
1F
100
AcDbEntity
  8
0
  6
Continuous
 62
     7
370
    25
100
AcDbLine
 10
8.65
 20
6.2
 30
0.0
 11
-8.65
 21
6.2
 31
0.0
  0
MTEXT
  5
92
330
1F
100
AcDbEntity
  8
0
  6
Continuous
 62
     7
100
AcDbMText
 10
-8.65
 20
-6.3019566392
 30
0.0
 40
0.483362
 41
0.0
 71
     1
 72
     1
  1
Produit d'éducation SOLIDWORKS – A titre éducatif uniquement.
  7
SLDTEXTSTYLE0
 73
     1
 44
1.0
  0
ENDSEC
  0
SECTION
  2
OBJECTS
  0
DICTIONARY
  5
C
330
0
100
AcDbDictionary
281
     1
  3
ACAD_GROUP
350
D
  3
ACAD_LAYOUT
350
1A
  3
ACAD_MLINESTYLE
350
17
  3
ACAD_PLOTSETTINGS
350
19
  3
ACAD_PLOTSTYLENAME
350
E
  3
ACAD_SCALELIST
350
47
  3
DWGPROPS
350
93
  0
DICTIONARY
  5
D
102
{ACAD_REACTORS
330
C
102
}
330
C
100
AcDbDictionary
281
     1
  0
DICTIONARY
  5
1A
102
{ACAD_REACTORS
330
C
102
}
330
C
100
AcDbDictionary
281
     1
  3
Layout1
350
1E
  3
Layout2
350
26
  3
Model
350
22
  0
DICTIONARY
  5
17
102
{ACAD_REACTORS
330
C
102
}
330
C
100
AcDbDictionary
281
     1
  3
Standard
350
18
  0
DICTIONARY
  5
19
102
{ACAD_REACTORS
330
C
102
}
330
C
100
AcDbDictionary
281
     1
  0
ACDBDICTIONARYWDFLT
  5
E
102
{ACAD_REACTORS
330
C
102
}
330
C
100
AcDbDictionary
281
     1
  3
Normal
350
F
100
AcDbDictionaryWithDefault
340
F
  0
DICTIONARY
  5
47
102
{ACAD_REACTORS
330
C
102
}
330
C
100
AcDbDictionary
281
     1
  3
A0
350
48
  3
A1
350
49
  3
A2
350
4A
  3
A3
350
4B
  3
A4
350
4C
  3
A5
350
4D
  3
A6
350
4E
  3
A7
350
4F
  3
A8
350
50
  3
A9
350
51
  3
B0
350
52
  3
B1
350
53
  3
B2
350
54
  3
B3
350
55
  3
B4
350
56
  3
B5
350
57
  3
B6
350
58
  0
XRECORD
  5
93
102
{ACAD_REACTORS
330
C
102
}
330
C
100
AcDbXrecord
280
     1
  1
DWGPROPS COOKIE
  2

  3

  4

  6

  7

  8
dedon
  9

300
=
301
=
302
=
303
=
304
=
305
=
306
=
307
=
308
=
309
=
 40
0.0
 41
2459944.552776713
 42
2459944.55287993
  1

 90
        0
  0
LAYOUT
  5
1E
102
{ACAD_REACTORS
330
1A
102
}
330
1A
100
AcDbPlotSettings
  1

  2
none_device
  4

  6

 40
0.0
 41
0.0
 42
0.0
 43
0.0
 44
0.0
 45
0.0
 46
0.0
 47
0.0
 48
0.0
 49
0.0
140
0.0
141
0.0
142
1.0
143
1.0
 70
   688
 72
     1
 73
     0
 74
     5
  7

 75
    16
147
1.0
148
0.0
149
0.0
100
AcDbLayout
  1
Layout1
 70
     1
 71
     1
 10
0.0
 20
0.0
 11
420.0
 21
297.0
 12
0.0
 22
0.0
 32
0.0
 14
1.0000000000E+20
 24
1.0000000000E+20
 34
1.0000000000E+20
 15
-1.0000000000E+20
 25
-1.0000000000E+20
 35
-1.0000000000E+20
146
0.0
 13
0.0
 23
0.0
 33
0.0
 16
1.0
 26
0.0
 36
0.0
 17
0.0
 27
1.0
 37
0.0
 76
     0
330
1B
  0
LAYOUT
  5
26
102
{ACAD_REACTORS
330
1A
102
}
330
1A
100
AcDbPlotSettings
  1

  2
none_device
  4

  6

 40
0.0
 41
0.0
 42
0.0
 43
0.0
 44
0.0
 45
0.0
 46
0.0
 47
0.0
 48
0.0
 49
0.0
140
0.0
141
0.0
142
1.0
143
1.0
 70
   688
 72
     1
 73
     0
 74
     5
  7

 75
    16
147
1.0
148
0.0
149
0.0
100
AcDbLayout
  1
Layout2
 70
     1
 71
     2
 10
0.0
 20
0.0
 11
0.0
 21
0.0
 12
0.0
 22
0.0
 32
0.0
 14
0.0
 24
0.0
 34
0.0
 15
0.0
 25
0.0
 35
0.0
146
0.0
 13
0.0
 23
0.0
 33
0.0
 16
1.0
 26
0.0
 36
0.0
 17
0.0
 27
1.0
 37
0.0
 76
     0
330
23
  0
LAYOUT
  5
22
102
{ACAD_REACTORS
330
1A
102
}
330
1A
100
AcDbPlotSettings
  1

  2
none_device
  4
ANSI_A_(11.00_x_8.50_Inches)
  6

 40
6.35
 41
19.05
 42
6.35000508
 43
19.05000254
 44
279.4
 45
215.9
 46
133.34999746
 47
88.89999873
 48
0.0
 49
0.0
140
0.0
141
0.0
142
0.6294797688
143
1.0
 70
  1696
 72
     0
 73
     0
 74
     0
  7

 75
     0
147
0.0179189148
148
-1300.4909072572
149
0.0
100
AcDbLayout
  1
Model
 70
     1
 71
     0
 10
0.0
 20
0.0
 11
420.0
 21
297.0
 12
0.0
 22
0.0
 32
0.0
 14
-8.65
 24
-6.2
 34
0.0
 15
8.65
 25
6.2
 35
0.0
146
0.0
 13
0.0
 23
0.0
 33
0.0
 16
1.0
 26
0.0
 36
0.0
 17
0.0
 27
1.0
 37
0.0
 76
     0
330
1F
331
29
  0
MLINESTYLE
  5
18
102
{ACAD_REACTORS
330
17
102
}
330
17
100
AcDbMlineStyle
  2
Standard
 70
     0
  3

 62
   256
 51
90.0
 52
90.0
 71
     2
 49
0.5
 62
   256
  6
BYLAYER
 49
-0.5
 62
   256
  6
BYLAYER
  0
ACDBPLACEHOLDER
  5
F
102
{ACAD_REACTORS
330
E
102
}
330
E
  0
SCALE
  5
48
102
{ACAD_REACTORS
330
47
102
}
330
47
100
AcDbScale
 70
     0
300
1:1
140
1.0
141
1.0
290
     1
  0
SCALE
  5
49
102
{ACAD_REACTORS
330
47
102
}
330
47
100
AcDbScale
 70
     0
300
1:2
140
1.0
141
2.0
290
     0
  0
SCALE
  5
4A
102
{ACAD_REACTORS
330
47
102
}
330
47
100
AcDbScale
 70
     0
300
1:4
140
1.0
141
4.0
290
     0
  0
SCALE
  5
4B
102
{ACAD_REACTORS
330
47
102
}
330
47
100
AcDbScale
 70
     0
300
1:5
140
1.0
141
5.0
290
     0
  0
SCALE
  5
4C
102
{ACAD_REACTORS
330
47
102
}
330
47
100
AcDbScale
 70
     0
300
1:8
140
1.0
141
8.0
290
     0
  0
SCALE
  5
4D
102
{ACAD_REACTORS
330
47
102
}
330
47
100
AcDbScale
 70
     0
300
1:10
140
1.0
141
10.0
290
     0
  0
SCALE
  5
4E
102
{ACAD_REACTORS
330
47
102
}
330
47
100
AcDbScale
 70
     0
300
1:16
140
1.0
141
16.0
290
     0
  0
SCALE
  5
4F
102
{ACAD_REACTORS
330
47
102
}
330
47
100
AcDbScale
 70
     0
300
1:20
140
1.0
141
20.0
290
     0
  0
SCALE
  5
50
102
{ACAD_REACTORS
330
47
102
}
330
47
100
AcDbScale
 70
     0
300
1:30
140
1.0
141
30.0
290
     0
  0
SCALE
  5
51
102
{ACAD_REACTORS
330
47
102
}
330
47
100
AcDbScale
 70
     0
300
1:40
140
1.0
141
40.0
290
     0
  0
SCALE
  5
52
102
{ACAD_REACTORS
330
47
102
}
330
47
100
AcDbScale
 70
     0
300
1:50
140
1.0
141
50.0
290
     0
  0
SCALE
  5
53
102
{ACAD_REACTORS
330
47
102
}
330
47
100
AcDbScale
 70
     0
300
1:100
140
1.0
141
100.0
290
     0
  0
SCALE
  5
54
102
{ACAD_REACTORS
330
47
102
}
330
47
100
AcDbScale
 70
     0
300
2:1
140
2.0
141
1.0
290
     0
  0
SCALE
  5
55
102
{ACAD_REACTORS
330
47
102
}
330
47
100
AcDbScale
 70
     0
300
4:1
140
4.0
141
1.0
290
     0
  0
SCALE
  5
56
102
{ACAD_REACTORS
330
47
102
}
330
47
100
AcDbScale
 70
     0
300
8:1
140
8.0
141
1.0
290
     0
  0
SCALE
  5
57
102
{ACAD_REACTORS
330
47
102
}
330
47
100
AcDbScale
 70
     0
300
10:1
140
10.0
141
1.0
290
     0
  0
SCALE
  5
58
102
{ACAD_REACTORS
330
47
102
}
330
47
100
AcDbScale
 70
     0
300
100:1
140
100.0
141
1.0
290
     0
  0
ENDSEC
  0
EOF
