  0
SECTION
  2
HEADER
  9
$ACADVER
  1
AC1032
  9
$ACADMAINTVER
 90
      329
  9
$DWGCODEPAGE
  3
ANSI_1252
  9
$REQUIREDVERSIONS
160
                 0
  9
$INSBASE
 10
0.0
 20
0.0
 30
0.0
  9
$EXTMIN
 10
1.000000000000000E+20
 20
1.000000000000000E+20
 30
1.000000000000000E+20
  9
$EXTMAX
 10
-1.000000000000000E+20
 20
-1.000000000000000E+20
 30
-1.000000000000000E+20
  9
$LIMMIN
 10
0.0
 20
0.0
  9
$LIMMAX
 10
12.0
 20
9.0
  9
$ORTHOMODE
 70
     0
  9
$REGENMODE
 70
     1
  9
$FILLMODE
 70
     1
  9
$QTEXTMODE
 70
     0
  9
$MIRRTEXT
 70
     0
  9
$LTSCALE
 40
1.0
  9
$ATTMODE
 70
     1
  9
$TEXTSIZE
 40
0.2
  9
$TRACEWID
 40
0.05
  9
$TEXTSTYLE
  7
Standard
  9
$CLAYER
  8
0
  9
$CELTYPE
  6
ByLayer
  9
$CECOLOR
 62
   256
  9
$CELTSCALE
 40
1.0
  9
$DISPSILH
 70
     0
  9
$DIMSCALE
 40
1.0
  9
$DIMASZ
 40
0.18
  9
$DIMEXO
 40
0.0625
  9
$DIMDLI
 40
0.38
  9
$DIMRND
 40
0.0
  9
$DIMDLE
 40
0.0
  9
$DIMEXE
 40
0.18
  9
$DIMTP
 40
0.0
  9
$DIMTM
 40
0.0
  9
$DIMTXT
 40
0.18
  9
$DIMCEN
 40
0.09
  9
$DIMTSZ
 40
0.0
  9
$DIMTOL
 70
     0
  9
$DIMLIM
 70
     0
  9
$DIMTIH
 70
     1
  9
$DIMTOH
 70
     1
  9
$DIMSE1
 70
     0
  9
$DIMSE2
 70
     0
  9
$DIMTAD
 70
     0
  9
$DIMZIN
 70
     0
  9
$DIMBLK
  1

  9
$DIMASO
 70
     1
  9
$DIMSHO
 70
     1
  9
$DIMPOST
  1

  9
$DIMAPOST
  1

  9
$DIMALT
 70
     0
  9
$DIMALTD
 70
     2
  9
$DIMALTF
 40
25.4
  9
$DIMLFAC
 40
1.0
  9
$DIMTOFL
 70
     0
  9
$DIMTVP
 40
0.0
  9
$DIMTIX
 70
     0
  9
$DIMSOXD
 70
     0
  9
$DIMSAH
 70
     0
  9
$DIMBLK1
  1

  9
$DIMBLK2
  1

  9
$DIMSTYLE
  2
Standard
  9
$DIMCLRD
 70
     0
  9
$DIMCLRE
 70
     0
  9
$DIMCLRT
 70
     0
  9
$DIMTFAC
 40
1.0
  9
$DIMGAP
 40
0.09
  9
$DIMJUST
 70
     0
  9
$DIMSD1
 70
     0
  9
$DIMSD2
 70
     0
  9
$DIMTOLJ
 70
     1
  9
$DIMTZIN
 70
     0
  9
$DIMALTZ
 70
     0
  9
$DIMALTTZ
 70
     0
  9
$DIMUPT
 70
     0
  9
$DIMDEC
 70
     4
  9
$DIMTDEC
 70
     4
  9
$DIMALTU
 70
     2
  9
$DIMALTTD
 70
     2
  9
$DIMTXSTY
  7
Standard
  9
$DIMAUNIT
 70
     0
  9
$DIMADEC
 70
     0
  9
$DIMALTRND
 40
0.0
  9
$DIMAZIN
 70
     0
  9
$DIMDSEP
 70
    46
  9
$DIMATFIT
 70
     3
  9
$DIMFRAC
 70
     0
  9
$DIMLDRBLK
  1

  9
$DIMLUNIT
 70
     2
  9
$DIMLWD
 70
    -2
  9
$DIMLWE
 70
    -2
  9
$DIMTMOVE
 70
     0
  9
$DIMFXL
 40
1.0
  9
$DIMFXLON
 70
     0
  9
$DIMJOGANG
 40
0.7853981633974483
  9
$DIMTFILL
 70
     0
  9
$DIMTFILLCLR
 70
     0
  9
$DIMARCSYM
 70
     0
  9
$DIMLTYPE
  6

  9
$DIMLTEX1
  6

  9
$DIMLTEX2
  6

  9
$DIMTXTDIRECTION
 70
     0
  9
$LUNITS
 70
     2
  9
$LUPREC
 70
     4
  9
$SKETCHINC
 40
0.1
  9
$FILLETRAD
 40
0.0
  9
$AUNITS
 70
     0
  9
$AUPREC
 70
     0
  9
$MENU
  1
.
  9
$ELEVATION
 40
0.0
  9
$PELEVATION
 40
0.0
  9
$THICKNESS
 40
0.0
  9
$LIMCHECK
 70
     0
  9
$CHAMFERA
 40
0.0
  9
$CHAMFERB
 40
0.0
  9
$CHAMFERC
 40
0.0
  9
$CHAMFERD
 40
0.0
  9
$SKPOLY
 70
     0
  9
$TDCREATE
 40
2460943.477256944
  9
$TDUCREATE
 40
2460943.727256945
  9
$TDUPDATE
 40
2460943.477256944
  9
$TDUUPDATE
 40
2460943.727256945
  9
$TDINDWG
 40
0.0000000000
  9
$TDUSRTIMER
 40
0.0000000000
  9
$USRTIMER
 70
     1
  9
$ANGBASE
 50
0.0
  9
$ANGDIR
 70
     0
  9
$PDMODE
 70
     0
  9
$PDSIZE
 40
0.0
  9
$PLINEWID
 40
0.0
  9
$SPLFRAME
 70
     0
  9
$SPLINETYPE
 70
     6
  9
$SPLINESEGS
 70
     8
  9
$HANDSEED
  5
246
  9
$SURFTAB1
 70
     6
  9
$SURFTAB2
 70
     6
  9
$SURFTYPE
 70
     6
  9
$SURFU
 70
     6
  9
$SURFV
 70
     6
  9
$UCSBASE
  2

  9
$UCSNAME
  2

  9
$UCSORG
 10
0.0
 20
0.0
 30
0.0
  9
$UCSXDIR
 10
1.0
 20
0.0
 30
0.0
  9
$UCSYDIR
 10
0.0
 20
1.0
 30
0.0
  9
$UCSORTHOREF
  2

  9
$UCSORTHOVIEW
 70
     0
  9
$UCSORGTOP
 10
0.0
 20
0.0
 30
0.0
  9
$UCSORGBOTTOM
 10
0.0
 20
0.0
 30
0.0
  9
$UCSORGLEFT
 10
0.0
 20
0.0
 30
0.0
  9
$UCSORGRIGHT
 10
0.0
 20
0.0
 30
0.0
  9
$UCSORGFRONT
 10
0.0
 20
0.0
 30
0.0
  9
$UCSORGBACK
 10
0.0
 20
0.0
 30
0.0
  9
$PUCSBASE
  2

  9
$PUCSNAME
  2

  9
$PUCSORG
 10
0.0
 20
0.0
 30
0.0
  9
$PUCSXDIR
 10
1.0
 20
0.0
 30
0.0
  9
$PUCSYDIR
 10
0.0
 20
1.0
 30
0.0
  9
$PUCSORTHOREF
  2

  9
$PUCSORTHOVIEW
 70
     0
  9
$PUCSORGTOP
 10
0.0
 20
0.0
 30
0.0
  9
$PUCSORGBOTTOM
 10
0.0
 20
0.0
 30
0.0
  9
$PUCSORGLEFT
 10
0.0
 20
0.0
 30
0.0
  9
$PUCSORGRIGHT
 10
0.0
 20
0.0
 30
0.0
  9
$PUCSORGFRONT
 10
0.0
 20
0.0
 30
0.0
  9
$PUCSORGBACK
 10
0.0
 20
0.0
 30
0.0
  9
$USERI1
 70
     0
  9
$USERI2
 70
     0
  9
$USERI3
 70
     0
  9
$USERI4
 70
     0
  9
$USERI5
 70
     0
  9
$USERR1
 40
0.0
  9
$USERR2
 40
0.0
  9
$USERR3
 40
0.0
  9
$USERR4
 40
0.0
  9
$USERR5
 40
0.0
  9
$WORLDVIEW
 70
     1
  9
$SHADEDGE
 70
     3
  9
$SHADEDIF
 70
    70
  9
$TILEMODE
 70
     1
  9
$MAXACTVP
 70
    64
  9
$PINSBASE
 10
0.0
 20
0.0
 30
0.0
  9
$PLIMCHECK
 70
     0
  9
$PEXTMIN
 10
1.000000000000000E+20
 20
1.000000000000000E+20
 30
1.000000000000000E+20
  9
$PEXTMAX
 10
-1.000000000000000E+20
 20
-1.000000000000000E+20
 30
-1.000000000000000E+20
  9
$PLIMMIN
 10
0.0
 20
0.0
  9
$PLIMMAX
 10
12.0
 20
9.0
  9
$UNITMODE
 70
     0
  9
$VISRETAIN
 70
     1
  9
$PLINEGEN
 70
     0
  9
$PSLTSCALE
 70
     1
  9
$TREEDEPTH
 70
  3020
  9
$CMLSTYLE
  2
Standard
  9
$CMLJUST
 70
     0
  9
$CMLSCALE
 40
1.0
  9
$PROXYGRAPHICS
 70
     1
  9
$MEASUREMENT
 70
     0
  9
$CELWEIGHT
370
    -1
  9
$ENDCAPS
280
     0
  9
$JOINSTYLE
280
     0
  9
$LWDISPLAY
290
     1
  9
$INSUNITS
 70
     4
  9
$HYPERLINKBASE
  1

  9
$STYLESHEET
  1

  9
$XEDIT
290
     1
  9
$CEPSNTYPE
380
     0
  9
$PSTYLEMODE
290
     1
  9
$FINGERPRINTGUID
  2
{58BEC0D8-883F-8248-B199-B3A7452FF31B}
  9
$VERSIONGUID
  2
{163A65BD-2FFC-5544-9F40-D392482C733E}
  9
$EXTNAMES
290
     1
  9
$PSVPSCALE
 40
0.0
  9
$OLESTARTUP
290
     0
  9
$SORTENTS
280
   127
  9
$INDEXCTL
280
     0
  9
$HIDETEXT
280
     1
  9
$XCLIPFRAME
280
     2
  9
$HALOGAP
280
     0
  9
$OBSCOLOR
 70
   257
  9
$OBSLTYPE
280
     0
  9
$INTERSECTIONDISPLAY
280
     0
  9
$INTERSECTIONCOLOR
 70
   257
  9
$DIMASSOC
280
     2
  9
$PROJECTNAME
  1

  9
$CAMERADISPLAY
290
     0
  9
$LENSLENGTH
 40
50.0
  9
$CAMERAHEIGHT
 40
0.0
  9
$STEPSPERSEC
 40
2.0
  9
$STEPSIZE
 40
6.0
  9
$3DDWFPREC
 40
2.0
  9
$PSOLWIDTH
 40
0.25
  9
$PSOLHEIGHT
 40
4.0
  9
$LOFTANG1
 40
1.570796326794896
  9
$LOFTANG2
 40
1.570796326794896
  9
$LOFTMAG1
 40
0.0
  9
$LOFTMAG2
 40
0.0
  9
$LOFTPARAM
 70
     7
  9
$LOFTNORMALS
280
     1
  9
$LATITUDE
 40
37.795
  9
$LONGITUDE
 40
-122.394
  9
$NORTHDIRECTION
 40
0.0
  9
$TIMEZONE
 70
 -8000
  9
$LIGHTGLYPHDISPLAY
280
     1
  9
$TILEMODELIGHTSYNCH
280
     1
  9
$CMATERIAL
347
11
  9
$SOLIDHIST
280
     0
  9
$SHOWHIST
280
     1
  9
$DWFFRAME
280
     2
  9
$DGNFRAME
280
     0
  9
$REALWORLDSCALE
290
     1
  9
$INTERFERECOLOR
 62
     1
  9
$INTERFEREOBJVS
345
33
  9
$INTERFEREVPVS
346
30
  9
$CSHADOW
280
     0
  9
$SHADOWPLANELOCATION
 40
0.0
  0
ENDSEC
  0
SECTION
  2
CLASSES
  0
CLASS
  1
ACDBDICTIONARYWDFLT
  2
AcDbDictionaryWithDefault
  3
ObjectDBX Classes
 90
        0
 91
        1
280
     0
281
     0
  0
CLASS
  1
MATERIAL
  2
AcDbMaterial
  3
ObjectDBX Classes
 90
     1153
 91
        3
280
     0
281
     0
  0
CLASS
  1
VISUALSTYLE
  2
AcDbVisualStyle
  3
ObjectDBX Classes
 90
     4095
 91
       24
280
     0
281
     0
  0
CLASS
  1
SCALE
  2
AcDbScale
  3
ObjectDBX Classes
 90
     1153
 91
       17
280
     0
281
     0
  0
CLASS
  1
TABLESTYLE
  2
AcDbTableStyle
  3
ObjectDBX Classes
 90
     4095
 91
        1
280
     0
281
     0
  0
CLASS
  1
MLEADERSTYLE
  2
AcDbMLeaderStyle
  3
ACDB_MLEADERSTYLE_CLASS
 90
     4095
 91
        1
280
     0
281
     0
  0
CLASS
  1
ACDBSECTIONVIEWSTYLE
  2
AcDbSectionViewStyle
  3
ObjectDBX Classes
 90
     1025
 91
        1
280
     0
281
     0
  0
CLASS
  1
ACDBDETAILVIEWSTYLE
  2
AcDbDetailViewStyle
  3
ObjectDBX Classes
 90
     1025
 91
        1
280
     0
281
     0
  0
CLASS
  1
DICTIONARYVAR
  2
AcDbDictionaryVar
  3
ObjectDBX Classes
 90
        0
 91
        5
280
     0
281
     0
  0
CLASS
  1
CELLSTYLEMAP
  2
AcDbCellStyleMap
  3
ObjectDBX Classes
 90
     1152
 91
        1
280
     0
281
     0
  0
ENDSEC
  0
SECTION
  2
TABLES
  0
TABLE
  2
VPORT
  5
8
330
0
100
AcDbSymbolTable
 70
     1
  0
VPORT
  5
57
330
8
100
AcDbSymbolTableRecord
100
AcDbViewportTableRecord
  2
*Active
 70
     0
 10
0.0
 20
0.0
 11
1.0
 21
1.0
 12
0.0
 22
0.0
 13
0.0
 23
0.0
 14
1.0
 24
1.0
 15
0.0
 25
0.0
 16
0.0
 26
0.0
 36
1.0
 17
149.9999999624996
 27
-149.9999999624996
 37
0.0
 40
305.9999999234992
 41
1.0
 42
50.0
 43
0.0
 44
0.0
 50
0.0
 51
0.0
 71
     0
 72
   100
 73
     1
 74
     1
 75
     0
 76
     0
 77
     0
 78
     0
281
     0
 65
     1
110
0.0
120
0.0
130
0.0
111
1.0
121
0.0
131
0.0
112
0.0
122
1.0
132
0.0
 79
     0
146
0.0
 60
     3
 61
     5
292
     1
282
     1
141
0.0
142
0.0
 63
   250
421
  3355443
  0
ENDTAB
  0
TABLE
  2
LTYPE
  5
5
330
0
100
AcDbSymbolTable
 70
     1
  0
LTYPE
  5
5B
330
5
100
AcDbSymbolTableRecord
100
AcDbLinetypeTableRecord
  2
ByBlock
 70
     0
  3

 72
    65
 73
     0
 40
0.0
  0
LTYPE
  5
5C
330
5
100
AcDbSymbolTableRecord
100
AcDbLinetypeTableRecord
  2
ByLayer
 70
     0
  3

 72
    65
 73
     0
 40
0.0
  0
LTYPE
  5
5D
330
5
100
AcDbSymbolTableRecord
100
AcDbLinetypeTableRecord
  2
Continuous
 70
     0
  3
Solid line
 72
    65
 73
     0
 40
0.0
  0
ENDTAB
  0
TABLE
  2
LAYER
  5
2
330
0
100
AcDbSymbolTable
 70
     2
  0
LAYER
  5
54
330
2
100
AcDbSymbolTableRecord
100
AcDbLayerTableRecord
  2
0
 70
     0
 62
     7
  6
Continuous
370
    -3
390
F
347
21
348
0
  0
LAYER
  5
78
330
2
100
AcDbSymbolTableRecord
100
AcDbLayerTableRecord
  2
Capa 1
 70
     0
 62
     7
  6
Continuous
370
     0
390
F
347
21
348
0
  0
ENDTAB
  0
TABLE
  2
STYLE
  5
3
330
0
100
AcDbSymbolTable
 70
     2
  0
STYLE
  5
55
330
3
100
AcDbSymbolTableRecord
100
AcDbTextStyleTableRecord
  2
Standard
 70
     0
 40
0.0
 41
1.0
 50
0.0
 71
     0
 42
0.2
  3
txt
  4

  0
STYLE
  5
5A
330
3
100
AcDbSymbolTableRecord
100
AcDbTextStyleTableRecord
  2
Annotative
 70
     0
 40
0.0
 41
1.0
 50
0.0
 71
     0
 42
0.2
  3
txt
  4

1001
AcadAnnotative
1000
AnnotativeData
1002
{
1070
     1
1070
     1
1002
}
  0
ENDTAB
  0
TABLE
  2
VIEW
  5
6
330
0
100
AcDbSymbolTable
 70
     0
  0
ENDTAB
  0
TABLE
  2
UCS
  5
7
330
0
100
AcDbSymbolTable
 70
     0
  0
ENDTAB
  0
TABLE
  2
APPID
  5
9
330
0
100
AcDbSymbolTable
 70
     2
  0
APPID
  5
56
330
9
100
AcDbSymbolTableRecord
100
AcDbRegAppTableRecord
  2
ACAD
 70
     0
  0
APPID
  5
5E
330
9
100
AcDbSymbolTableRecord
100
AcDbRegAppTableRecord
  2
AcadAnnotative
 70
     0
  0
ENDTAB
  0
TABLE
  2
DIMSTYLE
  5
A
330
0
100
AcDbSymbolTable
 70
     2
100
AcDbDimStyleTable
 71
     0
  0
DIMSTYLE
105
58
330
A
100
AcDbSymbolTableRecord
100
AcDbDimStyleTableRecord
  2
Standard
 70
     0
340
55
  0
DIMSTYLE
105
59
330
A
100
AcDbSymbolTableRecord
100
AcDbDimStyleTableRecord
  2
Annotative
 70
     0
340
55
1001
AcadAnnotative
1000
AnnotativeData
1002
{
1070
     1
1070
     1
1002
}
  0
ENDTAB
  0
TABLE
  2
BLOCK_RECORD
  5
1
330
0
100
AcDbSymbolTable
 70
     1
  0
BLOCK_RECORD
  5
70
330
1
100
AcDbSymbolTableRecord
100
AcDbBlockTableRecord
  2
*Model_Space
340
73
 70
     0
280
     1
281
     0
  0
BLOCK_RECORD
  5
6C
330
1
100
AcDbSymbolTableRecord
100
AcDbBlockTableRecord
  2
*Paper_Space
340
6F
 70
     0
280
     1
281
     0
  0
BLOCK_RECORD
  5
74
330
1
100
AcDbSymbolTableRecord
100
AcDbBlockTableRecord
  2
*Paper_Space0
340
77
 70
     0
280
     1
281
     0
  0
ENDTAB
  0
ENDSEC
  0
SECTION
  2
BLOCKS
  0
BLOCK
  5
71
330
70
100
AcDbEntity
  8
0
100
AcDbBlockBegin
  2
*Model_Space
 70
     0
 10
0.0
 20
0.0
 30
0.0
  3
*Model_Space
  1

  0
ENDBLK
  5
72
330
70
100
AcDbEntity
  8
0
100
AcDbBlockEnd
  0
BLOCK
  5
6D
330
6C
100
AcDbEntity
 67
     1
  8
0
100
AcDbBlockBegin
  2
*Paper_Space
 70
     0
 10
0.0
 20
0.0
 30
0.0
  3
*Paper_Space
  1

  0
ENDBLK
  5
6E
330
6C
100
AcDbEntity
 67
     1
  8
0
100
AcDbBlockEnd
  0
BLOCK
  5
75
330
74
100
AcDbEntity
 67
     1
  8
0
100
AcDbBlockBegin
  2
*Paper_Space0
 70
     0
 10
0.0
 20
0.0
 30
0.0
  3
*Paper_Space0
  1

  0
ENDBLK
  5
76
330
74
100
AcDbEntity
 67
     1
  8
0
100
AcDbBlockEnd
  0
ENDSEC
  0
SECTION
  2
ENTITIES
  0
CIRCLE
  5
79
330
70
100
AcDbEntity
  8
Capa 1
 62
    18
420
        0
370
    18
100
AcDbCircle
 10
124.48993503236
 20
-57.43420296031191
 30
0.0
 40
1.499999999999932
  0
CIRCLE
  5
7A
330
70
100
AcDbEntity
  8
Capa 1
 62
    18
420
        0
370
    18
100
AcDbCircle
 10
124.48993503236
 20
-74.43420296031212
 30
0.0
 40
1.500000000000052
  0
CIRCLE
  5
7B
330
70
100
AcDbEntity
  8
Capa 1
 62
    18
420
        0
370
    18
100
AcDbCircle
 10
109.4899350323601
 20
-74.43420296031212
 30
0.0
 40
1.500000000000052
  0
CIRCLE
  5
7C
330
70
100
AcDbEntity
  8
Capa 1
 62
    18
420
        0
370
    18
100
AcDbCircle
 10
109.4899350323601
 20
-57.43420296031191
 30
0.0
 40
1.499999999999932
  0
LINE
  5
7D
330
70
100
AcDbEntity
  8
Capa 1
 62
    18
420
        0
370
    18
100
AcDbLine
 10
114.98993503236
 20
-80.93452696031189
 30
0.0
 11
118.9899350323602
 21
-80.93452696031189
 31
0.0
  0
LINE
  5
7E
330
70
100
AcDbEntity
  8
Capa 1
 62
    18
420
        0
370
    18
100
AcDbLine
 10
114.98993503236
 20
-77.93452696031178
 30
0.0
 11
114.98993503236
 21
-80.93452696031189
 31
0.0
  0
LINE
  5
7F
330
70
100
AcDbEntity
  8
Capa 1
 62
    18
420
        0
370
    18
100
AcDbLine
 10
109.4899350323601
 20
-77.93452696031178
 30
0.0
 11
114.98993503236
 21
-77.93452696031178
 31
0.0
  0
LINE
  5
80
330
70
100
AcDbEntity
  8
Capa 1
 62
    18
420
        0
370
    18
100
AcDbLine
 10
109.4899350323601
 20
-80.93452696031189
 30
0.0
 11
109.4899350323601
 21
-77.93452696031178
 31
0.0
  0
LINE
  5
81
330
70
100
AcDbEntity
  8
Capa 1
 62
    18
420
        0
370
    18
100
AcDbLine
 10
105.48993503236
 20
-80.93452696031189
 30
0.0
 11
109.4899350323601
 21
-80.93452696031189
 31
0.0
  0
LINE
  5
82
330
70
100
AcDbEntity
  8
Capa 1
 62
    18
420
        0
370
    18
100
AcDbLine
 10
105.48993503236
 20
-68.93420296031192
 30
0.0
 11
105.48993503236
 21
-80.93452696031189
 31
0.0
  0
SPLINE
  5
83
330
70
100
AcDbEntity
  8
Capa 1
 62
    18
420
        0
370
    18
100
AcDbSpline
210
0.0
220
0.0
230
1.0
 70
     8
 71
     3
 72
    11
 73
     7
 74
     0
 42
0.0000000001
 43
0.0000000001
 40
0.0
 40
0.0
 40
0.0
 40
0.0
 40
1.0
 40
1.0
 40
1.0
 40
2.0
 40
2.0
 40
2.0
 40
2.0
 10
105.48993503236
 20
-62.93420296031203
 30
0.0
 10
107.1467892818525
 20
-62.93420296031203
 30
0.0
 10
108.4899350323601
 20
-64.27734871081959
 30
0.0
 10
108.4899350323601
 20
-65.93420296031213
 30
0.0
 10
108.4899350323601
 20
-67.59105720980436
 30
0.0
 10
107.1467892818525
 20
-68.93420296031192
 30
0.0
 10
105.48993503236
 20
-68.93420296031192
 30
0.0
  0
LINE
  5
84
330
70
100
AcDbEntity
  8
Capa 1
 62
    18
420
        0
370
    18
100
AcDbLine
 10
105.48993503236
 20
-26.93420296031205
 30
0.0
 11
105.48993503236
 21
-62.93420296031203
 31
0.0
  0
LINE
  5
85
330
70
100
AcDbEntity
  8
Capa 1
 62
    18
420
        0
370
    18
100
AcDbLine
 10
109.4899350323601
 20
-26.93420296031205
 30
0.0
 11
105.48993503236
 21
-26.93420296031205
 31
0.0
  0
LINE
  5
86
330
70
100
AcDbEntity
  8
Capa 1
 62
    18
420
        0
370
    18
100
AcDbLine
 10
109.4899350323601
 20
-29.93420296031215
 30
0.0
 11
109.4899350323601
 21
-26.93420296031205
 31
0.0
  0
LINE
  5
87
330
70
100
AcDbEntity
  8
Capa 1
 62
    18
420
        0
370
    18
100
AcDbLine
 10
114.98993503236
 20
-29.93420296031215
 30
0.0
 11
109.4899350323601
 21
-29.93420296031215
 31
0.0
  0
LINE
  5
88
330
70
100
AcDbEntity
  8
Capa 1
 62
    18
420
        0
370
    18
100
AcDbLine
 10
114.98993503236
 20
-26.93420296031205
 30
0.0
 11
114.98993503236
 21
-29.93420296031215
 31
0.0
  0
LINE
  5
89
330
70
100
AcDbEntity
  8
Capa 1
 62
    18
420
        0
370
    18
100
AcDbLine
 10
118.9899350323602
 20
-26.93420296031205
 30
0.0
 11
114.98993503236
 21
-26.93420296031205
 31
0.0
  0
LINE
  5
8A
330
70
100
AcDbEntity
  8
Capa 1
 62
    18
420
        0
370
    18
100
AcDbLine
 10
118.9899350323602
 20
-29.93420296031215
 30
0.0
 11
118.9899350323602
 21
-26.93420296031205
 31
0.0
  0
LINE
  5
8B
330
70
100
AcDbEntity
  8
Capa 1
 62
    18
420
        0
370
    18
100
AcDbLine
 10
124.48993503236
 20
-29.93420296031215
 30
0.0
 11
118.9899350323602
 21
-29.93420296031215
 31
0.0
  0
LINE
  5
8C
330
70
100
AcDbEntity
  8
Capa 1
 62
    18
420
        0
370
    18
100
AcDbLine
 10
124.48993503236
 20
-26.93420296031205
 30
0.0
 11
124.48993503236
 21
-29.93420296031215
 31
0.0
  0
LINE
  5
8D
330
70
100
AcDbEntity
  8
Capa 1
 62
    18
420
        0
370
    18
100
AcDbLine
 10
128.4899350323602
 20
-26.93420296031205
 30
0.0
 11
124.48993503236
 21
-26.93420296031205
 31
0.0
  0
LINE
  5
8E
330
70
100
AcDbEntity
  8
Capa 1
 62
    18
420
        0
370
    18
100
AcDbLine
 10
128.4899350323602
 20
-62.93420296031203
 30
0.0
 11
128.4899350323602
 21
-26.93420296031205
 31
0.0
  0
SPLINE
  5
8F
330
70
100
AcDbEntity
  8
Capa 1
 62
    18
420
        0
370
    18
100
AcDbSpline
210
0.0
220
0.0
230
1.0
 70
     8
 71
     3
 72
    11
 73
     7
 74
     0
 42
0.0000000001
 43
0.0000000001
 40
0.0
 40
0.0
 40
0.0
 40
0.0
 40
1.0
 40
1.0
 40
1.0
 40
2.0
 40
2.0
 40
2.0
 40
2.0
 10
128.4899350323602
 20
-68.93420296031192
 30
0.0
 10
126.8330807828677
 20
-68.93420296031192
 30
0.0
 10
125.4899350323601
 20
-67.59105720980436
 30
0.0
 10
125.4899350323601
 20
-65.93420296031213
 30
0.0
 10
125.4899350323601
 20
-64.27734871081959
 30
0.0
 10
126.8330807828677
 20
-62.93420296031203
 30
0.0
 10
128.4899350323602
 20
-62.93420296031203
 30
0.0
  0
LINE
  5
90
330
70
100
AcDbEntity
  8
Capa 1
 62
    18
420
        0
370
    18
100
AcDbLine
 10
128.4899350323602
 20
-80.93452696031189
 30
0.0
 11
128.4899350323602
 21
-68.93420296031192
 31
0.0
  0
LINE
  5
91
330
70
100
AcDbEntity
  8
Capa 1
 62
    18
420
        0
370
    18
100
AcDbLine
 10
124.48993503236
 20
-80.93452696031189
 30
0.0
 11
128.4899350323602
 21
-80.93452696031189
 31
0.0
  0
LINE
  5
92
330
70
100
AcDbEntity
  8
Capa 1
 62
    18
420
        0
370
    18
100
AcDbLine
 10
124.48993503236
 20
-77.93452696031178
 30
0.0
 11
124.48993503236
 21
-80.93452696031189
 31
0.0
  0
LINE
  5
93
330
70
100
AcDbEntity
  8
Capa 1
 62
    18
420
        0
370
    18
100
AcDbLine
 10
118.9899350323602
 20
-77.93452696031178
 30
0.0
 11
124.48993503236
 21
-77.93452696031178
 31
0.0
  0
LINE
  5
94
330
70
100
AcDbEntity
  8
Capa 1
 62
    18
420
        0
370
    18
100
AcDbLine
 10
118.9899350323602
 20
-80.93452696031189
 30
0.0
 11
118.9899350323602
 21
-77.93452696031178
 31
0.0
  0
CIRCLE
  5
95
330
70
100
AcDbEntity
  8
Capa 1
 62
    18
420
        0
370
    18
100
AcDbCircle
 10
28.63561503236008
 20
-56.85411596031191
 30
0.0
 40
1.500000000000052
  0
CIRCLE
  5
96
330
70
100
AcDbEntity
  8
Capa 1
 62
    18
420
        0
370
    18
100
AcDbCircle
 10
28.63561503236008
 20
-73.85411596031211
 30
0.0
 40
1.500000000000012
  0
CIRCLE
  5
97
330
70
100
AcDbEntity
  8
Capa 1
 62
    18
420
        0
370
    18
100
AcDbCircle
 10
13.63561503236019
 20
-73.85411596031211
 30
0.0
 40
1.500000000000012
  0
CIRCLE
  5
98
330
70
100
AcDbEntity
  8
Capa 1
 62
    18
420
        0
370
    18
100
AcDbCircle
 10
13.63561503236019
 20
-56.85411596031191
 30
0.0
 40
1.500000000000052
  0
LINE
  5
99
330
70
100
AcDbEntity
  8
Capa 1
 62
    18
420
        0
370
    18
100
AcDbLine
 10
19.13561503236007
 20
-80.35443896031225
 30
0.0
 11
23.13561503236021
 21
-80.35443896031225
 31
0.0
  0
LINE
  5
9A
330
70
100
AcDbEntity
  8
Capa 1
 62
    18
420
        0
370
    18
100
AcDbLine
 10
19.13561503236007
 20
-77.35443896031213
 30
0.0
 11
19.13561503236007
 21
-80.35443896031225
 31
0.0
  0
LINE
  5
9B
330
70
100
AcDbEntity
  8
Capa 1
 62
    18
420
        0
370
    18
100
AcDbLine
 10
13.63561503236019
 20
-77.35443896031213
 30
0.0
 11
19.13561503236007
 21
-77.35443896031213
 31
0.0
  0
LINE
  5
9C
330
70
100
AcDbEntity
  8
Capa 1
 62
    18
420
        0
370
    18
100
AcDbLine
 10
13.63561503236019
 20
-80.35443896031225
 30
0.0
 11
13.63561503236019
 21
-77.35443896031213
 31
0.0
  0
LINE
  5
9D
330
70
100
AcDbEntity
  8
Capa 1
 62
    18
420
        0
370
    18
100
AcDbLine
 10
9.635615032360053
 20
-80.35443896031225
 30
0.0
 11
13.63561503236019
 21
-80.35443896031225
 31
0.0
  0
LINE
  5
9E
330
70
100
AcDbEntity
  8
Capa 1
 62
    18
420
        0
370
    18
100
AcDbLine
 10
9.635615032360053
 20
-68.354115960312
 30
0.0
 11
9.635615032360053
 21
-80.35443896031225
 31
0.0
  0
SPLINE
  5
9F
330
70
100
AcDbEntity
  8
Capa 1
 62
    18
420
        0
370
    18
100
AcDbSpline
210
0.0
220
0.0
230
1.0
 70
     8
 71
     3
 72
    11
 73
     7
 74
     0
 42
0.0000000001
 43
0.0000000001
 40
0.0
 40
0.0
 40
0.0
 40
0.0
 40
1.0
 40
1.0
 40
1.0
 40
2.0
 40
2.0
 40
2.0
 40
2.0
 10
9.635615032360053
 20
-62.35411596031211
 30
0.0
 10
11.2924692818526
 20
-62.35411596031211
 30
0.0
 10
12.63561503236016
 20
-63.69726171081967
 30
0.0
 10
12.63561503236016
 20
-65.3541159603119
 30
0.0
 10
12.63561503236016
 20
-67.01097020980444
 30
0.0
 10
11.2924692818526
 20
-68.354115960312
 30
0.0
 10
9.635615032360053
 20
-68.354115960312
 30
0.0
  0
LINE
  5
A0
330
70
100
AcDbEntity
  8
Capa 1
 62
    18
420
        0
370
    18
100
AcDbLine
 10
9.635615032360053
 20
-26.35411596031212
 30
0.0
 11
9.635615032360053
 21
-62.35411596031211
 31
0.0
  0
LINE
  5
A1
330
70
100
AcDbEntity
  8
Capa 1
 62
    18
420
        0
370
    18
100
AcDbLine
 10
13.63561503236019
 20
-26.35411596031212
 30
0.0
 11
9.635615032360053
 21
-26.35411596031212
 31
0.0
  0
LINE
  5
A2
330
70
100
AcDbEntity
  8
Capa 1
 62
    18
420
        0
370
    18
100
AcDbLine
 10
13.63561503236019
 20
-29.35411596031191
 30
0.0
 11
13.63561503236019
 21
-26.35411596031212
 31
0.0
  0
LINE
  5
A3
330
70
100
AcDbEntity
  8
Capa 1
 62
    18
420
        0
370
    18
100
AcDbLine
 10
19.13561503236007
 20
-29.35411596031191
 30
0.0
 11
13.63561503236019
 21
-29.35411596031191
 31
0.0
  0
LINE
  5
A4
330
70
100
AcDbEntity
  8
Capa 1
 62
    18
420
        0
370
    18
100
AcDbLine
 10
19.13561503236007
 20
-26.35411596031212
 30
0.0
 11
19.13561503236007
 21
-29.35411596031191
 31
0.0
  0
LINE
  5
A5
330
70
100
AcDbEntity
  8
Capa 1
 62
    18
420
        0
370
    18
100
AcDbLine
 10
23.13561503236021
 20
-26.35411596031212
 30
0.0
 11
19.13561503236007
 21
-26.35411596031212
 31
0.0
  0
LINE
  5
A6
330
70
100
AcDbEntity
  8
Capa 1
 62
    18
420
        0
370
    18
100
AcDbLine
 10
23.13561503236021
 20
-29.35411596031191
 30
0.0
 11
23.13561503236021
 21
-26.35411596031212
 31
0.0
  0
LINE
  5
A7
330
70
100
AcDbEntity
  8
Capa 1
 62
    18
420
        0
370
    18
100
AcDbLine
 10
28.63561503236008
 20
-29.35411596031191
 30
0.0
 11
23.13561503236021
 21
-29.35411596031191
 31
0.0
  0
LINE
  5
A8
330
70
100
AcDbEntity
  8
Capa 1
 62
    18
420
        0
370
    18
100
AcDbLine
 10
28.63561503236008
 20
-26.35411596031212
 30
0.0
 11
28.63561503236008
 21
-29.35411596031191
 31
0.0
  0
LINE
  5
A9
330
70
100
AcDbEntity
  8
Capa 1
 62
    18
420
        0
370
    18
100
AcDbLine
 10
32.63561503236022
 20
-26.35411596031212
 30
0.0
 11
28.63561503236008
 21
-26.35411596031212
 31
0.0
  0
LINE
  5
AA
330
70
100
AcDbEntity
  8
Capa 1
 62
    18
420
        0
370
    18
100
AcDbLine
 10
32.63561503236022
 20
-62.35411596031211
 30
0.0
 11
32.63561503236022
 21
-26.35411596031212
 31
0.0
  0
SPLINE
  5
AB
330
70
100
AcDbEntity
  8
Capa 1
 62
    18
420
        0
370
    18
100
AcDbSpline
210
0.0
220
0.0
230
1.0
 70
     8
 71
     3
 72
    11
 73
     7
 74
     0
 42
0.0000000001
 43
0.0000000001
 40
0.0
 40
0.0
 40
0.0
 40
0.0
 40
1.0
 40
1.0
 40
1.0
 40
2.0
 40
2.0
 40
2.0
 40
2.0
 10
32.63561503236022
 20
-68.354115960312
 30
0.0
 10
30.97876078286768
 20
-68.354115960312
 30
0.0
 10
29.63561503236012
 20
-67.01097020980444
 30
0.0
 10
29.63561503236012
 20
-65.3541159603119
 30
0.0
 10
29.63561503236012
 20
-63.69726171081967
 30
0.0
 10
30.97876078286768
 20
-62.35411596031211
 30
0.0
 10
32.63561503236022
 20
-62.35411596031211
 30
0.0
  0
LINE
  5
AC
330
70
100
AcDbEntity
  8
Capa 1
 62
    18
420
        0
370
    18
100
AcDbLine
 10
32.63561503236022
 20
-80.35443896031225
 30
0.0
 11
32.63561503236022
 21
-68.354115960312
 31
0.0
  0
LINE
  5
AD
330
70
100
AcDbEntity
  8
Capa 1
 62
    18
420
        0
370
    18
100
AcDbLine
 10
28.63561503236008
 20
-80.35443896031225
 30
0.0
 11
32.63561503236022
 21
-80.35443896031225
 31
0.0
  0
LINE
  5
AE
330
70
100
AcDbEntity
  8
Capa 1
 62
    18
420
        0
370
    18
100
AcDbLine
 10
28.63561503236008
 20
-77.35443896031213
 30
0.0
 11
28.63561503236008
 21
-80.35443896031225
 31
0.0
  0
LINE
  5
AF
330
70
100
AcDbEntity
  8
Capa 1
 62
    18
420
        0
370
    18
100
AcDbLine
 10
23.13561503236021
 20
-77.35443896031213
 30
0.0
 11
28.63561503236008
 21
-77.35443896031213
 31
0.0
  0
LINE
  5
B0
330
70
100
AcDbEntity
  8
Capa 1
 62
    18
420
        0
370
    18
100
AcDbLine
 10
23.13561503236021
 20
-80.35443896031225
 30
0.0
 11
23.13561503236021
 21
-77.35443896031213
 31
0.0
  0
LINE
  5
B1
330
70
100
AcDbEntity
  8
Capa 1
 62
    18
420
        0
370
    18
100
AcDbLine
 10
20.76404203236024
 20
-138.4159969603123
 30
0.0
 11
20.76404203236024
 21
-135.4159969603121
 31
0.0
  0
LINE
  5
B2
330
70
100
AcDbEntity
  8
Capa 1
 62
    18
420
        0
370
    18
100
AcDbLine
 10
26.10143903236026
 20
-138.4159969603123
 30
0.0
 11
20.76404203236024
 21
-138.4159969603123
 31
0.0
  0
SPLINE
  5
B3
330
70
100
AcDbEntity
  8
Capa 1
 62
    18
420
        0
370
    18
100
AcDbSpline
210
0.0
220
0.0
230
1.0
 70
     8
 71
     3
 72
     8
 73
     4
 74
     0
 42
0.0000000001
 43
0.0000000001
 40
0.0
 40
0.0
 40
0.0
 40
0.0
 40
1.0
 40
1.0
 40
1.0
 40
1.0
 10
19.26404203236018
 20
-143.9159969603121
 30
0.0
 10
22.55203489892142
 20
-143.9159969603121
 30
0.0
 10
25.39686930752585
 20
-141.6276131059185
 30
0.0
 10
26.10143920099075
 20
-138.4159969464464
 30
0.0
  0
LINE
  5
B4
330
70
100
AcDbEntity
  8
Capa 1
 62
    18
420
        0
370
    18
100
AcDbLine
 10
12.26404203236026
 20
-143.9159969603121
 30
0.0
 11
19.26404203236018
 21
-143.9159969603121
 31
0.0
  0
LINE
  5
B5
330
70
100
AcDbEntity
  8
Capa 1
 62
    18
420
        0
370
    18
100
AcDbLine
 10
12.26404203236026
 20
-139.915996960312
 30
0.0
 11
12.26404203236026
 21
-143.9159969603121
 31
0.0
  0
LINE
  5
B6
330
70
100
AcDbEntity
  8
Capa 1
 62
    18
420
        0
370
    18
100
AcDbLine
 10
15.26404203236004
 20
-139.915996960312
 30
0.0
 11
12.26404203236026
 21
-139.915996960312
 31
0.0
  0
LINE
  5
B7
330
70
100
AcDbEntity
  8
Capa 1
 62
    18
420
        0
370
    18
100
AcDbLine
 10
15.26404203236004
 20
-133.9159969603118
 30
0.0
 11
15.26404203236004
 21
-139.915996960312
 31
0.0
  0
LINE
  5
B8
330
70
100
AcDbEntity
  8
Capa 1
 62
    18
420
        0
370
    18
100
AcDbLine
 10
12.26404203236026
 20
-133.9159969603118
 30
0.0
 11
15.26404203236004
 21
-133.9159969603118
 31
0.0
  0
LINE
  5
B9
330
70
100
AcDbEntity
  8
Capa 1
 62
    18
420
        0
370
    18
100
AcDbLine
 10
12.26404203236026
 20
-129.9159969603123
 30
0.0
 11
12.26404203236026
 21
-133.9159969603118
 31
0.0
  0
LINE
  5
BA
330
70
100
AcDbEntity
  8
Capa 1
 62
    18
420
        0
370
    18
100
AcDbLine
 10
19.26404203236018
 20
-129.9159969603123
 30
0.0
 11
12.26404203236026
 21
-129.9159969603123
 31
0.0
  0
SPLINE
  5
BB
330
70
100
AcDbEntity
  8
Capa 1
 62
    18
420
        0
370
    18
100
AcDbSpline
210
0.0
220
0.0
230
1.0
 70
     8
 71
     3
 72
     8
 73
     4
 74
     0
 42
0.0000000001
 43
0.0000000001
 40
0.0
 40
0.0
 40
0.0
 40
0.0
 40
1.0
 40
1.0
 40
1.0
 40
1.0
 10
26.10143920099075
 20
-135.4159969741773
 30
0.0
 10
25.39686930752617
 20
-132.2043808147052
 30
0.0
 10
22.55203489892142
 20
-129.9159969603116
 30
0.0
 10
19.26404203236018
 20
-129.9159969603116
 30
0.0
  0
LINE
  5
BC
330
70
100
AcDbEntity
  8
Capa 1
 62
    18
420
        0
370
    18
100
AcDbLine
 10
20.76404203236024
 20
-135.4159969603121
 30
0.0
 11
26.10143903236026
 21
-135.4159969603121
 31
0.0
  0
LINE
  5
BD
330
70
100
AcDbEntity
  8
Capa 1
 62
    18
420
        0
370
    18
100
AcDbLine
 10
15.26404203236004
 20
-122.915996960312
 30
0.0
 11
15.26404203236004
 21
-124.4159969603118
 31
0.0
  0
LINE
  5
BE
330
70
100
AcDbEntity
  8
Capa 1
 62
    18
420
        0
370
    18
100
AcDbLine
 10
15.26404203236004
 20
-124.4159969603118
 30
0.0
 11
12.26404203236026
 21
-124.4159969603118
 31
0.0
  0
LINE
  5
BF
330
70
100
AcDbEntity
  8
Capa 1
 62
    18
420
        0
370
    18
100
AcDbLine
 10
12.26404203236026
 20
-124.4159969603118
 30
0.0
 11
12.26404203236026
 21
-128.4159969603119
 31
0.0
  0
LINE
  5
C0
330
70
100
AcDbEntity
  8
Capa 1
 62
    18
420
        0
370
    18
100
AcDbLine
 10
12.26404203236026
 20
-128.4159969603119
 30
0.0
 11
19.26404203236018
 21
-128.4159969603119
 31
0.0
  0
SPLINE
  5
C1
330
70
100
AcDbEntity
  8
Capa 1
 62
    18
420
        0
370
    18
100
AcDbSpline
210
0.0
220
0.0
230
1.0
 70
     8
 71
     3
 72
    11
 73
     7
 74
     0
 42
0.0000000001
 43
0.0000000001
 40
0.0
 40
0.0
 40
0.0
 40
0.0
 40
1.0
 40
1.0
 40
1.0
 40
2.0
 40
2.0
 40
2.0
 40
2.0
 10
19.26404203236018
 20
-114.415996960312
 30
0.0
 10
23.13003528117559
 20
-114.415996960312
 30
0.0
 10
26.26404203236011
 20
-117.5500037114962
 30
0.0
 10
26.26404203236011
 20
-121.4159969603123
 30
0.0
 10
26.26404203236011
 20
-125.2819902091277
 30
0.0
 10
23.13003528117559
 20
-128.4159969603119
 30
0.0
 10
19.26404203236018
 20
-128.4159969603119
 30
0.0
  0
LINE
  5
C2
330
70
100
AcDbEntity
  8
Capa 1
 62
    18
420
        0
370
    18
100
AcDbLine
 10
19.26404203236018
 20
-114.415996960312
 30
0.0
 11
12.26404203236026
 21
-114.415996960312
 31
0.0
  0
LINE
  5
C3
330
70
100
AcDbEntity
  8
Capa 1
 62
    18
420
        0
370
    18
100
AcDbLine
 10
12.26404203236026
 20
-114.415996960312
 30
0.0
 11
12.26404203236026
 21
-118.4159969603122
 31
0.0
  0
LINE
  5
C4
330
70
100
AcDbEntity
  8
Capa 1
 62
    18
420
        0
370
    18
100
AcDbLine
 10
12.26404203236026
 20
-118.4159969603122
 30
0.0
 11
15.26404203236004
 21
-118.4159969603122
 31
0.0
  0
LINE
  5
C5
330
70
100
AcDbEntity
  8
Capa 1
 62
    18
420
        0
370
    18
100
AcDbLine
 10
15.26404203236004
 20
-118.4159969603122
 30
0.0
 11
15.26404203236004
 21
-119.9159969603119
 31
0.0
  0
LINE
  5
C6
330
70
100
AcDbEntity
  8
Capa 1
 62
    18
420
        0
370
    18
100
AcDbLine
 10
20.76404203236024
 20
-119.9159969603119
 30
0.0
 11
15.26404203236004
 21
-119.9159969603119
 31
0.0
  0
LINE
  5
C7
330
70
100
AcDbEntity
  8
Capa 1
 62
    18
420
        0
370
    18
100
AcDbLine
 10
20.76404203236024
 20
-122.915996960312
 30
0.0
 11
20.76404203236024
 21
-119.9159969603119
 31
0.0
  0
LINE
  5
C8
330
70
100
AcDbEntity
  8
Capa 1
 62
    18
420
        0
370
    18
100
AcDbLine
 10
15.26404203236004
 20
-122.915996960312
 30
0.0
 11
20.76404203236024
 21
-122.915996960312
 31
0.0
  0
LINE
  5
C9
330
70
100
AcDbEntity
  8
Capa 1
 62
    18
420
        0
370
    18
100
AcDbLine
 10
156.3914370323606
 20
-113.228280960312
 30
0.0
 11
156.3914370323606
 21
-117.2282809603122
 31
0.0
  0
LINE
  5
CA
330
70
100
AcDbEntity
  8
Capa 1
 62
    18
420
        0
370
    18
100
AcDbLine
 10
210.3914370323599
 20
-113.228280960312
 30
0.0
 11
156.3914370323606
 21
-113.228280960312
 31
0.0
  0
LINE
  5
CB
330
70
100
AcDbEntity
  8
Capa 1
 62
    18
420
        0
370
    18
100
AcDbLine
 10
210.3914370323599
 20
-117.2282809603122
 30
0.0
 11
210.3914370323599
 21
-113.228280960312
 31
0.0
  0
LINE
  5
CC
330
70
100
AcDbEntity
  8
Capa 1
 62
    18
420
        0
370
    18
100
AcDbLine
 10
207.3914370323604
 20
-117.2282809603122
 30
0.0
 11
210.3914370323599
 21
-117.2282809603122
 31
0.0
  0
LINE
  5
CD
330
70
100
AcDbEntity
  8
Capa 1
 62
    18
420
        0
370
    18
100
AcDbLine
 10
207.3914370323604
 20
-118.7282809603119
 30
0.0
 11
207.3914370323604
 21
-117.2282809603122
 31
0.0
  0
LINE
  5
CE
330
70
100
AcDbEntity
  8
Capa 1
 62
    18
420
        0
370
    18
100
AcDbLine
 10
205.3914370323604
 20
-118.7282809603119
 30
0.0
 11
207.3914370323604
 21
-118.7282809603119
 31
0.0
  0
LINE
  5
CF
330
70
100
AcDbEntity
  8
Capa 1
 62
    18
420
        0
370
    18
100
AcDbLine
 10
205.3914370323604
 20
-117.4282809603122
 30
0.0
 11
205.3914370323604
 21
-118.7282809603119
 31
0.0
  0
LINE
  5
D0
330
70
100
AcDbEntity
  8
Capa 1
 62
    18
420
        0
370
    18
100
AcDbLine
 10
202.89143703236
 20
-117.4282809603122
 30
0.0
 11
205.3914370323604
 21
-117.4282809603122
 31
0.0
  0
LINE
  5
D1
330
70
100
AcDbEntity
  8
Capa 1
 62
    18
420
        0
370
    18
100
AcDbLine
 10
202.89143703236
 20
-118.7282809603119
 30
0.0
 11
202.89143703236
 21
-117.4282809603122
 31
0.0
  0
LINE
  5
D2
330
70
100
AcDbEntity
  8
Capa 1
 62
    18
420
        0
370
    18
100
AcDbLine
 10
199.8914370323605
 20
-118.7282809603119
 30
0.0
 11
202.89143703236
 21
-118.7282809603119
 31
0.0
  0
LINE
  5
D3
330
70
100
AcDbEntity
  8
Capa 1
 62
    18
420
        0
370
    18
100
AcDbLine
 10
199.8914370323605
 20
-121.728280960312
 30
0.0
 11
199.8914370323605
 21
-118.7282809603119
 31
0.0
  0
LINE
  5
D4
330
70
100
AcDbEntity
  8
Capa 1
 62
    18
420
        0
370
    18
100
AcDbLine
 10
202.89143703236
 20
-121.728280960312
 30
0.0
 11
199.8914370323605
 21
-121.728280960312
 31
0.0
  0
LINE
  5
D5
330
70
100
AcDbEntity
  8
Capa 1
 62
    18
420
        0
370
    18
100
AcDbLine
 10
202.89143703236
 20
-123.0282809603117
 30
0.0
 11
202.89143703236
 21
-121.728280960312
 31
0.0
  0
LINE
  5
D6
330
70
100
AcDbEntity
  8
Capa 1
 62
    18
420
        0
370
    18
100
AcDbLine
 10
205.3914370323604
 20
-123.0282809603117
 30
0.0
 11
202.89143703236
 21
-123.0282809603117
 31
0.0
  0
LINE
  5
D7
330
70
100
AcDbEntity
  8
Capa 1
 62
    18
420
        0
370
    18
100
AcDbLine
 10
205.3914370323604
 20
-121.728280960312
 30
0.0
 11
205.3914370323604
 21
-123.0282809603117
 31
0.0
  0
LINE
  5
D8
330
70
100
AcDbEntity
  8
Capa 1
 62
    18
420
        0
370
    18
100
AcDbLine
 10
207.3914370323604
 20
-121.728280960312
 30
0.0
 11
205.3914370323604
 21
-121.728280960312
 31
0.0
  0
LINE
  5
D9
330
70
100
AcDbEntity
  8
Capa 1
 62
    18
420
        0
370
    18
100
AcDbLine
 10
207.3914370323604
 20
-123.2282809603117
 30
0.0
 11
207.3914370323604
 21
-121.728280960312
 31
0.0
  0
LINE
  5
DA
330
70
100
AcDbEntity
  8
Capa 1
 62
    18
420
        0
370
    18
100
AcDbLine
 10
210.3914370323599
 20
-123.2282809603117
 30
0.0
 11
207.3914370323604
 21
-123.2282809603117
 31
0.0
  0
LINE
  5
DB
330
70
100
AcDbEntity
  8
Capa 1
 62
    18
420
        0
370
    18
100
AcDbLine
 10
210.3914370323599
 20
-127.2282809603119
 30
0.0
 11
210.3914370323599
 21
-123.2282809603117
 31
0.0
  0
LINE
  5
DC
330
70
100
AcDbEntity
  8
Capa 1
 62
    18
420
        0
370
    18
100
AcDbLine
 10
156.3914370323606
 20
-127.2282809603119
 30
0.0
 11
210.3914370323599
 21
-127.2282809603119
 31
0.0
  0
LINE
  5
DD
330
70
100
AcDbEntity
  8
Capa 1
 62
    18
420
        0
370
    18
100
AcDbLine
 10
156.3914370323606
 20
-123.2282809603117
 30
0.0
 11
156.3914370323606
 21
-127.2282809603119
 31
0.0
  0
LINE
  5
DE
330
70
100
AcDbEntity
  8
Capa 1
 62
    18
420
        0
370
    18
100
AcDbLine
 10
159.39143703236
 20
-123.2282809603117
 30
0.0
 11
156.3914370323606
 21
-123.2282809603117
 31
0.0
  0
LINE
  5
DF
330
70
100
AcDbEntity
  8
Capa 1
 62
    18
420
        0
370
    18
100
AcDbLine
 10
159.39143703236
 20
-121.728280960312
 30
0.0
 11
159.39143703236
 21
-123.2282809603117
 31
0.0
  0
LINE
  5
E0
330
70
100
AcDbEntity
  8
Capa 1
 62
    18
420
        0
370
    18
100
AcDbLine
 10
161.3914370323601
 20
-121.728280960312
 30
0.0
 11
159.39143703236
 21
-121.728280960312
 31
0.0
  0
LINE
  5
E1
330
70
100
AcDbEntity
  8
Capa 1
 62
    18
420
        0
370
    18
100
AcDbLine
 10
161.3914370323601
 20
-123.0282809603117
 30
0.0
 11
161.3914370323601
 21
-121.728280960312
 31
0.0
  0
LINE
  5
E2
330
70
100
AcDbEntity
  8
Capa 1
 62
    18
420
        0
370
    18
100
AcDbLine
 10
163.8914370323605
 20
-123.0282809603117
 30
0.0
 11
161.3914370323601
 21
-123.0282809603117
 31
0.0
  0
LINE
  5
E3
330
70
100
AcDbEntity
  8
Capa 1
 62
    18
420
        0
370
    18
100
AcDbLine
 10
163.8914370323605
 20
-121.728280960312
 30
0.0
 11
163.8914370323605
 21
-123.0282809603117
 31
0.0
  0
LINE
  5
E4
330
70
100
AcDbEntity
  8
Capa 1
 62
    18
420
        0
370
    18
100
AcDbLine
 10
166.89143703236
 20
-121.728280960312
 30
0.0
 11
163.8914370323605
 21
-121.728280960312
 31
0.0
  0
LINE
  5
E5
330
70
100
AcDbEntity
  8
Capa 1
 62
    18
420
        0
370
    18
100
AcDbLine
 10
166.89143703236
 20
-118.7282809603119
 30
0.0
 11
166.89143703236
 21
-121.728280960312
 31
0.0
  0
LINE
  5
E6
330
70
100
AcDbEntity
  8
Capa 1
 62
    18
420
        0
370
    18
100
AcDbLine
 10
163.8914370323605
 20
-118.7282809603119
 30
0.0
 11
166.89143703236
 21
-118.7282809603119
 31
0.0
  0
LINE
  5
E7
330
70
100
AcDbEntity
  8
Capa 1
 62
    18
420
        0
370
    18
100
AcDbLine
 10
163.8914370323605
 20
-117.4282809603122
 30
0.0
 11
163.8914370323605
 21
-118.7282809603119
 31
0.0
  0
LINE
  5
E8
330
70
100
AcDbEntity
  8
Capa 1
 62
    18
420
        0
370
    18
100
AcDbLine
 10
161.3914370323601
 20
-117.4282809603122
 30
0.0
 11
163.8914370323605
 21
-117.4282809603122
 31
0.0
  0
LINE
  5
E9
330
70
100
AcDbEntity
  8
Capa 1
 62
    18
420
        0
370
    18
100
AcDbLine
 10
161.3914370323601
 20
-118.7282809603119
 30
0.0
 11
161.3914370323601
 21
-117.4282809603122
 31
0.0
  0
LINE
  5
EA
330
70
100
AcDbEntity
  8
Capa 1
 62
    18
420
        0
370
    18
100
AcDbLine
 10
159.39143703236
 20
-118.7282809603119
 30
0.0
 11
161.3914370323601
 21
-118.7282809603119
 31
0.0
  0
LINE
  5
EB
330
70
100
AcDbEntity
  8
Capa 1
 62
    18
420
        0
370
    18
100
AcDbLine
 10
159.39143703236
 20
-117.2282809603122
 30
0.0
 11
159.39143703236
 21
-118.7282809603119
 31
0.0
  0
LINE
  5
EC
330
70
100
AcDbEntity
  8
Capa 1
 62
    18
420
        0
370
    18
100
AcDbLine
 10
156.3914370323606
 20
-117.2282809603122
 30
0.0
 11
159.39143703236
 21
-117.2282809603122
 31
0.0
  0
LINE
  5
ED
330
70
100
AcDbEntity
  8
Capa 1
 62
    18
420
        0
370
    18
100
AcDbLine
 10
210.3914370323599
 20
-142.9352209603118
 30
0.0
 11
210.3914370323599
 21
-138.9352209603123
 31
0.0
  0
LINE
  5
EE
330
70
100
AcDbEntity
  8
Capa 1
 62
    18
420
        0
370
    18
100
AcDbLine
 10
156.3914370323606
 20
-142.9352209603118
 30
0.0
 11
210.3914370323599
 21
-142.9352209603118
 31
0.0
  0
LINE
  5
EF
330
70
100
AcDbEntity
  8
Capa 1
 62
    18
420
        0
370
    18
100
AcDbLine
 10
156.3914370323606
 20
-138.9352209603123
 30
0.0
 11
156.3914370323606
 21
-142.9352209603118
 31
0.0
  0
LINE
  5
F0
330
70
100
AcDbEntity
  8
Capa 1
 62
    18
420
        0
370
    18
100
AcDbLine
 10
159.39143703236
 20
-138.9352209603123
 30
0.0
 11
156.3914370323606
 21
-138.9352209603123
 31
0.0
  0
LINE
  5
F1
330
70
100
AcDbEntity
  8
Capa 1
 62
    18
420
        0
370
    18
100
AcDbLine
 10
159.39143703236
 20
-137.4352209603119
 30
0.0
 11
159.39143703236
 21
-138.9352209603123
 31
0.0
  0
LINE
  5
F2
330
70
100
AcDbEntity
  8
Capa 1
 62
    18
420
        0
370
    18
100
AcDbLine
 10
161.3914370323601
 20
-137.4352209603119
 30
0.0
 11
159.39143703236
 21
-137.4352209603119
 31
0.0
  0
LINE
  5
F3
330
70
100
AcDbEntity
  8
Capa 1
 62
    18
420
        0
370
    18
100
AcDbLine
 10
161.3914370323601
 20
-138.7352209603123
 30
0.0
 11
161.3914370323601
 21
-137.4352209603119
 31
0.0
  0
LINE
  5
F4
330
70
100
AcDbEntity
  8
Capa 1
 62
    18
420
        0
370
    18
100
AcDbLine
 10
163.8914370323605
 20
-138.7352209603123
 30
0.0
 11
161.3914370323601
 21
-138.7352209603123
 31
0.0
  0
LINE
  5
F5
330
70
100
AcDbEntity
  8
Capa 1
 62
    18
420
        0
370
    18
100
AcDbLine
 10
163.8914370323605
 20
-137.4352209603119
 30
0.0
 11
163.8914370323605
 21
-138.7352209603123
 31
0.0
  0
LINE
  5
F6
330
70
100
AcDbEntity
  8
Capa 1
 62
    18
420
        0
370
    18
100
AcDbLine
 10
166.89143703236
 20
-137.4352209603119
 30
0.0
 11
163.8914370323605
 21
-137.4352209603119
 31
0.0
  0
LINE
  5
F7
330
70
100
AcDbEntity
  8
Capa 1
 62
    18
420
        0
370
    18
100
AcDbLine
 10
166.89143703236
 20
-134.4352209603118
 30
0.0
 11
166.89143703236
 21
-137.4352209603119
 31
0.0
  0
LINE
  5
F8
330
70
100
AcDbEntity
  8
Capa 1
 62
    18
420
        0
370
    18
100
AcDbLine
 10
163.8914370323605
 20
-134.4352209603118
 30
0.0
 11
166.89143703236
 21
-134.4352209603118
 31
0.0
  0
LINE
  5
F9
330
70
100
AcDbEntity
  8
Capa 1
 62
    18
420
        0
370
    18
100
AcDbLine
 10
163.8914370323605
 20
-133.1352209603121
 30
0.0
 11
163.8914370323605
 21
-134.4352209603118
 31
0.0
  0
LINE
  5
FA
330
70
100
AcDbEntity
  8
Capa 1
 62
    18
420
        0
370
    18
100
AcDbLine
 10
161.3914370323601
 20
-133.1352209603121
 30
0.0
 11
163.8914370323605
 21
-133.1352209603121
 31
0.0
  0
LINE
  5
FB
330
70
100
AcDbEntity
  8
Capa 1
 62
    18
420
        0
370
    18
100
AcDbLine
 10
161.3914370323601
 20
-134.4352209603118
 30
0.0
 11
161.3914370323601
 21
-133.1352209603121
 31
0.0
  0
LINE
  5
FC
330
70
100
AcDbEntity
  8
Capa 1
 62
    18
420
        0
370
    18
100
AcDbLine
 10
159.39143703236
 20
-134.4352209603118
 30
0.0
 11
161.3914370323601
 21
-134.4352209603118
 31
0.0
  0
LINE
  5
FD
330
70
100
AcDbEntity
  8
Capa 1
 62
    18
420
        0
370
    18
100
AcDbLine
 10
159.39143703236
 20
-132.935220960312
 30
0.0
 11
159.39143703236
 21
-134.4352209603118
 31
0.0
  0
LINE
  5
FE
330
70
100
AcDbEntity
  8
Capa 1
 62
    18
420
        0
370
    18
100
AcDbLine
 10
156.3914370323606
 20
-132.935220960312
 30
0.0
 11
159.39143703236
 21
-132.935220960312
 31
0.0
  0
LINE
  5
FF
330
70
100
AcDbEntity
  8
Capa 1
 62
    18
420
        0
370
    18
100
AcDbLine
 10
156.3914370323606
 20
-128.9352209603119
 30
0.0
 11
156.3914370323606
 21
-132.935220960312
 31
0.0
  0
LINE
  5
100
330
70
100
AcDbEntity
  8
Capa 1
 62
    18
420
        0
370
    18
100
AcDbLine
 10
210.3914370323599
 20
-128.9352209603119
 30
0.0
 11
156.3914370323606
 21
-128.9352209603119
 31
0.0
  0
LINE
  5
101
330
70
100
AcDbEntity
  8
Capa 1
 62
    18
420
        0
370
    18
100
AcDbLine
 10
210.3914370323599
 20
-132.935220960312
 30
0.0
 11
210.3914370323599
 21
-128.9352209603119
 31
0.0
  0
LINE
  5
102
330
70
100
AcDbEntity
  8
Capa 1
 62
    18
420
        0
370
    18
100
AcDbLine
 10
207.3914370323604
 20
-132.935220960312
 30
0.0
 11
210.3914370323599
 21
-132.935220960312
 31
0.0
  0
LINE
  5
103
330
70
100
AcDbEntity
  8
Capa 1
 62
    18
420
        0
370
    18
100
AcDbLine
 10
207.3914370323604
 20
-134.4352209603118
 30
0.0
 11
207.3914370323604
 21
-132.935220960312
 31
0.0
  0
LINE
  5
104
330
70
100
AcDbEntity
  8
Capa 1
 62
    18
420
        0
370
    18
100
AcDbLine
 10
205.3914370323604
 20
-134.4352209603118
 30
0.0
 11
207.3914370323604
 21
-134.4352209603118
 31
0.0
  0
LINE
  5
105
330
70
100
AcDbEntity
  8
Capa 1
 62
    18
420
        0
370
    18
100
AcDbLine
 10
205.3914370323604
 20
-133.1352209603121
 30
0.0
 11
205.3914370323604
 21
-134.4352209603118
 31
0.0
  0
LINE
  5
106
330
70
100
AcDbEntity
  8
Capa 1
 62
    18
420
        0
370
    18
100
AcDbLine
 10
202.89143703236
 20
-133.1352209603121
 30
0.0
 11
205.3914370323604
 21
-133.1352209603121
 31
0.0
  0
LINE
  5
107
330
70
100
AcDbEntity
  8
Capa 1
 62
    18
420
        0
370
    18
100
AcDbLine
 10
202.89143703236
 20
-134.4352209603118
 30
0.0
 11
202.89143703236
 21
-133.1352209603121
 31
0.0
  0
LINE
  5
108
330
70
100
AcDbEntity
  8
Capa 1
 62
    18
420
        0
370
    18
100
AcDbLine
 10
199.8914370323605
 20
-134.4352209603118
 30
0.0
 11
202.89143703236
 21
-134.4352209603118
 31
0.0
  0
LINE
  5
109
330
70
100
AcDbEntity
  8
Capa 1
 62
    18
420
        0
370
    18
100
AcDbLine
 10
199.8914370323605
 20
-137.4352209603119
 30
0.0
 11
199.8914370323605
 21
-134.4352209603118
 31
0.0
  0
LINE
  5
10A
330
70
100
AcDbEntity
  8
Capa 1
 62
    18
420
        0
370
    18
100
AcDbLine
 10
202.89143703236
 20
-137.4352209603119
 30
0.0
 11
199.8914370323605
 21
-137.4352209603119
 31
0.0
  0
LINE
  5
10B
330
70
100
AcDbEntity
  8
Capa 1
 62
    18
420
        0
370
    18
100
AcDbLine
 10
202.89143703236
 20
-138.7352209603123
 30
0.0
 11
202.89143703236
 21
-137.4352209603119
 31
0.0
  0
LINE
  5
10C
330
70
100
AcDbEntity
  8
Capa 1
 62
    18
420
        0
370
    18
100
AcDbLine
 10
205.3914370323604
 20
-138.7352209603123
 30
0.0
 11
202.89143703236
 21
-138.7352209603123
 31
0.0
  0
LINE
  5
10D
330
70
100
AcDbEntity
  8
Capa 1
 62
    18
420
        0
370
    18
100
AcDbLine
 10
205.3914370323604
 20
-137.4352209603119
 30
0.0
 11
205.3914370323604
 21
-138.7352209603123
 31
0.0
  0
LINE
  5
10E
330
70
100
AcDbEntity
  8
Capa 1
 62
    18
420
        0
370
    18
100
AcDbLine
 10
207.3914370323604
 20
-137.4352209603119
 30
0.0
 11
205.3914370323604
 21
-137.4352209603119
 31
0.0
  0
LINE
  5
10F
330
70
100
AcDbEntity
  8
Capa 1
 62
    18
420
        0
370
    18
100
AcDbLine
 10
207.3914370323604
 20
-138.9352209603123
 30
0.0
 11
207.3914370323604
 21
-137.4352209603119
 31
0.0
  0
LINE
  5
110
330
70
100
AcDbEntity
  8
Capa 1
 62
    18
420
        0
370
    18
100
AcDbLine
 10
210.3914370323599
 20
-138.9352209603123
 30
0.0
 11
207.3914370323604
 21
-138.9352209603123
 31
0.0
  0
LINE
  5
111
330
70
100
AcDbEntity
  8
Capa 1
 62
    18
420
        0
370
    18
100
AcDbLine
 10
210.1975240323606
 20
-158.8360739603123
 30
0.0
 11
210.1975240323606
 21
-154.8360739603121
 31
0.0
  0
LINE
  5
112
330
70
100
AcDbEntity
  8
Capa 1
 62
    18
420
        0
370
    18
100
AcDbLine
 10
156.19752403236
 20
-158.8360739603123
 30
0.0
 11
210.1975240323606
 21
-158.8360739603123
 31
0.0
  0
LINE
  5
113
330
70
100
AcDbEntity
  8
Capa 1
 62
    18
420
        0
370
    18
100
AcDbLine
 10
156.19752403236
 20
-154.8360739603121
 30
0.0
 11
156.19752403236
 21
-158.8360739603123
 31
0.0
  0
LINE
  5
114
330
70
100
AcDbEntity
  8
Capa 1
 62
    18
420
        0
370
    18
100
AcDbLine
 10
159.19752403236
 20
-154.8360739603121
 30
0.0
 11
156.19752403236
 21
-154.8360739603121
 31
0.0
  0
LINE
  5
115
330
70
100
AcDbEntity
  8
Capa 1
 62
    18
420
        0
370
    18
100
AcDbLine
 10
159.19752403236
 20
-153.3360739603118
 30
0.0
 11
159.19752403236
 21
-154.8360739603121
 31
0.0
  0
LINE
  5
116
330
70
100
AcDbEntity
  8
Capa 1
 62
    18
420
        0
370
    18
100
AcDbLine
 10
161.1975240323601
 20
-153.3360739603118
 30
0.0
 11
159.19752403236
 21
-153.3360739603118
 31
0.0
  0
LINE
  5
117
330
70
100
AcDbEntity
  8
Capa 1
 62
    18
420
        0
370
    18
100
AcDbLine
 10
161.1975240323601
 20
-154.6360739603121
 30
0.0
 11
161.1975240323601
 21
-153.3360739603118
 31
0.0
  0
LINE
  5
118
330
70
100
AcDbEntity
  8
Capa 1
 62
    18
420
        0
370
    18
100
AcDbLine
 10
163.6975240323599
 20
-154.6360739603121
 30
0.0
 11
161.1975240323601
 21
-154.6360739603121
 31
0.0
  0
LINE
  5
119
330
70
100
AcDbEntity
  8
Capa 1
 62
    18
420
        0
370
    18
100
AcDbLine
 10
163.6975240323599
 20
-153.3360739603118
 30
0.0
 11
163.6975240323599
 21
-154.6360739603121
 31
0.0
  0
LINE
  5
11A
330
70
100
AcDbEntity
  8
Capa 1
 62
    18
420
        0
370
    18
100
AcDbLine
 10
166.69752403236
 20
-153.3360739603118
 30
0.0
 11
163.6975240323599
 21
-153.3360739603118
 31
0.0
  0
LINE
  5
11B
330
70
100
AcDbEntity
  8
Capa 1
 62
    18
420
        0
370
    18
100
AcDbLine
 10
166.69752403236
 20
-150.3360739603123
 30
0.0
 11
166.69752403236
 21
-153.3360739603118
 31
0.0
  0
LINE
  5
11C
330
70
100
AcDbEntity
  8
Capa 1
 62
    18
420
        0
370
    18
100
AcDbLine
 10
163.6975240323599
 20
-150.3360739603123
 30
0.0
 11
166.69752403236
 21
-150.3360739603123
 31
0.0
  0
LINE
  5
11D
330
70
100
AcDbEntity
  8
Capa 1
 62
    18
420
        0
370
    18
100
AcDbLine
 10
163.6975240323599
 20
-149.0360739603119
 30
0.0
 11
163.6975240323599
 21
-150.3360739603123
 31
0.0
  0
LINE
  5
11E
330
70
100
AcDbEntity
  8
Capa 1
 62
    18
420
        0
370
    18
100
AcDbLine
 10
161.1975240323601
 20
-149.0360739603119
 30
0.0
 11
163.6975240323599
 21
-149.0360739603119
 31
0.0
  0
LINE
  5
11F
330
70
100
AcDbEntity
  8
Capa 1
 62
    18
420
        0
370
    18
100
AcDbLine
 10
161.1975240323601
 20
-150.3360739603123
 30
0.0
 11
161.1975240323601
 21
-149.0360739603119
 31
0.0
  0
LINE
  5
120
330
70
100
AcDbEntity
  8
Capa 1
 62
    18
420
        0
370
    18
100
AcDbLine
 10
159.19752403236
 20
-150.3360739603123
 30
0.0
 11
161.1975240323601
 21
-150.3360739603123
 31
0.0
  0
LINE
  5
121
330
70
100
AcDbEntity
  8
Capa 1
 62
    18
420
        0
370
    18
100
AcDbLine
 10
159.19752403236
 20
-148.8360739603119
 30
0.0
 11
159.19752403236
 21
-150.3360739603123
 31
0.0
  0
LINE
  5
122
330
70
100
AcDbEntity
  8
Capa 1
 62
    18
420
        0
370
    18
100
AcDbLine
 10
156.19752403236
 20
-148.8360739603119
 30
0.0
 11
159.19752403236
 21
-148.8360739603119
 31
0.0
  0
LINE
  5
123
330
70
100
AcDbEntity
  8
Capa 1
 62
    18
420
        0
370
    18
100
AcDbLine
 10
156.19752403236
 20
-144.8360739603118
 30
0.0
 11
156.19752403236
 21
-148.8360739603119
 31
0.0
  0
LINE
  5
124
330
70
100
AcDbEntity
  8
Capa 1
 62
    18
420
        0
370
    18
100
AcDbLine
 10
210.1975240323606
 20
-144.8360739603118
 30
0.0
 11
156.19752403236
 21
-144.8360739603118
 31
0.0
  0
LINE
  5
125
330
70
100
AcDbEntity
  8
Capa 1
 62
    18
420
        0
370
    18
100
AcDbLine
 10
210.1975240323606
 20
-148.8360739603119
 30
0.0
 11
210.1975240323606
 21
-144.8360739603118
 31
0.0
  0
LINE
  5
126
330
70
100
AcDbEntity
  8
Capa 1
 62
    18
420
        0
370
    18
100
AcDbLine
 10
207.1975240323598
 20
-148.8360739603119
 30
0.0
 11
210.1975240323606
 21
-148.8360739603119
 31
0.0
  0
LINE
  5
127
330
70
100
AcDbEntity
  8
Capa 1
 62
    18
420
        0
370
    18
100
AcDbLine
 10
207.1975240323598
 20
-150.3360739603123
 30
0.0
 11
207.1975240323598
 21
-148.8360739603119
 31
0.0
  0
LINE
  5
128
330
70
100
AcDbEntity
  8
Capa 1
 62
    18
420
        0
370
    18
100
AcDbLine
 10
205.1975240323598
 20
-150.3360739603123
 30
0.0
 11
207.1975240323598
 21
-150.3360739603123
 31
0.0
  0
LINE
  5
129
330
70
100
AcDbEntity
  8
Capa 1
 62
    18
420
        0
370
    18
100
AcDbLine
 10
205.1975240323598
 20
-149.0360739603119
 30
0.0
 11
205.1975240323598
 21
-150.3360739603123
 31
0.0
  0
LINE
  5
12A
330
70
100
AcDbEntity
  8
Capa 1
 62
    18
420
        0
370
    18
100
AcDbLine
 10
202.6975240323606
 20
-149.0360739603119
 30
0.0
 11
205.1975240323598
 21
-149.0360739603119
 31
0.0
  0
LINE
  5
12B
330
70
100
AcDbEntity
  8
Capa 1
 62
    18
420
        0
370
    18
100
AcDbLine
 10
202.6975240323606
 20
-150.3360739603123
 30
0.0
 11
202.6975240323606
 21
-149.0360739603119
 31
0.0
  0
LINE
  5
12C
330
70
100
AcDbEntity
  8
Capa 1
 62
    18
420
        0
370
    18
100
AcDbLine
 10
199.6975240323599
 20
-150.3360739603123
 30
0.0
 11
202.6975240323606
 21
-150.3360739603123
 31
0.0
  0
LINE
  5
12D
330
70
100
AcDbEntity
  8
Capa 1
 62
    18
420
        0
370
    18
100
AcDbLine
 10
199.6975240323599
 20
-153.3360739603118
 30
0.0
 11
199.6975240323599
 21
-150.3360739603123
 31
0.0
  0
LINE
  5
12E
330
70
100
AcDbEntity
  8
Capa 1
 62
    18
420
        0
370
    18
100
AcDbLine
 10
202.6975240323606
 20
-153.3360739603118
 30
0.0
 11
199.6975240323599
 21
-153.3360739603118
 31
0.0
  0
LINE
  5
12F
330
70
100
AcDbEntity
  8
Capa 1
 62
    18
420
        0
370
    18
100
AcDbLine
 10
202.6975240323606
 20
-154.6360739603121
 30
0.0
 11
202.6975240323606
 21
-153.3360739603118
 31
0.0
  0
LINE
  5
130
330
70
100
AcDbEntity
  8
Capa 1
 62
    18
420
        0
370
    18
100
AcDbLine
 10
205.1975240323598
 20
-154.6360739603121
 30
0.0
 11
202.6975240323606
 21
-154.6360739603121
 31
0.0
  0
LINE
  5
131
330
70
100
AcDbEntity
  8
Capa 1
 62
    18
420
        0
370
    18
100
AcDbLine
 10
205.1975240323598
 20
-153.3360739603118
 30
0.0
 11
205.1975240323598
 21
-154.6360739603121
 31
0.0
  0
LINE
  5
132
330
70
100
AcDbEntity
  8
Capa 1
 62
    18
420
        0
370
    18
100
AcDbLine
 10
207.1975240323598
 20
-153.3360739603118
 30
0.0
 11
205.1975240323598
 21
-153.3360739603118
 31
0.0
  0
LINE
  5
133
330
70
100
AcDbEntity
  8
Capa 1
 62
    18
420
        0
370
    18
100
AcDbLine
 10
207.1975240323598
 20
-154.8360739603121
 30
0.0
 11
207.1975240323598
 21
-153.3360739603118
 31
0.0
  0
LINE
  5
134
330
70
100
AcDbEntity
  8
Capa 1
 62
    18
420
        0
370
    18
100
AcDbLine
 10
210.1975240323606
 20
-154.8360739603121
 30
0.0
 11
207.1975240323598
 21
-154.8360739603121
 31
0.0
  0
CIRCLE
  5
135
330
70
100
AcDbEntity
  8
Capa 1
 62
    18
420
        0
370
    18
100
AcDbCircle
 10
143.6217470323601
 20
-119.414069960312
 30
0.0
 40
7.99999999999988
  0
CIRCLE
  5
136
330
70
100
AcDbEntity
  8
Capa 1
 62
    18
420
        0
370
    18
100
AcDbCircle
 10
143.6236200323603
 20
-144.8140699603119
 30
0.0
 40
8.00000000000004
  0
LINE
  5
137
330
70
100
AcDbEntity
  8
Capa 1
 62
    18
420
        0
370
    18
100
AcDbLine
 10
125.9759790323603
 20
-150.6146719603121
 30
0.0
 11
123.9759790323602
 21
-150.6146719603121
 31
0.0
  0
LINE
  5
138
330
70
100
AcDbEntity
  8
Capa 1
 62
    18
420
        0
370
    18
100
AcDbLine
 10
125.9759790323603
 20
-151.9146719603118
 30
0.0
 11
125.9759790323603
 21
-150.6146719603121
 31
0.0
  0
LINE
  5
139
330
70
100
AcDbEntity
  8
Capa 1
 62
    18
420
        0
370
    18
100
AcDbLine
 10
128.47597903236
 20
-151.9146719603118
 30
0.0
 11
125.9759790323603
 21
-151.9146719603118
 31
0.0
  0
LINE
  5
13A
330
70
100
AcDbEntity
  8
Capa 1
 62
    18
420
        0
370
    18
100
AcDbLine
 10
128.47597903236
 20
-150.6146719603121
 30
0.0
 11
128.47597903236
 21
-151.9146719603118
 31
0.0
  0
LINE
  5
13B
330
70
100
AcDbEntity
  8
Capa 1
 62
    18
420
        0
370
    18
100
AcDbLine
 10
132.0759790323602
 20
-150.6146719603121
 30
0.0
 11
128.47597903236
 21
-150.6146719603121
 31
0.0
  0
LINE
  5
13C
330
70
100
AcDbEntity
  8
Capa 1
 62
    18
420
        0
370
    18
100
AcDbLine
 10
132.0759790323602
 20
-137.6146719603122
 30
0.0
 11
132.0759790323602
 21
-150.6146719603121
 31
0.0
  0
LINE
  5
13D
330
70
100
AcDbEntity
  8
Capa 1
 62
    18
420
        0
370
    18
100
AcDbLine
 10
129.4759790323601
 20
-137.6146719603122
 30
0.0
 11
132.0759790323602
 21
-137.6146719603122
 31
0.0
  0
LINE
  5
13E
330
70
100
AcDbEntity
  8
Capa 1
 62
    18
420
        0
370
    18
100
AcDbLine
 10
129.4759790323601
 20
-147.6146719603119
 30
0.0
 11
129.4759790323601
 21
-137.6146719603122
 31
0.0
  0
LINE
  5
13F
330
70
100
AcDbEntity
  8
Capa 1
 62
    18
420
        0
370
    18
100
AcDbLine
 10
128.47597903236
 20
-147.6146719603119
 30
0.0
 11
129.4759790323601
 21
-147.6146719603119
 31
0.0
  0
LINE
  5
140
330
70
100
AcDbEntity
  8
Capa 1
 62
    18
420
        0
370
    18
100
AcDbLine
 10
128.47597903236
 20
-146.3146719603122
 30
0.0
 11
128.47597903236
 21
-147.6146719603119
 31
0.0
  0
LINE
  5
141
330
70
100
AcDbEntity
  8
Capa 1
 62
    18
420
        0
370
    18
100
AcDbLine
 10
125.9759790323603
 20
-146.3146719603122
 30
0.0
 11
128.47597903236
 21
-146.3146719603122
 31
0.0
  0
LINE
  5
142
330
70
100
AcDbEntity
  8
Capa 1
 62
    18
420
        0
370
    18
100
AcDbLine
 10
125.9759790323603
 20
-147.6146719603119
 30
0.0
 11
125.9759790323603
 21
-146.3146719603122
 31
0.0
  0
LINE
  5
143
330
70
100
AcDbEntity
  8
Capa 1
 62
    18
420
        0
370
    18
100
AcDbLine
 10
123.9759790323602
 20
-147.6146719603119
 30
0.0
 11
125.9759790323603
 21
-147.6146719603119
 31
0.0
  0
LINE
  5
144
330
70
100
AcDbEntity
  8
Capa 1
 62
    18
420
        0
370
    18
100
AcDbLine
 10
123.9759790323602
 20
-146.1146719603122
 30
0.0
 11
123.9759790323602
 21
-147.6146719603119
 31
0.0
  0
LINE
  5
145
330
70
100
AcDbEntity
  8
Capa 1
 62
    18
420
        0
370
    18
100
AcDbLine
 10
120.9759790323601
 20
-146.1146719603122
 30
0.0
 11
123.9759790323602
 21
-146.1146719603122
 31
0.0
  0
LINE
  5
146
330
70
100
AcDbEntity
  8
Capa 1
 62
    18
420
        0
370
    18
100
AcDbLine
 10
120.9759790323601
 20
-142.1146719603121
 30
0.0
 11
120.9759790323601
 21
-146.1146719603122
 31
0.0
  0
LINE
  5
147
330
70
100
AcDbEntity
  8
Capa 1
 62
    18
420
        0
370
    18
100
AcDbLine
 10
123.9759790323602
 20
-142.1146719603121
 30
0.0
 11
120.9759790323601
 21
-142.1146719603121
 31
0.0
  0
LINE
  5
148
330
70
100
AcDbEntity
  8
Capa 1
 62
    18
420
        0
370
    18
100
AcDbLine
 10
123.9759790323602
 20
-122.114671960312
 30
0.0
 11
123.9759790323602
 21
-142.1146719603121
 31
0.0
  0
LINE
  5
149
330
70
100
AcDbEntity
  8
Capa 1
 62
    18
420
        0
370
    18
100
AcDbLine
 10
120.9759790323601
 20
-122.114671960312
 30
0.0
 11
123.9759790323602
 21
-122.114671960312
 31
0.0
  0
LINE
  5
14A
330
70
100
AcDbEntity
  8
Capa 1
 62
    18
420
        0
370
    18
100
AcDbLine
 10
120.9759790323601
 20
-118.1146719603119
 30
0.0
 11
120.9759790323601
 21
-122.114671960312
 31
0.0
  0
LINE
  5
14B
330
70
100
AcDbEntity
  8
Capa 1
 62
    18
420
        0
370
    18
100
AcDbLine
 10
123.9759790323602
 20
-118.1146719603119
 30
0.0
 11
120.9759790323601
 21
-118.1146719603119
 31
0.0
  0
LINE
  5
14C
330
70
100
AcDbEntity
  8
Capa 1
 62
    18
420
        0
370
    18
100
AcDbLine
 10
123.9759790323602
 20
-116.6146719603121
 30
0.0
 11
123.9759790323602
 21
-118.1146719603119
 31
0.0
  0
LINE
  5
14D
330
70
100
AcDbEntity
  8
Capa 1
 62
    18
420
        0
370
    18
100
AcDbLine
 10
125.9759790323603
 20
-116.6146719603121
 30
0.0
 11
123.9759790323602
 21
-116.6146719603121
 31
0.0
  0
LINE
  5
14E
330
70
100
AcDbEntity
  8
Capa 1
 62
    18
420
        0
370
    18
100
AcDbLine
 10
125.9759790323603
 20
-117.9146719603119
 30
0.0
 11
125.9759790323603
 21
-116.6146719603121
 31
0.0
  0
LINE
  5
14F
330
70
100
AcDbEntity
  8
Capa 1
 62
    18
420
        0
370
    18
100
AcDbLine
 10
128.47597903236
 20
-117.9146719603119
 30
0.0
 11
125.9759790323603
 21
-117.9146719603119
 31
0.0
  0
LINE
  5
150
330
70
100
AcDbEntity
  8
Capa 1
 62
    18
420
        0
370
    18
100
AcDbLine
 10
128.47597903236
 20
-116.6146719603121
 30
0.0
 11
128.47597903236
 21
-117.9146719603119
 31
0.0
  0
LINE
  5
151
330
70
100
AcDbEntity
  8
Capa 1
 62
    18
420
        0
370
    18
100
AcDbLine
 10
129.4759790323601
 20
-116.6146719603121
 30
0.0
 11
128.47597903236
 21
-116.6146719603121
 31
0.0
  0
LINE
  5
152
330
70
100
AcDbEntity
  8
Capa 1
 62
    18
420
        0
370
    18
100
AcDbLine
 10
129.4759790323601
 20
-126.6146719603119
 30
0.0
 11
129.4759790323601
 21
-116.6146719603121
 31
0.0
  0
LINE
  5
153
330
70
100
AcDbEntity
  8
Capa 1
 62
    18
420
        0
370
    18
100
AcDbLine
 10
132.0759790323602
 20
-126.6146719603119
 30
0.0
 11
129.4759790323601
 21
-126.6146719603119
 31
0.0
  0
LINE
  5
154
330
70
100
AcDbEntity
  8
Capa 1
 62
    18
420
        0
370
    18
100
AcDbLine
 10
132.0759790323602
 20
-113.614671960312
 30
0.0
 11
132.0759790323602
 21
-126.6146719603119
 31
0.0
  0
LINE
  5
155
330
70
100
AcDbEntity
  8
Capa 1
 62
    18
420
        0
370
    18
100
AcDbLine
 10
128.47597903236
 20
-113.614671960312
 30
0.0
 11
132.0759790323602
 21
-113.614671960312
 31
0.0
  0
LINE
  5
156
330
70
100
AcDbEntity
  8
Capa 1
 62
    18
420
        0
370
    18
100
AcDbLine
 10
128.47597903236
 20
-112.3146719603117
 30
0.0
 11
128.47597903236
 21
-113.614671960312
 31
0.0
  0
LINE
  5
157
330
70
100
AcDbEntity
  8
Capa 1
 62
    18
420
        0
370
    18
100
AcDbLine
 10
125.9759790323603
 20
-112.3146719603117
 30
0.0
 11
128.47597903236
 21
-112.3146719603117
 31
0.0
  0
LINE
  5
158
330
70
100
AcDbEntity
  8
Capa 1
 62
    18
420
        0
370
    18
100
AcDbLine
 10
125.9759790323603
 20
-113.614671960312
 30
0.0
 11
125.9759790323603
 21
-112.3146719603117
 31
0.0
  0
LINE
  5
159
330
70
100
AcDbEntity
  8
Capa 1
 62
    18
420
        0
370
    18
100
AcDbLine
 10
123.9759790323602
 20
-113.614671960312
 30
0.0
 11
125.9759790323603
 21
-113.614671960312
 31
0.0
  0
LINE
  5
15A
330
70
100
AcDbEntity
  8
Capa 1
 62
    18
420
        0
370
    18
100
AcDbLine
 10
123.9759790323602
 20
-112.1146719603123
 30
0.0
 11
123.9759790323602
 21
-113.614671960312
 31
0.0
  0
LINE
  5
15B
330
70
100
AcDbEntity
  8
Capa 1
 62
    18
420
        0
370
    18
100
AcDbLine
 10
120.9759790323601
 20
-112.1146719603123
 30
0.0
 11
123.9759790323602
 21
-112.1146719603123
 31
0.0
  0
LINE
  5
15C
330
70
100
AcDbEntity
  8
Capa 1
 62
    18
420
        0
370
    18
100
AcDbLine
 10
120.9759790323601
 20
-108.1146719603122
 30
0.0
 11
120.9759790323601
 21
-112.1146719603123
 31
0.0
  0
LINE
  5
15D
330
70
100
AcDbEntity
  8
Capa 1
 62
    18
420
        0
370
    18
100
AcDbLine
 10
123.9759790323602
 20
-108.1146719603122
 30
0.0
 11
120.9759790323601
 21
-108.1146719603122
 31
0.0
  0
LINE
  5
15E
330
70
100
AcDbEntity
  8
Capa 1
 62
    18
420
        0
370
    18
100
AcDbLine
 10
123.9759790323602
 20
-107.1140699603117
 30
0.0
 11
123.9759790323602
 21
-108.1146719603122
 31
0.0
  0
LINE
  5
15F
330
70
100
AcDbEntity
  8
Capa 1
 62
    18
420
        0
370
    18
100
AcDbLine
 10
148.4759790323601
 20
-107.1140699603117
 30
0.0
 11
123.9759790323602
 21
-107.1140699603117
 31
0.0
  0
SPLINE
  5
160
330
70
100
AcDbEntity
  8
Capa 1
 62
    18
420
        0
370
    18
100
AcDbSpline
210
0.0
220
0.0
230
1.0
 70
     8
 71
     3
 72
     8
 73
     4
 74
     0
 42
0.0000000001
 43
0.0000000001
 40
0.0
 40
0.0
 40
0.0
 40
0.0
 40
1.0
 40
1.0
 40
1.0
 40
1.0
 10
153.4759790323603
 20
-112.1140699603119
 30
0.0
 10
153.4759790323603
 20
-109.3526462111584
 30
0.0
 10
151.2374027815142
 20
-107.1140699603117
 30
0.0
 10
148.4759790323601
 20
-107.1140699603117
 30
0.0
  0
LINE
  5
161
330
70
100
AcDbEntity
  8
Capa 1
 62
    18
420
        0
370
    18
100
AcDbLine
 10
153.4759790323603
 20
-152.114069960312
 30
0.0
 11
153.4759790323603
 21
-112.1140699603119
 31
0.0
  0
SPLINE
  5
162
330
70
100
AcDbEntity
  8
Capa 1
 62
    18
420
        0
370
    18
100
AcDbSpline
210
0.0
220
0.0
230
1.0
 70
     8
 71
     3
 72
     8
 73
     4
 74
     0
 42
0.0000000001
 43
0.0000000001
 40
0.0
 40
0.0
 40
0.0
 40
0.0
 40
1.0
 40
1.0
 40
1.0
 40
1.0
 10
148.4759790323601
 20
-157.1140699603122
 30
0.0
 10
151.2374027815142
 20
-157.1140699603122
 30
0.0
 10
153.4759790323603
 20
-154.8754937094661
 30
0.0
 10
153.4759790323603
 20
-152.114069960312
 30
0.0
  0
LINE
  5
163
330
70
100
AcDbEntity
  8
Capa 1
 62
    18
420
        0
370
    18
100
AcDbLine
 10
123.9759790323602
 20
-157.1140699603122
 30
0.0
 11
148.4759790323601
 21
-157.1140699603122
 31
0.0
  0
LINE
  5
164
330
70
100
AcDbEntity
  8
Capa 1
 62
    18
420
        0
370
    18
100
AcDbLine
 10
123.9759790323602
 20
-156.1146719603119
 30
0.0
 11
123.9759790323602
 21
-157.1140699603122
 31
0.0
  0
LINE
  5
165
330
70
100
AcDbEntity
  8
Capa 1
 62
    18
420
        0
370
    18
100
AcDbLine
 10
120.9759790323601
 20
-156.1146719603119
 30
0.0
 11
123.9759790323602
 21
-156.1146719603119
 31
0.0
  0
LINE
  5
166
330
70
100
AcDbEntity
  8
Capa 1
 62
    18
420
        0
370
    18
100
AcDbLine
 10
120.9759790323601
 20
-152.1146719603118
 30
0.0
 11
120.9759790323601
 21
-156.1146719603119
 31
0.0
  0
LINE
  5
167
330
70
100
AcDbEntity
  8
Capa 1
 62
    18
420
        0
370
    18
100
AcDbLine
 10
123.9759790323602
 20
-152.1146719603118
 30
0.0
 11
120.9759790323601
 21
-152.1146719603118
 31
0.0
  0
LINE
  5
168
330
70
100
AcDbEntity
  8
Capa 1
 62
    18
420
        0
370
    18
100
AcDbLine
 10
123.9759790323602
 20
-150.6146719603121
 30
0.0
 11
123.9759790323602
 21
-152.1146719603118
 31
0.0
  0
LINE
  5
169
330
70
100
AcDbEntity
  8
Capa 1
 62
    18
420
        0
370
    18
100
AcDbLine
 10
178.7782500323597
 20
-50.44286396031205
 30
0.0
 11
178.7782500323597
 21
-54.4428639603122
 31
0.0
  0
LINE
  5
16A
330
70
100
AcDbEntity
  8
Capa 1
 62
    18
420
        0
370
    18
100
AcDbLine
 10
175.7782500323602
 20
-50.44286396031205
 30
0.0
 11
178.7782500323597
 21
-50.44286396031205
 31
0.0
  0
LINE
  5
16B
330
70
100
AcDbEntity
  8
Capa 1
 62
    18
420
        0
370
    18
100
AcDbLine
 10
175.7782500323602
 20
-54.4428639603122
 30
0.0
 11
175.7782500323602
 21
-50.44286396031205
 31
0.0
  0
LINE
  5
16C
330
70
100
AcDbEntity
  8
Capa 1
 62
    18
420
        0
370
    18
100
AcDbLine
 10
178.7782500323597
 20
-54.4428639603122
 30
0.0
 11
175.7782500323602
 21
-54.4428639603122
 31
0.0
  0
CIRCLE
  5
16D
330
70
100
AcDbEntity
  8
Capa 1
 62
    18
420
        0
370
    18
100
AcDbCircle
 10
168.57825003236
 20
-79.69830296031196
 30
0.0
 40
1.500000000000052
  0
LINE
  5
16E
330
70
100
AcDbEntity
  8
Capa 1
 62
    18
420
        0
370
    18
100
AcDbLine
 10
204.7782500323606
 20
-35.44286396031217
 30
0.0
 11
204.7782500323606
 21
-31.44286396031203
 31
0.0
  0
LINE
  5
16F
330
70
100
AcDbEntity
  8
Capa 1
 62
    18
420
        0
370
    18
100
AcDbLine
 10
207.7782500323601
 20
-35.44286396031217
 30
0.0
 11
204.7782500323606
 21
-35.44286396031217
 31
0.0
  0
LINE
  5
170
330
70
100
AcDbEntity
  8
Capa 1
 62
    18
420
        0
370
    18
100
AcDbLine
 10
207.7782500323601
 20
-31.44286396031203
 30
0.0
 11
207.7782500323601
 21
-35.44286396031217
 31
0.0
  0
LINE
  5
171
330
70
100
AcDbEntity
  8
Capa 1
 62
    18
420
        0
370
    18
100
AcDbLine
 10
204.7782500323606
 20
-31.44286396031203
 30
0.0
 11
207.7782500323601
 21
-31.44286396031203
 31
0.0
  0
LINE
  5
172
330
70
100
AcDbEntity
  8
Capa 1
 62
    18
420
        0
370
    18
100
AcDbLine
 10
211.9782500323596
 20
-81.23474096031182
 30
0.0
 11
207.9782500323607
 21
-81.23474096031182
 31
0.0
  0
LINE
  5
173
330
70
100
AcDbEntity
  8
Capa 1
 62
    18
420
        0
370
    18
100
AcDbLine
 10
211.9782500323596
 20
-78.23474096031237
 30
0.0
 11
211.9782500323596
 21
-81.23474096031182
 31
0.0
  0
LINE
  5
174
330
70
100
AcDbEntity
  8
Capa 1
 62
    18
420
        0
370
    18
100
AcDbLine
 10
207.9782500323607
 20
-78.23474096031237
 30
0.0
 11
211.9782500323596
 21
-78.23474096031237
 31
0.0
  0
LINE
  5
175
330
70
100
AcDbEntity
  8
Capa 1
 62
    18
420
        0
370
    18
100
AcDbLine
 10
207.9782500323607
 20
-81.23474096031182
 30
0.0
 11
207.9782500323607
 21
-78.23474096031237
 31
0.0
  0
LINE
  5
176
330
70
100
AcDbEntity
  8
Capa 1
 62
    18
420
        0
370
    18
100
AcDbLine
 10
207.7782500323601
 20
-50.44286396031205
 30
0.0
 11
207.7782500323601
 21
-54.4428639603122
 31
0.0
  0
LINE
  5
177
330
70
100
AcDbEntity
  8
Capa 1
 62
    18
420
        0
370
    18
100
AcDbLine
 10
204.7782500323606
 20
-50.44286396031205
 30
0.0
 11
207.7782500323601
 21
-50.44286396031205
 31
0.0
  0
LINE
  5
178
330
70
100
AcDbEntity
  8
Capa 1
 62
    18
420
        0
370
    18
100
AcDbLine
 10
204.7782500323606
 20
-54.4428639603122
 30
0.0
 11
204.7782500323606
 21
-50.44286396031205
 31
0.0
  0
LINE
  5
179
330
70
100
AcDbEntity
  8
Capa 1
 62
    18
420
        0
370
    18
100
AcDbLine
 10
207.7782500323601
 20
-54.4428639603122
 30
0.0
 11
204.7782500323606
 21
-54.4428639603122
 31
0.0
  0
CIRCLE
  5
17A
330
70
100
AcDbEntity
  8
Capa 1
 62
    18
420
        0
370
    18
100
AcDbCircle
 10
191.7782500323598
 20
-28.63186396031215
 30
0.0
 40
1.500000000000373
  0
LINE
  5
17B
330
70
100
AcDbEntity
  8
Capa 1
 62
    18
420
        0
370
    18
100
AcDbLine
 10
175.7782500323602
 20
-31.44286396031203
 30
0.0
 11
178.7782500323597
 21
-31.44286396031203
 31
0.0
  0
LINE
  5
17C
330
70
100
AcDbEntity
  8
Capa 1
 62
    18
420
        0
370
    18
100
AcDbLine
 10
175.7782500323602
 20
-35.44286396031217
 30
0.0
 11
175.7782500323602
 21
-31.44286396031203
 31
0.0
  0
LINE
  5
17D
330
70
100
AcDbEntity
  8
Capa 1
 62
    18
420
        0
370
    18
100
AcDbLine
 10
178.7782500323597
 20
-35.44286396031217
 30
0.0
 11
175.7782500323602
 21
-35.44286396031217
 31
0.0
  0
LINE
  5
17E
330
70
100
AcDbEntity
  8
Capa 1
 62
    18
420
        0
370
    18
100
AcDbLine
 10
178.7782500323597
 20
-31.44286396031203
 30
0.0
 11
178.7782500323597
 21
-35.44286396031217
 31
0.0
  0
LINE
  5
17F
330
70
100
AcDbEntity
  8
Capa 1
 62
    18
420
        0
370
    18
100
AcDbLine
 10
175.5782500323602
 20
-78.23474096031237
 30
0.0
 11
175.5782500323602
 21
-81.23474096031182
 31
0.0
  0
LINE
  5
180
330
70
100
AcDbEntity
  8
Capa 1
 62
    18
420
        0
370
    18
100
AcDbLine
 10
171.5782500323601
 20
-78.23474096031237
 30
0.0
 11
175.5782500323602
 21
-78.23474096031237
 31
0.0
  0
LINE
  5
181
330
70
100
AcDbEntity
  8
Capa 1
 62
    18
420
        0
370
    18
100
AcDbLine
 10
171.5782500323601
 20
-81.23474096031182
 30
0.0
 11
171.5782500323601
 21
-78.23474096031237
 31
0.0
  0
LINE
  5
182
330
70
100
AcDbEntity
  8
Capa 1
 62
    18
420
        0
370
    18
100
AcDbLine
 10
175.5782500323602
 20
-81.23474096031182
 30
0.0
 11
171.5782500323601
 21
-81.23474096031182
 31
0.0
  0
LINE
  5
183
330
70
100
AcDbEntity
  8
Capa 1
 62
    18
420
        0
370
    18
100
AcDbLine
 10
198.7782500323604
 20
-30.1318639603122
 30
0.0
 11
194.7782500323603
 21
-30.1318639603122
 31
0.0
  0
LINE
  5
184
330
70
100
AcDbEntity
  8
Capa 1
 62
    18
420
        0
370
    18
100
AcDbLine
 10
198.7782500323604
 20
-27.1318639603121
 30
0.0
 11
198.7782500323604
 21
-30.1318639603122
 31
0.0
  0
LINE
  5
185
330
70
100
AcDbEntity
  8
Capa 1
 62
    18
420
        0
370
    18
100
AcDbLine
 10
194.7782500323603
 20
-27.1318639603121
 30
0.0
 11
198.7782500323604
 21
-27.1318639603121
 31
0.0
  0
LINE
  5
186
330
70
100
AcDbEntity
  8
Capa 1
 62
    18
420
        0
370
    18
100
AcDbLine
 10
194.7782500323603
 20
-30.1318639603122
 30
0.0
 11
194.7782500323603
 21
-27.1318639603121
 31
0.0
  0
LINE
  5
187
330
70
100
AcDbEntity
  8
Capa 1
 62
    18
420
        0
370
    18
100
AcDbLine
 10
175.7782500323602
 20
-40.94286396031203
 30
0.0
 11
178.7782500323597
 21
-40.94286396031203
 31
0.0
  0
LINE
  5
188
330
70
100
AcDbEntity
  8
Capa 1
 62
    18
420
        0
370
    18
100
AcDbLine
 10
175.7782500323602
 20
-44.94286396031218
 30
0.0
 11
175.7782500323602
 21
-40.94286396031203
 31
0.0
  0
LINE
  5
189
330
70
100
AcDbEntity
  8
Capa 1
 62
    18
420
        0
370
    18
100
AcDbLine
 10
178.7782500323597
 20
-44.94286396031218
 30
0.0
 11
175.7782500323602
 21
-44.94286396031218
 31
0.0
  0
LINE
  5
18A
330
70
100
AcDbEntity
  8
Capa 1
 62
    18
420
        0
370
    18
100
AcDbLine
 10
178.7782500323597
 20
-40.94286396031203
 30
0.0
 11
178.7782500323597
 21
-44.94286396031218
 31
0.0
  0
LINE
  5
18B
330
70
100
AcDbEntity
  8
Capa 1
 62
    18
420
        0
370
    18
100
AcDbLine
 10
184.7782500323599
 20
-30.1318639603122
 30
0.0
 11
184.7782500323599
 21
-27.1318639603121
 31
0.0
  0
LINE
  5
18C
330
70
100
AcDbEntity
  8
Capa 1
 62
    18
420
        0
370
    18
100
AcDbLine
 10
188.77825003236
 20
-30.1318639603122
 30
0.0
 11
184.7782500323599
 21
-30.1318639603122
 31
0.0
  0
LINE
  5
18D
330
70
100
AcDbEntity
  8
Capa 1
 62
    18
420
        0
370
    18
100
AcDbLine
 10
188.77825003236
 20
-27.1318639603121
 30
0.0
 11
188.77825003236
 21
-30.1318639603122
 31
0.0
  0
LINE
  5
18E
330
70
100
AcDbEntity
  8
Capa 1
 62
    18
420
        0
370
    18
100
AcDbLine
 10
184.7782500323599
 20
-27.1318639603121
 30
0.0
 11
188.77825003236
 21
-27.1318639603121
 31
0.0
  0
CIRCLE
  5
18F
330
70
100
AcDbEntity
  8
Capa 1
 62
    18
420
        0
370
    18
100
AcDbCircle
 10
214.9782500323603
 20
-79.69830296031196
 30
0.0
 40
1.500000000000052
  0
LINE
  5
190
330
70
100
AcDbEntity
  8
Capa 1
 62
    18
420
        0
370
    18
100
AcDbLine
 10
207.7782500323601
 20
-40.94286396031203
 30
0.0
 11
207.7782500323601
 21
-44.94286396031218
 31
0.0
  0
LINE
  5
191
330
70
100
AcDbEntity
  8
Capa 1
 62
    18
420
        0
370
    18
100
AcDbLine
 10
204.7782500323606
 20
-40.94286396031203
 30
0.0
 11
207.7782500323601
 21
-40.94286396031203
 31
0.0
  0
LINE
  5
192
330
70
100
AcDbEntity
  8
Capa 1
 62
    18
420
        0
370
    18
100
AcDbLine
 10
204.7782500323606
 20
-44.94286396031218
 30
0.0
 11
204.7782500323606
 21
-40.94286396031203
 31
0.0
  0
LINE
  5
193
330
70
100
AcDbEntity
  8
Capa 1
 62
    18
420
        0
370
    18
100
AcDbLine
 10
207.7782500323601
 20
-44.94286396031218
 30
0.0
 11
204.7782500323606
 21
-44.94286396031218
 31
0.0
  0
LINE
  5
194
330
70
100
AcDbEntity
  8
Capa 1
 62
    18
420
        0
370
    18
100
AcDbLine
 10
221.97825003236
 20
-78.16186396031206
 30
0.0
 11
221.97825003236
 21
-81.16186396031217
 31
0.0
  0
LINE
  5
195
330
70
100
AcDbEntity
  8
Capa 1
 62
    18
420
        0
370
    18
100
AcDbLine
 10
217.9782500323598
 20
-78.16186396031206
 30
0.0
 11
221.97825003236
 21
-78.16186396031206
 31
0.0
  0
LINE
  5
196
330
70
100
AcDbEntity
  8
Capa 1
 62
    18
420
        0
370
    18
100
AcDbLine
 10
217.9782500323598
 20
-81.16186396031217
 30
0.0
 11
217.9782500323598
 21
-78.16186396031206
 31
0.0
  0
LINE
  5
197
330
70
100
AcDbEntity
  8
Capa 1
 62
    18
420
        0
370
    18
100
AcDbLine
 10
221.97825003236
 20
-81.16186396031217
 30
0.0
 11
217.9782500323598
 21
-81.16186396031217
 31
0.0
  0
LINE
  5
198
330
70
100
AcDbEntity
  8
Capa 1
 62
    18
420
        0
370
    18
100
AcDbLine
 10
165.5782500323605
 20
-81.16186396031217
 30
0.0
 11
161.5782500323604
 21
-81.16186396031217
 31
0.0
  0
LINE
  5
199
330
70
100
AcDbEntity
  8
Capa 1
 62
    18
420
        0
370
    18
100
AcDbLine
 10
165.5782500323605
 20
-78.16186396031206
 30
0.0
 11
165.5782500323605
 21
-81.16186396031217
 31
0.0
  0
LINE
  5
19A
330
70
100
AcDbEntity
  8
Capa 1
 62
    18
420
        0
370
    18
100
AcDbLine
 10
161.5782500323604
 20
-78.16186396031206
 30
0.0
 11
165.5782500323605
 21
-78.16186396031206
 31
0.0
  0
LINE
  5
19B
330
70
100
AcDbEntity
  8
Capa 1
 62
    18
420
        0
370
    18
100
AcDbLine
 10
161.5782500323604
 20
-81.16186396031217
 30
0.0
 11
161.5782500323604
 21
-78.16186396031206
 31
0.0
  0
LINE
  5
19C
330
70
100
AcDbEntity
  8
Capa 1
 62
    18
420
        0
370
    18
100
AcDbLine
 10
161.7782500323597
 20
-110.4428639603119
 30
0.0
 11
221.7782500323606
 21
-110.4428639603119
 31
0.0
  0
LINE
  5
19D
330
70
100
AcDbEntity
  8
Capa 1
 62
    18
420
        0
370
    18
100
AcDbLine
 10
144.7071820323603
 20
-103.3717959603122
 30
0.0
 11
161.7782500323597
 21
-110.4428639603119
 31
0.0
  0
LINE
  5
19E
330
70
100
AcDbEntity
  8
Capa 1
 62
    18
420
        0
370
    18
100
AcDbLine
 10
131.7782500323603
 20
-90.44286396031187
 30
0.0
 11
144.7071820323603
 21
-103.3717959603122
 31
0.0
  0
LINE
  5
19F
330
70
100
AcDbEntity
  8
Capa 1
 62
    18
420
        0
370
    18
100
AcDbLine
 10
131.7782500323603
 20
-8.442863960312175
 30
0.0
 11
131.7782500323603
 21
-90.44286396031187
 31
0.0
  0
LINE
  5
1A0
330
70
100
AcDbEntity
  8
Capa 1
 62
    18
420
        0
370
    18
100
AcDbLine
 10
251.7782500323604
 20
-8.442863960312175
 30
0.0
 11
131.7782500323603
 21
-8.442863960312175
 31
0.0
  0
LINE
  5
1A1
330
70
100
AcDbEntity
  8
Capa 1
 62
    18
420
        0
370
    18
100
AcDbLine
 10
251.7782500323604
 20
-90.44286396031187
 30
0.0
 11
251.7782500323604
 21
-8.442863960312175
 31
0.0
  0
LINE
  5
1A2
330
70
100
AcDbEntity
  8
Capa 1
 62
    18
420
        0
370
    18
100
AcDbLine
 10
238.8493170323606
 20
-103.3717959603122
 30
0.0
 11
251.7782500323604
 21
-90.44286396031187
 31
0.0
  0
LINE
  5
1A3
330
70
100
AcDbEntity
  8
Capa 1
 62
    18
420
        0
370
    18
100
AcDbLine
 10
221.7782500323606
 20
-110.4428639603119
 30
0.0
 11
238.8493170323606
 21
-103.3717959603122
 31
0.0
  0
CIRCLE
  5
1A4
330
70
100
AcDbEntity
  8
Capa 1
 62
    18
420
        0
370
    18
100
AcDbCircle
 10
102.6068020323602
 20
-116.5217129603122
 30
0.0
 40
1.500000000000133
  0
CIRCLE
  5
1A5
330
70
100
AcDbEntity
  8
Capa 1
 62
    18
420
        0
370
    18
100
AcDbCircle
 10
86.28286203236013
 20
-140.2213659603119
 30
0.0
 40
1.499999999999972
  0
LINE
  5
1A6
330
70
100
AcDbEntity
  8
Capa 1
 62
    18
420
        0
370
    18
100
AcDbLine
 10
56.28286103236031
 20
-50.35678996031194
 30
0.0
 11
56.28286103236031
 21
-54.35678996031208
 31
0.0
  0
LINE
  5
1A7
330
70
100
AcDbEntity
  8
Capa 1
 62
    18
420
        0
370
    18
100
AcDbLine
 10
53.2828610323602
 20
-50.35678996031194
 30
0.0
 11
56.28286103236031
 21
-50.35678996031194
 31
0.0
  0
LINE
  5
1A8
330
70
100
AcDbEntity
  8
Capa 1
 62
    18
420
        0
370
    18
100
AcDbLine
 10
53.2828610323602
 20
-54.35678996031208
 30
0.0
 11
53.2828610323602
 21
-50.35678996031194
 31
0.0
  0
LINE
  5
1A9
330
70
100
AcDbEntity
  8
Capa 1
 62
    18
420
        0
370
    18
100
AcDbLine
 10
56.28286103236031
 20
-54.35678996031208
 30
0.0
 11
53.2828610323602
 21
-54.35678996031208
 31
0.0
  0
CIRCLE
  5
1AA
330
70
100
AcDbEntity
  8
Capa 1
 62
    18
420
        0
370
    18
100
AcDbCircle
 10
90.61619503236014
 20
-154.035794960312
 30
0.0
 40
1.499999999999972
  0
CIRCLE
  5
1AB
330
70
100
AcDbEntity
  8
Capa 1
 62
    18
420
        0
370
    18
100
AcDbCircle
 10
92.48286103236022
 20
-81.07619796031208
 30
0.0
 40
1.500000000000093
  0
CIRCLE
  5
1AC
330
70
100
AcDbEntity
  8
Capa 1
 62
    18
420
        0
370
    18
100
AcDbCircle
 10
58.61619503236007
 20
-154.035794960312
 30
0.0
 40
1.499999999999932
  0
CIRCLE
  5
1AD
330
70
100
AcDbEntity
  8
Capa 1
 62
    18
420
        0
370
    18
100
AcDbCircle
 10
69.28286103236013
 20
-140.2213659603119
 30
0.0
 40
1.499999999999972
  0
LINE
  5
1AE
330
70
100
AcDbEntity
  8
Capa 1
 62
    18
420
        0
370
    18
100
AcDbLine
 10
84.82296503236018
 20
-128.2433829603122
 30
0.0
 11
84.82296503236018
 21
-131.2433829603123
 31
0.0
  0
LINE
  5
1AF
330
70
100
AcDbEntity
  8
Capa 1
 62
    18
420
        0
370
    18
100
AcDbLine
 10
73.8229650323601
 20
-128.2433829603122
 30
0.0
 11
84.82296503236018
 21
-128.2433829603122
 31
0.0
  0
LINE
  5
1B0
330
70
100
AcDbEntity
  8
Capa 1
 62
    18
420
        0
370
    18
100
AcDbLine
 10
73.8229650323601
 20
-131.2433829603123
 30
0.0
 11
73.8229650323601
 21
-128.2433829603122
 31
0.0
  0
LINE
  5
1B1
330
70
100
AcDbEntity
  8
Capa 1
 62
    18
420
        0
370
    18
100
AcDbLine
 10
84.82296503236018
 20
-131.2433829603123
 30
0.0
 11
73.8229650323601
 21
-131.2433829603123
 31
0.0
  0
CIRCLE
  5
1B2
330
70
100
AcDbEntity
  8
Capa 1
 62
    18
420
        0
370
    18
100
AcDbCircle
 10
97.00404403236024
 20
-98.03365096031212
 30
0.0
 40
1.500000000000133
  0
LINE
  5
1B3
330
70
100
AcDbEntity
  8
Capa 1
 62
    18
420
        0
370
    18
100
AcDbLine
 10
19.79707003236002
 20
-93.576160960312
 30
0.0
 11
43.80182703236011
 21
-112.5094949603116
 31
0.0
  0
SPLINE
  5
1B4
330
70
100
AcDbEntity
  8
Capa 1
 62
    18
420
        0
370
    18
100
AcDbSpline
210
0.0
220
0.0
230
1.0
 70
     8
 71
     3
 72
    11
 73
     7
 74
     0
 42
0.0000000001
 43
0.0000000001
 40
0.0
 40
0.0
 40
0.0
 40
0.0
 40
1.0
 40
1.0
 40
1.0
 40
2.0
 40
2.0
 40
2.0
 40
2.0
 10
17.93921338465456
 20
-95.93165747653769
 30
0.0
 10
17.28876084000732
 20
-95.41862435072909
 30
0.0
 10
17.17736039032567
 20
-94.47543285725386
 30
0.0
 10
17.6903935161346
 20
-93.82498031260627
 30
0.0
 10
18.20342664194352
 20
-93.17452776795871
 30
0.0
 10
19.14661813541876
 20
-93.06312731827771
 30
0.0
 10
19.797070680066
 20
-93.57616044408631
 30
0.0
  0
LINE
  5
1B5
330
70
100
AcDbEntity
  8
Capa 1
 62
    18
420
        0
370
    18
100
AcDbLine
 10
41.94397003236026
 20
-114.8649919603123
 30
0.0
 11
17.93921303236018
 21
-95.93165796031202
 31
0.0
  0
SPLINE
  5
1B6
330
70
100
AcDbEntity
  8
Capa 1
 62
    18
420
        0
370
    18
100
AcDbSpline
210
0.0
220
0.0
230
1.0
 70
     8
 71
     3
 72
    11
 73
     7
 74
     0
 42
0.0000000001
 43
0.0000000001
 40
0.0
 40
0.0
 40
0.0
 40
0.0
 40
1.0
 40
1.0
 40
1.0
 40
2.0
 40
2.0
 40
2.0
 40
2.0
 10
43.80182672117714
 20
-112.5094954765123
 30
0.0
 10
44.45227923186118
 20
-113.0225286123628
 30
0.0
 10
44.56367966173164
 20
-113.9657200794251
 30
0.0
 10
44.05064654858569
 20
-114.616172608018
 30
0.0
 10
43.53761342277709
 20
-115.2666251526649
 30
0.0
 10
42.59442192930186
 20
-115.3780256023466
 30
0.0
 10
41.94396938465461
 20
-114.8649924765373
 30
0.0
  0
CIRCLE
  5
1B7
330
70
100
AcDbEntity
  8
Capa 1
 62
    18
420
        0
370
    18
100
AcDbCircle
 10
41.56167803236008
 20
-98.03365096031212
 30
0.0
 40
1.500000000000092
  0
CIRCLE
  5
1B8
330
70
100
AcDbEntity
  8
Capa 1
 62
    18
420
        0
370
    18
100
AcDbCircle
 10
41.61211303236015
 20
-120.9805709603119
 30
0.0
 40
1.499999999999892
  0
CIRCLE
  5
1B9
330
70
100
AcDbEntity
  8
Capa 1
 62
    18
420
        0
370
    18
100
AcDbCircle
 10
46.08286103236027
 20
-81.07619796031208
 30
0.0
 40
1.500000000000213
  0
CIRCLE
  5
1BA
330
70
100
AcDbEntity
  8
Capa 1
 62
    18
420
        0
370
    18
100
AcDbCircle
 10
37.2828610323602
 20
-154.035794960312
 30
0.0
 40
1.499999999999852
  0
LINE
  5
1BB
330
70
100
AcDbEntity
  8
Capa 1
 62
    18
420
        0
370
    18
100
AcDbLine
 10
85.28286103236004
 20
-31.35678996031192
 30
0.0
 11
85.28286103236004
 21
-35.35678996031206
 31
0.0
  0
LINE
  5
1BC
330
70
100
AcDbEntity
  8
Capa 1
 62
    18
420
        0
370
    18
100
AcDbLine
 10
82.28286103236026
 20
-31.35678996031192
 30
0.0
 11
85.28286103236004
 21
-31.35678996031192
 31
0.0
  0
LINE
  5
1BD
330
70
100
AcDbEntity
  8
Capa 1
 62
    18
420
        0
370
    18
100
AcDbLine
 10
82.28286103236026
 20
-35.35678996031206
 30
0.0
 11
82.28286103236026
 21
-31.35678996031192
 31
0.0
  0
LINE
  5
1BE
330
70
100
AcDbEntity
  8
Capa 1
 62
    18
420
        0
370
    18
100
AcDbLine
 10
85.28286103236004
 20
-35.35678996031206
 30
0.0
 11
82.28286103236026
 21
-35.35678996031206
 31
0.0
  0
LINE
  5
1BF
330
70
100
AcDbEntity
  8
Capa 1
 62
    18
420
        0
370
    18
100
AcDbLine
 10
99.48286103236023
 20
-82.5397589603123
 30
0.0
 11
95.48286103236009
 21
-82.5397589603123
 31
0.0
  0
LINE
  5
1C0
330
70
100
AcDbEntity
  8
Capa 1
 62
    18
420
        0
370
    18
100
AcDbLine
 10
99.48286103236023
 20
-79.53975896031218
 30
0.0
 11
99.48286103236023
 21
-82.5397589603123
 31
0.0
  0
LINE
  5
1C1
330
70
100
AcDbEntity
  8
Capa 1
 62
    18
420
        0
370
    18
100
AcDbLine
 10
95.48286103236009
 20
-79.53975896031218
 30
0.0
 11
99.48286103236023
 21
-79.53975896031218
 31
0.0
  0
LINE
  5
1C2
330
70
100
AcDbEntity
  8
Capa 1
 62
    18
420
        0
370
    18
100
AcDbLine
 10
95.48286103236009
 20
-82.5397589603123
 30
0.0
 11
95.48286103236009
 21
-79.53975896031218
 31
0.0
  0
LINE
  5
1C3
330
70
100
AcDbEntity
  8
Capa 1
 62
    18
420
        0
370
    18
100
AcDbLine
 10
82.28286103236026
 20
-50.35678996031194
 30
0.0
 11
85.28286103236004
 21
-50.35678996031194
 31
0.0
  0
LINE
  5
1C4
330
70
100
AcDbEntity
  8
Capa 1
 62
    18
420
        0
370
    18
100
AcDbLine
 10
82.28286103236026
 20
-54.35678996031208
 30
0.0
 11
82.28286103236026
 21
-50.35678996031194
 31
0.0
  0
LINE
  5
1C5
330
70
100
AcDbEntity
  8
Capa 1
 62
    18
420
        0
370
    18
100
AcDbLine
 10
85.28286103236004
 20
-54.35678996031208
 30
0.0
 11
82.28286103236026
 21
-54.35678996031208
 31
0.0
  0
LINE
  5
1C6
330
70
100
AcDbEntity
  8
Capa 1
 62
    18
420
        0
370
    18
100
AcDbLine
 10
85.28286103236004
 20
-50.35678996031194
 30
0.0
 11
85.28286103236004
 21
-54.35678996031208
 31
0.0
  0
CIRCLE
  5
1C7
330
70
100
AcDbEntity
  8
Capa 1
 62
    18
420
        0
370
    18
100
AcDbCircle
 10
35.95892003236011
 20
-116.5217129603122
 30
0.0
 40
1.500000000000092
  0
CIRCLE
  5
1C8
330
70
100
AcDbEntity
  8
Capa 1
 62
    18
420
        0
370
    18
100
AcDbCircle
 10
74.81267503236025
 20
-54.77314496031204
 30
0.0
 40
1.499999999999932
  0
CIRCLE
  5
1C9
330
70
100
AcDbEntity
  8
Capa 1
 62
    18
420
        0
370
    18
100
AcDbCircle
 10
101.2828610323602
 20
-154.035794960312
 30
0.0
 40
1.499999999999852
  0
CIRCLE
  5
1CA
330
70
100
AcDbEntity
  8
Capa 1
 62
    18
420
        0
370
    18
100
AcDbCircle
 10
96.95360903236027
 20
-120.9805709603119
 30
0.0
 40
1.499999999999972
  0
LINE
  5
1CB
330
70
100
AcDbEntity
  8
Capa 1
 62
    18
420
        0
370
    18
100
AcDbLine
 10
89.4828610323602
 20
-82.61263696031198
 30
0.0
 11
85.48286103236007
 21
-82.61263696031198
 31
0.0
  0
LINE
  5
1CC
330
70
100
AcDbEntity
  8
Capa 1
 62
    18
420
        0
370
    18
100
AcDbLine
 10
89.4828610323602
 20
-79.61263696031188
 30
0.0
 11
89.4828610323602
 21
-82.61263696031198
 31
0.0
  0
LINE
  5
1CD
330
70
100
AcDbEntity
  8
Capa 1
 62
    18
420
        0
370
    18
100
AcDbLine
 10
85.48286103236007
 20
-79.61263696031188
 30
0.0
 11
89.4828610323602
 21
-79.61263696031188
 31
0.0
  0
LINE
  5
1CE
330
70
100
AcDbEntity
  8
Capa 1
 62
    18
420
        0
370
    18
100
AcDbLine
 10
85.48286103236007
 20
-82.61263696031198
 30
0.0
 11
85.48286103236007
 21
-79.61263696031188
 31
0.0
  0
CIRCLE
  5
1CF
330
70
100
AcDbEntity
  8
Capa 1
 62
    18
420
        0
370
    18
100
AcDbCircle
 10
87.45183303236013
 20
-129.739370960312
 30
0.0
 40
1.499999999999972
  0
LINE
  5
1D0
330
70
100
AcDbEntity
  8
Capa 1
 62
    18
420
        0
370
    18
100
AcDbLine
 10
85.28286103236004
 20
-44.85678996031206
 30
0.0
 11
82.28286103236026
 21
-44.85678996031206
 31
0.0
  0
LINE
  5
1D1
330
70
100
AcDbEntity
  8
Capa 1
 62
    18
420
        0
370
    18
100
AcDbLine
 10
85.28286103236004
 20
-40.85678996031193
 30
0.0
 11
85.28286103236004
 21
-44.85678996031206
 31
0.0
  0
LINE
  5
1D2
330
70
100
AcDbEntity
  8
Capa 1
 62
    18
420
        0
370
    18
100
AcDbLine
 10
82.28286103236026
 20
-40.85678996031193
 30
0.0
 11
85.28286103236004
 21
-40.85678996031193
 31
0.0
  0
LINE
  5
1D3
330
70
100
AcDbEntity
  8
Capa 1
 62
    18
420
        0
370
    18
100
AcDbLine
 10
82.28286103236026
 20
-44.85678996031206
 30
0.0
 11
82.28286103236026
 21
-40.85678996031193
 31
0.0
  0
CIRCLE
  5
1D4
330
70
100
AcDbEntity
  8
Capa 1
 62
    18
420
        0
370
    18
100
AcDbCircle
 10
79.94952803236022
 20
-154.035794960312
 30
0.0
 40
1.499999999999852
  0
LINE
  5
1D5
330
70
100
AcDbEntity
  8
Capa 1
 62
    18
420
        0
370
    18
100
AcDbLine
 10
79.28286203236019
 20
-141.7213659603121
 30
0.0
 11
79.28286203236019
 21
-138.721365960312
 31
0.0
  0
LINE
  5
1D6
330
70
100
AcDbEntity
  8
Capa 1
 62
    18
420
        0
370
    18
100
AcDbLine
 10
83.28286203236002
 20
-141.7213659603121
 30
0.0
 11
79.28286203236019
 21
-141.7213659603121
 31
0.0
  0
LINE
  5
1D7
330
70
100
AcDbEntity
  8
Capa 1
 62
    18
420
        0
370
    18
100
AcDbLine
 10
83.28286203236002
 20
-138.721365960312
 30
0.0
 11
83.28286203236002
 21
-141.7213659603121
 31
0.0
  0
LINE
  5
1D8
330
70
100
AcDbEntity
  8
Capa 1
 62
    18
420
        0
370
    18
100
AcDbLine
 10
79.28286203236019
 20
-138.721365960312
 30
0.0
 11
83.28286203236002
 21
-138.721365960312
 31
0.0
  0
CIRCLE
  5
1D9
330
70
100
AcDbEntity
  8
Capa 1
 62
    18
420
        0
370
    18
100
AcDbCircle
 10
51.11389003236017
 20
-129.739370960312
 30
0.0
 40
1.499999999999972
  0
LINE
  5
1DA
330
70
100
AcDbEntity
  8
Capa 1
 62
    18
420
        0
370
    18
100
AcDbLine
 10
72.27330203236028
 20
-138.6986969603119
 30
0.0
 11
76.27330203236009
 21
-138.6986969603119
 31
0.0
  0
LINE
  5
1DB
330
70
100
AcDbEntity
  8
Capa 1
 62
    18
420
        0
370
    18
100
AcDbLine
 10
72.27330203236028
 20
-141.698696960312
 30
0.0
 11
72.27330203236028
 21
-138.6986969603119
 31
0.0
  0
LINE
  5
1DC
330
70
100
AcDbEntity
  8
Capa 1
 62
    18
420
        0
370
    18
100
AcDbLine
 10
76.27330203236009
 20
-141.698696960312
 30
0.0
 11
72.27330203236028
 21
-141.698696960312
 31
0.0
  0
LINE
  5
1DD
330
70
100
AcDbEntity
  8
Capa 1
 62
    18
420
        0
370
    18
100
AcDbLine
 10
76.27330203236009
 20
-138.6986969603119
 30
0.0
 11
76.27330203236009
 21
-141.698696960312
 31
0.0
  0
LINE
  5
1DE
330
70
100
AcDbEntity
  8
Capa 1
 62
    18
420
        0
370
    18
100
AcDbLine
 10
67.78263703236006
 20
-143.1895579603123
 30
0.0
 11
70.78263703236017
 21
-143.1895579603123
 31
0.0
  0
LINE
  5
1DF
330
70
100
AcDbEntity
  8
Capa 1
 62
    18
420
        0
370
    18
100
AcDbLine
 10
67.78263703236006
 20
-147.1895579603118
 30
0.0
 11
67.78263703236006
 21
-143.1895579603123
 31
0.0
  0
LINE
  5
1E0
330
70
100
AcDbEntity
  8
Capa 1
 62
    18
420
        0
370
    18
100
AcDbLine
 10
70.78263703236017
 20
-147.1895579603118
 30
0.0
 11
67.78263703236006
 21
-147.1895579603118
 31
0.0
  0
LINE
  5
1E1
330
70
100
AcDbEntity
  8
Capa 1
 62
    18
420
        0
370
    18
100
AcDbLine
 10
70.78263703236017
 20
-143.1895579603123
 30
0.0
 11
70.78263703236017
 21
-147.1895579603118
 31
0.0
  0
CIRCLE
  5
1E2
330
70
100
AcDbEntity
  8
Capa 1
 62
    18
420
        0
370
    18
100
AcDbCircle
 10
52.28286103236016
 20
-140.2213659603119
 30
0.0
 40
1.499999999999972
  0
LINE
  5
1E3
330
70
100
AcDbEntity
  8
Capa 1
 62
    18
420
        0
370
    18
100
AcDbLine
 10
59.28286103236009
 20
-141.7213659603121
 30
0.0
 11
55.28286103236027
 21
-141.7213659603121
 31
0.0
  0
LINE
  5
1E4
330
70
100
AcDbEntity
  8
Capa 1
 62
    18
420
        0
370
    18
100
AcDbLine
 10
59.28286103236009
 20
-138.721365960312
 30
0.0
 11
59.28286103236009
 21
-141.7213659603121
 31
0.0
  0
LINE
  5
1E5
330
70
100
AcDbEntity
  8
Capa 1
 62
    18
420
        0
370
    18
100
AcDbLine
 10
55.28286103236027
 20
-138.721365960312
 30
0.0
 11
59.28286103236009
 21
-138.721365960312
 31
0.0
  0
LINE
  5
1E6
330
70
100
AcDbEntity
  8
Capa 1
 62
    18
420
        0
370
    18
100
AcDbLine
 10
55.28286103236027
 20
-141.7213659603121
 30
0.0
 11
55.28286103236027
 21
-138.721365960312
 31
0.0
  0
LINE
  5
1E7
330
70
100
AcDbEntity
  8
Capa 1
 62
    18
420
        0
370
    18
100
AcDbLine
 10
43.08286103236016
 20
-79.53975896031218
 30
0.0
 11
43.08286103236016
 21
-82.5397589603123
 31
0.0
  0
LINE
  5
1E8
330
70
100
AcDbEntity
  8
Capa 1
 62
    18
420
        0
370
    18
100
AcDbLine
 10
39.08286103236035
 20
-79.53975896031218
 30
0.0
 11
43.08286103236016
 21
-79.53975896031218
 31
0.0
  0
LINE
  5
1E9
330
70
100
AcDbEntity
  8
Capa 1
 62
    18
420
        0
370
    18
100
AcDbLine
 10
39.08286103236035
 20
-82.5397589603123
 30
0.0
 11
39.08286103236035
 21
-79.53975896031218
 31
0.0
  0
LINE
  5
1EA
330
70
100
AcDbEntity
  8
Capa 1
 62
    18
420
        0
370
    18
100
AcDbLine
 10
43.08286103236016
 20
-82.5397589603123
 30
0.0
 11
39.08286103236035
 21
-82.5397589603123
 31
0.0
  0
CIRCLE
  5
1EB
330
70
100
AcDbEntity
  8
Capa 1
 62
    18
420
        0
370
    18
100
AcDbCircle
 10
24.65253503236012
 20
-107.6039979603118
 30
0.0
 40
1.499999999999972
  0
CIRCLE
  5
1EC
330
70
100
AcDbEntity
  8
Capa 1
 62
    18
420
        0
370
    18
100
AcDbCircle
 10
69.28286103236013
 20
-28.54625496031211
 30
0.0
 40
1.500000000000052
  0
LINE
  5
1ED
330
70
100
AcDbEntity
  8
Capa 1
 62
    18
420
        0
370
    18
100
AcDbLine
 10
70.78308203236007
 20
-137.2496499603121
 30
0.0
 11
67.78309003236029
 21
-137.2566969603122
 31
0.0
  0
LINE
  5
1EE
330
70
100
AcDbEntity
  8
Capa 1
 62
    18
420
        0
370
    18
100
AcDbLine
 10
70.78308203236007
 20
-133.249650960312
 30
0.0
 11
70.78308203236007
 21
-137.2496499603121
 31
0.0
  0
LINE
  5
1EF
330
70
100
AcDbEntity
  8
Capa 1
 62
    18
420
        0
370
    18
100
AcDbLine
 10
67.78339303236027
 20
-133.2566969603121
 30
0.0
 11
70.78308203236007
 21
-133.249650960312
 31
0.0
  0
LINE
  5
1F0
330
70
100
AcDbEntity
  8
Capa 1
 62
    18
420
        0
370
    18
100
AcDbLine
 10
67.78309003236029
 20
-137.2566969603122
 30
0.0
 11
67.78339303236027
 21
-133.2566969603121
 31
0.0
  0
LINE
  5
1F1
330
70
100
AcDbEntity
  8
Capa 1
 62
    18
420
        0
370
    18
100
AcDbLine
 10
53.74275803236013
 20
-128.2433829603122
 30
0.0
 11
64.7427580323602
 21
-128.2433829603122
 31
0.0
  0
LINE
  5
1F2
330
70
100
AcDbEntity
  8
Capa 1
 62
    18
420
        0
370
    18
100
AcDbLine
 10
53.74275803236013
 20
-131.2433829603123
 30
0.0
 11
53.74275803236013
 21
-128.2433829603122
 31
0.0
  0
LINE
  5
1F3
330
70
100
AcDbEntity
  8
Capa 1
 62
    18
420
        0
370
    18
100
AcDbLine
 10
64.7427580323602
 20
-131.2433829603123
 30
0.0
 11
53.74275803236013
 21
-131.2433829603123
 31
0.0
  0
LINE
  5
1F4
330
70
100
AcDbEntity
  8
Capa 1
 62
    18
420
        0
370
    18
100
AcDbLine
 10
64.7427580323602
 20
-128.2433829603122
 30
0.0
 11
64.7427580323602
 21
-131.2433829603123
 31
0.0
  0
LINE
  5
1F5
330
70
100
AcDbEntity
  8
Capa 1
 62
    18
420
        0
370
    18
100
AcDbLine
 10
66.27330203236006
 20
-138.6986969603119
 30
0.0
 11
66.27330203236006
 21
-141.698696960312
 31
0.0
  0
LINE
  5
1F6
330
70
100
AcDbEntity
  8
Capa 1
 62
    18
420
        0
370
    18
100
AcDbLine
 10
62.27330203236024
 20
-138.6986969603119
 30
0.0
 11
66.27330203236006
 21
-138.6986969603119
 31
0.0
  0
LINE
  5
1F7
330
70
100
AcDbEntity
  8
Capa 1
 62
    18
420
        0
370
    18
100
AcDbLine
 10
62.27330203236024
 20
-141.698696960312
 30
0.0
 11
62.27330203236024
 21
-138.6986969603119
 31
0.0
  0
LINE
  5
1F8
330
70
100
AcDbEntity
  8
Capa 1
 62
    18
420
        0
370
    18
100
AcDbLine
 10
66.27330203236006
 20
-141.698696960312
 30
0.0
 11
62.27330203236024
 21
-141.698696960312
 31
0.0
  0
CIRCLE
  5
1F9
330
70
100
AcDbEntity
  8
Capa 1
 62
    18
420
        0
370
    18
100
AcDbCircle
 10
30.30572803236009
 20
-112.0628559603122
 30
0.0
 40
1.500000000000133
  0
CIRCLE
  5
1FA
330
70
100
AcDbEntity
  8
Capa 1
 62
    18
420
        0
370
    18
100
AcDbCircle
 10
113.9131880323602
 20
-107.6039979603118
 30
0.0
 40
1.499999999999972
  0
CIRCLE
  5
1FB
330
70
100
AcDbEntity
  8
Capa 1
 62
    18
420
        0
370
    18
100
AcDbCircle
 10
18.99934203236014
 20
-103.1451399603121
 30
0.0
 40
1.500000000000133
  0
CIRCLE
  5
1FC
330
70
100
AcDbEntity
  8
Capa 1
 62
    18
420
        0
370
    18
100
AcDbCircle
 10
51.86559803236023
 20
-91.88059996031205
 30
0.0
 40
1.500000000000012
  0
CIRCLE
  5
1FD
330
70
100
AcDbEntity
  8
Capa 1
 62
    18
420
        0
370
    18
100
AcDbCircle
 10
47.94952803236014
 20
-154.035794960312
 30
0.0
 40
1.499999999999972
  0
LINE
  5
1FE
330
70
100
AcDbEntity
  8
Capa 1
 62
    18
420
        0
370
    18
100
AcDbLine
 10
49.28286103236007
 20
-141.7213659603121
 30
0.0
 11
45.28286103236024
 21
-141.7213659603121
 31
0.0
  0
LINE
  5
1FF
330
70
100
AcDbEntity
  8
Capa 1
 62
    18
420
        0
370
    18
100
AcDbLine
 10
49.28286103236007
 20
-138.721365960312
 30
0.0
 11
49.28286103236007
 21
-141.7213659603121
 31
0.0
  0
LINE
  5
200
330
70
100
AcDbEntity
  8
Capa 1
 62
    18
420
        0
370
    18
100
AcDbLine
 10
45.28286103236024
 20
-138.721365960312
 30
0.0
 11
49.28286103236007
 21
-138.721365960312
 31
0.0
  0
LINE
  5
201
330
70
100
AcDbEntity
  8
Capa 1
 62
    18
420
        0
370
    18
100
AcDbLine
 10
45.28286103236024
 20
-141.7213659603121
 30
0.0
 11
45.28286103236024
 21
-138.721365960312
 31
0.0
  0
LINE
  5
202
330
70
100
AcDbEntity
  8
Capa 1
 62
    18
420
        0
370
    18
100
AcDbLine
 10
53.2828610323602
 20
-40.85678996031193
 30
0.0
 11
56.28286103236031
 21
-40.85678996031193
 31
0.0
  0
LINE
  5
203
330
70
100
AcDbEntity
  8
Capa 1
 62
    18
420
        0
370
    18
100
AcDbLine
 10
53.2828610323602
 20
-44.85678996031206
 30
0.0
 11
53.2828610323602
 21
-40.85678996031193
 31
0.0
  0
LINE
  5
204
330
70
100
AcDbEntity
  8
Capa 1
 62
    18
420
        0
370
    18
100
AcDbLine
 10
56.28286103236031
 20
-44.85678996031206
 30
0.0
 11
53.2828610323602
 21
-44.85678996031206
 31
0.0
  0
LINE
  5
205
330
70
100
AcDbEntity
  8
Capa 1
 62
    18
420
        0
370
    18
100
AcDbLine
 10
56.28286103236031
 20
-40.85678996031193
 30
0.0
 11
56.28286103236031
 21
-44.85678996031206
 31
0.0
  0
CIRCLE
  5
206
330
70
100
AcDbEntity
  8
Capa 1
 62
    18
420
        0
370
    18
100
AcDbCircle
 10
119.5663810323601
 20
-103.1451399603121
 30
0.0
 40
1.500000000000133
  0
LINE
  5
207
330
70
100
AcDbEntity
  8
Capa 1
 62
    18
420
        0
370
    18
100
AcDbLine
 10
120.6265100323601
 20
-95.93165796031202
 30
0.0
 11
96.62175303236002
 21
-114.8649919603123
 31
0.0
  0
SPLINE
  5
208
330
70
100
AcDbEntity
  8
Capa 1
 62
    18
420
        0
370
    18
100
AcDbSpline
210
0.0
220
0.0
230
1.0
 70
     8
 71
     3
 72
    11
 73
     7
 74
     0
 42
0.0000000001
 43
0.0000000001
 40
0.0
 40
0.0
 40
0.0
 40
0.0
 40
1.0
 40
1.0
 40
1.0
 40
2.0
 40
2.0
 40
2.0
 40
2.0
 10
118.7686523846546
 20
-93.57616044408631
 30
0.0
 10
119.4191049293018
 20
-93.06312731827771
 30
0.0
 10
120.3622964227771
 20
-93.17452776795871
 30
0.0
 10
120.8753295485857
 20
-93.82498031260627
 30
0.0
 10
121.3883626743946
 20
-94.47543285725386
 30
0.0
 10
121.276962224713
 20
-95.41862435072909
 30
0.0
 10
120.6265096800657
 20
-95.93165747653769
 30
0.0
  0
LINE
  5
209
330
70
100
AcDbEntity
  8
Capa 1
 62
    18
420
        0
370
    18
100
AcDbLine
 10
94.7638960323602
 20
-112.5094949603116
 30
0.0
 11
118.7686520323602
 21
-93.576160960312
 31
0.0
  0
SPLINE
  5
20A
330
70
100
AcDbEntity
  8
Capa 1
 62
    18
420
        0
370
    18
100
AcDbSpline
210
0.0
220
0.0
230
1.0
 70
     8
 71
     3
 72
    11
 73
     7
 74
     0
 42
0.0000000001
 43
0.0000000001
 40
0.0
 40
0.0
 40
0.0
 40
0.0
 40
1.0
 40
1.0
 40
1.0
 40
2.0
 40
2.0
 40
2.0
 40
2.0
 10
96.62175268006597
 20
-114.8649924765373
 30
0.0
 10
95.97130013541871
 20
-115.3780256023466
 30
0.0
 10
95.02810864194348
 20
-115.2666251526649
 30
0.0
 10
94.51507551613456
 20
-114.616172608018
 30
0.0
 10
94.00204239032564
 20
-113.9657200633704
 30
0.0
 10
94.11344284000728
 20
-113.0225285698952
 30
0.0
 10
94.76389538465452
 20
-112.5094954440859
 30
0.0
  0
CIRCLE
  5
20B
330
70
100
AcDbEntity
  8
Capa 1
 62
    18
420
        0
370
    18
100
AcDbCircle
 10
125.2195740323601
 20
-98.68628296031216
 30
0.0
 40
1.500000000000133
  0
CIRCLE
  5
20C
330
70
100
AcDbEntity
  8
Capa 1
 62
    18
420
        0
370
    18
100
AcDbCircle
 10
13.34614903236017
 20
-98.68628296031216
 30
0.0
 40
1.500000000000133
  0
CIRCLE
  5
20D
330
70
100
AcDbEntity
  8
Capa 1
 62
    18
420
        0
370
    18
100
AcDbCircle
 10
108.2599950323602
 20
-112.0628559603122
 30
0.0
 40
1.500000000000133
  0
CIRCLE
  5
20E
330
70
100
AcDbEntity
  8
Capa 1
 62
    18
420
        0
370
    18
100
AcDbCircle
 10
86.70012403236027
 20
-91.88059996031205
 30
0.0
 40
1.500000000000133
  0
LINE
  5
20F
330
70
100
AcDbEntity
  8
Capa 1
 62
    18
420
        0
370
    18
100
AcDbLine
 10
72.28286103236023
 20
-30.04625496031184
 30
0.0
 11
72.28286103236023
 21
-27.04625496031206
 31
0.0
  0
LINE
  5
210
330
70
100
AcDbEntity
  8
Capa 1
 62
    18
420
        0
370
    18
100
AcDbLine
 10
76.28286103236006
 20
-30.04625496031184
 30
0.0
 11
72.28286103236023
 21
-30.04625496031184
 31
0.0
  0
LINE
  5
211
330
70
100
AcDbEntity
  8
Capa 1
 62
    18
420
        0
370
    18
100
AcDbLine
 10
76.28286103236006
 20
-27.04625496031206
 30
0.0
 11
76.28286103236006
 21
-30.04625496031184
 31
0.0
  0
LINE
  5
212
330
70
100
AcDbEntity
  8
Capa 1
 62
    18
420
        0
370
    18
100
AcDbLine
 10
72.28286103236023
 20
-27.04625496031206
 30
0.0
 11
76.28286103236006
 21
-27.04625496031206
 31
0.0
  0
LINE
  5
213
330
70
100
AcDbEntity
  8
Capa 1
 62
    18
420
        0
370
    18
100
AcDbLine
 10
53.0828610323602
 20
-82.61263696031198
 30
0.0
 11
49.08286103236005
 21
-82.61263696031198
 31
0.0
  0
LINE
  5
214
330
70
100
AcDbEntity
  8
Capa 1
 62
    18
420
        0
370
    18
100
AcDbLine
 10
53.0828610323602
 20
-79.61263696031188
 30
0.0
 11
53.0828610323602
 21
-82.61263696031198
 31
0.0
  0
LINE
  5
215
330
70
100
AcDbEntity
  8
Capa 1
 62
    18
420
        0
370
    18
100
AcDbLine
 10
49.08286103236005
 20
-79.61263696031188
 30
0.0
 11
53.0828610323602
 21
-79.61263696031188
 31
0.0
  0
LINE
  5
216
330
70
100
AcDbEntity
  8
Capa 1
 62
    18
420
        0
370
    18
100
AcDbLine
 10
49.08286103236005
 20
-82.61263696031198
 30
0.0
 11
49.08286103236005
 21
-79.61263696031188
 31
0.0
  0
CIRCLE
  5
217
330
70
100
AcDbEntity
  8
Capa 1
 62
    18
420
        0
370
    18
100
AcDbCircle
 10
63.75304803236021
 20
-54.77314496031204
 30
0.0
 40
1.499999999999932
  0
CIRCLE
  5
218
330
70
100
AcDbEntity
  8
Capa 1
 62
    18
420
        0
370
    18
100
AcDbCircle
 10
69.28286103236013
 20
-154.035794960312
 30
0.0
 40
1.499999999999972
  0
LINE
  5
219
330
70
100
AcDbEntity
  8
Capa 1
 62
    18
420
        0
370
    18
100
AcDbLine
 10
53.2828610323602
 20
-35.35678996031206
 30
0.0
 11
53.2828610323602
 21
-31.35678996031192
 31
0.0
  0
LINE
  5
21A
330
70
100
AcDbEntity
  8
Capa 1
 62
    18
420
        0
370
    18
100
AcDbLine
 10
56.28286103236031
 20
-35.35678996031206
 30
0.0
 11
53.2828610323602
 21
-35.35678996031206
 31
0.0
  0
LINE
  5
21B
330
70
100
AcDbEntity
  8
Capa 1
 62
    18
420
        0
370
    18
100
AcDbLine
 10
56.28286103236031
 20
-31.35678996031192
 30
0.0
 11
56.28286103236031
 21
-35.35678996031206
 31
0.0
  0
LINE
  5
21C
330
70
100
AcDbEntity
  8
Capa 1
 62
    18
420
        0
370
    18
100
AcDbLine
 10
53.2828610323602
 20
-31.35678996031192
 30
0.0
 11
56.28286103236031
 21
-31.35678996031192
 31
0.0
  0
LINE
  5
21D
330
70
100
AcDbEntity
  8
Capa 1
 62
    18
420
        0
370
    18
100
AcDbLine
 10
66.28286103236002
 20
-27.04625496031206
 30
0.0
 11
66.28286103236002
 21
-30.04625496031184
 31
0.0
  0
LINE
  5
21E
330
70
100
AcDbEntity
  8
Capa 1
 62
    18
420
        0
370
    18
100
AcDbLine
 10
62.2828610323602
 20
-27.04625496031206
 30
0.0
 11
66.28286103236002
 21
-27.04625496031206
 31
0.0
  0
LINE
  5
21F
330
70
100
AcDbEntity
  8
Capa 1
 62
    18
420
        0
370
    18
100
AcDbLine
 10
62.2828610323602
 20
-30.04625496031184
 30
0.0
 11
62.2828610323602
 21
-27.04625496031206
 31
0.0
  0
LINE
  5
220
330
70
100
AcDbEntity
  8
Capa 1
 62
    18
420
        0
370
    18
100
AcDbLine
 10
66.28286103236002
 20
-30.04625496031184
 30
0.0
 11
62.2828610323602
 21
-30.04625496031184
 31
0.0
  0
LINE
  5
221
330
70
100
AcDbEntity
  8
Capa 1
 62
    18
420
        0
370
    18
100
AcDbLine
 10
89.28286203236023
 20
-141.7213659603121
 30
0.0
 11
89.28286203236023
 21
-138.721365960312
 31
0.0
  0
LINE
  5
222
330
70
100
AcDbEntity
  8
Capa 1
 62
    18
420
        0
370
    18
100
AcDbLine
 10
93.28286203236006
 20
-141.7213659603121
 30
0.0
 11
89.28286203236023
 21
-141.7213659603121
 31
0.0
  0
LINE
  5
223
330
70
100
AcDbEntity
  8
Capa 1
 62
    18
420
        0
370
    18
100
AcDbLine
 10
93.28286203236006
 20
-138.721365960312
 30
0.0
 11
93.28286203236006
 21
-141.7213659603121
 31
0.0
  0
LINE
  5
224
330
70
100
AcDbEntity
  8
Capa 1
 62
    18
420
        0
370
    18
100
AcDbLine
 10
89.28286203236023
 20
-138.721365960312
 30
0.0
 11
93.28286203236006
 21
-138.721365960312
 31
0.0
  0
LINE
  5
225
330
70
100
AcDbEntity
  8
Capa 1
 62
    18
420
        0
370
    18
100
AcDbLine
 10
129.2828610323603
 20
-8.356789960312067
 30
0.0
 11
9.282861032360255
 21
-8.356789960312067
 31
0.0
  0
LINE
  5
226
330
70
100
AcDbEntity
  8
Capa 1
 62
    18
420
        0
370
    18
100
AcDbLine
 10
129.2828610323603
 20
-18.3567899603121
 30
0.0
 11
129.2828610323603
 21
-8.356789960312067
 31
0.0
  0
LINE
  5
227
330
70
100
AcDbEntity
  8
Capa 1
 62
    18
420
        0
370
    18
100
AcDbLine
 10
103.28286103236
 20
-18.3567899603121
 30
0.0
 11
129.2828610323603
 21
-18.3567899603121
 31
0.0
  0
LINE
  5
228
330
70
100
AcDbEntity
  8
Capa 1
 62
    18
420
        0
370
    18
100
AcDbLine
 10
103.28286103236
 20
-90.35678996031206
 30
0.0
 11
103.28286103236
 21
-18.3567899603121
 31
0.0
  0
LINE
  5
229
330
70
100
AcDbEntity
  8
Capa 1
 62
    18
420
        0
370
    18
100
AcDbLine
 10
129.78286103236
 20
-90.35678996031206
 30
0.0
 11
103.28286103236
 21
-90.35678996031206
 31
0.0
  0
LINE
  5
22A
330
70
100
AcDbEntity
  8
Capa 1
 62
    18
420
        0
370
    18
100
AcDbLine
 10
129.7828570323601
 20
-99.3567899603124
 30
0.0
 11
129.78286103236
 21
-90.35678996031206
 31
0.0
  0
LINE
  5
22B
330
70
100
AcDbEntity
  8
Capa 1
 62
    18
420
        0
370
    18
100
AcDbLine
 10
94.28286103236004
 20
-127.3567899603121
 30
0.0
 11
129.7828570323601
 21
-99.3567899603124
 31
0.0
  0
LINE
  5
22C
330
70
100
AcDbEntity
  8
Capa 1
 62
    18
420
        0
370
    18
100
AcDbLine
 10
94.28286103236004
 20
-142.356789960312
 30
0.0
 11
94.28286103236004
 21
-127.3567899603121
 31
0.0
  0
LINE
  5
22D
330
70
100
AcDbEntity
  8
Capa 1
 62
    18
420
        0
370
    18
100
AcDbLine
 10
109.2828610323602
 20
-142.356789960312
 30
0.0
 11
94.28286103236004
 21
-142.356789960312
 31
0.0
  0
LINE
  5
22E
330
70
100
AcDbEntity
  8
Capa 1
 62
    18
420
        0
370
    18
100
AcDbLine
 10
109.2828610323602
 20
-157.3567899603119
 30
0.0
 11
109.2828610323602
 21
-142.356789960312
 31
0.0
  0
LINE
  5
22F
330
70
100
AcDbEntity
  8
Capa 1
 62
    18
420
        0
370
    18
100
AcDbLine
 10
29.28286103236
 20
-157.3567899603119
 30
0.0
 11
109.2828610323602
 21
-157.3567899603119
 31
0.0
  0
LINE
  5
230
330
70
100
AcDbEntity
  8
Capa 1
 62
    18
420
        0
370
    18
100
AcDbLine
 10
29.28286103236
 20
-142.356789960312
 30
0.0
 11
29.28286103236
 21
-157.3567899603119
 31
0.0
  0
LINE
  5
231
330
70
100
AcDbEntity
  8
Capa 1
 62
    18
420
        0
370
    18
100
AcDbLine
 10
44.28286103236021
 20
-142.356789960312
 30
0.0
 11
29.28286103236
 21
-142.356789960312
 31
0.0
  0
LINE
  5
232
330
70
100
AcDbEntity
  8
Capa 1
 62
    18
420
        0
370
    18
100
AcDbLine
 10
44.28286103236021
 20
-127.3567899603121
 30
0.0
 11
44.28286103236021
 21
-142.356789960312
 31
0.0
  0
LINE
  5
233
330
70
100
AcDbEntity
  8
Capa 1
 62
    18
420
        0
370
    18
100
AcDbLine
 10
8.782866032360118
 20
-99.3567899603124
 30
0.0
 11
44.28286103236021
 21
-127.3567899603121
 31
0.0
  0
LINE
  5
234
330
70
100
AcDbEntity
  8
Capa 1
 62
    18
420
        0
370
    18
100
AcDbLine
 10
8.782861032360237
 20
-90.35678996031206
 30
0.0
 11
8.782866032360118
 21
-99.3567899603124
 31
0.0
  0
LINE
  5
235
330
70
100
AcDbEntity
  8
Capa 1
 62
    18
420
        0
370
    18
100
AcDbLine
 10
35.28286103236021
 20
-90.35678996031206
 30
0.0
 11
8.782861032360237
 21
-90.35678996031206
 31
0.0
  0
LINE
  5
236
330
70
100
AcDbEntity
  8
Capa 1
 62
    18
420
        0
370
    18
100
AcDbLine
 10
35.28286103236021
 20
-18.3567899603121
 30
0.0
 11
35.28286103236021
 21
-90.35678996031206
 31
0.0
  0
LINE
  5
237
330
70
100
AcDbEntity
  8
Capa 1
 62
    18
420
        0
370
    18
100
AcDbLine
 10
9.282861032360255
 20
-18.3567899603121
 30
0.0
 11
35.28286103236021
 21
-18.3567899603121
 31
0.0
  0
LINE
  5
238
330
70
100
AcDbEntity
  8
Capa 1
 62
    18
420
        0
370
    18
100
AcDbLine
 10
9.282861032360255
 20
-8.356789960312067
 30
0.0
 11
9.282861032360255
 21
-18.3567899603121
 31
0.0
  0
LWPOLYLINE
  5
239
330
70
100
AcDbEntity
  8
Capa 1
 62
    18
420
        0
370
    18
100
AcDbPolyline
 90
        4
 70
     1
 43
0.0
 10
228.4782500297347
 20
-90.53365096181197
 10
228.4782500297347
 20
-102.5336509588118
 10
207.478250034985
 20
-102.5336509588118
 10
207.478250034985
 20
-90.53365096181197
  0
SPLINE
  5
23A
330
70
100
AcDbEntity
  8
Capa 1
 62
    22
420
 15016993
370
    18
100
AcDbSpline
210
0.0
220
0.0
230
1.0
 70
     9
 71
     3
 72
    29
 73
    25
 74
     0
 42
0.0000000001
 43
0.0000000001
 40
0.0
 40
0.0
 40
0.0
 40
0.0
 40
1.0
 40
1.0
 40
1.0
 40
2.0
 40
2.0
 40
2.0
 40
3.0
 40
3.0
 40
3.0
 40
4.0
 40
4.0
 40
4.0
 40
5.0
 40
5.0
 40
5.0
 40
6.0
 40
6.0
 40
6.0
 40
7.0
 40
7.0
 40
7.0
 40
8.0
 40
8.0
 40
8.0
 40
8.0
 10
188.5895230494611
 20
-76.35678732590922
 30
0.0
 10
188.5895230494611
 20
-76.35678732590922
 30
0.0
 10
136.6933510152594
 20
-76.35678732590922
 30
0.0
 10
136.6933510152594
 20
-76.35678732590922
 30
0.0
 10
135.836252593252
 20
-76.35678732590922
 30
0.0
 10
135.1414370392354
 20
-75.66197177189263
 30
0.0
 10
135.1414370392354
 20
-74.80487334988524
 30
0.0
 10
135.1414370392354
 20
-74.80487334988524
 30
0.0
 10
135.1414370392354
 20
-17.90870131693337
 30
0.0
 10
135.1414370392354
 20
-17.90870131693337
 30
0.0
 10
135.1414370392354
 20
-17.05160289492598
 30
0.0
 10
135.836252593252
 20
-16.35678734090938
 30
0.0
 10
136.6933510152594
 20
-16.35678734090938
 30
0.0
 10
136.6933510152594
 20
-16.35678734090938
 30
0.0
 10
188.5895230494611
 20
-16.35678734090938
 30
0.0
 10
188.5895230494611
 20
-16.35678734090938
 30
0.0
 10
189.4466214714685
 20
-16.35678734090938
 30
0.0
 10
190.1414370254851
 20
-17.05160289492598
 30
0.0
 10
190.1414370254851
 20
-17.90870131693337
 30
0.0
 10
190.1414370254851
 20
-17.90870131693337
 30
0.0
 10
190.1414370254851
 20
-74.80487334988524
 30
0.0
 10
190.1414370254851
 20
-74.80487334988524
 30
0.0
 10
190.1414370254851
 20
-75.66197177189263
 30
0.0
 10
189.4466214714685
 20
-76.35678732590922
 30
0.0
 10
188.5895230494611
 20
-76.35678732590922
 30
0.0
  0
SPLINE
  5
23B
330
70
100
AcDbEntity
  8
Capa 1
 62
    22
420
 15016993
370
    18
100
AcDbSpline
210
0.0
220
0.0
230
1.0
 70
     9
 71
     3
 72
    53
 73
    49
 74
     0
 42
0.0000000001
 43
0.0000000001
 40
0.0
 40
0.0
 40
0.0
 40
0.0
 40
1.0
 40
1.0
 40
1.0
 40
2.0
 40
2.0
 40
2.0
 40
3.0
 40
3.0
 40
3.0
 40
4.0
 40
4.0
 40
4.0
 40
5.0
 40
5.0
 40
5.0
 40
6.0
 40
6.0
 40
6.0
 40
7.0
 40
7.0
 40
7.0
 40
8.0
 40
8.0
 40
8.0
 40
9.0
 40
9.0
 40
9.0
 40
10.0
 40
10.0
 40
10.0
 40
11.0
 40
11.0
 40
11.0
 40
12.0
 40
12.0
 40
12.0
 40
13.0
 40
13.0
 40
13.0
 40
14.0
 40
14.0
 40
14.0
 40
15.0
 40
15.0
 40
15.0
 40
16.0
 40
16.0
 40
16.0
 40
16.0
 10
193.6310319204507
 20
-17.85678041519255
 30
0.0
 10
193.6310319204507
 20
-17.85678041519255
 30
0.0
 10
193.6310319204507
 20
-79.856788825029
 30
0.0
 10
193.6310319204507
 20
-79.856788825029
 30
0.0
 10
193.6310319204507
 20
-80.68521212480733
 30
0.0
 10
194.3026016949555
 20
-81.35678189931217
 30
0.0
 10
195.1310249947339
 20
-81.35678189931217
 30
0.0
 10
195.1310249947339
 20
-81.35678189931217
 30
0.0
 10
195.1310279947231
 20
-81.35678189931217
 30
0.0
 10
195.1310279947231
 20
-81.35678189931217
 30
0.0
 10
195.9594512945015
 20
-81.35678189931217
 30
0.0
 10
196.6310210690063
 20
-82.02835167381698
 30
0.0
 10
196.6310210690063
 20
-82.85677497359534
 30
0.0
 10
196.6310210690063
 20
-82.85677497359534
 30
0.0
 10
196.6310210690063
 20
-82.85679950543133
 30
0.0
 10
196.6310210690063
 20
-82.85679950543133
 30
0.0
 10
196.6310210690063
 20
-83.68522280520968
 30
0.0
 10
197.3025908435111
 20
-84.3567925797145
 30
0.0
 10
198.1310141432895
 20
-84.3567925797145
 30
0.0
 10
198.1310141432895
 20
-84.3567925797145
 30
0.0
 10
232.1310305286047
 20
-84.3567925797145
 30
0.0
 10
232.1310305286047
 20
-84.3567925797145
 30
0.0
 10
232.959453828383
 20
-84.3567925797145
 30
0.0
 10
233.6310236028878
 20
-83.68522280520968
 30
0.0
 10
233.6310236028878
 20
-82.85679950543133
 30
0.0
 10
233.6310236028878
 20
-82.85679950543133
 30
0.0
 10
233.6310236028878
 20
-82.85677497359534
 30
0.0
 10
233.6310236028878
 20
-82.85677497359534
 30
0.0
 10
233.6310236028878
 20
-82.02835167381698
 30
0.0
 10
234.3025933773926
 20
-81.35678189931217
 30
0.0
 10
235.131016677171
 20
-81.35678189931217
 30
0.0
 10
235.131016677171
 20
-81.35678189931217
 30
0.0
 10
246.1310373067887
 20
-81.35678189931217
 30
0.0
 10
246.1310373067887
 20
-81.35678189931217
 30
0.0
 10
246.959460606567
 20
-81.35678189931217
 30
0.0
 10
247.6310303810719
 20
-80.68521212480733
 30
0.0
 10
247.6310303810719
 20
-79.856788825029
 30
0.0
 10
247.6310303810719
 20
-79.856788825029
 30
0.0
 10
247.6310303810719
 20
-17.85678041519255
 30
0.0
 10
247.6310303810719
 20
-17.85678041519255
 30
0.0
 10
247.6310303810719
 20
-17.02835711541421
 30
0.0
 10
246.959460606567
 20
-16.35678734090938
 30
0.0
 10
246.1310373067887
 20
-16.35678734090938
 30
0.0
 10
246.1310373067887
 20
-16.35678734090938
 30
0.0
 10
195.1310249947339
 20
-16.35678734090938
 30
0.0
 10
195.1310249947339
 20
-16.35678734090938
 30
0.0
 10
194.3026016949555
 20
-16.35678734090938
 30
0.0
 10
193.6310319204507
 20
-17.02835711541421
 30
0.0
 10
193.6310319204507
 20
-17.85678041519255
 30
0.0
  0
LWPOLYLINE
  5
23C
330
70
100
AcDbEntity
  8
Capa 1
 62
    18
420
        0
370
    18
100
AcDbPolyline
 90
        1
 70
     0
 43
0.0
 10
131.7782500323603
 20
-90.44286396031187
  0
ENDSEC
  0
SECTION
  2
OBJECTS
  0
DICTIONARY
  5
C
330
0
100
AcDbDictionary
281
     1
  3
ACAD_COLOR
350
63
  3
ACAD_DETAILVIEWSTYLE
350
6A
  3
ACAD_GROUP
350
D
  3
ACAD_LAYOUT
350
62
  3
ACAD_MATERIAL
350
10
  3
ACAD_MLEADERSTYLE
350
66
  3
ACAD_MLINESTYLE
350
5F
  3
ACAD_PLOTSETTINGS
350
61
  3
ACAD_PLOTSTYLENAME
350
E
  3
ACAD_SCALELIST
350
42
  3
ACAD_SECTIONVIEWSTYLE
350
68
  3
ACAD_TABLESTYLE
350
64
  3
ACAD_VISUALSTYLE
350
29
  3
ACDB_RECOMPOSE_DATA
350
245
  3
AcDbVariableDictionary
350
23D
  0
DICTIONARY
  5
63
102
{ACAD_REACTORS
330
C
102
}
330
C
100
AcDbDictionary
281
     1
  0
DICTIONARY
  5
6A
102
{ACAD_REACTORS
330
C
102
}
330
C
100
AcDbDictionary
281
     1
  3
Imperial24
350
6B
  0
DICTIONARY
  5
D
102
{ACAD_REACTORS
330
C
102
}
330
C
100
AcDbDictionary
281
     1
  0
DICTIONARY
  5
62
102
{ACAD_REACTORS
330
C
102
}
330
C
100
AcDbDictionary
281
     1
  3
Layout1
350
6F
  3
Layout2
350
77
  3
Model
350
73
  0
DICTIONARY
  5
10
102
{ACAD_REACTORS
330
C
102
}
330
C
100
AcDbDictionary
281
     1
  3
ByBlock
350
19
  3
ByLayer
350
11
  3
Global
350
21
  0
DICTIONARY
  5
66
102
{ACAD_REACTORS
330
C
102
}
330
C
100
AcDbDictionary
281
     1
  3
Standard
350
67
  0
DICTIONARY
  5
5F
102
{ACAD_REACTORS
330
C
102
}
330
C
100
AcDbDictionary
281
     1
  3
Standard
350
60
  0
DICTIONARY
  5
61
102
{ACAD_REACTORS
330
C
102
}
330
C
100
AcDbDictionary
281
     1
  0
ACDBDICTIONARYWDFLT
  5
E
102
{ACAD_REACTORS
330
C
102
}
330
C
100
AcDbDictionary
281
     1
  3
Normal
350
F
100
AcDbDictionaryWithDefault
340
F
  0
DICTIONARY
  5
42
102
{ACAD_REACTORS
330
C
102
}
330
C
100
AcDbDictionary
281
     1
  3
A0
350
43
  3
A1
350
44
  3
A2
350
45
  3
A3
350
46
  3
A4
350
47
  3
A5
350
48
  3
A6
350
49
  3
A7
350
4A
  3
A8
350
4B
  3
A9
350
4C
  3
B0
350
4D
  3
B1
350
4E
  3
B2
350
4F
  3
B3
350
50
  3
B4
350
51
  3
B5
350
52
  3
B6
350
53
  0
DICTIONARY
  5
68
102
{ACAD_REACTORS
330
C
102
}
330
C
100
AcDbDictionary
281
     1
  3
Imperial24
350
69
  0
DICTIONARY
  5
64
102
{ACAD_REACTORS
330
C
102
}
330
C
100
AcDbDictionary
281
     1
  3
Standard
350
65
  0
DICTIONARY
  5
29
102
{ACAD_REACTORS
330
C
102
}
330
C
100
AcDbDictionary
281
     1
  3
2dWireframe
350
2F
  3
Basic
350
2E
  3
Brighten
350
35
  3
ColorChange
350
39
  3
Conceptual
350
32
  3
Dim
350
34
  3
EdgeColorOff
350
41
  3
Facepattern
350
38
  3
Flat
350
2A
  3
FlatWithEdges
350
2B
  3
Gouraud
350
2C
  3
GouraudWithEdges
350
2D
  3
Hidden
350
31
  3
JitterOff
350
3F
  3
Linepattern
350
37
  3
OverhangOff
350
40
  3
Realistic
350
33
  3
Shaded
350
3E
  3
Shaded with edges
350
3D
  3
Shades of Gray
350
3A
  3
Sketchy
350
3B
  3
Thicken
350
36
  3
Wireframe
350
30
  3
X-Ray
350
3C
  0
XRECORD
  5
245
102
{ACAD_REACTORS
330
C
102
}
330
C
100
AcDbXrecord
280
     1
 90
        1
330
65
  0
DICTIONARY
  5
23D
102
{ACAD_REACTORS
330
C
102
}
330
C
100
AcDbDictionary
281
     1
  3
CANNOSCALE
350
242
  3
CMLEADERSTYLE
350
23F
  3
CTABLESTYLE
350
23E
  3
CVIEWDETAILSTYLE
350
240
  3
CVIEWSECTIONSTYLE
350
241
  0
ACDBDETAILVIEWSTYLE
  5
6B
102
{ACAD_REACTORS
330
6A
102
}
330
6A
100
AcDbModelDocViewStyle
 70
     0
  3
Imperial24
290
     1
300
Imperial24
 90
        0
100
AcDbDetailViewStyle
 70
     0
 71
     0
 90
        3
 71
     1
340
55
 62
   256
 40
0.24
340
0
 62
   256
 40
0.24
300

 40
0.36
280
     3
 71
     2
340
5D
 90
       25
 62
   256
 71
     3
340
55
 62
   256
 40
0.24
 90
        1
 40
0.75
 90
        1
300
%<\AcVar ViewType \f "%tc1">% %<\AcVar ViewDetailId>%\PSCALE %<\AcVar ViewScale \f "%sn">%
 71
     4
340
5D
 90
       25
 62
   256
340
5D
 90
       25
 62
   256
280
     0
  0
LAYOUT
  5
6F
102
{ACAD_REACTORS
330
62
102
}
330
62
100
AcDbPlotSettings
  1

  2

  4

  6

 40
0.0
 41
0.0
 42
0.0
 43
0.0
 44
0.0
 45
0.0
 46
0.0
 47
0.0
 48
0.0
 49
0.0
140
0.0
141
0.0
142
1.0
143
1.0
 70
   688
 72
     0
 73
     0
 74
     5
  7

 75
    16
147
1.0
 76
     0
 77
     2
 78
   300
148
0.0
149
0.0
100
AcDbLayout
  1
Layout1
 70
     1
 71
     1
 10
0.0
 20
0.0
 11
12.0
 21
9.0
 12
0.0
 22
0.0
 32
0.0
 14
0.0
 24
0.0
 34
0.0
 15
0.0
 25
0.0
 35
0.0
146
0.0
 13
0.0
 23
0.0
 33
0.0
 16
1.0
 26
0.0
 36
0.0
 17
0.0
 27
1.0
 37
0.0
 76
     0
330
6C
  0
LAYOUT
  5
77
102
{ACAD_REACTORS
330
62
102
}
330
62
100
AcDbPlotSettings
  1

  2

  4

  6

 40
0.0
 41
0.0
 42
0.0
 43
0.0
 44
0.0
 45
0.0
 46
0.0
 47
0.0
 48
0.0
 49
0.0
140
0.0
141
0.0
142
1.0
143
1.0
 70
   688
 72
     0
 73
     0
 74
     5
  7

 75
    16
147
1.0
 76
     0
 77
     2
 78
   300
148
0.0
149
0.0
100
AcDbLayout
  1
Layout2
 70
     1
 71
     2
 10
0.0
 20
0.0
 11
12.0
 21
9.0
 12
0.0
 22
0.0
 32
0.0
 14
0.0
 24
0.0
 34
0.0
 15
0.0
 25
0.0
 35
0.0
146
0.0
 13
0.0
 23
0.0
 33
0.0
 16
1.0
 26
0.0
 36
0.0
 17
0.0
 27
1.0
 37
0.0
 76
     0
330
74
  0
LAYOUT
  5
73
102
{ACAD_REACTORS
330
62
102
}
330
62
100
AcDbPlotSettings
  1

  2

  4

  6

 40
0.0
 41
0.0
 42
0.0
 43
0.0
 44
0.0
 45
0.0
 46
0.0
 47
0.0
 48
0.0
 49
0.0
140
0.0
141
0.0
142
1.0
143
1.0
 70
  1712
 72
     0
 73
     0
 74
     0
  7

 75
     0
147
1.0
 76
     0
 77
     2
 78
   300
148
0.0
149
0.0
100
AcDbLayout
  1
Model
 70
     1
 71
     0
 10
0.0
 20
0.0
 11
12.0
 21
9.0
 12
0.0
 22
0.0
 32
0.0
 14
0.0
 24
0.0
 34
0.0
 15
0.0
 25
0.0
 35
0.0
146
0.0
 13
0.0
 23
0.0
 33
0.0
 16
1.0
 26
0.0
 36
0.0
 17
0.0
 27
1.0
 37
0.0
 76
     0
330
70
  0
MATERIAL
  5
19
102
{ACAD_XDICTIONARY
360
1A
102
}
102
{ACAD_REACTORS
330
10
102
}
330
10
100
AcDbMaterial
  1
ByBlock
 72
     0
 43
0.0208333333333333
 43
0.0
 43
0.0
 43
0.0
 43
0.0
 43
0.0208333333333333
 43
0.0
 43
0.0
 43
0.0
 43
0.0
 43
1.0
 43
0.0
 43
0.0
 43
0.0
 43
0.0
 43
1.0
 77
     0
 47
0.0208333333333333
 47
0.0
 47
0.0
 47
0.0
 47
0.0
 47
0.0208333333333333
 47
0.0
 47
0.0
 47
0.0
 47
0.0
 47
1.0
 47
0.0
 47
0.0
 47
0.0
 47
0.0
 47
1.0
171
     0
 49
0.0208333333333333
 49
0.0
 49
0.0
 49
0.0
 49
0.0
 49
0.0208333333333333
 49
0.0
 49
0.0
 49
0.0
 49
0.0
 49
1.0
 49
0.0
 49
0.0
 49
0.0
 49
0.0
 49
1.0
175
     0
142
0.0208333333333333
142
0.0
142
0.0
142
0.0
142
0.0
142
0.0208333333333333
142
0.0
142
0.0
142
0.0
142
0.0
142
1.0
142
0.0
142
0.0
142
0.0
142
0.0
142
1.0
179
     0
144
0.0208333333333333
144
0.0
144
0.0
144
0.0
144
0.0
144
0.0208333333333333
144
0.0
144
0.0
144
0.0
144
0.0
144
1.0
144
0.0
144
0.0
144
0.0
144
0.0
144
1.0
147
0.0208333333333333
147
0.0
147
0.0
147
0.0
147
0.0
147
0.0208333333333333
147
0.0
147
0.0
147
0.0
147
0.0
147
1.0
147
0.0
147
0.0
147
0.0
147
0.0
147
1.0
  0
MATERIAL
  5
11
102
{ACAD_XDICTIONARY
360
12
102
}
102
{ACAD_REACTORS
330
10
102
}
330
10
100
AcDbMaterial
  1
ByLayer
 72
     0
 43
0.0208333333333333
 43
0.0
 43
0.0
 43
0.0
 43
0.0
 43
0.0208333333333333
 43
0.0
 43
0.0
 43
0.0
 43
0.0
 43
1.0
 43
0.0
 43
0.0
 43
0.0
 43
0.0
 43
1.0
 77
     0
 47
0.0208333333333333
 47
0.0
 47
0.0
 47
0.0
 47
0.0
 47
0.0208333333333333
 47
0.0
 47
0.0
 47
0.0
 47
0.0
 47
1.0
 47
0.0
 47
0.0
 47
0.0
 47
0.0
 47
1.0
171
     0
 49
0.0208333333333333
 49
0.0
 49
0.0
 49
0.0
 49
0.0
 49
0.0208333333333333
 49
0.0
 49
0.0
 49
0.0
 49
0.0
 49
1.0
 49
0.0
 49
0.0
 49
0.0
 49
0.0
 49
1.0
175
     0
142
0.0208333333333333
142
0.0
142
0.0
142
0.0
142
0.0
142
0.0208333333333333
142
0.0
142
0.0
142
0.0
142
0.0
142
1.0
142
0.0
142
0.0
142
0.0
142
0.0
142
1.0
179
     0
144
0.0208333333333333
144
0.0
144
0.0
144
0.0
144
0.0
144
0.0208333333333333
144
0.0
144
0.0
144
0.0
144
0.0
144
1.0
144
0.0
144
0.0
144
0.0
144
0.0
144
1.0
147
0.0208333333333333
147
0.0
147
0.0
147
0.0
147
0.0
147
0.0208333333333333
147
0.0
147
0.0
147
0.0
147
0.0
147
1.0
147
0.0
147
0.0
147
0.0
147
0.0
147
1.0
  0
MATERIAL
  5
21
102
{ACAD_XDICTIONARY
360
22
102
}
102
{ACAD_REACTORS
330
10
102
}
330
10
100
AcDbMaterial
  1
Global
 72
     0
 43
0.0208333333333333
 43
0.0
 43
0.0
 43
0.0
 43
0.0
 43
0.0208333333333333
 43
0.0
 43
0.0
 43
0.0
 43
0.0
 43
1.0
 43
0.0
 43
0.0
 43
0.0
 43
0.0
 43
1.0
 77
     0
 47
0.0208333333333333
 47
0.0
 47
0.0
 47
0.0
 47
0.0
 47
0.0208333333333333
 47
0.0
 47
0.0
 47
0.0
 47
0.0
 47
1.0
 47
0.0
 47
0.0
 47
0.0
 47
0.0
 47
1.0
171
     0
 49
0.0208333333333333
 49
0.0
 49
0.0
 49
0.0
 49
0.0
 49
0.0208333333333333
 49
0.0
 49
0.0
 49
0.0
 49
0.0
 49
1.0
 49
0.0
 49
0.0
 49
0.0
 49
0.0
 49
1.0
175
     0
142
0.0208333333333333
142
0.0
142
0.0
142
0.0
142
0.0
142
0.0208333333333333
142
0.0
142
0.0
142
0.0
142
0.0
142
1.0
142
0.0
142
0.0
142
0.0
142
0.0
142
1.0
179
     0
144
0.0208333333333333
144
0.0
144
0.0
144
0.0
144
0.0
144
0.0208333333333333
144
0.0
144
0.0
144
0.0
144
0.0
144
1.0
144
0.0
144
0.0
144
0.0
144
0.0
144
1.0
147
0.0208333333333333
147
0.0
147
0.0
147
0.0
147
0.0
147
0.0208333333333333
147
0.0
147
0.0
147
0.0
147
0.0
147
1.0
147
0.0
147
0.0
147
0.0
147
0.0
147
1.0
  0
MLEADERSTYLE
  5
67
102
{ACAD_REACTORS
330
66
102
}
330
66
100
AcDbMLeaderStyle
179
     2
170
     2
171
     1
172
     0
 90
        2
 40
0.0
 41
0.0
173
     1
 91
-1056964608
340
5B
 92
       -2
290
     1
 42
0.09
291
     1
 43
0.36
  3
Standard
 44
0.18
300

342
55
174
     1
178
     6
175
     1
176
     0
 93
-1056964608
 45
0.18
292
     0
297
     0
 46
0.18
 94
-1056964608
 47
1.0
 49
1.0
140
1.0
293
     1
141
0.0
294
     1
177
     0
142
1.0
295
     1
296
     0
143
0.125
271
     0
272
     9
273
     9
298
     1
  0
MLINESTYLE
  5
60
102
{ACAD_REACTORS
330
5F
102
}
330
5F
100
AcDbMlineStyle
  2
STANDARD
 70
     0
  3

 62
   256
 51
90.0
 52
90.0
 71
     2
 49
0.5
 62
   256
  6
BYLAYER
 49
-0.5
 62
   256
  6
BYLAYER
  0
ACDBPLACEHOLDER
  5
F
102
{ACAD_REACTORS
330
E
102
}
330
E
  0
SCALE
  5
43
102
{ACAD_REACTORS
330
42
102
}
330
42
100
AcDbScale
 70
     0
300
1:1
140
1.0
141
1.0
290
     1
  0
SCALE
  5
44
102
{ACAD_REACTORS
330
42
102
}
330
42
100
AcDbScale
 70
     0
300
1/128" = 1'-0"
140
0.0078125
141
12.0
290
     0
  0
SCALE
  5
45
102
{ACAD_REACTORS
330
42
102
}
330
42
100
AcDbScale
 70
     0
300
1/64" = 1'-0"
140
0.015625
141
12.0
290
     0
  0
SCALE
  5
46
102
{ACAD_REACTORS
330
42
102
}
330
42
100
AcDbScale
 70
     0
300
1/32" = 1'-0"
140
0.03125
141
12.0
290
     0
  0
SCALE
  5
47
102
{ACAD_REACTORS
330
42
102
}
330
42
100
AcDbScale
 70
     0
300
1/16" = 1'-0"
140
0.0625
141
12.0
290
     0
  0
SCALE
  5
48
102
{ACAD_REACTORS
330
42
102
}
330
42
100
AcDbScale
 70
     0
300
3/32" = 1'-0"
140
0.09375
141
12.0
290
     0
  0
SCALE
  5
49
102
{ACAD_REACTORS
330
42
102
}
330
42
100
AcDbScale
 70
     0
300
1/8" = 1'-0"
140
0.125
141
12.0
290
     0
  0
SCALE
  5
4A
102
{ACAD_REACTORS
330
42
102
}
330
42
100
AcDbScale
 70
     0
300
3/16" = 1'-0"
140
0.1875
141
12.0
290
     0
  0
SCALE
  5
4B
102
{ACAD_REACTORS
330
42
102
}
330
42
100
AcDbScale
 70
     0
300
1/4" = 1'-0"
140
0.25
141
12.0
290
     0
  0
SCALE
  5
4C
102
{ACAD_REACTORS
330
42
102
}
330
42
100
AcDbScale
 70
     0
300
3/8" = 1'-0"
140
0.375
141
12.0
290
     0
  0
SCALE
  5
4D
102
{ACAD_REACTORS
330
42
102
}
330
42
100
AcDbScale
 70
     0
300
1/2" = 1'-0"
140
0.5
141
12.0
290
     0
  0
SCALE
  5
4E
102
{ACAD_REACTORS
330
42
102
}
330
42
100
AcDbScale
 70
     0
300
3/4" = 1'-0"
140
0.75
141
12.0
290
     0
  0
SCALE
  5
4F
102
{ACAD_REACTORS
330
42
102
}
330
42
100
AcDbScale
 70
     0
300
1" = 1'-0"
140
1.0
141
12.0
290
     0
  0
SCALE
  5
50
102
{ACAD_REACTORS
330
42
102
}
330
42
100
AcDbScale
 70
     0
300
1-1/2" = 1'-0"
140
1.5
141
12.0
290
     0
  0
SCALE
  5
51
102
{ACAD_REACTORS
330
42
102
}
330
42
100
AcDbScale
 70
     0
300
3" = 1'-0"
140
3.0
141
12.0
290
     0
  0
SCALE
  5
52
102
{ACAD_REACTORS
330
42
102
}
330
42
100
AcDbScale
 70
     0
300
6" = 1'-0"
140
6.0
141
12.0
290
     0
  0
SCALE
  5
53
102
{ACAD_REACTORS
330
42
102
}
330
42
100
AcDbScale
 70
     0
300
1'-0" = 1'-0"
140
12.0
141
12.0
290
     0
  0
ACDBSECTIONVIEWSTYLE
  5
69
102
{ACAD_REACTORS
330
68
102
}
330
68
100
AcDbModelDocViewStyle
 70
     0
  3
Imperial24
290
     1
300
Imperial24
 90
        0
100
AcDbSectionViewStyle
 70
     0
 71
     0
 90
       78
 71
     1
340
55
 62
   256
 40
0.24
340
0
340
0
 62
   256
 40
0.24
300
I, O, Q, S, X, Z
 40
0.48
 90
        3
 40
0.18
 90
        1
 71
     2
340
5D
 90
       25
 62
   256
340
5D
 90
       50
 62
   256
 40
0.24
 40
0.0
 40
0.24
 71
     3
340
55
 62
   256
 40
0.24
 90
        1
 40
0.75
 90
        1
300
%<\AcVar ViewType \f "%tc1">% %<\AcVar ViewSectionStartId>%-%<\AcVar ViewSectionEndId>%\PSCALE %<\AcVar ViewScale \f "%sn">%
 71
     4
 62
   256
 62
   257
300
ANSI31
 40
1.0
 90
        0
290
     0
290
     0
 90
        6
 40
0.0
 40
1.570796326794896
 40
0.2617993877991494
 40
1.308996938995747
 40
-0.2617993877991494
 40
1.832595714594046
  0
TABLESTYLE
  5
65
102
{ACAD_XDICTIONARY
360
243
102
}
102
{ACAD_REACTORS
330
64
102
}
330
64
100
AcDbTableStyle
280
     0
  3
Standard
 70
     0
 71
     0
 40
0.06
 41
0.06
280
     0
281
     0
  7
Standard
140
0.18
170
     2
 62
     0
 63
     7
283
     0
 90
      512
 91
        0
  1

274
    -2
284
     1
 64
     0
275
    -2
285
     1
 65
     0
276
    -2
286
     1
 66
     0
277
    -2
287
     1
 67
     0
278
    -2
288
     1
 68
     0
279
    -2
289
     1
 69
     0
  7
Standard
140
0.25
170
     5
 62
     0
 63
     7
283
     0
 90
      512
 91
        0
  1

274
    -2
284
     1
 64
     0
275
    -2
285
     1
 65
     0
276
    -2
286
     1
 66
     0
277
    -2
287
     1
 67
     0
278
    -2
288
     1
 68
     0
279
    -2
289
     1
 69
     0
  7
Standard
140
0.18
170
     5
 62
     0
 63
     7
283
     0
 90
      512
 91
        0
  1

274
    -2
284
     1
 64
     0
275
    -2
285
     1
 65
     0
276
    -2
286
     1
 66
     0
277
    -2
287
     1
 67
     0
278
    -2
288
     1
 68
     0
279
    -2
289
     1
 69
     0
  0
VISUALSTYLE
  5
2F
102
{ACAD_REACTORS
330
29
102
}
330
29
100
AcDbVisualStyle
  2
2dWireframe
 70
     4
177
     3
291
     0
 70
    58
 90
        0
176
     1
 90
        2
176
     1
 90
        0
176
     1
 90
        0
176
     1
 40
0.6
176
     1
 40
30.0
176
     1
 62
     7
420
 16777215
176
     1
 90
        1
176
     1
 90
        4
176
     1
 62
     7
176
     1
 62
   257
176
     1
 90
        1
176
     1
 90
        1
176
     1
 40
1.0
176
     1
 90
        0
176
     1
 62
   257
176
     1
 40
1.0
176
     1
 90
        1
176
     1
 90
        6
176
     1
 90
        2
176
     1
 62
     7
176
     1
 90
        5
176
     1
 90
        0
176
     1
 90
        0
176
     1
290
     0
176
     1
 90
        1
176
     1
 40
0.0
176
     1
 90
        0
176
     1
290
     1
176
     1
290
     1
176
     1
290
     0
176
     1
290
     0
176
     1
290
     0
176
     1
290
     0
176
     1
290
     0
176
     1
290
     0
176
     1
290
     0
176
     1
 90
       50
176
     1
 40
0.0
176
     1
 40
1.0
176
     1
 90
        0
176
     1
 62
    18
420
        0
176
     1
 90
       50
176
     1
 90
        3
176
     1
 62
     5
420
      255
176
     1
290
     0
176
     1
 90
       50
176
     1
 90
       50
176
     1
 90
       50
176
     1
290
     0
176
     1
 90
       50
176
     1
 62
   256
176
     0
 40
1.0
176
     0
 90
        2
176
     1
  1
strokes_ogs.tif
176
     1
290
     0
176
     1
 40
1.0
176
     1
 40
1.0
176
     1
  0
VISUALSTYLE
  5
2E
102
{ACAD_REACTORS
330
29
102
}
330
29
100
AcDbVisualStyle
  2
Basic
 70
     7
177
     3
291
     1
 70
    58
 90
        1
176
     1
 90
        0
176
     1
 90
        1
176
     1
 90
        0
176
     1
 40
0.6
176
     1
 40
30.0
176
     1
 62
     7
420
 16777215
176
     1
 90
        0
176
     1
 90
        4
176
     1
 62
     7
176
     1
 62
   257
176
     1
 90
        1
176
     1
 90
        1
176
     1
 40
1.0
176
     1
 90
        8
176
     1
 62
     7
176
     1
 40
1.0
176
     1
 90
        1
176
     1
 90
        6
176
     1
 90
        2
176
     1
 62
     7
176
     1
 90
        5
176
     1
 90
        0
176
     1
 90
        0
176
     1
290
     0
176
     1
 90
        1
176
     1
 40
0.0
176
     1
 90
        0
176
     1
290
     0
176
     1
290
     1
176
     1
290
     1
176
     1
290
     0
176
     1
290
     0
176
     1
290
     0
176
     1
290
     0
176
     1
290
     0
176
     1
290
     0
176
     1
 90
       50
176
     1
 40
0.0
176
     1
 40
1.0
176
     1
 90
        0
176
     1
 62
    18
420
        0
176
     1
 90
       50
176
     1
 90
        3
176
     1
 62
     5
420
      255
176
     1
290
     0
176
     1
 90
       50
176
     1
 90
       50
176
     1
 90
       50
176
     1
290
     0
176
     1
 90
       50
176
     1
 62
   256
176
     0
 40
1.0
176
     0
 90
        2
176
     1
  1
strokes_ogs.tif
176
     1
290
     0
176
     1
 40
1.0
176
     1
 40
1.0
176
     1
  0
VISUALSTYLE
  5
35
102
{ACAD_REACTORS
330
29
102
}
330
29
100
AcDbVisualStyle
  2
Brighten
 70
    12
177
     3
291
     1
 70
    58
 90
        2
176
     1
 90
        2
176
     1
 90
        0
176
     1
 90
        0
176
     1
 40
0.6
176
     1
 40
30.0
176
     1
 62
     7
420
 16777215
176
     1
 90
        1
176
     1
 90
        4
176
     1
 62
     7
176
     1
 62
   257
176
     1
 90
        1
176
     1
 90
        1
176
     1
 40
1.0
176
     1
 90
        8
176
     1
 62
     7
176
     1
 40
1.0
176
     1
 90
        1
176
     1
 90
        6
176
     1
 90
        2
176
     1
 62
     7
176
     1
 90
        5
176
     1
 90
        0
176
     1
 90
        0
176
     1
290
     0
176
     1
 90
        1
176
     1
 40
50.0
176
     1
 90
        0
176
     1
290
     0
176
     1
290
     1
176
     1
290
     1
176
     1
290
     0
176
     1
290
     0
176
     1
290
     0
176
     1
290
     0
176
     1
290
     0
176
     1
290
     0
176
     1
 90
       50
176
     1
 40
0.0
176
     1
 40
1.0
176
     1
 90
        0
176
     1
 62
    18
420
        0
176
     1
 90
       50
176
     1
 90
        3
176
     1
 62
     5
420
      255
176
     1
290
     0
176
     1
 90
       50
176
     1
 90
       50
176
     1
 90
       50
176
     1
290
     0
176
     1
 90
       50
176
     1
 62
   256
176
     0
 40
1.0
176
     0
 90
        2
176
     1
  1
strokes_ogs.tif
176
     1
290
     0
176
     1
 40
1.0
176
     1
 40
1.0
176
     1
  0
VISUALSTYLE
  5
39
102
{ACAD_REACTORS
330
29
102
}
330
29
100
AcDbVisualStyle
  2
ColorChange
 70
    16
177
     3
291
     1
 70
    58
 90
        2
176
     1
 90
        2
176
     1
 90
        3
176
     1
 90
        0
176
     1
 40
0.6
176
     1
 40
30.0
176
     1
 62
     8
420
  8421504
176
     1
 90
        1
176
     1
 90
        4
176
     1
 62
     7
176
     1
 62
   257
176
     1
 90
        1
176
     1
 90
        1
176
     1
 40
1.0
176
     1
 90
        8
176
     1
 62
     8
420
  8421504
176
     1
 40
1.0
176
     1
 90
        1
176
     1
 90
        6
176
     1
 90
        2
176
     1
 62
     7
176
     1
 90
        5
176
     1
 90
        0
176
     1
 90
        0
176
     1
290
     0
176
     1
 90
        1
176
     1
 40
0.0
176
     1
 90
        0
176
     1
290
     0
176
     1
290
     1
176
     1
290
     1
176
     1
290
     0
176
     1
290
     0
176
     1
290
     0
176
     1
290
     0
176
     1
290
     0
176
     1
290
     0
176
     1
 90
       50
176
     1
 40
0.0
176
     1
 40
1.0
176
     1
 90
        0
176
     1
 62
    18
420
        0
176
     1
 90
       50
176
     1
 90
        3
176
     1
 62
     5
420
      255
176
     1
290
     0
176
     1
 90
       50
176
     1
 90
       50
176
     1
 90
       50
176
     1
290
     0
176
     1
 90
       50
176
     1
 62
   256
176
     0
 40
1.0
176
     0
 90
        2
176
     1
  1
strokes_ogs.tif
176
     1
290
     0
176
     1
 40
1.0
176
     1
 40
1.0
176
     1
  0
VISUALSTYLE
  5
32
102
{ACAD_REACTORS
330
29
102
}
330
29
100
AcDbVisualStyle
  2
Conceptual
 70
     9
177
     3
291
     0
 70
    58
 90
        3
176
     1
 90
        2
176
     1
 90
        0
176
     1
 90
        0
176
     1
 40
0.6
176
     1
 40
30.0
176
     1
 62
     7
420
 16777215
176
     1
 90
        2
176
     1
 90
        2
176
     1
 62
     7
176
     1
 62
   257
176
     1
 90
        1
176
     1
 90
        1
176
     1
 40
179.0
176
     1
 90
        8
176
     1
 62
     7
176
     1
 40
1.0
176
     1
 90
        1
176
     1
 90
        6
176
     1
 90
        2
176
     1
 62
     7
176
     1
 90
        3
176
     1
 90
        0
176
     1
 90
        0
176
     1
290
     0
176
     1
 90
        1
176
     1
 40
0.0
176
     1
 90
        0
176
     1
290
     0
176
     1
290
     1
176
     1
290
     1
176
     1
290
     0
176
     1
290
     0
176
     1
290
     0
176
     1
290
     0
176
     1
290
     0
176
     1
290
     0
176
     1
 90
       50
176
     1
 40
0.0
176
     1
 40
1.0
176
     1
 90
        0
176
     1
 62
    18
420
        0
176
     1
 90
       50
176
     1
 90
        3
176
     1
 62
     5
420
      255
176
     1
290
     0
176
     1
 90
       50
176
     1
 90
       50
176
     1
 90
       50
176
     1
290
     0
176
     1
 90
       50
176
     1
 62
   256
176
     0
 40
1.0
176
     0
 90
        2
176
     1
  1
strokes_ogs.tif
176
     1
290
     0
176
     1
 40
1.0
176
     1
 40
1.0
176
     1
  0
VISUALSTYLE
  5
34
102
{ACAD_REACTORS
330
29
102
}
330
29
100
AcDbVisualStyle
  2
Dim
 70
    11
177
     3
291
     1
 70
    58
 90
        2
176
     1
 90
        2
176
     1
 90
        0
176
     1
 90
        0
176
     1
 40
0.6
176
     1
 40
30.0
176
     1
 62
     7
420
 16777215
176
     1
 90
        1
176
     1
 90
        4
176
     1
 62
     7
176
     1
 62
   257
176
     1
 90
        1
176
     1
 90
        1
176
     1
 40
1.0
176
     1
 90
        8
176
     1
 62
     7
176
     1
 40
1.0
176
     1
 90
        1
176
     1
 90
        6
176
     1
 90
        2
176
     1
 62
     7
176
     1
 90
        5
176
     1
 90
        0
176
     1
 90
        0
176
     1
290
     0
176
     1
 90
        1
176
     1
 40
-50.0
176
     1
 90
        0
176
     1
290
     0
176
     1
290
     1
176
     1
290
     1
176
     1
290
     0
176
     1
290
     0
176
     1
290
     0
176
     1
290
     0
176
     1
290
     0
176
     1
290
     0
176
     1
 90
       50
176
     1
 40
0.0
176
     1
 40
1.0
176
     1
 90
        0
176
     1
 62
    18
420
        0
176
     1
 90
       50
176
     1
 90
        3
176
     1
 62
     5
420
      255
176
     1
290
     0
176
     1
 90
       50
176
     1
 90
       50
176
     1
 90
       50
176
     1
290
     0
176
     1
 90
       50
176
     1
 62
   256
176
     0
 40
1.0
176
     0
 90
        2
176
     1
  1
strokes_ogs.tif
176
     1
290
     0
176
     1
 40
1.0
176
     1
 40
1.0
176
     1
  0
VISUALSTYLE
  5
41
102
{ACAD_REACTORS
330
29
102
}
330
29
100
AcDbVisualStyle
  2
EdgeColorOff
 70
    22
177
     3
291
     1
 70
    58
 90
        2
176
     0
 90
        2
176
     0
 90
        0
176
     0
 90
        0
176
     0
 40
0.6
176
     0
 40
30.0
176
     0
 62
     7
420
 16777215
176
     0
 90
        1
176
     0
 90
        4
176
     0
 62
     7
176
     0
 62
   257
176
     0
 90
        1
176
     0
 90
        1
176
     0
 40
1.0
176
     0
 90
        8
176
     2
 62
     7
176
     0
 40
1.0
176
     0
 90
        1
176
     0
 90
        6
176
     0
 90
        2
176
     0
 62
     7
176
     0
 90
        5
176
     0
 90
        0
176
     0
 90
        0
176
     0
290
     0
176
     0
 90
        1
176
     0
 40
0.0
176
     0
 90
        0
176
     0
290
     0
176
     0
290
     1
176
     0
290
     1
176
     0
290
     0
176
     0
290
     0
176
     0
290
     0
176
     0
290
     0
176
     0
290
     0
176
     0
290
     0
176
     0
 90
       50
176
     0
 40
0.0
176
     0
 40
1.0
176
     0
 90
        0
176
     0
 62
    18
420
        0
176
     0
 90
       50
176
     0
 90
        3
176
     0
 62
     5
420
      255
176
     0
290
     0
176
     0
 90
       50
176
     0
 90
       50
176
     0
 90
       50
176
     0
290
     0
176
     0
 90
       50
176
     0
 62
   256
176
     0
 40
1.0
176
     0
 90
        2
176
     0
  1
strokes_ogs.tif
176
     0
290
     0
176
     0
 40
1.0
176
     0
 40
1.0
176
     0
  0
VISUALSTYLE
  5
38
102
{ACAD_REACTORS
330
29
102
}
330
29
100
AcDbVisualStyle
  2
Facepattern
 70
    15
177
     3
291
     1
 70
    58
 90
        2
176
     1
 90
        2
176
     1
 90
        0
176
     1
 90
        0
176
     1
 40
0.6
176
     1
 40
30.0
176
     1
 62
     7
420
 16777215
176
     1
 90
        1
176
     1
 90
        4
176
     1
 62
     7
176
     1
 62
   257
176
     1
 90
        1
176
     1
 90
        1
176
     1
 40
1.0
176
     1
 90
        8
176
     1
 62
     7
176
     1
 40
1.0
176
     1
 90
        1
176
     1
 90
        6
176
     1
 90
        2
176
     1
 62
     7
176
     1
 90
        5
176
     1
 90
        0
176
     1
 90
        0
176
     1
290
     0
176
     1
 90
        1
176
     1
 40
0.0
176
     1
 90
        0
176
     1
290
     0
176
     1
290
     1
176
     1
290
     1
176
     1
290
     0
176
     1
290
     0
176
     1
290
     0
176
     1
290
     0
176
     1
290
     0
176
     1
290
     0
176
     1
 90
       50
176
     1
 40
0.0
176
     1
 40
1.0
176
     1
 90
        0
176
     1
 62
    18
420
        0
176
     1
 90
       50
176
     1
 90
        3
176
     1
 62
     5
420
      255
176
     1
290
     0
176
     1
 90
       50
176
     1
 90
       50
176
     1
 90
       50
176
     1
290
     0
176
     1
 90
       50
176
     1
 62
   256
176
     0
 40
1.0
176
     0
 90
        2
176
     1
  1
strokes_ogs.tif
176
     1
290
     0
176
     1
 40
1.0
176
     1
 40
1.0
176
     1
  0
VISUALSTYLE
  5
2A
102
{ACAD_REACTORS
330
29
102
}
330
29
100
AcDbVisualStyle
  2
Flat
 70
     0
177
     3
291
     1
 70
    58
 90
        2
176
     1
 90
        1
176
     1
 90
        1
176
     1
 90
        2
176
     1
 40
0.6
176
     1
 40
30.0
176
     1
 62
     7
420
 16777215
176
     1
 90
        0
176
     1
 90
        0
176
     1
 62
     7
176
     1
 62
   257
176
     1
 90
        1
176
     1
 90
        1
176
     1
 40
1.0
176
     1
 90
        8
176
     1
 62
     7
176
     1
 40
1.0
176
     1
 90
        1
176
     1
 90
        6
176
     1
 90
        2
176
     1
 62
     7
176
     1
 90
        5
176
     1
 90
        0
176
     1
 90
        0
176
     1
290
     0
176
     1
 90
       13
176
     1
 40
0.0
176
     1
 90
        0
176
     1
290
     0
176
     1
290
     1
176
     1
290
     1
176
     1
290
     0
176
     1
290
     0
176
     1
290
     0
176
     1
290
     0
176
     1
290
     0
176
     1
290
     0
176
     1
 90
       50
176
     1
 40
0.0
176
     1
 40
1.0
176
     1
 90
        0
176
     1
 62
    18
420
        0
176
     1
 90
       50
176
     1
 90
        3
176
     1
 62
     5
420
      255
176
     1
290
     0
176
     1
 90
       50
176
     1
 90
       50
176
     1
 90
       50
176
     1
290
     0
176
     1
 90
       50
176
     1
 62
   256
176
     0
 40
1.0
176
     0
 90
        2
176
     1
  1
strokes_ogs.tif
176
     1
290
     0
176
     1
 40
1.0
176
     1
 40
1.0
176
     1
  0
VISUALSTYLE
  5
2B
102
{ACAD_REACTORS
330
29
102
}
330
29
100
AcDbVisualStyle
  2
FlatWithEdges
 70
     1
177
     3
291
     1
 70
    58
 90
        2
176
     1
 90
        1
176
     1
 90
        1
176
     1
 90
        2
176
     1
 40
0.6
176
     1
 40
30.0
176
     1
 62
     7
420
 16777215
176
     1
 90
        1
176
     1
 90
        0
176
     1
 62
     7
176
     1
 62
   257
176
     1
 90
        1
176
     1
 90
        1
176
     1
 40
1.0
176
     1
 90
        0
176
     1
 62
   257
176
     1
 40
1.0
176
     1
 90
        1
176
     1
 90
        6
176
     1
 90
        2
176
     1
 62
     7
176
     1
 90
        5
176
     1
 90
        0
176
     1
 90
        0
176
     1
290
     0
176
     1
 90
       13
176
     1
 40
0.0
176
     1
 90
        0
176
     1
290
     0
176
     1
290
     1
176
     1
290
     1
176
     1
290
     0
176
     1
290
     0
176
     1
290
     0
176
     1
290
     0
176
     1
290
     0
176
     1
290
     0
176
     1
 90
       50
176
     1
 40
0.0
176
     1
 40
1.0
176
     1
 90
        0
176
     1
 62
    18
420
        0
176
     1
 90
       50
176
     1
 90
        3
176
     1
 62
     5
420
      255
176
     1
290
     0
176
     1
 90
       50
176
     1
 90
       50
176
     1
 90
       50
176
     1
290
     0
176
     1
 90
       50
176
     1
 62
   256
176
     0
 40
1.0
176
     0
 90
        2
176
     1
  1
strokes_ogs.tif
176
     1
290
     0
176
     1
 40
1.0
176
     1
 40
1.0
176
     1
  0
VISUALSTYLE
  5
2C
102
{ACAD_REACTORS
330
29
102
}
330
29
100
AcDbVisualStyle
  2
Gouraud
 70
     2
177
     3
291
     1
 70
    58
 90
        2
176
     1
 90
        2
176
     1
 90
        1
176
     1
 90
        2
176
     1
 40
0.6
176
     1
 40
30.0
176
     1
 62
     7
420
 16777215
176
     1
 90
        0
176
     1
 90
        0
176
     1
 62
     7
176
     1
 62
   257
176
     1
 90
        1
176
     1
 90
        1
176
     1
 40
1.0
176
     1
 90
        0
176
     1
 62
     7
176
     1
 40
1.0
176
     1
 90
        1
176
     1
 90
        6
176
     1
 90
        2
176
     1
 62
     7
176
     1
 90
        5
176
     1
 90
        0
176
     1
 90
        0
176
     1
290
     0
176
     1
 90
       13
176
     1
 40
0.0
176
     1
 90
        0
176
     1
290
     0
176
     1
290
     1
176
     1
290
     1
176
     1
290
     0
176
     1
290
     0
176
     1
290
     0
176
     1
290
     0
176
     1
290
     0
176
     1
290
     0
176
     1
 90
       50
176
     1
 40
0.0
176
     1
 40
1.0
176
     1
 90
        0
176
     1
 62
    18
420
        0
176
     1
 90
       50
176
     1
 90
        3
176
     1
 62
     5
420
      255
176
     1
290
     0
176
     1
 90
       50
176
     1
 90
       50
176
     1
 90
       50
176
     1
290
     0
176
     1
 90
       50
176
     1
 62
   256
176
     0
 40
1.0
176
     0
 90
        2
176
     1
  1
strokes_ogs.tif
176
     1
290
     0
176
     1
 40
1.0
176
     1
 40
1.0
176
     1
  0
VISUALSTYLE
  5
2D
102
{ACAD_REACTORS
330
29
102
}
330
29
100
AcDbVisualStyle
  2
GouraudWithEdges
 70
     3
177
     3
291
     1
 70
    58
 90
        2
176
     1
 90
        2
176
     1
 90
        1
176
     1
 90
        2
176
     1
 40
0.6
176
     1
 40
30.0
176
     1
 62
     7
420
 16777215
176
     1
 90
        1
176
     1
 90
        0
176
     1
 62
     7
176
     1
 62
   257
176
     1
 90
        1
176
     1
 90
        1
176
     1
 40
1.0
176
     1
 90
        0
176
     1
 62
   257
176
     1
 40
1.0
176
     1
 90
        1
176
     1
 90
        6
176
     1
 90
        2
176
     1
 62
     7
176
     1
 90
        5
176
     1
 90
        0
176
     1
 90
        0
176
     1
290
     0
176
     1
 90
       13
176
     1
 40
0.0
176
     1
 90
        0
176
     1
290
     0
176
     1
290
     1
176
     1
290
     1
176
     1
290
     0
176
     1
290
     0
176
     1
290
     0
176
     1
290
     0
176
     1
290
     0
176
     1
290
     0
176
     1
 90
       50
176
     1
 40
0.0
176
     1
 40
1.0
176
     1
 90
        0
176
     1
 62
    18
420
        0
176
     1
 90
       50
176
     1
 90
        3
176
     1
 62
     5
420
      255
176
     1
290
     0
176
     1
 90
       50
176
     1
 90
       50
176
     1
 90
       50
176
     1
290
     0
176
     1
 90
       50
176
     1
 62
   256
176
     0
 40
1.0
176
     0
 90
        2
176
     1
  1
strokes_ogs.tif
176
     1
290
     0
176
     1
 40
1.0
176
     1
 40
1.0
176
     1
  0
VISUALSTYLE
  5
31
102
{ACAD_REACTORS
330
29
102
}
330
29
100
AcDbVisualStyle
  2
Hidden
 70
     6
177
     3
291
     0
 70
    58
 90
        1
176
     1
 90
        2
176
     1
 90
        2
176
     1
 90
        0
176
     1
 40
0.6
176
     1
 40
30.0
176
     1
 62
     7
420
 16777215
176
     1
 90
        2
176
     1
 90
        2
176
     1
 62
     7
176
     1
 62
   257
176
     1
 90
        2
176
     1
 90
        1
176
     1
 40
40.0
176
     1
 90
        0
176
     1
 62
   257
176
     1
 40
1.0
176
     1
 90
        1
176
     1
 90
        6
176
     1
 90
        2
176
     1
 62
     7
176
     1
 90
        3
176
     1
 90
        0
176
     1
 90
        0
176
     1
290
     0
176
     1
 90
        1
176
     1
 40
0.0
176
     1
 90
        0
176
     1
290
     0
176
     1
290
     1
176
     1
290
     1
176
     1
290
     0
176
     1
290
     0
176
     1
290
     0
176
     1
290
     0
176
     1
290
     0
176
     1
290
     0
176
     1
 90
       50
176
     1
 40
0.0
176
     1
 40
1.0
176
     1
 90
        0
176
     1
 62
    18
420
        0
176
     1
 90
       50
176
     1
 90
        3
176
     1
 62
     5
420
      255
176
     1
290
     0
176
     1
 90
       50
176
     1
 90
       50
176
     1
 90
       50
176
     1
290
     0
176
     1
 90
       50
176
     1
 62
   256
176
     0
 40
1.0
176
     0
 90
        2
176
     1
  1
strokes_ogs.tif
176
     1
290
     0
176
     1
 40
1.0
176
     1
 40
1.0
176
     1
  0
VISUALSTYLE
  5
3F
102
{ACAD_REACTORS
330
29
102
}
330
29
100
AcDbVisualStyle
  2
JitterOff
 70
    20
177
     3
291
     1
 70
    58
 90
        2
176
     0
 90
        2
176
     0
 90
        0
176
     0
 90
        0
176
     0
 40
0.6
176
     0
 40
30.0
176
     0
 62
     7
420
 16777215
176
     0
 90
        1
176
     0
 90
        4
176
     0
 62
     7
176
     0
 62
   257
176
     0
 90
        1
176
     0
 90
        1
176
     0
 40
1.0
176
     0
 90
       10
176
     2
 62
     7
176
     0
 40
1.0
176
     0
 90
        1
176
     0
 90
        6
176
     0
 90
        2
176
     0
 62
     7
176
     0
 90
        5
176
     0
 90
        0
176
     0
 90
        0
176
     0
290
     0
176
     0
 90
        1
176
     0
 40
0.0
176
     0
 90
        0
176
     0
290
     0
176
     0
290
     1
176
     0
290
     1
176
     0
290
     0
176
     0
290
     0
176
     0
290
     0
176
     0
290
     0
176
     0
290
     0
176
     0
290
     0
176
     0
 90
       50
176
     0
 40
0.0
176
     0
 40
1.0
176
     0
 90
        0
176
     0
 62
    18
420
        0
176
     0
 90
       50
176
     0
 90
        3
176
     0
 62
     5
420
      255
176
     0
290
     0
176
     0
 90
       50
176
     0
 90
       50
176
     0
 90
       50
176
     0
290
     0
176
     0
 90
       50
176
     0
 62
   256
176
     0
 40
1.0
176
     0
 90
        2
176
     0
  1
strokes_ogs.tif
176
     0
290
     0
176
     0
 40
1.0
176
     0
 40
1.0
176
     0
  0
VISUALSTYLE
  5
37
102
{ACAD_REACTORS
330
29
102
}
330
29
100
AcDbVisualStyle
  2
Linepattern
 70
    14
177
     3
291
     1
 70
    58
 90
        2
176
     1
 90
        2
176
     1
 90
        0
176
     1
 90
        0
176
     1
 40
0.6
176
     1
 40
30.0
176
     1
 62
     7
420
 16777215
176
     1
 90
        1
176
     1
 90
        4
176
     1
 62
     7
176
     1
 62
   257
176
     1
 90
        7
176
     1
 90
        7
176
     1
 40
1.0
176
     1
 90
        8
176
     1
 62
     7
176
     1
 40
1.0
176
     1
 90
        1
176
     1
 90
        6
176
     1
 90
        2
176
     1
 62
     7
176
     1
 90
        5
176
     1
 90
        0
176
     1
 90
        0
176
     1
290
     0
176
     1
 90
        1
176
     1
 40
0.0
176
     1
 90
        0
176
     1
290
     0
176
     1
290
     1
176
     1
290
     1
176
     1
290
     0
176
     1
290
     0
176
     1
290
     0
176
     1
290
     0
176
     1
290
     0
176
     1
290
     0
176
     1
 90
       50
176
     1
 40
0.0
176
     1
 40
1.0
176
     1
 90
        0
176
     1
 62
    18
420
        0
176
     1
 90
       50
176
     1
 90
        3
176
     1
 62
     5
420
      255
176
     1
290
     0
176
     1
 90
       50
176
     1
 90
       50
176
     1
 90
       50
176
     1
290
     0
176
     1
 90
       50
176
     1
 62
   256
176
     0
 40
1.0
176
     0
 90
        2
176
     1
  1
strokes_ogs.tif
176
     1
290
     0
176
     1
 40
1.0
176
     1
 40
1.0
176
     1
  0
VISUALSTYLE
  5
40
102
{ACAD_REACTORS
330
29
102
}
330
29
100
AcDbVisualStyle
  2
OverhangOff
 70
    21
177
     3
291
     1
 70
    58
 90
        2
176
     0
 90
        2
176
     0
 90
        0
176
     0
 90
        0
176
     0
 40
0.6
176
     0
 40
30.0
176
     0
 62
     7
420
 16777215
176
     0
 90
        1
176
     0
 90
        4
176
     0
 62
     7
176
     0
 62
   257
176
     0
 90
        1
176
     0
 90
        1
176
     0
 40
1.0
176
     0
 90
        9
176
     2
 62
     7
176
     0
 40
1.0
176
     0
 90
        1
176
     0
 90
        6
176
     0
 90
        2
176
     0
 62
     7
176
     0
 90
        5
176
     0
 90
        0
176
     0
 90
        0
176
     0
290
     0
176
     0
 90
        1
176
     0
 40
0.0
176
     0
 90
        0
176
     0
290
     0
176
     0
290
     1
176
     0
290
     1
176
     0
290
     0
176
     0
290
     0
176
     0
290
     0
176
     0
290
     0
176
     0
290
     0
176
     0
290
     0
176
     0
 90
       50
176
     0
 40
0.0
176
     0
 40
1.0
176
     0
 90
        0
176
     0
 62
    18
420
        0
176
     0
 90
       50
176
     0
 90
        3
176
     0
 62
     5
420
      255
176
     0
290
     0
176
     0
 90
       50
176
     0
 90
       50
176
     0
 90
       50
176
     0
290
     0
176
     0
 90
       50
176
     0
 62
   256
176
     0
 40
1.0
176
     0
 90
        2
176
     0
  1
strokes_ogs.tif
176
     0
290
     0
176
     0
 40
1.0
176
     0
 40
1.0
176
     0
  0
VISUALSTYLE
  5
33
102
{ACAD_REACTORS
330
29
102
}
330
29
100
AcDbVisualStyle
  2
Realistic
 70
     8
177
     3
291
     0
 70
    58
 90
        2
176
     1
 90
        3
176
     1
 90
        0
176
     1
 90
        2
176
     1
 40
0.6
176
     1
 40
30.0
176
     1
 62
     7
420
 16777215
176
     1
 90
        0
176
     1
 90
        0
176
     1
 62
     7
176
     1
 62
   257
176
     1
 90
        1
176
     1
 90
        1
176
     1
 40
1.0
176
     1
 90
        8
176
     1
 62
   257
176
     1
 40
1.0
176
     1
 90
        1
176
     1
 90
        6
176
     1
 90
        2
176
     1
 62
     7
176
     1
 90
        3
176
     1
 90
        0
176
     1
 90
        0
176
     1
290
     0
176
     1
 90
       13
176
     1
 40
0.0
176
     1
 90
        0
176
     1
290
     0
176
     1
290
     1
176
     1
290
     1
176
     1
290
     0
176
     1
290
     0
176
     1
290
     0
176
     1
290
     0
176
     1
290
     0
176
     1
290
     0
176
     1
 90
       50
176
     1
 40
0.0
176
     1
 40
1.0
176
     1
 90
        0
176
     1
 62
    18
420
        0
176
     1
 90
       50
176
     1
 90
        3
176
     1
 62
     5
420
      255
176
     1
290
     0
176
     1
 90
       50
176
     1
 90
       50
176
     1
 90
       50
176
     1
290
     0
176
     1
 90
       50
176
     1
 62
   256
176
     0
 40
1.0
176
     0
 90
        2
176
     1
  1
strokes_ogs.tif
176
     1
290
     0
176
     1
 40
1.0
176
     1
 40
1.0
176
     1
  0
VISUALSTYLE
  5
3E
102
{ACAD_REACTORS
330
29
102
}
330
29
100
AcDbVisualStyle
  2
Shaded
 70
    27
177
     3
291
     0
 70
    58
 90
        2
176
     1
 90
        2
176
     1
 90
        1
176
     1
 90
        2
176
     1
 40
0.6
176
     1
 40
30.0
176
     1
 62
     7
420
 16777215
176
     1
 90
        0
176
     1
 90
        4
176
     1
 62
     7
176
     1
 62
   257
176
     1
 90
        1
176
     1
 90
        1
176
     1
 40
1.0
176
     1
 90
        8
176
     1
 62
   257
176
     1
 40
1.0
176
     1
 90
        1
176
     1
 90
        6
176
     1
 90
        2
176
     1
 62
     8
420
  7895160
176
     1
 90
        3
176
     1
 90
        0
176
     1
 90
        0
176
     1
290
     0
176
     1
 90
        5
176
     1
 40
0.0
176
     1
 90
        0
176
     1
290
     0
176
     1
290
     1
176
     1
290
     1
176
     1
290
     0
176
     1
290
     0
176
     1
290
     0
176
     1
290
     0
176
     1
290
     0
176
     1
290
     0
176
     1
 90
       50
176
     1
 40
0.0
176
     1
 40
1.0
176
     1
 90
        0
176
     1
 62
    18
420
        0
176
     1
 90
       50
176
     1
 90
        3
176
     1
 62
     5
420
      255
176
     1
290
     0
176
     1
 90
       50
176
     1
 90
       50
176
     1
 90
       50
176
     1
290
     0
176
     1
 90
       50
176
     1
 62
   256
176
     0
 40
1.0
176
     0
 90
        2
176
     1
  1
strokes_ogs.tif
176
     1
290
     0
176
     1
 40
1.0
176
     1
 40
1.0
176
     1
  0
VISUALSTYLE
  5
3D
102
{ACAD_REACTORS
330
29
102
}
330
29
100
AcDbVisualStyle
  2
Shaded with edges
 70
    26
177
     3
291
     0
 70
    58
 90
        2
176
     1
 90
        2
176
     1
 90
        1
176
     1
 90
        2
176
     1
 40
0.6
176
     1
 40
30.0
176
     1
 62
     7
420
 16777215
176
     1
 90
        1
176
     1
 90
        2
176
     1
 62
     7
176
     1
 62
   257
176
     1
 90
        2
176
     1
 90
        1
176
     1
 40
1.0
176
     1
 90
        8
176
     1
 62
   257
176
     1
 40
1.0
176
     1
 90
        1
176
     1
 90
        6
176
     1
 90
        2
176
     1
 62
     7
176
     1
 90
        3
176
     1
 90
        0
176
     1
 90
        0
176
     1
290
     0
176
     1
 90
        5
176
     1
 40
0.0
176
     1
 90
        0
176
     1
290
     0
176
     1
290
     1
176
     1
290
     1
176
     1
290
     0
176
     1
290
     0
176
     1
290
     0
176
     1
290
     0
176
     1
290
     0
176
     1
290
     0
176
     1
 90
       50
176
     1
 40
0.0
176
     1
 40
1.0
176
     1
 90
        0
176
     1
 62
    18
420
        0
176
     1
 90
       50
176
     1
 90
        3
176
     1
 62
     5
420
      255
176
     1
290
     0
176
     1
 90
       50
176
     1
 90
       50
176
     1
 90
       50
176
     1
290
     0
176
     1
 90
       50
176
     1
 62
   256
176
     0
 40
1.0
176
     0
 90
        2
176
     1
  1
strokes_ogs.tif
176
     1
290
     0
176
     1
 40
1.0
176
     1
 40
1.0
176
     1
  0
VISUALSTYLE
  5
3A
102
{ACAD_REACTORS
330
29
102
}
330
29
100
AcDbVisualStyle
  2
Shades of Gray
 70
    23
177
     3
291
     0
 70
    58
 90
        2
176
     1
 90
        2
176
     1
 90
        3
176
     1
 90
        0
176
     1
 40
0.6
176
     1
 40
30.0
176
     1
 62
     7
420
 16777215
176
     1
 90
        2
176
     1
 90
        2
176
     1
 62
     7
176
     1
 62
     7
176
     1
 90
        1
176
     1
 90
        1
176
     1
 40
40.0
176
     1
 90
        8
176
     1
 62
     7
176
     1
 40
1.0
176
     1
 90
        1
176
     1
 90
        6
176
     1
 90
        2
176
     1
 62
     7
176
     1
 90
        3
176
     1
 90
        0
176
     1
 90
        0
176
     1
290
     0
176
     1
 90
        1
176
     1
 40
0.0
176
     1
 90
        0
176
     1
290
     0
176
     1
290
     1
176
     1
290
     1
176
     1
290
     0
176
     1
290
     0
176
     1
290
     0
176
     1
290
     0
176
     1
290
     0
176
     1
290
     0
176
     1
 90
       50
176
     1
 40
0.0
176
     1
 40
1.0
176
     1
 90
        0
176
     1
 62
    18
420
        0
176
     1
 90
       50
176
     1
 90
        3
176
     1
 62
     5
420
      255
176
     1
290
     0
176
     1
 90
       50
176
     1
 90
       50
176
     1
 90
       50
176
     1
290
     0
176
     1
 90
       50
176
     1
 62
   256
176
     0
 40
1.0
176
     0
 90
        2
176
     1
  1
strokes_ogs.tif
176
     1
290
     0
176
     1
 40
1.0
176
     1
 40
1.0
176
     1
  0
VISUALSTYLE
  5
3B
102
{ACAD_REACTORS
330
29
102
}
330
29
100
AcDbVisualStyle
  2
Sketchy
 70
    24
177
     3
291
     0
 70
    58
 90
        1
176
     1
 90
        2
176
     1
 90
        2
176
     1
 90
        0
176
     1
 40
0.6
176
     1
 40
30.0
176
     1
 62
     7
420
 16777215
176
     1
 90
        2
176
     1
 90
        2
176
     1
 62
     7
176
     1
 62
     7
176
     1
 90
        1
176
     1
 90
        1
176
     1
 40
40.0
176
     1
 90
       11
176
     1
 62
     7
176
     1
 40
1.0
176
     1
 90
        1
176
     1
 90
        6
176
     1
 90
        2
176
     1
 62
     7
176
     1
 90
        6
176
     1
 90
        0
176
     1
 90
        0
176
     1
290
     0
176
     1
 90
        1
176
     1
 40
0.0
176
     1
 90
        0
176
     1
290
     0
176
     1
290
     1
176
     1
290
     1
176
     1
290
     0
176
     1
290
     0
176
     1
290
     0
176
     1
290
     0
176
     1
290
     0
176
     1
290
     0
176
     1
 90
       50
176
     1
 40
0.0
176
     1
 40
1.0
176
     1
 90
        0
176
     1
 62
    18
420
        0
176
     1
 90
       50
176
     1
 90
        3
176
     1
 62
     5
420
      255
176
     1
290
     0
176
     1
 90
       50
176
     1
 90
       50
176
     1
 90
       50
176
     1
290
     0
176
     1
 90
       50
176
     1
 62
   256
176
     0
 40
1.0
176
     0
 90
        2
176
     1
  1
strokes_ogs.tif
176
     1
290
     0
176
     1
 40
1.0
176
     1
 40
1.0
176
     1
  0
VISUALSTYLE
  5
36
102
{ACAD_REACTORS
330
29
102
}
330
29
100
AcDbVisualStyle
  2
Thicken
 70
    13
177
     3
291
     1
 70
    58
 90
        2
176
     1
 90
        2
176
     1
 90
        0
176
     1
 90
        0
176
     1
 40
0.6
176
     1
 40
30.0
176
     1
 62
     7
420
 16777215
176
     1
 90
        1
176
     1
 90
        4
176
     1
 62
     7
176
     1
 62
   257
176
     1
 90
        1
176
     1
 90
        1
176
     1
 40
1.0
176
     1
 90
       12
176
     1
 62
     7
176
     1
 40
1.0
176
     1
 90
        1
176
     1
 90
        6
176
     1
 90
        2
176
     1
 62
     7
176
     1
 90
        5
176
     1
 90
        0
176
     1
 90
        0
176
     1
290
     0
176
     1
 90
        1
176
     1
 40
0.0
176
     1
 90
        0
176
     1
290
     0
176
     1
290
     1
176
     1
290
     1
176
     1
290
     0
176
     1
290
     0
176
     1
290
     0
176
     1
290
     0
176
     1
290
     0
176
     1
290
     0
176
     1
 90
       50
176
     1
 40
0.0
176
     1
 40
1.0
176
     1
 90
        0
176
     1
 62
    18
420
        0
176
     1
 90
       50
176
     1
 90
        3
176
     1
 62
     5
420
      255
176
     1
290
     0
176
     1
 90
       50
176
     1
 90
       50
176
     1
 90
       50
176
     1
290
     0
176
     1
 90
       50
176
     1
 62
   256
176
     0
 40
1.0
176
     0
 90
        2
176
     1
  1
strokes_ogs.tif
176
     1
290
     0
176
     1
 40
1.0
176
     1
 40
1.0
176
     1
  0
VISUALSTYLE
  5
30
102
{ACAD_REACTORS
330
29
102
}
330
29
100
AcDbVisualStyle
  2
Wireframe
 70
     5
177
     3
291
     0
 70
    58
 90
        0
176
     1
 90
        2
176
     1
 90
        0
176
     1
 90
        0
176
     1
 40
0.6
176
     1
 40
30.0
176
     1
 62
     7
420
 16777215
176
     1
 90
        1
176
     1
 90
        4
176
     1
 62
     7
176
     1
 62
   257
176
     1
 90
        1
176
     1
 90
        1
176
     1
 40
1.0
176
     1
 90
        0
176
     1
 62
   257
176
     1
 40
1.0
176
     1
 90
        1
176
     1
 90
        6
176
     1
 90
        2
176
     1
 62
     7
176
     1
 90
        3
176
     1
 90
        0
176
     1
 90
        0
176
     1
290
     0
176
     1
 90
        1
176
     1
 40
0.0
176
     1
 90
        0
176
     1
290
     0
176
     1
290
     1
176
     1
290
     1
176
     1
290
     0
176
     1
290
     0
176
     1
290
     0
176
     1
290
     0
176
     1
290
     0
176
     1
290
     0
176
     1
 90
       50
176
     1
 40
0.0
176
     1
 40
1.0
176
     1
 90
        0
176
     1
 62
    18
420
        0
176
     1
 90
       50
176
     1
 90
        3
176
     1
 62
     5
420
      255
176
     1
290
     0
176
     1
 90
       50
176
     1
 90
       50
176
     1
 90
       50
176
     1
290
     0
176
     1
 90
       50
176
     1
 62
   256
176
     0
 40
1.0
176
     0
 90
        2
176
     1
  1
strokes_ogs.tif
176
     1
290
     0
176
     1
 40
1.0
176
     1
 40
1.0
176
     1
  0
VISUALSTYLE
  5
3C
102
{ACAD_REACTORS
330
29
102
}
330
29
100
AcDbVisualStyle
  2
X-Ray
 70
    25
177
     3
291
     0
 70
    58
 90
        2
176
     1
 90
        2
176
     1
 90
        1
176
     1
 90
        1
176
     1
 40
0.5
176
     1
 40
30.0
176
     1
 62
     7
420
 16777215
176
     1
 90
        1
176
     1
 90
        0
176
     1
 62
     7
176
     1
 62
   257
176
     1
 90
        1
176
     1
 90
        1
176
     1
 40
1.0
176
     1
 90
        8
176
     1
 62
     7
176
     1
 40
1.0
176
     1
 90
        1
176
     1
 90
        6
176
     1
 90
        2
176
     1
 62
     7
176
     1
 90
        3
176
     1
 90
        0
176
     1
 90
        0
176
     1
290
     0
176
     1
 90
       13
176
     1
 40
0.0
176
     1
 90
        0
176
     1
290
     0
176
     1
290
     1
176
     1
290
     1
176
     1
290
     0
176
     1
290
     0
176
     1
290
     0
176
     1
290
     0
176
     1
290
     0
176
     1
290
     0
176
     1
 90
       50
176
     1
 40
0.0
176
     1
 40
1.0
176
     1
 90
        0
176
     1
 62
    18
420
        0
176
     1
 90
       50
176
     1
 90
        3
176
     1
 62
     5
420
      255
176
     1
290
     0
176
     1
 90
       50
176
     1
 90
       50
176
     1
 90
       50
176
     1
290
     0
176
     1
 90
       50
176
     1
 62
   256
176
     0
 40
1.0
176
     0
 90
        2
176
     1
  1
strokes_ogs.tif
176
     1
290
     0
176
     1
 40
1.0
176
     1
 40
1.0
176
     1
  0
DICTIONARYVAR
  5
242
102
{ACAD_REACTORS
330
23D
102
}
330
23D
100
DictionaryVariables
280
     0
  1
1:1
  0
DICTIONARYVAR
  5
23F
102
{ACAD_REACTORS
330
23D
102
}
330
23D
100
DictionaryVariables
280
     0
  1
STANDARD
  0
DICTIONARYVAR
  5
23E
102
{ACAD_REACTORS
330
23D
102
}
330
23D
100
DictionaryVariables
280
     0
  1
STANDARD
  0
DICTIONARYVAR
  5
240
102
{ACAD_REACTORS
330
23D
102
}
330
23D
100
DictionaryVariables
280
     0
  1
Imperial24
  0
DICTIONARYVAR
  5
241
102
{ACAD_REACTORS
330
23D
102
}
330
23D
100
DictionaryVariables
280
     0
  1
Imperial24
  0
DICTIONARY
  5
1A
330
19
100
AcDbDictionary
280
     1
281
     1
  3
BUMPTILE
360
1C
  3
DIFFUSETILE
360
1B
  3
OPACITYTILE
360
1F
  3
REFLECTIONTILE
360
1E
  3
REFRACTIONTILE
360
20
  3
SPECULARTILE
360
1D
  0
DICTIONARY
  5
12
330
11
100
AcDbDictionary
280
     1
281
     1
  3
BUMPTILE
360
14
  3
DIFFUSETILE
360
13
  3
OPACITYTILE
360
17
  3
REFLECTIONTILE
360
16
  3
REFRACTIONTILE
360
18
  3
SPECULARTILE
360
15
  0
DICTIONARY
  5
22
330
21
100
AcDbDictionary
280
     1
281
     1
  3
BUMPTILE
360
24
  3
DIFFUSETILE
360
23
  3
OPACITYTILE
360
27
  3
REFLECTIONTILE
360
26
  3
REFRACTIONTILE
360
28
  3
SPECULARTILE
360
25
  0
DICTIONARY
  5
243
330
65
100
AcDbDictionary
280
     1
281
     1
  3
ACAD_ROUNDTRIP_2008_TABLESTYLE_CELLSTYLEMAP
360
244
  0
XRECORD
  5
1C
102
{ACAD_REACTORS
330
1A
102
}
330
1A
100
AcDbXrecord
280
     1
270
     1
271
     1
  0
XRECORD
  5
1B
102
{ACAD_REACTORS
330
1A
102
}
330
1A
100
AcDbXrecord
280
     1
270
     1
271
     1
  0
XRECORD
  5
1F
102
{ACAD_REACTORS
330
1A
102
}
330
1A
100
AcDbXrecord
280
     1
270
     1
271
     1
  0
XRECORD
  5
1E
102
{ACAD_REACTORS
330
1A
102
}
330
1A
100
AcDbXrecord
280
     1
270
     1
271
     1
  0
XRECORD
  5
20
102
{ACAD_REACTORS
330
1A
102
}
330
1A
100
AcDbXrecord
280
     1
270
     1
271
     1
  0
XRECORD
  5
1D
102
{ACAD_REACTORS
330
1A
102
}
330
1A
100
AcDbXrecord
280
     1
270
     1
271
     1
  0
XRECORD
  5
14
102
{ACAD_REACTORS
330
12
102
}
330
12
100
AcDbXrecord
280
     1
270
     1
271
     1
  0
XRECORD
  5
13
102
{ACAD_REACTORS
330
12
102
}
330
12
100
AcDbXrecord
280
     1
270
     1
271
     1
  0
XRECORD
  5
17
102
{ACAD_REACTORS
330
12
102
}
330
12
100
AcDbXrecord
280
     1
270
     1
271
     1
  0
XRECORD
  5
16
102
{ACAD_REACTORS
330
12
102
}
330
12
100
AcDbXrecord
280
     1
270
     1
271
     1
  0
XRECORD
  5
18
102
{ACAD_REACTORS
330
12
102
}
330
12
100
AcDbXrecord
280
     1
270
     1
271
     1
  0
XRECORD
  5
15
102
{ACAD_REACTORS
330
12
102
}
330
12
100
AcDbXrecord
280
     1
270
     1
271
     1
  0
XRECORD
  5
24
102
{ACAD_REACTORS
330
22
102
}
330
22
100
AcDbXrecord
280
     1
270
     1
271
     1
  0
XRECORD
  5
23
102
{ACAD_REACTORS
330
22
102
}
330
22
100
AcDbXrecord
280
     1
270
     1
271
     1
  0
XRECORD
  5
27
102
{ACAD_REACTORS
330
22
102
}
330
22
100
AcDbXrecord
280
     1
270
     1
271
     1
  0
XRECORD
  5
26
102
{ACAD_REACTORS
330
22
102
}
330
22
100
AcDbXrecord
280
     1
270
     1
271
     1
  0
XRECORD
  5
28
102
{ACAD_REACTORS
330
22
102
}
330
22
100
AcDbXrecord
280
     1
270
     1
271
     1
  0
XRECORD
  5
25
102
{ACAD_REACTORS
330
22
102
}
330
22
100
AcDbXrecord
280
     1
270
     1
271
     1
  0
CELLSTYLEMAP
  5
244
102
{ACAD_REACTORS
330
243
102
}
330
243
100
AcDbCellStyleMap
 90
        3
300
CELLSTYLE
  1
TABLEFORMAT_BEGIN
 90
        5
170
     1
 91
        0
 92
    32768
 62
   257
 93
        1
300
CONTENTFORMAT
  1
CONTENTFORMAT_BEGIN
 90
        0
 91
        0
 92
      512
 93
        0
300

 40
0.0
140
1.0
 94
        5
 62
     0
340
55
144
0.25
309
CONTENTFORMAT_END
171
     0
 94
        0
309
TABLEFORMAT_END
  1
CELLSTYLE_BEGIN
 90
        1
 91
        1
300
_TITLE
309
CELLSTYLE_END
300
CELLSTYLE
  1
TABLEFORMAT_BEGIN
 90
        5
170
     1
 91
        0
 92
        0
 62
   257
 93
        1
300
CONTENTFORMAT
  1
CONTENTFORMAT_BEGIN
 90
        0
 91
        0
 92
      512
 93
        0
300

 40
0.0
140
1.0
 94
        5
 62
     0
340
55
144
0.18
309
CONTENTFORMAT_END
171
     0
 94
        0
309
TABLEFORMAT_END
  1
CELLSTYLE_BEGIN
 90
        2
 91
        1
300
_HEADER
309
CELLSTYLE_END
300
CELLSTYLE
  1
TABLEFORMAT_BEGIN
 90
        5
170
     1
 91
        0
 92
        0
 62
   257
 93
        1
300
CONTENTFORMAT
  1
CONTENTFORMAT_BEGIN
 90
        0
 91
        0
 92
      512
 93
        0
300

 40
0.0
140
1.0
 94
        2
 62
     0
340
55
144
0.18
309
CONTENTFORMAT_END
171
     0
 94
        0
309
TABLEFORMAT_END
  1
CELLSTYLE_BEGIN
 90
        3
 91
        2
300
_DATA
309
CELLSTYLE_END
  0
ENDSEC
  0
EOF
