ISO-10303-21;
HEADER;
/* Generated by software containing ST-Developer
 * from STEP Tools, Inc. (www.steptools.com) 
 */
/* OPTION: using custom renumber hook */

FILE_DESCRIPTION(
/* description */ ('STEP AP242',
'CAx-IF Rec.Pracs.---Representation and Presentation of Product Manufa
cturing Information (PMI)---4.0---2014-10-13',
'CAx-IF Rec.Pracs.---3D Tessellated Geometry---0.4---2014-09-14','2;1'),

/* implementation_level */ '2;1');

FILE_NAME(
/* name */ '67ac5aae9f494356f8dbc2bf',
/* time_stamp */ '2025-02-12T08:24:15Z',
/* author */ (''),
/* organization */ (''),
/* preprocessor_version */ 'ST-DEVELOPER v20',
/* originating_system */ 'ONSHAPE BY PTC INC, 1.193',
/* authorisation */ '  ');

FILE_SCHEMA (('AP242_MANAGED_MODEL_BASED_3D_ENGINEERING_MIM_LF { 1 0 10303 442 1 1 4 }'));
ENDSEC;

DATA;
#10=SHAPE_REPRESENTATION_RELATIONSHIP('','',#210,#11);
#11=ADVANCED_BREP_SHAPE_REPRESENTATION('',(#208),#337);
#12=CONICAL_SURFACE('',#228,0.005,0.785398163397449);
#13=LINE('',#297,#31);
#14=LINE('',#300,#32);
#15=LINE('',#302,#33);
#16=LINE('',#304,#34);
#17=LINE('',#306,#35);
#18=LINE('',#308,#36);
#19=LINE('',#311,#37);
#20=LINE('',#313,#38);
#21=LINE('',#315,#39);
#22=LINE('',#317,#40);
#23=LINE('',#319,#41);
#24=LINE('',#321,#42);
#25=LINE('',#323,#43);
#26=LINE('',#325,#44);
#27=LINE('',#327,#45);
#28=LINE('',#329,#46);
#29=LINE('',#331,#47);
#30=LINE('',#333,#48);
#31=VECTOR('',#247,1.);
#32=VECTOR('',#248,1.);
#33=VECTOR('',#249,1.);
#34=VECTOR('',#250,1.);
#35=VECTOR('',#251,1.);
#36=VECTOR('',#252,1.);
#37=VECTOR('',#257,1.);
#38=VECTOR('',#258,1.);
#39=VECTOR('',#259,1.);
#40=VECTOR('',#262,1.);
#41=VECTOR('',#263,1.);
#42=VECTOR('',#266,1.);
#43=VECTOR('',#267,1.);
#44=VECTOR('',#270,1.);
#45=VECTOR('',#271,1.);
#46=VECTOR('',#274,1.);
#47=VECTOR('',#275,1.);
#48=VECTOR('',#278,1.);
#49=PLANE('',#218);
#50=PLANE('',#220);
#51=PLANE('',#221);
#52=PLANE('',#222);
#53=PLANE('',#223);
#54=PLANE('',#224);
#55=PLANE('',#225);
#56=PLANE('',#226);
#57=PLANE('',#227);
#58=ORIENTED_EDGE('',*,*,#104,.F.);
#59=ORIENTED_EDGE('',*,*,#105,.T.);
#60=ORIENTED_EDGE('',*,*,#106,.T.);
#61=ORIENTED_EDGE('',*,*,#107,.T.);
#62=ORIENTED_EDGE('',*,*,#108,.T.);
#63=ORIENTED_EDGE('',*,*,#109,.F.);
#64=ORIENTED_EDGE('',*,*,#110,.F.);
#65=ORIENTED_EDGE('',*,*,#111,.F.);
#66=ORIENTED_EDGE('',*,*,#112,.F.);
#67=ORIENTED_EDGE('',*,*,#113,.F.);
#68=ORIENTED_EDGE('',*,*,#114,.F.);
#69=ORIENTED_EDGE('',*,*,#104,.T.);
#70=ORIENTED_EDGE('',*,*,#107,.F.);
#71=ORIENTED_EDGE('',*,*,#109,.T.);
#72=ORIENTED_EDGE('',*,*,#115,.F.);
#73=ORIENTED_EDGE('',*,*,#116,.F.);
#74=ORIENTED_EDGE('',*,*,#117,.T.);
#75=ORIENTED_EDGE('',*,*,#114,.T.);
#76=ORIENTED_EDGE('',*,*,#118,.F.);
#77=ORIENTED_EDGE('',*,*,#119,.F.);
#78=ORIENTED_EDGE('',*,*,#115,.T.);
#79=ORIENTED_EDGE('',*,*,#113,.T.);
#80=ORIENTED_EDGE('',*,*,#120,.F.);
#81=ORIENTED_EDGE('',*,*,#121,.F.);
#82=ORIENTED_EDGE('',*,*,#118,.T.);
#83=ORIENTED_EDGE('',*,*,#112,.T.);
#84=ORIENTED_EDGE('',*,*,#122,.F.);
#85=ORIENTED_EDGE('',*,*,#123,.F.);
#86=ORIENTED_EDGE('',*,*,#120,.T.);
#87=ORIENTED_EDGE('',*,*,#111,.T.);
#88=ORIENTED_EDGE('',*,*,#124,.F.);
#89=ORIENTED_EDGE('',*,*,#125,.F.);
#90=ORIENTED_EDGE('',*,*,#122,.T.);
#91=ORIENTED_EDGE('',*,*,#110,.T.);
#92=ORIENTED_EDGE('',*,*,#117,.F.);
#93=ORIENTED_EDGE('',*,*,#126,.F.);
#94=ORIENTED_EDGE('',*,*,#124,.T.);
#95=ORIENTED_EDGE('',*,*,#105,.F.);
#96=ORIENTED_EDGE('',*,*,#116,.T.);
#97=ORIENTED_EDGE('',*,*,#119,.T.);
#98=ORIENTED_EDGE('',*,*,#121,.T.);
#99=ORIENTED_EDGE('',*,*,#123,.T.);
#100=ORIENTED_EDGE('',*,*,#125,.T.);
#101=ORIENTED_EDGE('',*,*,#126,.T.);
#102=ORIENTED_EDGE('',*,*,#106,.F.);
#103=ORIENTED_EDGE('',*,*,#108,.F.);
#104=EDGE_CURVE('',#127,#127,#144,.F.);
#105=EDGE_CURVE('',#128,#128,#145,.F.);
#106=EDGE_CURVE('',#129,#129,#146,.F.);
#107=EDGE_CURVE('',#130,#130,#147,.T.);
#108=EDGE_CURVE('',#131,#131,#148,.T.);
#109=EDGE_CURVE('',#132,#133,#13,.T.);
#110=EDGE_CURVE('',#134,#132,#14,.T.);
#111=EDGE_CURVE('',#135,#134,#15,.T.);
#112=EDGE_CURVE('',#136,#135,#16,.T.);
#113=EDGE_CURVE('',#137,#136,#17,.T.);
#114=EDGE_CURVE('',#133,#137,#18,.T.);
#115=EDGE_CURVE('',#138,#133,#19,.T.);
#116=EDGE_CURVE('',#139,#138,#20,.T.);
#117=EDGE_CURVE('',#139,#132,#21,.T.);
#118=EDGE_CURVE('',#140,#137,#22,.T.);
#119=EDGE_CURVE('',#138,#140,#23,.T.);
#120=EDGE_CURVE('',#141,#136,#24,.T.);
#121=EDGE_CURVE('',#140,#141,#25,.T.);
#122=EDGE_CURVE('',#142,#135,#26,.T.);
#123=EDGE_CURVE('',#141,#142,#27,.T.);
#124=EDGE_CURVE('',#143,#134,#28,.T.);
#125=EDGE_CURVE('',#142,#143,#29,.T.);
#126=EDGE_CURVE('',#143,#139,#30,.T.);
#127=VERTEX_POINT('',#286);
#128=VERTEX_POINT('',#288);
#129=VERTEX_POINT('',#291);
#130=VERTEX_POINT('',#293);
#131=VERTEX_POINT('',#296);
#132=VERTEX_POINT('',#298);
#133=VERTEX_POINT('',#299);
#134=VERTEX_POINT('',#301);
#135=VERTEX_POINT('',#303);
#136=VERTEX_POINT('',#305);
#137=VERTEX_POINT('',#307);
#138=VERTEX_POINT('',#312);
#139=VERTEX_POINT('',#314);
#140=VERTEX_POINT('',#318);
#141=VERTEX_POINT('',#322);
#142=VERTEX_POINT('',#326);
#143=VERTEX_POINT('',#330);
#144=CIRCLE('',#213,0.0021);
#145=CIRCLE('',#214,0.0021);
#146=CIRCLE('',#216,0.006);
#147=CIRCLE('',#217,0.006);
#148=CIRCLE('',#219,0.005);
#149=EDGE_LOOP('',(#58));
#150=EDGE_LOOP('',(#59));
#151=EDGE_LOOP('',(#60));
#152=EDGE_LOOP('',(#61));
#153=EDGE_LOOP('',(#62));
#154=EDGE_LOOP('',(#63,#64,#65,#66,#67,#68));
#155=EDGE_LOOP('',(#69));
#156=EDGE_LOOP('',(#70));
#157=EDGE_LOOP('',(#71,#72,#73,#74));
#158=EDGE_LOOP('',(#75,#76,#77,#78));
#159=EDGE_LOOP('',(#79,#80,#81,#82));
#160=EDGE_LOOP('',(#83,#84,#85,#86));
#161=EDGE_LOOP('',(#87,#88,#89,#90));
#162=EDGE_LOOP('',(#91,#92,#93,#94));
#163=EDGE_LOOP('',(#95));
#164=EDGE_LOOP('',(#96,#97,#98,#99,#100,#101));
#165=EDGE_LOOP('',(#102));
#166=EDGE_LOOP('',(#103));
#167=FACE_BOUND('',#149,.T.);
#168=FACE_BOUND('',#150,.T.);
#169=FACE_BOUND('',#151,.T.);
#170=FACE_BOUND('',#152,.T.);
#171=FACE_BOUND('',#153,.T.);
#172=FACE_BOUND('',#154,.T.);
#173=FACE_BOUND('',#155,.T.);
#174=FACE_BOUND('',#156,.T.);
#175=FACE_BOUND('',#157,.T.);
#176=FACE_BOUND('',#158,.T.);
#177=FACE_BOUND('',#159,.T.);
#178=FACE_BOUND('',#160,.T.);
#179=FACE_BOUND('',#161,.T.);
#180=FACE_BOUND('',#162,.T.);
#181=FACE_BOUND('',#163,.T.);
#182=FACE_BOUND('',#164,.T.);
#183=FACE_BOUND('',#165,.T.);
#184=FACE_BOUND('',#166,.T.);
#185=CYLINDRICAL_SURFACE('',#212,0.0021);
#186=CYLINDRICAL_SURFACE('',#215,0.006);
#187=ADVANCED_FACE('',(#167,#168),#185,.F.);
#188=ADVANCED_FACE('',(#169,#170),#186,.T.);
#189=ADVANCED_FACE('',(#171,#172),#49,.T.);
#190=ADVANCED_FACE('',(#173,#174),#50,.F.);
#191=ADVANCED_FACE('',(#175),#51,.F.);
#192=ADVANCED_FACE('',(#176),#52,.F.);
#193=ADVANCED_FACE('',(#177),#53,.F.);
#194=ADVANCED_FACE('',(#178),#54,.F.);
#195=ADVANCED_FACE('',(#179),#55,.F.);
#196=ADVANCED_FACE('',(#180),#56,.F.);
#197=ADVANCED_FACE('',(#181,#182),#57,.T.);
#198=ADVANCED_FACE('',(#183,#184),#12,.T.);
#199=CLOSED_SHELL('',(#187,#188,#189,#190,#191,#192,#193,#194,#195,#196,
#197,#198));
#200=STYLED_ITEM('',(#201),#208);
#201=PRESENTATION_STYLE_ASSIGNMENT((#202));
#202=SURFACE_STYLE_USAGE(.BOTH.,#203);
#203=SURFACE_SIDE_STYLE('',(#204));
#204=SURFACE_STYLE_FILL_AREA(#205);
#205=FILL_AREA_STYLE('',(#206));
#206=FILL_AREA_STYLE_COLOUR('',#207);
#207=COLOUR_RGB('',0.231372549019608,0.380392156862745,0.705882352941177);
#208=MANIFOLD_SOLID_BREP('Standfu\X\DF',#199);
#209=SHAPE_DEFINITION_REPRESENTATION(#342,#210);
#210=SHAPE_REPRESENTATION('Standfu\X2\FFFD\X0\',(#211),#337);
#211=AXIS2_PLACEMENT_3D('',#283,#229,#230);
#212=AXIS2_PLACEMENT_3D('',#284,#231,#232);
#213=AXIS2_PLACEMENT_3D('',#285,#233,#234);
#214=AXIS2_PLACEMENT_3D('',#287,#235,#236);
#215=AXIS2_PLACEMENT_3D('',#289,#237,#238);
#216=AXIS2_PLACEMENT_3D('',#290,#239,#240);
#217=AXIS2_PLACEMENT_3D('',#292,#241,#242);
#218=AXIS2_PLACEMENT_3D('',#294,#243,#244);
#219=AXIS2_PLACEMENT_3D('',#295,#245,#246);
#220=AXIS2_PLACEMENT_3D('',#309,#253,#254);
#221=AXIS2_PLACEMENT_3D('',#310,#255,#256);
#222=AXIS2_PLACEMENT_3D('',#316,#260,#261);
#223=AXIS2_PLACEMENT_3D('',#320,#264,#265);
#224=AXIS2_PLACEMENT_3D('',#324,#268,#269);
#225=AXIS2_PLACEMENT_3D('',#328,#272,#273);
#226=AXIS2_PLACEMENT_3D('',#332,#276,#277);
#227=AXIS2_PLACEMENT_3D('',#334,#279,#280);
#228=AXIS2_PLACEMENT_3D('',#335,#281,#282);
#229=DIRECTION('',(0.,0.,1.));
#230=DIRECTION('',(1.,0.,0.));
#231=DIRECTION('',(0.,0.,1.));
#232=DIRECTION('',(1.,0.,0.));
#233=DIRECTION('',(0.,0.,1.));
#234=DIRECTION('',(1.,0.,0.));
#235=DIRECTION('',(0.,0.,1.));
#236=DIRECTION('',(1.,0.,0.));
#237=DIRECTION('',(0.,0.,1.));
#238=DIRECTION('',(1.,0.,0.));
#239=DIRECTION('',(0.,0.,-1.));
#240=DIRECTION('',(-1.,0.,0.));
#241=DIRECTION('',(0.,0.,-1.));
#242=DIRECTION('',(-1.,0.,0.));
#243=DIRECTION('',(0.,0.,-1.));
#244=DIRECTION('',(1.,0.,0.));
#245=DIRECTION('',(0.,0.,-1.));
#246=DIRECTION('',(-1.,0.,0.));
#247=DIRECTION('',(0.502074710628811,-0.864824250901301,0.));
#248=DIRECTION('',(0.999997126403779,0.00239732855162328,0.));
#249=DIRECTION('',(0.497922415774968,0.867221579452922,0.));
#250=DIRECTION('',(-0.502074710628812,0.8648242509013,0.));
#251=DIRECTION('',(-0.999997126403779,-0.00239732855161984,0.));
#252=DIRECTION('',(-0.497922415774968,-0.867221579452922,0.));
#253=DIRECTION('',(0.,0.,-1.));
#254=DIRECTION('',(1.,0.,0.));
#255=DIRECTION('',(0.864824250901301,0.502074710628811,0.));
#256=DIRECTION('',(-0.502074710628811,0.864824250901301,0.));
#257=DIRECTION('',(0.,0.,-1.));
#258=DIRECTION('',(0.502074710628811,-0.864824250901301,0.));
#259=DIRECTION('',(0.,0.,-1.));
#260=DIRECTION('',(0.867221579452922,-0.497922415774968,0.));
#261=DIRECTION('',(0.497922415774968,0.867221579452922,0.));
#262=DIRECTION('',(0.,0.,-1.));
#263=DIRECTION('',(-0.497922415774968,-0.867221579452922,0.));
#264=DIRECTION('',(0.00239732855161984,-0.999997126403779,0.));
#265=DIRECTION('',(0.999997126403779,0.00239732855161984,0.));
#266=DIRECTION('',(0.,0.,-1.));
#267=DIRECTION('',(-0.999997126403779,-0.00239732855161984,0.));
#268=DIRECTION('',(-0.8648242509013,-0.502074710628812,0.));
#269=DIRECTION('',(0.502074710628812,-0.8648242509013,0.));
#270=DIRECTION('',(0.,0.,-1.));
#271=DIRECTION('',(-0.502074710628812,0.8648242509013,0.));
#272=DIRECTION('',(-0.867221579452922,0.497922415774968,0.));
#273=DIRECTION('',(-0.497922415774968,-0.867221579452922,0.));
#274=DIRECTION('',(0.,0.,-1.));
#275=DIRECTION('',(0.497922415774968,0.867221579452922,0.));
#276=DIRECTION('',(-0.00239732855162328,0.999997126403779,0.));
#277=DIRECTION('',(-0.999997126403779,-0.00239732855162328,0.));
#278=DIRECTION('',(0.999997126403779,0.00239732855162328,0.));
#279=DIRECTION('',(0.,0.,-1.));
#280=DIRECTION('',(1.,0.,0.));
#281=DIRECTION('',(0.,0.,1.));
#282=DIRECTION('',(1.,0.,0.));
#283=CARTESIAN_POINT('',(0.,0.,0.));
#284=CARTESIAN_POINT('',(-0.025,-0.05,-0.0085));
#285=CARTESIAN_POINT('',(-0.025,-0.05,0.));
#286=CARTESIAN_POINT('',(-0.0229,-0.05,0.));
#287=CARTESIAN_POINT('',(-0.025,-0.05,-0.0045));
#288=CARTESIAN_POINT('',(-0.0229,-0.05,-0.0045));
#289=CARTESIAN_POINT('',(-0.025,-0.05,-0.0085));
#290=CARTESIAN_POINT('',(-0.025,-0.05,-0.0075));
#291=CARTESIAN_POINT('',(-0.031,-0.05,-0.0075));
#292=CARTESIAN_POINT('',(-0.025,-0.05,0.));
#293=CARTESIAN_POINT('',(-0.031,-0.05,0.));
#294=CARTESIAN_POINT('',(6.93889390390723E-18,-0.01,-0.0085));
#295=CARTESIAN_POINT('',(-0.025,-0.05,-0.0085));
#296=CARTESIAN_POINT('',(-0.03,-0.05,-0.0085));
#297=CARTESIAN_POINT('',(-0.0219731151218454,-0.0482427385127992,-0.0085));
#298=CARTESIAN_POINT('',(-0.0229876705145174,-0.0464951657135906,-0.0085));
#299=CARTESIAN_POINT('',(-0.0209585597291734,-0.0499903113120077,-0.0085));
#300=CARTESIAN_POINT('',(-0.0250083906499307,-0.0465000100575868,-0.0085));
#301=CARTESIAN_POINT('',(-0.027029110785344,-0.046504854401583,-0.0085));
#302=CARTESIAN_POINT('',(-0.0280352755280853,-0.0482572715447876,-0.0085));
#303=CARTESIAN_POINT('',(-0.0290414402708265,-0.0500096886879923,-0.0085));
#304=CARTESIAN_POINT('',(-0.0280268848781545,-0.0517572614872009,-0.0085));
#305=CARTESIAN_POINT('',(-0.0270123294854826,-0.0535048342864094,-0.0085));
#306=CARTESIAN_POINT('',(-0.0249916093500693,-0.0534999899424132,-0.0085));
#307=CARTESIAN_POINT('',(-0.0229708892146561,-0.0534951455984171,-0.0085));
#308=CARTESIAN_POINT('',(-0.0219647244719148,-0.0517427284552124,-0.0085));
#309=CARTESIAN_POINT('',(6.93889390390723E-18,-0.01,0.));
#310=CARTESIAN_POINT('',(-0.0219731151218454,-0.0482427385127992,-0.0045));
#311=CARTESIAN_POINT('',(-0.0209585597291734,-0.0499903113120077,-0.0045));
#312=CARTESIAN_POINT('',(-0.0209585597291734,-0.0499903113120077,-0.0045));
#313=CARTESIAN_POINT('',(-0.0219731151218454,-0.0482427385127992,-0.0045));
#314=CARTESIAN_POINT('',(-0.0229876705145174,-0.0464951657135906,-0.0045));
#315=CARTESIAN_POINT('',(-0.0229876705145174,-0.0464951657135906,-0.0045));
#316=CARTESIAN_POINT('',(-0.0219647244719148,-0.0517427284552124,-0.0045));
#317=CARTESIAN_POINT('',(-0.0229708892146561,-0.0534951455984171,-0.0045));
#318=CARTESIAN_POINT('',(-0.0229708892146561,-0.0534951455984171,-0.0045));
#319=CARTESIAN_POINT('',(-0.0219647244719148,-0.0517427284552124,-0.0045));
#320=CARTESIAN_POINT('',(-0.0249916093500693,-0.0534999899424132,-0.0045));
#321=CARTESIAN_POINT('',(-0.0270123294854826,-0.0535048342864094,-0.0045));
#322=CARTESIAN_POINT('',(-0.0270123294854826,-0.0535048342864094,-0.0045));
#323=CARTESIAN_POINT('',(-0.0249916093500693,-0.0534999899424132,-0.0045));
#324=CARTESIAN_POINT('',(-0.0280268848781545,-0.0517572614872009,-0.0045));
#325=CARTESIAN_POINT('',(-0.0290414402708265,-0.0500096886879923,-0.0045));
#326=CARTESIAN_POINT('',(-0.0290414402708265,-0.0500096886879923,-0.0045));
#327=CARTESIAN_POINT('',(-0.0280268848781545,-0.0517572614872009,-0.0045));
#328=CARTESIAN_POINT('',(-0.0280352755280853,-0.0482572715447876,-0.0045));
#329=CARTESIAN_POINT('',(-0.027029110785344,-0.046504854401583,-0.0045));
#330=CARTESIAN_POINT('',(-0.027029110785344,-0.046504854401583,-0.0045));
#331=CARTESIAN_POINT('',(-0.0280352755280853,-0.0482572715447876,-0.0045));
#332=CARTESIAN_POINT('',(-0.0250083906499307,-0.0465000100575868,-0.0045));
#333=CARTESIAN_POINT('',(-0.0250083906499307,-0.0465000100575868,-0.0045));
#334=CARTESIAN_POINT('',(-0.025,-0.05,-0.0045));
#335=CARTESIAN_POINT('',(-0.025,-0.05,-0.0085));
#336=MECHANICAL_DESIGN_GEOMETRIC_PRESENTATION_REPRESENTATION('',(#200),
#337);
#337=(
GEOMETRIC_REPRESENTATION_CONTEXT(3)
GLOBAL_UNCERTAINTY_ASSIGNED_CONTEXT((#338))
GLOBAL_UNIT_ASSIGNED_CONTEXT((#341,#340,#339))
REPRESENTATION_CONTEXT('Standfu\X2\FFFD\X0\','TOP_LEVEL_ASSEMBLY_PART')
);
#338=UNCERTAINTY_MEASURE_WITH_UNIT(LENGTH_MEASURE(1.E-8),#341,
'DISTANCE_ACCURACY_VALUE','Maximum Tolerance applied to model');
#339=(
NAMED_UNIT(*)
SI_UNIT($,.STERADIAN.)
SOLID_ANGLE_UNIT()
);
#340=(
NAMED_UNIT(*)
PLANE_ANGLE_UNIT()
SI_UNIT($,.RADIAN.)
);
#341=(
LENGTH_UNIT()
NAMED_UNIT(*)
SI_UNIT($,.METRE.)
);
#342=PRODUCT_DEFINITION_SHAPE('','',#343);
#343=PRODUCT_DEFINITION('','',#345,#344);
#344=PRODUCT_DEFINITION_CONTEXT('',#351,'design');
#345=PRODUCT_DEFINITION_FORMATION_WITH_SPECIFIED_SOURCE('','',#347,
 .NOT_KNOWN.);
#346=PRODUCT_RELATED_PRODUCT_CATEGORY('','',(#347));
#347=PRODUCT('Standfu\X2\FFFD\X0\','Standfu\X2\FFFD\X0\','Standfu\X2\FFFD\X0\',
(#349));
#348=PRODUCT_CATEGORY('','');
#349=PRODUCT_CONTEXT('',#351,'mechanical');
#350=APPLICATION_PROTOCOL_DEFINITION('international standard',
'ap242_managed_model_based_3d_engineering',2011,#351);
#351=APPLICATION_CONTEXT('managed model based 3d engineering');
ENDSEC;
END-ISO-10303-21;
