0
SECTION
2
HEADER
9
$INSUNITS
70
4
9
$ACADVER
1
AC1014
9
$HANDSEED
5
FFFF
0
ENDSEC
0
SECTION
2
TABLES
0
TABLE
2
VPORT
5
8
100
AcDbSymbolTable
0
ENDTAB
0
TABLE
2
LTYPE
5
5
100
AcDbSymbolTable
0
LTYPE
5
14
100
AcDbSymbolTableRecord
100
AcDbLinetypeTableRecord
2
BYBLOCK
70
0
0
LTYPE
5
15
100
AcDbSymbolTableRecord
100
AcDbLinetypeTableRecord
2
BYLAYER
70
0
0
ENDTAB
0
TABLE
2
LAYER
5
2
100
AcDbSymbolTable
70
2
0
LAYER
5
50
100
AcDbSymbolTableRecord
100
AcDbLayerTableRecord
2
0
70
0
6
CONTINUOUS
0
ENDTAB
0
TABLE
2
STYLE
5
3
100
AcDbSymbolTable
70
1
0
STYLE
5
11
100
AcDbSymbolTableRecord
100
AcDbTextStyleTableRecord
2
STANDARD
70
0
0
ENDTAB
0
TABLE
2
VIEW
5
6
100
AcDbSymbolTable
70
0
0
ENDTAB
0
TABLE
2
UCS
5
7
100
AcDbSymbolTable
70
0
0
ENDTAB
0
TABLE
2
APPID
5
9
100
AcDbSymbolTable
70
2
0
APPID
5
12
100
AcDbSymbolTableRecord
100
AcDbRegAppTableRecord
2
ACAD
70
0
0
ENDTAB
0
TABLE
2
DIMSTYLE
5
A
100
AcDbSymbolTable
70
1
0
ENDTAB
0
TABLE
2
BLOCK_RECORD
5
1
100
AcDbSymbolTable
70
1
0
BLOCK_RECORD
5
1F
100
AcDbSymbolTableRecord
100
AcDbBlockTableRecord
2
*MODEL_SPACE
0
BLOCK_RECORD
5
1B
100
AcDbSymbolTableRecord
100
AcDbBlockTableRecord
2
*PAPER_SPACE
0
ENDTAB
0
ENDSEC
0
SECTION
2
BLOCKS
0
BLOCK
5
20
100
AcDbEntity
100
AcDbBlockBegin
2
*MODEL_SPACE
0
ENDBLK
5
21
100
AcDbEntity
100
AcDbBlockEnd
0
BLOCK
5
1C
100
AcDbEntity
100
AcDbBlockBegin
2
*PAPER_SPACE
0
ENDBLK
5
1D
100
AcDbEntity
100
AcDbBlockEnd
0
ENDSEC
0
SECTION
2
ENTITIES
0
CIRCLE
5
100
100
AcDbEntity
8
0
100
AcDbCircle
10
89.968616450257883
20
39.999999999999993
30
0
40
1.5000000000000036
210
0
220
-0
230
1
0
CIRCLE
5
101
100
AcDbEntity
8
0
100
AcDbCircle
10
22.089191138454321
20
39.999999999999993
30
0
40
1.4999999999999991
210
0
220
-0
230
1
0
CIRCLE
5
102
100
AcDbEntity
8
0
100
AcDbCircle
10
104.08919113845431
20
39.999999999999993
30
0
40
1.5000000000000036
210
0
220
-0
230
1
0
CIRCLE
5
103
100
AcDbEntity
8
0
100
AcDbCircle
10
7.9686164502578993
20
39.999999999999993
30
0
40
1.5000000000000002
210
0
220
-0
230
1
0
LWPOLYLINE
5
104
100
AcDbEntity
8
0
100
AcDbPolyline
90
75
70
1
43
0.0
10
260.97336627017421
20
16.615012351315332
10
239.90991035940971
20
16.615012351315332
42
-0.99999999999999989
10
239.90991035940971
20
23.384987648684668
10
262.10169548640243
20
23.384987648684668
10
200
20
50
10
-103.33333333333336
20
50
10
-103.33333333333336
20
36.000000536441803
10
-100.20833333333336
20
36.000000536441803
10
-100.20833333333336
20
27.486003136637216
10
-103.33333333333336
20
27.486003136637216
10
-103.33333333333336
20
20.735159238640136
10
-100.20833333333336
20
20.735159238640136
10
-100.20833333333336
20
10.735159238640136
10
-103.33333333333336
20
10.735159238640136
10
-103.33333333333336
20
0
10
-85.484106642083361
20
0
10
-85.484106642083361
20
3.1749999999999998
10
-75.484106642083361
20
3.1749999999999998
10
-75.484106642083361
20
0
10
-43.484106642083376
20
0
10
-43.484106642083376
20
3.1749999999999998
10
-33.484106642083376
20
3.1749999999999998
10
-33.484106642083376
20
0
10
-21.484106642083383
20
0
10
-21.484106642083383
20
3.1749999999999998
10
-11.484106642083383
20
3.1749999999999998
10
-11.484106642083383
20
0
10
-11.999997198581696
20
0
10
-10.042253982978089
20
-4.984506120859475
42
0.50719805766967374
10
-0.92844353159993154
20
-11.657721640805185
10
8.8791642534604165
20
-11.875423686761479
42
0.46289025978941989
10
17.109485111811864
20
-5.0788634469744407
10
17.177952490697937
20
0
10
22.515893357916603
20
0
10
22.515893357916603
20
3.1749999999999998
10
32.515893357916603
20
3.1749999999999998
10
32.515893357916603
20
0
10
44.515893357916596
20
0
10
44.515893357916596
20
3.1749999999999998
10
54.515893357916596
20
3.1749999999999998
10
54.515893357916596
20
0
10
54.666669468084962
20
0
10
56.624412683688575
20
-4.984506120859475
42
0.50719805766967374
10
65.738223135066733
20
-11.657721640805185
10
75.545830920127074
20
-11.875423686761479
42
0.46289025978941989
10
83.776151778478521
20
-5.0788634469744407
10
83.84461915736459
20
0
10
88.515893357916582
20
0
10
88.515893357916582
20
3.1749999999999998
10
98.515893357916582
20
3.1749999999999998
10
98.515893357916582
20
0
10
110.51589335791658
20
0
10
110.51589335791658
20
3.1749999999999998
10
120.51589335791658
20
3.1749999999999998
10
120.51589335791658
20
0
10
121.33333613475162
20
0
10
123.29107935035523
20
-4.984506120859475
42
0.50719805766967374
10
132.40488980173339
20
-11.657721640805185
10
142.21249758679375
20
-11.875423686761479
42
0.46289025978941989
10
150.44281844514518
20
-5.0788634469744407
10
150.51128582403126
20
0
10
154.51589335791655
20
0
10
154.51589335791655
20
3.1749999999999998
10
164.51589335791655
20
3.1749999999999998
10
164.51589335791655
20
0
10
176.51589335791655
20
0
10
176.51589335791655
20
3.1749999999999998
10
186.51589335791655
20
3.1749999999999998
10
186.51589335791655
20
0
10
188.0000028014183
20
0
10
189.95774601702192
20
-4.984506120859475
42
0.50719805766967374
10
199.07155646840008
20
-11.657721640805185
10
208.87916425346043
20
-11.875423686761479
42
0.46289025978941989
10
217.10948511181184
20
-5.0788634469744407
10
217.18055033578506
20
0.19270637591939699
0
LWPOLYLINE
5
105
100
AcDbEntity
8
0
100
AcDbPolyline
90
4
70
1
43
0.0
10
60.791666666666657
20
11.125
10
60.791666666666657
20
29.125000268220901
10
63.981666666666655
20
29.125000268220901
10
63.981666666666655
20
11.125
0
LWPOLYLINE
5
106
100
AcDbEntity
8
0
100
AcDbPolyline
90
4
70
1
43
0.0
10
-38.208333333333357
20
37.824999999999996
10
-46.208333333333357
20
37.824999999999996
10
-46.208333333333357
20
41.000000610947609
10
-38.208333333333357
20
41.000000610947609
0
CIRCLE
5
107
100
AcDbEntity
8
0
100
AcDbCircle
10
69.474930232317547
20
28
30
0
40
2.0000000000000018
210
0
220
-0
230
1
0
CIRCLE
5
108
100
AcDbEntity
8
0
100
AcDbCircle
10
160
20
28
30
0
40
2.2500000000000142
210
0
220
-0
230
1
0
LWPOLYLINE
5
109
100
AcDbEntity
8
0
100
AcDbPolyline
90
4
70
1
43
0.0
10
-23.208333333333357
20
37.824999999999996
10
-31.208333333333353
20
37.824999999999996
10
-31.208333333333353
20
41.000000610947609
10
-23.208333333333357
20
41.000000610947609
0
CIRCLE
5
110
100
AcDbEntity
8
0
100
AcDbCircle
10
-17.026836479375156
20
28
30
0
40
1.9999999999999996
210
0
220
-0
230
1
0
CIRCLE
5
111
100
AcDbEntity
8
0
100
AcDbCircle
10
210.11012109141419
20
-4.9845060945176813
30
0
40
4.6499999999999986
210
0
220
0
230
1
0
LWPOLYLINE
5
112
100
AcDbEntity
8
0
100
AcDbPolyline
90
4
70
1
43
0.0
10
200.44799133488087
20
-4.9845061208594768
10
196.89703107963902
20
-8.5045460731458196
10
193.40764218901401
20
-4.984506120859475
10
196.95860244425586
20
-1.4644661685731653
0
CIRCLE
5
113
100
AcDbEntity
8
0
100
AcDbCircle
10
143.4434544247475
20
-4.9845060945176813
30
0
40
4.6499999999999986
210
0
220
0
230
1
0
LWPOLYLINE
5
114
100
AcDbEntity
8
0
100
AcDbPolyline
90
4
70
1
43
0.0
10
130.23036441297234
20
-8.5045460731458196
10
126.74097552234734
20
-4.984506120859475
10
130.29193577758917
20
-1.4644661685731653
10
133.78132466821421
20
-4.9845061208594768
0
LWPOLYLINE
5
115
100
AcDbEntity
8
0
100
AcDbPolyline
90
4
70
1
43
0.0
10
63.563697746305664
20
-8.5045460731458196
10
60.074308855680684
20
-4.984506120859475
10
63.625269110922517
20
-1.4644661685731653
10
67.114658001547539
20
-4.9845061208594768
0
CIRCLE
5
116
100
AcDbEntity
8
0
100
AcDbCircle
10
76.776787758080843
20
-4.9845060945176813
30
0
40
4.6499999999999986
210
0
220
0
230
1
0
LWPOLYLINE
5
117
100
AcDbEntity
8
0
100
AcDbPolyline
90
4
70
1
43
0.0
10
-3.1029689203609934
20
-8.5045460731458196
10
-6.5923578109859804
20
-4.984506120859475
10
-3.0413975557441475
20
-1.4644661685731653
10
0.44799133488087506
20
-4.9845061208594768
0
CIRCLE
5
118
100
AcDbEntity
8
0
100
AcDbCircle
10
10.110121091414186
20
-4.9845060945176813
30
0
40
4.6499999999999986
210
0
220
0
230
1
0
CIRCLE
5
119
100
AcDbEntity
8
0
100
AcDbCircle
10
-84.322802590032524
20
19.831815143561219
30
0
40
5.1782564109318319
210
0
220
0
230
1
0
LWPOLYLINE
5
120
100
AcDbEntity
8
0
100
AcDbPolyline
90
4
70
1
43
0.0
10
-88.208333333333371
20
37.824999999999996
10
-96.208333333333357
20
37.824999999999996
10
-96.208333333333357
20
41.000000610947609
10
-88.208333333333371
20
41.000000610947609
0
LWPOLYLINE
5
121
100
AcDbEntity
8
0
100
AcDbPolyline
90
4
70
1
43
0.0
10
-81.208333333333357
20
41.000000610947609
10
-53.208333333333357
20
41.000000610947609
10
-53.208333333333357
20
37.824999999999996
10
-81.208333333333357
20
37.824999999999996
0
ENDSEC
0
SECTION
2
OBJECTS
0
DICTIONARY
5
C
100
AcDbDictionary
3
ACAD_GROUP
350
D
3
ACAD_MLINESTYLE
350
17
0
DICTIONARY
5
D
100
AcDbDictionary
0
DICTIONARY
5
1A
330
C
100
AcDbDictionary
0
DICTIONARY
5
17
100
AcDbDictionary
0
ENDSEC
0
EOF
