  0
SECTION
  2
HEADER
  9
$ACADVER
  1
AC1024
  9
$ACADMAINTVER
 70
     6
  9
$DWGCODEPAGE
  3
ANSI_1252
  9
$INSBASE
 10
0.0
 20
0.0
 30
0.0
  9
$EXTMIN
 10
1.000000000000000E+20
 20
1.000000000000000E+20
 30
1.000000000000000E+20
  9
$EXTMAX
 10
-1.000000000000000E+20
 20
-1.000000000000000E+20
 30
-1.000000000000000E+20
  9
$LIMMIN
 10
0.0
 20
0.0
  9
$LIMMAX
 10
12.0
 20
9.0
  9
$ORTHOMODE
 70
     0
  9
$REGENMODE
 70
     1
  9
$FILLMODE
 70
     1
  9
$QTEXTMODE
 70
     0
  9
$MIRRTEXT
 70
     1
  9
$LTSCALE
 40
1.0
  9
$ATTMODE
 70
     1
  9
$TEXTSIZE
 40
0.2
  9
$TRACEWID
 40
0.05
  9
$TEXTSTYLE
  7
Standard
  9
$CLAYER
  8
0
  9
$CELTYPE
  6
ByLayer
  9
$CECOLOR
 62
   256
  9
$CELTSCALE
 40
1.0
  9
$DISPSILH
 70
     0
  9
$DIMSCALE
 40
1.0
  9
$DIMASZ
 40
0.18
  9
$DIMEXO
 40
0.0625
  9
$DIMDLI
 40
0.38
  9
$DIMRND
 40
0.0
  9
$DIMDLE
 40
0.0
  9
$DIMEXE
 40
0.18
  9
$DIMTP
 40
0.0
  9
$DIMTM
 40
0.0
  9
$DIMTXT
 40
0.18
  9
$DIMCEN
 40
0.09
  9
$DIMTSZ
 40
0.0
  9
$DIMTOL
 70
     0
  9
$DIMLIM
 70
     0
  9
$DIMTIH
 70
     1
  9
$DIMTOH
 70
     1
  9
$DIMSE1
 70
     0
  9
$DIMSE2
 70
     0
  9
$DIMTAD
 70
     0
  9
$DIMZIN
 70
     0
  9
$DIMBLK
  1

  9
$DIMASO
 70
     1
  9
$DIMSHO
 70
     1
  9
$DIMPOST
  1

  9
$DIMAPOST
  1

  9
$DIMALT
 70
     0
  9
$DIMALTD
 70
     2
  9
$DIMALTF
 40
25.4
  9
$DIMLFAC
 40
1.0
  9
$DIMTOFL
 70
     0
  9
$DIMTVP
 40
0.0
  9
$DIMTIX
 70
     0
  9
$DIMSOXD
 70
     0
  9
$DIMSAH
 70
     0
  9
$DIMBLK1
  1

  9
$DIMBLK2
  1

  9
$DIMSTYLE
  2
Standard
  9
$DIMCLRD
 70
     0
  9
$DIMCLRE
 70
     0
  9
$DIMCLRT
 70
     0
  9
$DIMTFAC
 40
1.0
  9
$DIMGAP
 40
0.09
  9
$DIMJUST
 70
     0
  9
$DIMSD1
 70
     0
  9
$DIMSD2
 70
     0
  9
$DIMTOLJ
 70
     1
  9
$DIMTZIN
 70
     0
  9
$DIMALTZ
 70
     0
  9
$DIMALTTZ
 70
     0
  9
$DIMUPT
 70
     0
  9
$DIMDEC
 70
     4
  9
$DIMTDEC
 70
     4
  9
$DIMALTU
 70
     2
  9
$DIMALTTD
 70
     2
  9
$DIMTXSTY
  7
Standard
  9
$DIMAUNIT
 70
     0
  9
$DIMADEC
 70
     0
  9
$DIMALTRND
 40
0.0
  9
$DIMAZIN
 70
     0
  9
$DIMDSEP
 70
    46
  9
$DIMATFIT
 70
     3
  9
$DIMFRAC
 70
     0
  9
$DIMLDRBLK
  1

  9
$DIMLUNIT
 70
     2
  9
$DIMLWD
 70
    -2
  9
$DIMLWE
 70
    -2
  9
$DIMTMOVE
 70
     0
  9
$DIMFXL
 40
1.0
  9
$DIMFXLON
 70
     0
  9
$DIMJOGANG
 40
0.7853981633974483
  9
$DIMTFILL
 70
     0
  9
$DIMTFILLCLR
 70
     0
  9
$DIMARCSYM
 70
     0
  9
$DIMLTYPE
  6

  9
$DIMLTEX1
  6

  9
$DIMLTEX2
  6

  9
$DIMTXTDIRECTION
 70
     0
  9
$LUNITS
 70
     2
  9
$LUPREC
 70
     4
  9
$SKETCHINC
 40
0.1
  9
$FILLETRAD
 40
0.5
  9
$AUNITS
 70
     0
  9
$AUPREC
 70
     0
  9
$MENU
  1
.
  9
$ELEVATION
 40
0.0
  9
$PELEVATION
 40
0.0
  9
$THICKNESS
 40
0.0
  9
$LIMCHECK
 70
     0
  9
$CHAMFERA
 40
0.5
  9
$CHAMFERB
 40
0.5
  9
$CHAMFERC
 40
1.0
  9
$CHAMFERD
 40
0.0
  9
$SKPOLY
 70
     0
  9
$TDCREATE
 40
2460072.693963958
  9
$TDUCREATE
 40
2460072.610630625
  9
$TDUPDATE
 40
2460072.693963982
  9
$TDUUPDATE
 40
2460072.610630648
  9
$TDINDWG
 40
0.0000000116
  9
$TDUSRTIMER
 40
0.0000000116
  9
$USRTIMER
 70
     1
  9
$ANGBASE
 50
0.0
  9
$ANGDIR
 70
     0
  9
$PDMODE
 70
     0
  9
$PDSIZE
 40
0.0
  9
$PLINEWID
 40
0.0
  9
$SPLFRAME
 70
     0
  9
$SPLINETYPE
 70
     6
  9
$SPLINESEGS
 70
     8
  9
$HANDSEED
  5
C9
  9
$SURFTAB1
 70
     6
  9
$SURFTAB2
 70
     6
  9
$SURFTYPE
 70
     6
  9
$SURFU
 70
     6
  9
$SURFV
 70
     6
  9
$UCSBASE
  2

  9
$UCSNAME
  2

  9
$UCSORG
 10
0.0
 20
0.0
 30
0.0
  9
$UCSXDIR
 10
1.0
 20
0.0
 30
0.0
  9
$UCSYDIR
 10
0.0
 20
1.0
 30
0.0
  9
$UCSORTHOREF
  2

  9
$UCSORTHOVIEW
 70
     0
  9
$UCSORGTOP
 10
0.0
 20
0.0
 30
0.0
  9
$UCSORGBOTTOM
 10
0.0
 20
0.0
 30
0.0
  9
$UCSORGLEFT
 10
0.0
 20
0.0
 30
0.0
  9
$UCSORGRIGHT
 10
0.0
 20
0.0
 30
0.0
  9
$UCSORGFRONT
 10
0.0
 20
0.0
 30
0.0
  9
$UCSORGBACK
 10
0.0
 20
0.0
 30
0.0
  9
$PUCSBASE
  2

  9
$PUCSNAME
  2

  9
$PUCSORG
 10
0.0
 20
0.0
 30
0.0
  9
$PUCSXDIR
 10
1.0
 20
0.0
 30
0.0
  9
$PUCSYDIR
 10
0.0
 20
1.0
 30
0.0
  9
$PUCSORTHOREF
  2

  9
$PUCSORTHOVIEW
 70
     0
  9
$PUCSORGTOP
 10
0.0
 20
0.0
 30
0.0
  9
$PUCSORGBOTTOM
 10
0.0
 20
0.0
 30
0.0
  9
$PUCSORGLEFT
 10
0.0
 20
0.0
 30
0.0
  9
$PUCSORGRIGHT
 10
0.0
 20
0.0
 30
0.0
  9
$PUCSORGFRONT
 10
0.0
 20
0.0
 30
0.0
  9
$PUCSORGBACK
 10
0.0
 20
0.0
 30
0.0
  9
$USERI1
 70
     0
  9
$USERI2
 70
     0
  9
$USERI3
 70
     0
  9
$USERI4
 70
     0
  9
$USERI5
 70
     0
  9
$USERR1
 40
0.0
  9
$USERR2
 40
0.0
  9
$USERR3
 40
0.0
  9
$USERR4
 40
0.0
  9
$USERR5
 40
0.0
  9
$WORLDVIEW
 70
     1
  9
$SHADEDGE
 70
     3
  9
$SHADEDIF
 70
    70
  9
$TILEMODE
 70
     1
  9
$MAXACTVP
 70
    64
  9
$PINSBASE
 10
0.0
 20
0.0
 30
0.0
  9
$PLIMCHECK
 70
     0
  9
$PEXTMIN
 10
1.000000000000000E+20
 20
1.000000000000000E+20
 30
1.000000000000000E+20
  9
$PEXTMAX
 10
-1.000000000000000E+20
 20
-1.000000000000000E+20
 30
-1.000000000000000E+20
  9
$PLIMMIN
 10
0.0
 20
0.0
  9
$PLIMMAX
 10
12.0
 20
9.0
  9
$UNITMODE
 70
     0
  9
$VISRETAIN
 70
     1
  9
$PLINEGEN
 70
     0
  9
$PSLTSCALE
 70
     1
  9
$TREEDEPTH
 70
  3020
  9
$CMLSTYLE
  2
Standard
  9
$CMLJUST
 70
     0
  9
$CMLSCALE
 40
1.0
  9
$PROXYGRAPHICS
 70
     1
  9
$MEASUREMENT
 70
     0
  9
$CELWEIGHT
370
    -1
  9
$ENDCAPS
280
     0
  9
$JOINSTYLE
280
     0
  9
$LWDISPLAY
290
     1
  9
$INSUNITS
 70
     4
  9
$HYPERLINKBASE
  1

  9
$STYLESHEET
  1

  9
$XEDIT
290
     1
  9
$CEPSNTYPE
380
     0
  9
$PSTYLEMODE
290
     1
  9
$FINGERPRINTGUID
  2
{3407D79E-6643-4CC9-A9D9-0B6CC301F3D8}
  9
$VERSIONGUID
  2
{FAEB1C32-E019-11D5-929B-00C0DF256EC4}
  9
$EXTNAMES
290
     1
  9
$PSVPSCALE
 40
0.0
  9
$OLESTARTUP
290
     0
  9
$SORTENTS
280
   127
  9
$INDEXCTL
280
     0
  9
$HIDETEXT
280
     1
  9
$XCLIPFRAME
280
     2
  9
$HALOGAP
280
     0
  9
$OBSCOLOR
 70
   257
  9
$OBSLTYPE
280
     0
  9
$INTERSECTIONDISPLAY
280
     0
  9
$INTERSECTIONCOLOR
 70
   257
  9
$DIMASSOC
280
     2
  9
$PROJECTNAME
  1

  9
$CAMERADISPLAY
290
     0
  9
$LENSLENGTH
 40
50.0
  9
$CAMERAHEIGHT
 40
0.0
  9
$STEPSPERSEC
 40
2.0
  9
$STEPSIZE
 40
6.0
  9
$3DDWFPREC
 40
2.0
  9
$PSOLWIDTH
 40
0.25
  9
$PSOLHEIGHT
 40
4.0
  9
$LOFTANG1
 40
1.570796326794897
  9
$LOFTANG2
 40
1.570796326794897
  9
$LOFTMAG1
 40
0.0
  9
$LOFTMAG2
 40
0.0
  9
$LOFTPARAM
 70
     7
  9
$LOFTNORMALS
280
     1
  9
$LATITUDE
 40
37.795
  9
$LONGITUDE
 40
-122.394
  9
$NORTHDIRECTION
 40
0.0
  9
$TIMEZONE
 70
 -8000
  9
$LIGHTGLYPHDISPLAY
280
     1
  9
$TILEMODELIGHTSYNCH
280
     1
  9
$CMATERIAL
347
3C
  9
$SOLIDHIST
280
     1
  9
$SHOWHIST
280
     1
  9
$DWFFRAME
280
     2
  9
$DGNFRAME
280
     2
  9
$REALWORLDSCALE
290
     1
  9
$INTERFERECOLOR
 62
   256
  9
$CSHADOW
280
     0
  9
$SHADOWPLANELOCATION
 40
0.0
  0
ENDSEC
  0
SECTION
  2
CLASSES
  0
CLASS
  1
ACDBDICTIONARYWDFLT
  2
AcDbDictionaryWithDefault
  3
ObjectDBX Classes
 90
        0
 91
        4
280
     0
281
     0
  0
CLASS
  1
VISUALSTYLE
  2
AcDbVisualStyle
  3
ObjectDBX Classes
 90
     4095
 91
        4
280
     0
281
     0
  0
CLASS
  1
MATERIAL
  2
AcDbMaterial
  3
ObjectDBX Classes
 90
     1153
 91
        4
280
     0
281
     0
  0
CLASS
  1
SUN
  2
AcDbSun
  3
SCENEOE
 90
     1024
 91
        4
280
     0
281
     0
  0
ENDSEC
  0
SECTION
  2
TABLES
  0
TABLE
  2
VPORT
  5
8
330
0
100
AcDbSymbolTable
 70
     1
  0
VPORT
  5
29
330
8
100
AcDbSymbolTableRecord
100
AcDbViewportTableRecord
  2
*Active
 70
     0
 10
0.0
 20
0.0
 11
1.0
 21
1.0
 12
0.0
 22
0.0
 13
0.0
 23
0.0
 14
0.5
 24
0.5
 15
0.5
 25
0.5
 16
0.0
 26
0.0
 36
1.0
 17
209.9999999475068
 27
-148.4999999628701
 37
0.0
 40
296.9999999257402
 41
1.414141414141507
 42
50.0
 43
0.0
 44
0.0
 50
0.0
 51
0.0
 71
     0
 72
   100
 73
     1
 74
     3
 75
     0
 76
     0
 77
     0
 78
     0
281
     0
 65
     1
110
0.0
120
0.0
130
0.0
111
1.0
121
0.0
131
0.0
112
0.0
122
1.0
132
0.0
 79
     0
146
0.0
 60
     3
 61
     5
292
     1
282
     1
141
0.0
142
0.0
 63
   250
361
3F
  0
ENDTAB
  0
TABLE
  2
LTYPE
  5
5
330
0
100
AcDbSymbolTable
 70
     1
  0
LTYPE
  5
14
330
5
100
AcDbSymbolTableRecord
100
AcDbLinetypeTableRecord
  2
ByBlock
 70
     0
  3

 72
    65
 73
     0
 40
0.0
  0
LTYPE
  5
15
330
5
100
AcDbSymbolTableRecord
100
AcDbLinetypeTableRecord
  2
ByLayer
 70
     0
  3

 72
    65
 73
     0
 40
0.0
  0
LTYPE
  5
16
330
5
100
AcDbSymbolTableRecord
100
AcDbLinetypeTableRecord
  2
Continuous
 70
     0
  3
Solid line
 72
    65
 73
     0
 40
0.0
  0
ENDTAB
  0
TABLE
  2
LAYER
  5
2
330
0
100
AcDbSymbolTable
 70
     2
  0
LAYER
  5
10
330
2
100
AcDbSymbolTableRecord
100
AcDbLayerTableRecord
  2
0
 70
     0
 62
     7
  6
Continuous
370
    -3
390
F
347
3E
  0
LAYER
  5
40
330
2
100
AcDbSymbolTableRecord
100
AcDbLayerTableRecord
  2
Layer 1
 70
     0
 62
     7
  6
Continuous
370
    -3
390
F
347
3E
  0
ENDTAB
  0
TABLE
  2
STYLE
  5
3
330
0
100
AcDbSymbolTable
 70
     1
  0
STYLE
  5
11
330
3
100
AcDbSymbolTableRecord
100
AcDbTextStyleTableRecord
  2
Standard
 70
     0
 40
0.0
 41
1.0
 50
0.0
 71
     0
 42
0.2
  3
txt
  4

  0
ENDTAB
  0
TABLE
  2
VIEW
  5
6
330
0
100
AcDbSymbolTable
 70
     0
  0
ENDTAB
  0
TABLE
  2
UCS
  5
7
330
0
100
AcDbSymbolTable
 70
     0
  0
ENDTAB
  0
TABLE
  2
APPID
  5
9
330
0
100
AcDbSymbolTable
 70
     1
  0
APPID
  5
12
330
9
100
AcDbSymbolTableRecord
100
AcDbRegAppTableRecord
  2
ACAD
 70
     0
  0
ENDTAB
  0
TABLE
  2
DIMSTYLE
  5
A
330
0
100
AcDbSymbolTable
 70
     1
100
AcDbDimStyleTable
  0
DIMSTYLE
105
27
330
A
100
AcDbSymbolTableRecord
100
AcDbDimStyleTableRecord
  2
Standard
 70
     0
178
     0
340
11
  0
ENDTAB
  0
TABLE
  2
BLOCK_RECORD
  5
1
330
0
100
AcDbSymbolTable
 70
    20
  0
BLOCK_RECORD
  5
1F
330
1
100
AcDbSymbolTableRecord
100
AcDbBlockTableRecord
  2
*Model_Space
340
22
 70
     0
280
     1
281
     0
  0
BLOCK_RECORD
  5
1B
330
1
100
AcDbSymbolTableRecord
100
AcDbBlockTableRecord
  2
*Paper_Space
340
1E
 70
     0
280
     1
281
     0
  0
BLOCK_RECORD
  5
23
330
1
100
AcDbSymbolTableRecord
100
AcDbBlockTableRecord
  2
*Paper_Space0
340
26
 70
     0
280
     1
281
     0
  0
BLOCK_RECORD
  5
41
330
1
100
AcDbSymbolTableRecord
100
AcDbBlockTableRecord
  2
block 2
340
0
102
{BLKREFS
331
42
102
}
 70
     0
280
     1
281
     0
  0
BLOCK_RECORD
  5
46
330
1
100
AcDbSymbolTableRecord
100
AcDbBlockTableRecord
  2
block 3
340
0
102
{BLKREFS
331
47
102
}
 70
     0
280
     1
281
     0
  0
BLOCK_RECORD
  5
4F
330
1
100
AcDbSymbolTableRecord
100
AcDbBlockTableRecord
  2
block 4
340
0
102
{BLKREFS
331
50
102
}
 70
     0
280
     1
281
     0
  0
BLOCK_RECORD
  5
54
330
1
100
AcDbSymbolTableRecord
100
AcDbBlockTableRecord
  2
block 5
340
0
102
{BLKREFS
331
55
102
}
 70
     0
280
     1
281
     0
  0
BLOCK_RECORD
  5
58
330
1
100
AcDbSymbolTableRecord
100
AcDbBlockTableRecord
  2
block 6
340
0
102
{BLKREFS
331
59
102
}
 70
     0
280
     1
281
     0
  0
BLOCK_RECORD
  5
64
330
1
100
AcDbSymbolTableRecord
100
AcDbBlockTableRecord
  2
block 7
340
0
102
{BLKREFS
331
65
102
}
 70
     0
280
     1
281
     0
  0
BLOCK_RECORD
  5
6A
330
1
100
AcDbSymbolTableRecord
100
AcDbBlockTableRecord
  2
block 8
340
0
102
{BLKREFS
331
6B
102
}
 70
     0
280
     1
281
     0
  0
BLOCK_RECORD
  5
70
330
1
100
AcDbSymbolTableRecord
100
AcDbBlockTableRecord
  2
block 9
340
0
102
{BLKREFS
331
71
102
}
 70
     0
280
     1
281
     0
  0
BLOCK_RECORD
  5
7C
330
1
100
AcDbSymbolTableRecord
100
AcDbBlockTableRecord
  2
block 10
340
0
102
{BLKREFS
331
7D
102
}
 70
     0
280
     1
281
     0
  0
BLOCK_RECORD
  5
81
330
1
100
AcDbSymbolTableRecord
100
AcDbBlockTableRecord
  2
block 11
340
0
102
{BLKREFS
331
82
102
}
 70
     0
280
     1
281
     0
  0
BLOCK_RECORD
  5
85
330
1
100
AcDbSymbolTableRecord
100
AcDbBlockTableRecord
  2
block 12
340
0
102
{BLKREFS
331
86
102
}
 70
     0
280
     1
281
     0
  0
BLOCK_RECORD
  5
91
330
1
100
AcDbSymbolTableRecord
100
AcDbBlockTableRecord
  2
block 13
340
0
102
{BLKREFS
331
92
102
}
 70
     0
280
     1
281
     0
  0
BLOCK_RECORD
  5
97
330
1
100
AcDbSymbolTableRecord
100
AcDbBlockTableRecord
  2
block 14
340
0
102
{BLKREFS
331
98
102
}
 70
     0
280
     1
281
     0
  0
BLOCK_RECORD
  5
9D
330
1
100
AcDbSymbolTableRecord
100
AcDbBlockTableRecord
  2
block 15
340
0
102
{BLKREFS
331
9E
102
}
 70
     0
280
     1
281
     0
  0
BLOCK_RECORD
  5
A1
330
1
100
AcDbSymbolTableRecord
100
AcDbBlockTableRecord
  2
block 16
340
0
102
{BLKREFS
331
A2
102
}
 70
     0
280
     1
281
     0
  0
BLOCK_RECORD
  5
AD
330
1
100
AcDbSymbolTableRecord
100
AcDbBlockTableRecord
  2
block 17
340
0
102
{BLKREFS
331
AE
102
}
 70
     0
280
     1
281
     0
  0
BLOCK_RECORD
  5
B1
330
1
100
AcDbSymbolTableRecord
100
AcDbBlockTableRecord
  2
block 18
340
0
102
{BLKREFS
331
B2
102
}
 70
     0
280
     1
281
     0
  0
BLOCK_RECORD
  5
BD
330
1
100
AcDbSymbolTableRecord
100
AcDbBlockTableRecord
  2
block 19
340
0
102
{BLKREFS
331
BE
102
}
 70
     0
280
     1
281
     0
  0
BLOCK_RECORD
  5
C1
330
1
100
AcDbSymbolTableRecord
100
AcDbBlockTableRecord
  2
block 20
340
0
102
{BLKREFS
331
C2
102
}
 70
     0
280
     1
281
     0
  0
ENDTAB
  0
ENDSEC
  0
SECTION
  2
BLOCKS
  0
BLOCK
  5
20
330
1F
100
AcDbEntity
  8
0
100
AcDbBlockBegin
  2
*Model_Space
 70
     0
 10
0.0
 20
0.0
 30
0.0
  3
*Model_Space
  1

  0
ENDBLK
  5
21
330
1F
100
AcDbEntity
  8
0
100
AcDbBlockEnd
  0
BLOCK
  5
1C
330
1B
100
AcDbEntity
 67
     1
  8
0
100
AcDbBlockBegin
  2
*Paper_Space
 70
     0
 10
0.0
 20
0.0
 30
0.0
  3
*Paper_Space
  1

  0
ENDBLK
  5
1D
330
1B
100
AcDbEntity
 67
     1
  8
0
100
AcDbBlockEnd
  0
BLOCK
  5
24
330
23
100
AcDbEntity
  8
0
100
AcDbBlockBegin
  2
*Paper_Space0
 70
     0
 10
0.0
 20
0.0
 30
0.0
  3
*Paper_Space0
  1

  0
ENDBLK
  5
25
330
23
100
AcDbEntity
  8
0
100
AcDbBlockEnd
  0
BLOCK
  5
43
330
41
100
AcDbEntity
  8
0
100
AcDbBlockBegin
  2
block 2
 70
     0
 10
0.0
 20
0.0
 30
0.0
  3
block 2
  1

  0
SPLINE
  5
45
330
41
100
AcDbEntity
  8
Layer 1
 62
   178
420
        1
370
    20
100
AcDbSpline
210
0.0
220
0.0
230
1.0
 70
    11
 71
     3
 72
   509
 73
   505
 74
     0
 42
0.0000000001
 43
0.0000000001
 12
1.0
 22
0.0
 32
0.0
 13
1.0
 23
0.0
 33
0.0
 40
0.0
 40
0.0
 40
0.0
 40
0.0
 40
1.0
 40
1.0
 40
1.0
 40
2.0
 40
2.0
 40
2.0
 40
3.0
 40
3.0
 40
3.0
 40
4.0
 40
4.0
 40
4.0
 40
5.0
 40
5.0
 40
5.0
 40
6.0
 40
6.0
 40
6.0
 40
7.0
 40
7.0
 40
7.0
 40
8.0
 40
8.0
 40
8.0
 40
9.0
 40
9.0
 40
9.0
 40
10.0
 40
10.0
 40
10.0
 40
11.0
 40
11.0
 40
11.0
 40
12.0
 40
12.0
 40
12.0
 40
13.0
 40
13.0
 40
13.0
 40
14.0
 40
14.0
 40
14.0
 40
15.0
 40
15.0
 40
15.0
 40
16.0
 40
16.0
 40
16.0
 40
17.0
 40
17.0
 40
17.0
 40
18.0
 40
18.0
 40
18.0
 40
19.0
 40
19.0
 40
19.0
 40
20.0
 40
20.0
 40
20.0
 40
21.0
 40
21.0
 40
21.0
 40
22.0
 40
22.0
 40
22.0
 40
23.0
 40
23.0
 40
23.0
 40
24.0
 40
24.0
 40
24.0
 40
25.0
 40
25.0
 40
25.0
 40
26.0
 40
26.0
 40
26.0
 40
27.0
 40
27.0
 40
27.0
 40
28.0
 40
28.0
 40
28.0
 40
29.0
 40
29.0
 40
29.0
 40
30.0
 40
30.0
 40
30.0
 40
31.0
 40
31.0
 40
31.0
 40
32.0
 40
32.0
 40
32.0
 40
33.0
 40
33.0
 40
33.0
 40
34.0
 40
34.0
 40
34.0
 40
35.0
 40
35.0
 40
35.0
 40
36.0
 40
36.0
 40
36.0
 40
37.0
 40
37.0
 40
37.0
 40
38.0
 40
38.0
 40
38.0
 40
39.0
 40
39.0
 40
39.0
 40
40.0
 40
40.0
 40
40.0
 40
41.0
 40
41.0
 40
41.0
 40
42.0
 40
42.0
 40
42.0
 40
43.0
 40
43.0
 40
43.0
 40
44.0
 40
44.0
 40
44.0
 40
45.0
 40
45.0
 40
45.0
 40
46.0
 40
46.0
 40
46.0
 40
47.0
 40
47.0
 40
47.0
 40
48.0
 40
48.0
 40
48.0
 40
49.0
 40
49.0
 40
49.0
 40
50.0
 40
50.0
 40
50.0
 40
51.0
 40
51.0
 40
51.0
 40
52.0
 40
52.0
 40
52.0
 40
53.0
 40
53.0
 40
53.0
 40
54.0
 40
54.0
 40
54.0
 40
55.0
 40
55.0
 40
55.0
 40
56.0
 40
56.0
 40
56.0
 40
57.0
 40
57.0
 40
57.0
 40
58.0
 40
58.0
 40
58.0
 40
59.0
 40
59.0
 40
59.0
 40
60.0
 40
60.0
 40
60.0
 40
61.0
 40
61.0
 40
61.0
 40
62.0
 40
62.0
 40
62.0
 40
63.0
 40
63.0
 40
63.0
 40
64.0
 40
64.0
 40
64.0
 40
65.0
 40
65.0
 40
65.0
 40
66.0
 40
66.0
 40
66.0
 40
67.0
 40
67.0
 40
67.0
 40
68.0
 40
68.0
 40
68.0
 40
69.0
 40
69.0
 40
69.0
 40
70.0
 40
70.0
 40
70.0
 40
71.0
 40
71.0
 40
71.0
 40
72.0
 40
72.0
 40
72.0
 40
73.0
 40
73.0
 40
73.0
 40
74.0
 40
74.0
 40
74.0
 40
75.0
 40
75.0
 40
75.0
 40
76.0
 40
76.0
 40
76.0
 40
77.0
 40
77.0
 40
77.0
 40
78.0
 40
78.0
 40
78.0
 40
79.0
 40
79.0
 40
79.0
 40
80.0
 40
80.0
 40
80.0
 40
81.0
 40
81.0
 40
81.0
 40
82.0
 40
82.0
 40
82.0
 40
83.0
 40
83.0
 40
83.0
 40
84.0
 40
84.0
 40
84.0
 40
85.0
 40
85.0
 40
85.0
 40
86.0
 40
86.0
 40
86.0
 40
87.0
 40
87.0
 40
87.0
 40
88.0
 40
88.0
 40
88.0
 40
89.0
 40
89.0
 40
89.0
 40
90.0
 40
90.0
 40
90.0
 40
91.0
 40
91.0
 40
91.0
 40
92.0
 40
92.0
 40
92.0
 40
93.0
 40
93.0
 40
93.0
 40
94.0
 40
94.0
 40
94.0
 40
95.0
 40
95.0
 40
95.0
 40
96.0
 40
96.0
 40
96.0
 40
97.0
 40
97.0
 40
97.0
 40
98.0
 40
98.0
 40
98.0
 40
99.0
 40
99.0
 40
99.0
 40
100.0
 40
100.0
 40
100.0
 40
101.0
 40
101.0
 40
101.0
 40
102.0
 40
102.0
 40
102.0
 40
103.0
 40
103.0
 40
103.0
 40
104.0
 40
104.0
 40
104.0
 40
105.0
 40
105.0
 40
105.0
 40
106.0
 40
106.0
 40
106.0
 40
107.0
 40
107.0
 40
107.0
 40
108.0
 40
108.0
 40
108.0
 40
109.0
 40
109.0
 40
109.0
 40
110.0
 40
110.0
 40
110.0
 40
111.0
 40
111.0
 40
111.0
 40
112.0
 40
112.0
 40
112.0
 40
113.0
 40
113.0
 40
113.0
 40
114.0
 40
114.0
 40
114.0
 40
115.0
 40
115.0
 40
115.0
 40
116.0
 40
116.0
 40
116.0
 40
117.0
 40
117.0
 40
117.0
 40
118.0
 40
118.0
 40
118.0
 40
119.0
 40
119.0
 40
119.0
 40
120.0
 40
120.0
 40
120.0
 40
121.0
 40
121.0
 40
121.0
 40
122.0
 40
122.0
 40
122.0
 40
123.0
 40
123.0
 40
123.0
 40
124.0
 40
124.0
 40
124.0
 40
125.0
 40
125.0
 40
125.0
 40
126.0
 40
126.0
 40
126.0
 40
127.0
 40
127.0
 40
127.0
 40
128.0
 40
128.0
 40
128.0
 40
129.0
 40
129.0
 40
129.0
 40
130.0
 40
130.0
 40
130.0
 40
131.0
 40
131.0
 40
131.0
 40
132.0
 40
132.0
 40
132.0
 40
133.0
 40
133.0
 40
133.0
 40
134.0
 40
134.0
 40
134.0
 40
135.0
 40
135.0
 40
135.0
 40
136.0
 40
136.0
 40
136.0
 40
137.0
 40
137.0
 40
137.0
 40
138.0
 40
138.0
 40
138.0
 40
139.0
 40
139.0
 40
139.0
 40
140.0
 40
140.0
 40
140.0
 40
141.0
 40
141.0
 40
141.0
 40
142.0
 40
142.0
 40
142.0
 40
143.0
 40
143.0
 40
143.0
 40
144.0
 40
144.0
 40
144.0
 40
145.0
 40
145.0
 40
145.0
 40
146.0
 40
146.0
 40
146.0
 40
147.0
 40
147.0
 40
147.0
 40
148.0
 40
148.0
 40
148.0
 40
149.0
 40
149.0
 40
149.0
 40
150.0
 40
150.0
 40
150.0
 40
151.0
 40
151.0
 40
151.0
 40
152.0
 40
152.0
 40
152.0
 40
153.0
 40
153.0
 40
153.0
 40
154.0
 40
154.0
 40
154.0
 40
155.0
 40
155.0
 40
155.0
 40
156.0
 40
156.0
 40
156.0
 40
157.0
 40
157.0
 40
157.0
 40
158.0
 40
158.0
 40
158.0
 40
159.0
 40
159.0
 40
159.0
 40
160.0
 40
160.0
 40
160.0
 40
161.0
 40
161.0
 40
161.0
 40
162.0
 40
162.0
 40
162.0
 40
163.0
 40
163.0
 40
163.0
 40
164.0
 40
164.0
 40
164.0
 40
165.0
 40
165.0
 40
165.0
 40
166.0
 40
166.0
 40
166.0
 40
167.0
 40
167.0
 40
167.0
 40
168.0
 40
168.0
 40
168.0
 40
168.0
 10
9.416915939180434
 20
-101.9898205999301
 30
0.0
 10
9.416915939180434
 20
-101.9898205999301
 30
0.0
 10
10.81690975650457
 20
-101.9898205999301
 30
0.0
 10
10.81690975650457
 20
-101.9898205999301
 30
0.0
 10
10.91691585436552
 20
-101.9898205999301
 30
0.0
 10
10.81690975650457
 20
-101.8898221314632
 30
0.0
 10
10.81690975650457
 20
-101.9898205999301
 30
0.0
 10
10.81690975650457
 20
-101.9898205999301
 30
0.0
 10
10.81690975650457
 20
-104.8898219618334
 30
0.0
 10
10.81690975650457
 20
-104.8898219618334
 30
0.0
 10
10.81690975650457
 20
-104.9448222638993
 30
0.0
 10
10.86190792290554
 20
-104.9898204303002
 30
0.0
 10
10.91691585436552
 20
-104.9898204303002
 30
0.0
 10
10.91691585436552
 20
-104.9898204303002
 30
0.0
 10
16.91691551510587
 20
-104.9898204303002
 30
0.0
 10
16.91691551510587
 20
-104.9898204303002
 30
0.0
 10
16.97190818777765
 20
-104.9898204303002
 30
0.0
 10
17.01690635417862
 20
-104.9448222638993
 30
0.0
 10
17.01690635417862
 20
-104.8898219618334
 30
0.0
 10
17.01690635417862
 20
-104.8898219618334
 30
0.0
 10
17.01690635417862
 20
-101.9898205999301
 30
0.0
 10
17.01690635417862
 20
-101.9898205999301
 30
0.0
 10
17.01690635417862
 20
-101.8898221314632
 30
0.0
 10
16.91691551510587
 20
-101.9898205999301
 30
0.0
 10
17.01690635417862
 20
-101.9898205999301
 30
0.0
 10
17.01690635417862
 20
-101.9898205999301
 30
0.0
 10
22.81690907798526
 20
-101.9898205999301
 30
0.0
 10
22.81690907798526
 20
-101.9898205999301
 30
0.0
 10
22.91691517584621
 20
-101.9898205999301
 30
0.0
 10
22.81690907798526
 20
-101.8898221314632
 30
0.0
 10
22.81690907798526
 20
-101.9898205999301
 30
0.0
 10
22.81690907798526
 20
-101.9898205999301
 30
0.0
 10
22.81690907798526
 20
-104.8898219618334
 30
0.0
 10
22.81690907798526
 20
-104.8898219618334
 30
0.0
 10
22.81690907798526
 20
-104.9448222638993
 30
0.0
 10
22.86190724438623
 20
-104.9898204303002
 30
0.0
 10
22.91691517584621
 20
-104.9898204303002
 30
0.0
 10
22.91691517584621
 20
-104.9898204303002
 30
0.0
 10
28.91691483658656
 20
-104.9898204303002
 30
0.0
 10
28.91691483658656
 20
-104.9898204303002
 30
0.0
 10
28.97190750925835
 20
-104.9898204303002
 30
0.0
 10
29.01690567565931
 20
-104.9448222638993
 30
0.0
 10
29.01690567565931
 20
-104.8898219618334
 30
0.0
 10
29.01690567565931
 20
-104.8898219618334
 30
0.0
 10
29.01690567565931
 20
-101.9898205999301
 30
0.0
 10
29.01690567565931
 20
-101.9898205999301
 30
0.0
 10
29.01690567565931
 20
-101.8898221314632
 30
0.0
 10
28.91691483658656
 20
-101.9898205999301
 30
0.0
 10
29.01690567565931
 20
-101.9898205999301
 30
0.0
 10
29.01690567565931
 20
-101.9898205999301
 30
0.0
 10
34.81690839946596
 20
-101.9898205999301
 30
0.0
 10
34.81690839946596
 20
-101.9898205999301
 30
0.0
 10
34.91691449732691
 20
-101.9898205999301
 30
0.0
 10
34.81690839946596
 20
-101.8898221314632
 30
0.0
 10
34.81690839946596
 20
-101.9898205999301
 30
0.0
 10
34.81690839946596
 20
-101.9898205999301
 30
0.0
 10
34.81690839946596
 20
-104.8898219618334
 30
0.0
 10
34.81690839946596
 20
-104.8898219618334
 30
0.0
 10
34.81690839946596
 20
-104.9448222638993
 30
0.0
 10
34.86190656586692
 20
-104.9898204303002
 30
0.0
 10
34.91691449732691
 20
-104.9898204303002
 30
0.0
 10
34.91691449732691
 20
-104.9898204303002
 30
0.0
 10
40.91691415806726
 20
-104.9898204303002
 30
0.0
 10
40.91691415806726
 20
-104.9898204303002
 30
0.0
 10
40.97190683073904
 20
-104.9898204303002
 30
0.0
 10
41.01690499714001
 20
-104.9448222638993
 30
0.0
 10
41.01690499714001
 20
-104.8898219618334
 30
0.0
 10
41.01690499714001
 20
-104.8898219618334
 30
0.0
 10
41.01690499714001
 20
-101.9898205999301
 30
0.0
 10
41.01690499714001
 20
-101.9898205999301
 30
0.0
 10
41.01690499714001
 20
-101.8898221314632
 30
0.0
 10
40.91691415806726
 20
-101.9898205999301
 30
0.0
 10
41.01690499714001
 20
-101.9898205999301
 30
0.0
 10
41.01690499714001
 20
-101.9898205999301
 30
0.0
 10
46.81690772094665
 20
-101.9898205999301
 30
0.0
 10
46.81690772094665
 20
-101.9898205999301
 30
0.0
 10
46.9169138188076
 20
-101.9898205999301
 30
0.0
 10
46.81690772094665
 20
-101.8898221314632
 30
0.0
 10
46.81690772094665
 20
-101.9898205999301
 30
0.0
 10
46.81690772094665
 20
-101.9898205999301
 30
0.0
 10
46.81690772094665
 20
-104.8898219618334
 30
0.0
 10
46.81690772094665
 20
-104.8898219618334
 30
0.0
 10
46.81690772094665
 20
-104.9448222638993
 30
0.0
 10
46.86190588734762
 20
-104.9898204303002
 30
0.0
 10
46.9169138188076
 20
-104.9898204303002
 30
0.0
 10
46.9169138188076
 20
-104.9898204303002
 30
0.0
 10
52.91691347954795
 20
-104.9898204303002
 30
0.0
 10
52.91691347954795
 20
-104.9898204303002
 30
0.0
 10
52.97190615221973
 20
-104.9898204303002
 30
0.0
 10
53.0169043186207
 20
-104.9448222638993
 30
0.0
 10
53.0169043186207
 20
-104.8898219618334
 30
0.0
 10
53.0169043186207
 20
-104.8898219618334
 30
0.0
 10
53.0169043186207
 20
-101.9898205999301
 30
0.0
 10
53.0169043186207
 20
-101.9898205999301
 30
0.0
 10
53.0169043186207
 20
-101.8898221314632
 30
0.0
 10
52.91691347954795
 20
-101.9898205999301
 30
0.0
 10
53.0169043186207
 20
-101.9898205999301
 30
0.0
 10
53.0169043186207
 20
-101.9898205999301
 30
0.0
 10
58.81690704242735
 20
-101.9898205999301
 30
0.0
 10
58.81690704242735
 20
-101.9898205999301
 30
0.0
 10
58.91691314028829
 20
-101.9898205999301
 30
0.0
 10
58.81690704242735
 20
-101.8898221314632
 30
0.0
 10
58.81690704242735
 20
-101.9898205999301
 30
0.0
 10
58.81690704242735
 20
-101.9898205999301
 30
0.0
 10
58.81690704242735
 20
-104.8898219618334
 30
0.0
 10
58.81690704242735
 20
-104.8898219618334
 30
0.0
 10
58.81690704242735
 20
-104.9448222638993
 30
0.0
 10
58.86190520882831
 20
-104.9898204303002
 30
0.0
 10
58.91691314028829
 20
-104.9898204303002
 30
0.0
 10
58.91691314028829
 20
-104.9898204303002
 30
0.0
 10
64.91691280102864
 20
-104.9898204303002
 30
0.0
 10
64.91691280102864
 20
-104.9898204303002
 30
0.0
 10
64.97190547370043
 20
-104.9898204303002
 30
0.0
 10
65.01690364010139
 20
-104.9448222638993
 30
0.0
 10
65.01690364010139
 20
-104.8898219618334
 30
0.0
 10
65.01690364010139
 20
-104.8898219618334
 30
0.0
 10
65.01690364010139
 20
-101.9898205999301
 30
0.0
 10
65.01690364010139
 20
-101.9898205999301
 30
0.0
 10
65.01690364010139
 20
-101.8898221314632
 30
0.0
 10
64.91691280102864
 20
-101.9898205999301
 30
0.0
 10
65.01690364010139
 20
-101.9898205999301
 30
0.0
 10
65.01690364010139
 20
-101.9898205999301
 30
0.0
 10
70.81690636390803
 20
-101.9898205999301
 30
0.0
 10
70.81690636390803
 20
-101.9898205999301
 30
0.0
 10
70.91691246176899
 20
-101.9898205999301
 30
0.0
 10
70.81690636390803
 20
-101.8898221314632
 30
0.0
 10
70.81690636390803
 20
-101.9898205999301
 30
0.0
 10
70.81690636390803
 20
-101.9898205999301
 30
0.0
 10
70.81690636390803
 20
-104.8898219618334
 30
0.0
 10
70.81690636390803
 20
-104.8898219618334
 30
0.0
 10
70.81690636390803
 20
-104.9448222638993
 30
0.0
 10
70.861904530309
 20
-104.9898204303002
 30
0.0
 10
70.91691246176899
 20
-104.9898204303002
 30
0.0
 10
70.91691246176899
 20
-104.9898204303002
 30
0.0
 10
76.91691212250933
 20
-104.9898204303002
 30
0.0
 10
76.91691212250933
 20
-104.9898204303002
 30
0.0
 10
76.97190479518112
 20
-104.9898204303002
 30
0.0
 10
77.01690296158209
 20
-104.9448222638993
 30
0.0
 10
77.01690296158209
 20
-104.8898219618334
 30
0.0
 10
77.01690296158209
 20
-104.8898219618334
 30
0.0
 10
77.01690296158209
 20
-101.9898205999301
 30
0.0
 10
77.01690296158209
 20
-101.9898205999301
 30
0.0
 10
77.01690296158209
 20
-101.8898221314632
 30
0.0
 10
76.91691212250933
 20
-101.9898205999301
 30
0.0
 10
77.01690296158209
 20
-101.9898205999301
 30
0.0
 10
77.01690296158209
 20
-101.9898205999301
 30
0.0
 10
78.41691203769442
 20
-101.9898205999301
 30
0.0
 10
78.41691203769442
 20
-101.9898205999301
 30
0.0
 10
78.4719047103662
 20
-101.9898205999301
 30
0.0
 10
78.51690287676718
 20
-101.9448224335291
 30
0.0
 10
78.51690287676718
 20
-101.8898221314632
 30
0.0
 10
78.51690287676718
 20
-101.8898221314632
 30
0.0
 10
78.51690287676718
 20
-95.98982093918973
 30
0.0
 10
78.51690287676718
 20
-95.98982093918973
 30
0.0
 10
78.51690287676718
 20
-95.88982247072288
 30
0.0
 10
78.41691203769442
 20
-95.98982093918973
 30
0.0
 10
78.51690287676718
 20
-95.98982093918973
 30
0.0
 10
78.51690287676718
 20
-95.98982093918973
 30
0.0
 10
81.41691186806459
 20
-95.98982093918973
 30
0.0
 10
81.41691186806459
 20
-95.98982093918973
 30
0.0
 10
81.47190454073638
 20
-95.98982093918973
 30
0.0
 10
81.51690270713735
 20
-95.94482277278875
 30
0.0
 10
81.51690270713735
 20
-95.88982247072288
 30
0.0
 10
81.51690270713735
 20
-95.88982247072288
 30
0.0
 10
81.51690270713735
 20
-89.88982280998253
 30
0.0
 10
81.51690270713735
 20
-89.88982280998253
 30
0.0
 10
81.51690270713735
 20
-89.83482250791664
 30
0.0
 10
81.47190454073638
 20
-89.78982434151567
 30
0.0
 10
81.41691186806459
 20
-89.78982434151567
 30
0.0
 10
81.41691186806459
 20
-89.78982434151567
 30
0.0
 10
78.51690287676718
 20
-89.78982434151567
 30
0.0
 10
78.51690287676718
 20
-89.78982434151567
 30
0.0
 10
78.41691203769442
 20
-89.78982434151567
 30
0.0
 10
78.51690287676718
 20
-89.88982280998253
 30
0.0
 10
78.51690287676718
 20
-89.78982434151567
 30
0.0
 10
78.51690287676718
 20
-89.78982434151567
 30
0.0
 10
78.51690287676718
 20
-83.98982161770904
 30
0.0
 10
78.51690287676718
 20
-83.98982161770904
 30
0.0
 10
78.51690287676718
 20
-83.88982314924218
 30
0.0
 10
78.41691203769442
 20
-83.98982161770904
 30
0.0
 10
78.51690287676718
 20
-83.98982161770904
 30
0.0
 10
78.51690287676718
 20
-83.98982161770904
 30
0.0
 10
81.41691186806459
 20
-83.98982161770904
 30
0.0
 10
81.41691186806459
 20
-83.98982161770904
 30
0.0
 10
81.47190454073638
 20
-83.98982161770904
 30
0.0
 10
81.51690270713735
 20
-83.94482345130807
 30
0.0
 10
81.51690270713735
 20
-83.88982314924218
 30
0.0
 10
81.51690270713735
 20
-83.88982314924218
 30
0.0
 10
81.51690270713735
 20
-77.88982348850183
 30
0.0
 10
81.51690270713735
 20
-77.88982348850183
 30
0.0
 10
81.51690270713735
 20
-77.83482318643595
 30
0.0
 10
81.47190454073638
 20
-77.78982502003498
 30
0.0
 10
81.41691186806459
 20
-77.78982502003498
 30
0.0
 10
81.41691186806459
 20
-77.78982502003498
 30
0.0
 10
78.51690287676718
 20
-77.78982502003498
 30
0.0
 10
78.51690287676718
 20
-77.78982502003498
 30
0.0
 10
78.41691203769442
 20
-77.78982502003498
 30
0.0
 10
78.51690287676718
 20
-77.88982348850183
 30
0.0
 10
78.51690287676718
 20
-77.78982502003498
 30
0.0
 10
78.51690287676718
 20
-77.78982502003498
 30
0.0
 10
78.51690287676718
 20
-71.98982229622834
 30
0.0
 10
78.51690287676718
 20
-71.98982229622834
 30
0.0
 10
78.51690287676718
 20
-71.88982382776149
 30
0.0
 10
78.41691203769442
 20
-71.98982229622834
 30
0.0
 10
78.51690287676718
 20
-71.98982229622834
 30
0.0
 10
78.51690287676718
 20
-71.98982229622834
 30
0.0
 10
81.41691186806459
 20
-71.98982229622834
 30
0.0
 10
81.41691186806459
 20
-71.98982229622834
 30
0.0
 10
81.47190454073638
 20
-71.98982229622834
 30
0.0
 10
81.51690270713735
 20
-71.94482412982737
 30
0.0
 10
81.51690270713735
 20
-71.88982382776149
 30
0.0
 10
81.51690270713735
 20
-71.88982382776149
 30
0.0
 10
81.51690270713735
 20
-65.88982416702115
 30
0.0
 10
81.51690270713735
 20
-65.88982416702115
 30
0.0
 10
81.51690270713735
 20
-65.83482386495525
 30
0.0
 10
81.47190454073638
 20
-65.78982569855428
 30
0.0
 10
81.41691186806459
 20
-65.78982569855428
 30
0.0
 10
81.41691186806459
 20
-65.78982569855428
 30
0.0
 10
78.51690287676718
 20
-65.78982569855428
 30
0.0
 10
78.51690287676718
 20
-65.78982569855428
 30
0.0
 10
78.41691203769442
 20
-65.78982569855428
 30
0.0
 10
78.51690287676718
 20
-65.88982416702115
 30
0.0
 10
78.51690287676718
 20
-65.78982569855428
 30
0.0
 10
78.51690287676718
 20
-65.78982569855428
 30
0.0
 10
78.51690287676718
 20
-59.98982297474765
 30
0.0
 10
78.51690287676718
 20
-59.98982297474765
 30
0.0
 10
78.51690287676718
 20
-59.8898245062808
 30
0.0
 10
78.41691203769442
 20
-59.98982297474765
 30
0.0
 10
78.51690287676718
 20
-59.98982297474765
 30
0.0
 10
78.51690287676718
 20
-59.98982297474765
 30
0.0
 10
81.41691186806459
 20
-59.98982297474765
 30
0.0
 10
81.41691186806459
 20
-59.98982297474765
 30
0.0
 10
81.47190454073638
 20
-59.98982297474765
 30
0.0
 10
81.51690270713735
 20
-59.94482480834668
 30
0.0
 10
81.51690270713735
 20
-59.8898245062808
 30
0.0
 10
81.51690270713735
 20
-59.8898245062808
 30
0.0
 10
81.51690270713735
 20
-53.88982484554045
 30
0.0
 10
81.51690270713735
 20
-53.88982484554045
 30
0.0
 10
81.51690270713735
 20
-53.83482454347456
 30
0.0
 10
81.47190454073638
 20
-53.7898263770736
 30
0.0
 10
81.41691186806459
 20
-53.7898263770736
 30
0.0
 10
81.41691186806459
 20
-53.7898263770736
 30
0.0
 10
78.51690287676718
 20
-53.7898263770736
 30
0.0
 10
78.51690287676718
 20
-53.7898263770736
 30
0.0
 10
78.41691203769442
 20
-53.7898263770736
 30
0.0
 10
78.51690287676718
 20
-53.88982484554045
 30
0.0
 10
78.51690287676718
 20
-53.7898263770736
 30
0.0
 10
78.51690287676718
 20
-53.7898263770736
 30
0.0
 10
78.51690287676718
 20
-47.8898251848001
 30
0.0
 10
78.51690287676718
 20
-47.8898251848001
 30
0.0
 10
78.51690287676718
 20
-47.83482488273422
 30
0.0
 10
78.4719047103662
 20
-47.78982671633325
 30
0.0
 10
78.41691203769442
 20
-47.78982671633325
 30
0.0
 10
78.41691203769442
 20
-47.78982671633325
 30
0.0
 10
77.01690296158209
 20
-47.78982671633325
 30
0.0
 10
77.01690296158209
 20
-47.78982671633325
 30
0.0
 10
76.91691212250933
 20
-47.78982671633325
 30
0.0
 10
77.01690296158209
 20
-47.8898251848001
 30
0.0
 10
77.01690296158209
 20
-47.78982671633325
 30
0.0
 10
77.01690296158209
 20
-47.78982671633325
 30
0.0
 10
77.01690296158209
 20
-44.88982535442993
 30
0.0
 10
77.01690296158209
 20
-44.88982535442993
 30
0.0
 10
77.01690296158209
 20
-44.83482505236405
 30
0.0
 10
76.97190479518112
 20
-44.78982688596307
 30
0.0
 10
76.91691212250933
 20
-44.78982688596307
 30
0.0
 10
76.91691212250933
 20
-44.78982688596307
 30
0.0
 10
70.91691246176899
 20
-44.78982688596307
 30
0.0
 10
70.91691246176899
 20
-44.78982688596307
 30
0.0
 10
70.861904530309
 20
-44.78982688596307
 30
0.0
 10
70.81690636390803
 20
-44.83482505236405
 30
0.0
 10
70.81690636390803
 20
-44.88982535442993
 30
0.0
 10
70.81690636390803
 20
-44.88982535442993
 30
0.0
 10
70.81690636390803
 20
-47.78982671633325
 30
0.0
 10
70.81690636390803
 20
-47.78982671633325
 30
0.0
 10
70.81690636390803
 20
-47.8898251848001
 30
0.0
 10
70.91691246176899
 20
-47.78982671633325
 30
0.0
 10
70.81690636390803
 20
-47.78982671633325
 30
0.0
 10
70.81690636390803
 20
-47.78982671633325
 30
0.0
 10
65.01690364010139
 20
-47.78982671633325
 30
0.0
 10
65.01690364010139
 20
-47.78982671633325
 30
0.0
 10
64.91691280102864
 20
-47.78982671633325
 30
0.0
 10
65.01690364010139
 20
-47.8898251848001
 30
0.0
 10
65.01690364010139
 20
-47.78982671633325
 30
0.0
 10
65.01690364010139
 20
-47.78982671633325
 30
0.0
 10
65.01690364010139
 20
-44.88982535442993
 30
0.0
 10
65.01690364010139
 20
-44.88982535442993
 30
0.0
 10
65.01690364010139
 20
-44.83482505236405
 30
0.0
 10
64.97190547370043
 20
-44.78982688596307
 30
0.0
 10
64.91691280102864
 20
-44.78982688596307
 30
0.0
 10
64.91691280102864
 20
-44.78982688596307
 30
0.0
 10
58.91691314028829
 20
-44.78982688596307
 30
0.0
 10
58.91691314028829
 20
-44.78982688596307
 30
0.0
 10
58.86190520882831
 20
-44.78982688596307
 30
0.0
 10
58.81690704242735
 20
-44.83482505236405
 30
0.0
 10
58.81690704242735
 20
-44.88982535442993
 30
0.0
 10
58.81690704242735
 20
-44.88982535442993
 30
0.0
 10
58.81690704242735
 20
-47.78982671633325
 30
0.0
 10
58.81690704242735
 20
-47.78982671633325
 30
0.0
 10
58.81690704242735
 20
-47.8898251848001
 30
0.0
 10
58.91691314028829
 20
-47.78982671633325
 30
0.0
 10
58.81690704242735
 20
-47.78982671633325
 30
0.0
 10
58.81690704242735
 20
-47.78982671633325
 30
0.0
 10
53.0169043186207
 20
-47.78982671633325
 30
0.0
 10
53.0169043186207
 20
-47.78982671633325
 30
0.0
 10
52.91691347954795
 20
-47.78982671633325
 30
0.0
 10
53.0169043186207
 20
-47.8898251848001
 30
0.0
 10
53.0169043186207
 20
-47.78982671633325
 30
0.0
 10
53.0169043186207
 20
-47.78982671633325
 30
0.0
 10
53.0169043186207
 20
-44.88982535442993
 30
0.0
 10
53.0169043186207
 20
-44.88982535442993
 30
0.0
 10
53.0169043186207
 20
-44.83482505236405
 30
0.0
 10
52.97190615221973
 20
-44.78982688596307
 30
0.0
 10
52.91691347954795
 20
-44.78982688596307
 30
0.0
 10
52.91691347954795
 20
-44.78982688596307
 30
0.0
 10
46.9169138188076
 20
-44.78982688596307
 30
0.0
 10
46.9169138188076
 20
-44.78982688596307
 30
0.0
 10
46.86190588734762
 20
-44.78982688596307
 30
0.0
 10
46.81690772094665
 20
-44.83482505236405
 30
0.0
 10
46.81690772094665
 20
-44.88982535442993
 30
0.0
 10
46.81690772094665
 20
-44.88982535442993
 30
0.0
 10
46.81690772094665
 20
-47.78982671633325
 30
0.0
 10
46.81690772094665
 20
-47.78982671633325
 30
0.0
 10
46.81690772094665
 20
-47.8898251848001
 30
0.0
 10
46.9169138188076
 20
-47.78982671633325
 30
0.0
 10
46.81690772094665
 20
-47.78982671633325
 30
0.0
 10
46.81690772094665
 20
-47.78982671633325
 30
0.0
 10
41.01690499714001
 20
-47.78982671633325
 30
0.0
 10
41.01690499714001
 20
-47.78982671633325
 30
0.0
 10
40.91691415806726
 20
-47.78982671633325
 30
0.0
 10
41.01690499714001
 20
-47.8898251848001
 30
0.0
 10
41.01690499714001
 20
-47.78982671633325
 30
0.0
 10
41.01690499714001
 20
-47.78982671633325
 30
0.0
 10
41.01690499714001
 20
-44.88982535442993
 30
0.0
 10
41.01690499714001
 20
-44.88982535442993
 30
0.0
 10
41.01690499714001
 20
-44.83482505236405
 30
0.0
 10
40.97190683073904
 20
-44.78982688596307
 30
0.0
 10
40.91691415806726
 20
-44.78982688596307
 30
0.0
 10
40.91691415806726
 20
-44.78982688596307
 30
0.0
 10
34.91691449732691
 20
-44.78982688596307
 30
0.0
 10
34.91691449732691
 20
-44.78982688596307
 30
0.0
 10
34.86190656586692
 20
-44.78982688596307
 30
0.0
 10
34.81690839946596
 20
-44.83482505236405
 30
0.0
 10
34.81690839946596
 20
-44.88982535442993
 30
0.0
 10
34.81690839946596
 20
-44.88982535442993
 30
0.0
 10
34.81690839946596
 20
-47.78982671633325
 30
0.0
 10
34.81690839946596
 20
-47.78982671633325
 30
0.0
 10
34.81690839946596
 20
-47.8898251848001
 30
0.0
 10
34.91691449732691
 20
-47.78982671633325
 30
0.0
 10
34.81690839946596
 20
-47.78982671633325
 30
0.0
 10
34.81690839946596
 20
-47.78982671633325
 30
0.0
 10
29.01690567565931
 20
-47.78982671633325
 30
0.0
 10
29.01690567565931
 20
-47.78982671633325
 30
0.0
 10
28.91691483658656
 20
-47.78982671633325
 30
0.0
 10
29.01690567565931
 20
-47.8898251848001
 30
0.0
 10
29.01690567565931
 20
-47.78982671633325
 30
0.0
 10
29.01690567565931
 20
-47.78982671633325
 30
0.0
 10
29.01690567565931
 20
-44.88982535442993
 30
0.0
 10
29.01690567565931
 20
-44.88982535442993
 30
0.0
 10
29.01690567565931
 20
-44.83482505236405
 30
0.0
 10
28.97190750925835
 20
-44.78982688596307
 30
0.0
 10
28.91691483658656
 20
-44.78982688596307
 30
0.0
 10
28.91691483658656
 20
-44.78982688596307
 30
0.0
 10
22.91691517584621
 20
-44.78982688596307
 30
0.0
 10
22.91691517584621
 20
-44.78982688596307
 30
0.0
 10
22.86190724438623
 20
-44.78982688596307
 30
0.0
 10
22.81690907798526
 20
-44.83482505236405
 30
0.0
 10
22.81690907798526
 20
-44.88982535442993
 30
0.0
 10
22.81690907798526
 20
-44.88982535442993
 30
0.0
 10
22.81690907798526
 20
-47.78982671633325
 30
0.0
 10
22.81690907798526
 20
-47.78982671633325
 30
0.0
 10
22.81690907798526
 20
-47.8898251848001
 30
0.0
 10
22.91691517584621
 20
-47.78982671633325
 30
0.0
 10
22.81690907798526
 20
-47.78982671633325
 30
0.0
 10
22.81690907798526
 20
-47.78982671633325
 30
0.0
 10
17.01690635417862
 20
-47.78982671633325
 30
0.0
 10
17.01690635417862
 20
-47.78982671633325
 30
0.0
 10
16.91691551510587
 20
-47.78982671633325
 30
0.0
 10
17.01690635417862
 20
-47.8898251848001
 30
0.0
 10
17.01690635417862
 20
-47.78982671633325
 30
0.0
 10
17.01690635417862
 20
-47.78982671633325
 30
0.0
 10
17.01690635417862
 20
-44.88982535442993
 30
0.0
 10
17.01690635417862
 20
-44.88982535442993
 30
0.0
 10
17.01690635417862
 20
-44.83482505236405
 30
0.0
 10
16.97190818777765
 20
-44.78982688596307
 30
0.0
 10
16.91691551510587
 20
-44.78982688596307
 30
0.0
 10
16.91691551510587
 20
-44.78982688596307
 30
0.0
 10
10.91691585436552
 20
-44.78982688596307
 30
0.0
 10
10.91691585436552
 20
-44.78982688596307
 30
0.0
 10
10.86190792290554
 20
-44.78982688596307
 30
0.0
 10
10.81690975650457
 20
-44.83482505236405
 30
0.0
 10
10.81690975650457
 20
-44.88982535442993
 30
0.0
 10
10.81690975650457
 20
-44.88982535442993
 30
0.0
 10
10.81690975650457
 20
-47.78982671633325
 30
0.0
 10
10.81690975650457
 20
-47.78982671633325
 30
0.0
 10
10.81690975650457
 20
-47.8898251848001
 30
0.0
 10
10.91691585436552
 20
-47.78982671633325
 30
0.0
 10
10.81690975650457
 20
-47.78982671633325
 30
0.0
 10
10.81690975650457
 20
-47.78982671633325
 30
0.0
 10
9.416915939180434
 20
-47.78982671633325
 30
0.0
 10
9.416915939180434
 20
-47.78982671633325
 30
0.0
 10
9.361908007720452
 20
-47.78982671633325
 30
0.0
 10
9.316909841319482
 20
-47.83482488273422
 30
0.0
 10
9.316909841319482
 20
-47.8898251848001
 30
0.0
 10
9.316909841319482
 20
-47.8898251848001
 30
0.0
 10
9.316909841319482
 20
-53.7898263770736
 30
0.0
 10
9.316909841319482
 20
-53.7898263770736
 30
0.0
 10
9.316909841319482
 20
-53.88982484554045
 30
0.0
 10
9.416915939180434
 20
-53.7898263770736
 30
0.0
 10
9.316909841319482
 20
-53.7898263770736
 30
0.0
 10
9.316909841319482
 20
-53.7898263770736
 30
0.0
 10
6.416916108810262
 20
-53.7898263770736
 30
0.0
 10
6.416916108810262
 20
-53.7898263770736
 30
0.0
 10
6.361908177350278
 20
-53.7898263770736
 30
0.0
 10
6.316910010949309
 20
-53.83482454347456
 30
0.0
 10
6.316910010949309
 20
-53.88982484554045
 30
0.0
 10
6.316910010949309
 20
-53.88982484554045
 30
0.0
 10
6.316910010949309
 20
-59.8898245062808
 30
0.0
 10
6.316910010949309
 20
-59.8898245062808
 30
0.0
 10
6.316910010949309
 20
-59.94482480834668
 30
0.0
 10
6.361908177350278
 20
-59.98982297474765
 30
0.0
 10
6.416916108810262
 20
-59.98982297474765
 30
0.0
 10
6.416916108810262
 20
-59.98982297474765
 30
0.0
 10
9.316909841319482
 20
-59.98982297474765
 30
0.0
 10
9.316909841319482
 20
-59.98982297474765
 30
0.0
 10
9.416915939180434
 20
-59.98982297474765
 30
0.0
 10
9.316909841319482
 20
-59.8898245062808
 30
0.0
 10
9.316909841319482
 20
-59.98982297474765
 30
0.0
 10
9.316909841319482
 20
-59.98982297474765
 30
0.0
 10
9.316909841319482
 20
-65.78982569855428
 30
0.0
 10
9.316909841319482
 20
-65.78982569855428
 30
0.0
 10
9.316909841319482
 20
-65.88982416702115
 30
0.0
 10
9.416915939180434
 20
-65.78982569855428
 30
0.0
 10
9.316909841319482
 20
-65.78982569855428
 30
0.0
 10
9.316909841319482
 20
-65.78982569855428
 30
0.0
 10
6.416916108810262
 20
-65.78982569855428
 30
0.0
 10
6.416916108810262
 20
-65.78982569855428
 30
0.0
 10
6.361908177350278
 20
-65.78982569855428
 30
0.0
 10
6.316910010949309
 20
-65.83482386495525
 30
0.0
 10
6.316910010949309
 20
-65.88982416702115
 30
0.0
 10
6.316910010949309
 20
-65.88982416702115
 30
0.0
 10
6.316910010949309
 20
-71.88982382776149
 30
0.0
 10
6.316910010949309
 20
-71.88982382776149
 30
0.0
 10
6.316910010949309
 20
-71.94482412982737
 30
0.0
 10
6.361908177350278
 20
-71.98982229622834
 30
0.0
 10
6.416916108810262
 20
-71.98982229622834
 30
0.0
 10
6.416916108810262
 20
-71.98982229622834
 30
0.0
 10
9.316909841319482
 20
-71.98982229622834
 30
0.0
 10
9.316909841319482
 20
-71.98982229622834
 30
0.0
 10
9.416915939180434
 20
-71.98982229622834
 30
0.0
 10
9.316909841319482
 20
-71.88982382776149
 30
0.0
 10
9.316909841319482
 20
-71.98982229622834
 30
0.0
 10
9.316909841319482
 20
-71.98982229622834
 30
0.0
 10
9.316909841319482
 20
-77.78982502003498
 30
0.0
 10
9.316909841319482
 20
-77.78982502003498
 30
0.0
 10
9.316909841319482
 20
-77.88982348850183
 30
0.0
 10
9.416915939180434
 20
-77.78982502003498
 30
0.0
 10
9.316909841319482
 20
-77.78982502003498
 30
0.0
 10
9.316909841319482
 20
-77.78982502003498
 30
0.0
 10
6.416916108810262
 20
-77.78982502003498
 30
0.0
 10
6.416916108810262
 20
-77.78982502003498
 30
0.0
 10
6.361908177350278
 20
-77.78982502003498
 30
0.0
 10
6.316910010949309
 20
-77.83482318643595
 30
0.0
 10
6.316910010949309
 20
-77.88982348850183
 30
0.0
 10
6.316910010949309
 20
-77.88982348850183
 30
0.0
 10
6.316910010949309
 20
-83.88982314924218
 30
0.0
 10
6.316910010949309
 20
-83.88982314924218
 30
0.0
 10
6.316910010949309
 20
-83.94482345130807
 30
0.0
 10
6.361908177350278
 20
-83.98982161770904
 30
0.0
 10
6.416916108810262
 20
-83.98982161770904
 30
0.0
 10
6.416916108810262
 20
-83.98982161770904
 30
0.0
 10
9.316909841319482
 20
-83.98982161770904
 30
0.0
 10
9.316909841319482
 20
-83.98982161770904
 30
0.0
 10
9.416915939180434
 20
-83.98982161770904
 30
0.0
 10
9.316909841319482
 20
-83.88982314924218
 30
0.0
 10
9.316909841319482
 20
-83.98982161770904
 30
0.0
 10
9.316909841319482
 20
-83.98982161770904
 30
0.0
 10
9.316909841319482
 20
-89.78982434151567
 30
0.0
 10
9.316909841319482
 20
-89.78982434151567
 30
0.0
 10
9.316909841319482
 20
-89.88982280998253
 30
0.0
 10
9.416915939180434
 20
-89.78982434151567
 30
0.0
 10
9.316909841319482
 20
-89.78982434151567
 30
0.0
 10
9.316909841319482
 20
-89.78982434151567
 30
0.0
 10
6.416916108810262
 20
-89.78982434151567
 30
0.0
 10
6.416916108810262
 20
-89.78982434151567
 30
0.0
 10
6.361908177350278
 20
-89.78982434151567
 30
0.0
 10
6.316910010949309
 20
-89.83482250791664
 30
0.0
 10
6.316910010949309
 20
-89.88982280998253
 30
0.0
 10
6.316910010949309
 20
-89.88982280998253
 30
0.0
 10
6.316910010949309
 20
-95.88982247072288
 30
0.0
 10
6.316910010949309
 20
-95.88982247072288
 30
0.0
 10
6.316910010949309
 20
-95.94482277278875
 30
0.0
 10
6.361908177350278
 20
-95.98982093918973
 30
0.0
 10
6.416916108810262
 20
-95.98982093918973
 30
0.0
 10
6.416916108810262
 20
-95.98982093918973
 30
0.0
 10
9.316909841319482
 20
-95.98982093918973
 30
0.0
 10
9.316909841319482
 20
-95.98982093918973
 30
0.0
 10
9.416915939180434
 20
-95.98982093918973
 30
0.0
 10
9.316909841319482
 20
-95.88982247072288
 30
0.0
 10
9.316909841319482
 20
-95.98982093918973
 30
0.0
 10
9.316909841319482
 20
-95.98982093918973
 30
0.0
 10
9.316909841319482
 20
-101.8898221314632
 30
0.0
 10
9.316909841319482
 20
-101.8898221314632
 30
0.0
 10
9.316909841319482
 20
-101.9448224335291
 30
0.0
 10
9.361908007720452
 20
-101.9898205999301
 30
0.0
 10
9.416915939180434
 20
-101.9898205999301
 30
0.0
  0
ENDBLK
  5
44
330
41
100
AcDbEntity
  8
0
100
AcDbBlockEnd
  0
BLOCK
  5
48
330
46
100
AcDbEntity
  8
0
100
AcDbBlockBegin
  2
block 3
 70
     0
 10
0.0
 20
0.0
 30
0.0
  3
block 3
  1

  0
SPLINE
  5
4A
330
46
100
AcDbEntity
  8
Layer 1
 62
   178
420
        1
370
    20
100
AcDbSpline
210
0.0
220
0.0
230
1.0
 70
    11
 71
     3
 72
   359
 73
   355
 74
     0
 42
0.0000000001
 43
0.0000000001
 12
1.0
 22
0.0
 32
0.0
 13
1.0
 23
0.0
 33
0.0
 40
0.0
 40
0.0
 40
0.0
 40
0.0
 40
1.0
 40
1.0
 40
1.0
 40
2.0
 40
2.0
 40
2.0
 40
3.0
 40
3.0
 40
3.0
 40
4.0
 40
4.0
 40
4.0
 40
5.0
 40
5.0
 40
5.0
 40
6.0
 40
6.0
 40
6.0
 40
7.0
 40
7.0
 40
7.0
 40
8.0
 40
8.0
 40
8.0
 40
9.0
 40
9.0
 40
9.0
 40
10.0
 40
10.0
 40
10.0
 40
11.0
 40
11.0
 40
11.0
 40
12.0
 40
12.0
 40
12.0
 40
13.0
 40
13.0
 40
13.0
 40
14.0
 40
14.0
 40
14.0
 40
15.0
 40
15.0
 40
15.0
 40
16.0
 40
16.0
 40
16.0
 40
17.0
 40
17.0
 40
17.0
 40
18.0
 40
18.0
 40
18.0
 40
19.0
 40
19.0
 40
19.0
 40
20.0
 40
20.0
 40
20.0
 40
21.0
 40
21.0
 40
21.0
 40
22.0
 40
22.0
 40
22.0
 40
23.0
 40
23.0
 40
23.0
 40
24.0
 40
24.0
 40
24.0
 40
25.0
 40
25.0
 40
25.0
 40
26.0
 40
26.0
 40
26.0
 40
27.0
 40
27.0
 40
27.0
 40
28.0
 40
28.0
 40
28.0
 40
29.0
 40
29.0
 40
29.0
 40
30.0
 40
30.0
 40
30.0
 40
31.0
 40
31.0
 40
31.0
 40
32.0
 40
32.0
 40
32.0
 40
33.0
 40
33.0
 40
33.0
 40
34.0
 40
34.0
 40
34.0
 40
35.0
 40
35.0
 40
35.0
 40
36.0
 40
36.0
 40
36.0
 40
37.0
 40
37.0
 40
37.0
 40
38.0
 40
38.0
 40
38.0
 40
39.0
 40
39.0
 40
39.0
 40
40.0
 40
40.0
 40
40.0
 40
41.0
 40
41.0
 40
41.0
 40
42.0
 40
42.0
 40
42.0
 40
43.0
 40
43.0
 40
43.0
 40
44.0
 40
44.0
 40
44.0
 40
45.0
 40
45.0
 40
45.0
 40
46.0
 40
46.0
 40
46.0
 40
47.0
 40
47.0
 40
47.0
 40
48.0
 40
48.0
 40
48.0
 40
49.0
 40
49.0
 40
49.0
 40
50.0
 40
50.0
 40
50.0
 40
51.0
 40
51.0
 40
51.0
 40
52.0
 40
52.0
 40
52.0
 40
53.0
 40
53.0
 40
53.0
 40
54.0
 40
54.0
 40
54.0
 40
55.0
 40
55.0
 40
55.0
 40
56.0
 40
56.0
 40
56.0
 40
57.0
 40
57.0
 40
57.0
 40
58.0
 40
58.0
 40
58.0
 40
59.0
 40
59.0
 40
59.0
 40
60.0
 40
60.0
 40
60.0
 40
61.0
 40
61.0
 40
61.0
 40
62.0
 40
62.0
 40
62.0
 40
63.0
 40
63.0
 40
63.0
 40
64.0
 40
64.0
 40
64.0
 40
65.0
 40
65.0
 40
65.0
 40
66.0
 40
66.0
 40
66.0
 40
67.0
 40
67.0
 40
67.0
 40
68.0
 40
68.0
 40
68.0
 40
69.0
 40
69.0
 40
69.0
 40
70.0
 40
70.0
 40
70.0
 40
71.0
 40
71.0
 40
71.0
 40
72.0
 40
72.0
 40
72.0
 40
73.0
 40
73.0
 40
73.0
 40
74.0
 40
74.0
 40
74.0
 40
75.0
 40
75.0
 40
75.0
 40
76.0
 40
76.0
 40
76.0
 40
77.0
 40
77.0
 40
77.0
 40
78.0
 40
78.0
 40
78.0
 40
79.0
 40
79.0
 40
79.0
 40
80.0
 40
80.0
 40
80.0
 40
81.0
 40
81.0
 40
81.0
 40
82.0
 40
82.0
 40
82.0
 40
83.0
 40
83.0
 40
83.0
 40
84.0
 40
84.0
 40
84.0
 40
85.0
 40
85.0
 40
85.0
 40
86.0
 40
86.0
 40
86.0
 40
87.0
 40
87.0
 40
87.0
 40
88.0
 40
88.0
 40
88.0
 40
89.0
 40
89.0
 40
89.0
 40
90.0
 40
90.0
 40
90.0
 40
91.0
 40
91.0
 40
91.0
 40
92.0
 40
92.0
 40
92.0
 40
93.0
 40
93.0
 40
93.0
 40
94.0
 40
94.0
 40
94.0
 40
95.0
 40
95.0
 40
95.0
 40
96.0
 40
96.0
 40
96.0
 40
97.0
 40
97.0
 40
97.0
 40
98.0
 40
98.0
 40
98.0
 40
99.0
 40
99.0
 40
99.0
 40
100.0
 40
100.0
 40
100.0
 40
101.0
 40
101.0
 40
101.0
 40
102.0
 40
102.0
 40
102.0
 40
103.0
 40
103.0
 40
103.0
 40
104.0
 40
104.0
 40
104.0
 40
105.0
 40
105.0
 40
105.0
 40
106.0
 40
106.0
 40
106.0
 40
107.0
 40
107.0
 40
107.0
 40
108.0
 40
108.0
 40
108.0
 40
109.0
 40
109.0
 40
109.0
 40
110.0
 40
110.0
 40
110.0
 40
111.0
 40
111.0
 40
111.0
 40
112.0
 40
112.0
 40
112.0
 40
113.0
 40
113.0
 40
113.0
 40
114.0
 40
114.0
 40
114.0
 40
115.0
 40
115.0
 40
115.0
 40
116.0
 40
116.0
 40
116.0
 40
117.0
 40
117.0
 40
117.0
 40
118.0
 40
118.0
 40
118.0
 40
118.0
 10
224.81670072073
 20
-280.8111034115142
 30
0.0
 10
224.81670072073
 20
-280.8111034115142
 30
0.0
 10
224.81670072073
 20
-278.7751080432377
 30
0.0
 10
224.81670072073
 20
-278.7751080432377
 30
0.0
 10
224.81670072073
 20
-278.7201001117777
 30
0.0
 10
224.771702554329
 20
-278.6751019453767
 30
0.0
 10
224.7167022522631
 20
-278.6751019453767
 30
0.0
 10
224.7167022522631
 20
-278.6751019453767
 30
0.0
 10
221.8167008903598
 20
-278.6751019453767
 30
0.0
 10
221.8167008903598
 20
-278.6751019453767
 30
0.0
 10
221.7167024218929
 20
-278.6751019453767
 30
0.0
 10
221.8167008903598
 20
-278.7751080432377
 30
0.0
 10
221.8167008903598
 20
-278.6751019453767
 30
0.0
 10
221.8167008903598
 20
-278.6751019453767
 30
0.0
 10
221.8167008903598
 20
-272.8750992215701
 30
0.0
 10
221.8167008903598
 20
-272.8750992215701
 30
0.0
 10
221.8167008903598
 20
-272.7751083824973
 30
0.0
 10
221.7167024218929
 20
-272.8750992215701
 30
0.0
 10
221.8167008903598
 20
-272.8750992215701
 30
0.0
 10
221.8167008903598
 20
-272.8750992215701
 30
0.0
 10
224.7167022522631
 20
-272.8750992215701
 30
0.0
 10
224.7167022522631
 20
-272.8750992215701
 30
0.0
 10
224.771702554329
 20
-272.8750992215701
 30
0.0
 10
224.81670072073
 20
-272.8301010551691
 30
0.0
 10
224.81670072073
 20
-272.7751083824973
 30
0.0
 10
224.81670072073
 20
-272.7751083824973
 30
0.0
 10
224.81670072073
 20
-266.775108721757
 30
0.0
 10
224.81670072073
 20
-266.775108721757
 30
0.0
 10
224.81670072073
 20
-266.720100790297
 30
0.0
 10
224.771702554329
 20
-266.675102623896
 30
0.0
 10
224.7167022522631
 20
-266.675102623896
 30
0.0
 10
224.7167022522631
 20
-266.675102623896
 30
0.0
 10
221.8167008903598
 20
-266.675102623896
 30
0.0
 10
221.8167008903598
 20
-266.675102623896
 30
0.0
 10
221.7167024218929
 20
-266.675102623896
 30
0.0
 10
221.8167008903598
 20
-266.775108721757
 30
0.0
 10
221.8167008903598
 20
-266.675102623896
 30
0.0
 10
221.8167008903598
 20
-266.675102623896
 30
0.0
 10
221.8167008903598
 20
-260.8750999000894
 30
0.0
 10
221.8167008903598
 20
-260.8750999000894
 30
0.0
 10
221.8167008903598
 20
-260.7750938022284
 30
0.0
 10
221.7167024218929
 20
-260.8750999000894
 30
0.0
 10
221.8167008903598
 20
-260.8750999000894
 30
0.0
 10
221.8167008903598
 20
-260.8750999000894
 30
0.0
 10
224.7167022522631
 20
-260.8750999000894
 30
0.0
 10
224.7167022522631
 20
-260.8750999000894
 30
0.0
 10
224.771702554329
 20
-260.8750999000894
 30
0.0
 10
224.81670072073
 20
-260.8301169924766
 30
0.0
 10
224.81670072073
 20
-260.7750938022284
 30
0.0
 10
224.81670072073
 20
-260.7750938022284
 30
0.0
 10
224.81670072073
 20
-254.7750941414881
 30
0.0
 10
224.81670072073
 20
-254.7750941414881
 30
0.0
 10
224.81670072073
 20
-254.7201014688163
 30
0.0
 10
224.771702554329
 20
-254.6751185612035
 30
0.0
 10
224.7167022522631
 20
-254.6751185612035
 30
0.0
 10
224.7167022522631
 20
-254.6751185612035
 30
0.0
 10
221.8167008903598
 20
-254.6751185612035
 30
0.0
 10
221.8167008903598
 20
-254.6751185612035
 30
0.0
 10
221.7167024218929
 20
-254.6751185612035
 30
0.0
 10
221.8167008903598
 20
-254.7750941414881
 30
0.0
 10
221.8167008903598
 20
-254.6751185612035
 30
0.0
 10
221.8167008903598
 20
-254.6751185612035
 30
0.0
 10
221.8167008903598
 20
-248.8751005786087
 30
0.0
 10
221.8167008903598
 20
-248.8751005786087
 30
0.0
 10
221.8167008903598
 20
-248.7750944807477
 30
0.0
 10
221.7167024218929
 20
-248.8751005786087
 30
0.0
 10
221.8167008903598
 20
-248.8751005786087
 30
0.0
 10
221.8167008903598
 20
-248.8751005786087
 30
0.0
 10
224.7167022522631
 20
-248.8751005786087
 30
0.0
 10
224.7167022522631
 20
-248.8751005786087
 30
0.0
 10
224.771702554329
 20
-248.8751005786087
 30
0.0
 10
224.81670072073
 20
-248.8301176709959
 30
0.0
 10
224.81670072073
 20
-248.7750944807477
 30
0.0
 10
224.81670072073
 20
-248.7750944807477
 30
0.0
 10
224.81670072073
 20
-242.7750948200074
 30
0.0
 10
224.81670072073
 20
-242.7750948200074
 30
0.0
 10
224.81670072073
 20
-242.7201021473356
 30
0.0
 10
224.771702554329
 20
-242.6751192397228
 30
0.0
 10
224.7167022522631
 20
-242.6751192397228
 30
0.0
 10
224.7167022522631
 20
-242.6751192397228
 30
0.0
 10
221.8167008903598
 20
-242.6751192397228
 30
0.0
 10
221.8167008903598
 20
-242.6751192397228
 30
0.0
 10
221.7167024218929
 20
-242.6751192397228
 30
0.0
 10
221.8167008903598
 20
-242.7750948200074
 30
0.0
 10
221.8167008903598
 20
-242.6751192397228
 30
0.0
 10
221.8167008903598
 20
-242.6751192397228
 30
0.0
 10
221.8167008903598
 20
-236.875101257128
 30
0.0
 10
221.8167008903598
 20
-236.875101257128
 30
0.0
 10
221.8167008903598
 20
-236.775095159267
 30
0.0
 10
221.7167024218929
 20
-236.875101257128
 30
0.0
 10
221.8167008903598
 20
-236.875101257128
 30
0.0
 10
221.8167008903598
 20
-236.875101257128
 30
0.0
 10
224.7167022522631
 20
-236.875101257128
 30
0.0
 10
224.7167022522631
 20
-236.875101257128
 30
0.0
 10
224.771702554329
 20
-236.875101257128
 30
0.0
 10
224.81670072073
 20
-236.8301183495152
 30
0.0
 10
224.81670072073
 20
-236.775095159267
 30
0.0
 10
224.81670072073
 20
-236.775095159267
 30
0.0
 10
224.81670072073
 20
-230.7750954985267
 30
0.0
 10
224.81670072073
 20
-230.7750954985267
 30
0.0
 10
224.81670072073
 20
-230.7201028258549
 30
0.0
 10
224.771702554329
 20
-230.6751199182421
 30
0.0
 10
224.7167022522631
 20
-230.6751199182421
 30
0.0
 10
224.7167022522631
 20
-230.6751199182421
 30
0.0
 10
221.8167008903598
 20
-230.6751199182421
 30
0.0
 10
221.8167008903598
 20
-230.6751199182421
 30
0.0
 10
221.7167024218929
 20
-230.6751199182421
 30
0.0
 10
221.8167008903598
 20
-230.7750954985267
 30
0.0
 10
221.8167008903598
 20
-230.6751199182421
 30
0.0
 10
221.8167008903598
 20
-230.6751199182421
 30
0.0
 10
221.8167008903598
 20
-224.8751019356473
 30
0.0
 10
221.8167008903598
 20
-224.8751019356473
 30
0.0
 10
221.8167008903598
 20
-224.7750958377864
 30
0.0
 10
221.7167024218929
 20
-224.8751019356473
 30
0.0
 10
221.8167008903598
 20
-224.8751019356473
 30
0.0
 10
221.8167008903598
 20
-224.8751019356473
 30
0.0
 10
224.7167022522631
 20
-224.8751019356473
 30
0.0
 10
224.7167022522631
 20
-224.8751019356473
 30
0.0
 10
224.771702554329
 20
-224.8751019356473
 30
0.0
 10
224.81670072073
 20
-224.8301190280345
 30
0.0
 10
224.81670072073
 20
-224.7750958377864
 30
0.0
 10
224.81670072073
 20
-224.7750958377864
 30
0.0
 10
224.81670072073
 20
-218.775096177046
 30
0.0
 10
224.81670072073
 20
-218.775096177046
 30
0.0
 10
224.81670072073
 20
-218.7201035043742
 30
0.0
 10
224.771702554329
 20
-218.6751205967614
 30
0.0
 10
224.7167022522631
 20
-218.6751205967614
 30
0.0
 10
224.7167022522631
 20
-218.6751205967614
 30
0.0
 10
221.8167008903598
 20
-218.6751205967614
 30
0.0
 10
221.8167008903598
 20
-218.6751205967614
 30
0.0
 10
221.7167024218929
 20
-218.6751205967614
 30
0.0
 10
221.8167008903598
 20
-218.775096177046
 30
0.0
 10
221.8167008903598
 20
-218.6751205967614
 30
0.0
 10
221.8167008903598
 20
-218.6751205967614
 30
0.0
 10
221.8167008903598
 20
-212.8751026141666
 30
0.0
 10
221.8167008903598
 20
-212.8751026141666
 30
0.0
 10
221.8167008903598
 20
-212.7750965163056
 30
0.0
 10
221.7167024218929
 20
-212.8751026141666
 30
0.0
 10
221.8167008903598
 20
-212.8751026141666
 30
0.0
 10
221.8167008903598
 20
-212.8751026141666
 30
0.0
 10
224.7167022522631
 20
-212.8751026141666
 30
0.0
 10
224.7167022522631
 20
-212.8751026141666
 30
0.0
 10
224.771702554329
 20
-212.8751026141666
 30
0.0
 10
224.81670072073
 20
-212.8301197065538
 30
0.0
 10
224.81670072073
 20
-212.7750965163056
 30
0.0
 10
224.81670072073
 20
-212.7750965163056
 30
0.0
 10
224.81670072073
 20
-210.7391164068173
 30
0.0
 10
224.81670072073
 20
-210.7391164068173
 30
0.0
 10
224.81670072073
 20
-210.6840932165691
 30
0.0
 10
224.771702554329
 20
-210.6391103089563
 30
0.0
 10
224.7167022522631
 20
-210.6391103089563
 30
0.0
 10
224.7167022522631
 20
-210.6391103089563
 30
0.0
 10
221.7167024218929
 20
-210.6391103089563
 30
0.0
 10
221.7167024218929
 20
-210.6391103089563
 30
0.0
 10
221.7167024218929
 20
-210.6391103089563
 30
0.0
 10
167.7167054752298
 20
-210.6391103089563
 30
0.0
 10
167.7167054752298
 20
-210.6391103089563
 30
0.0
 10
167.7167054752298
 20
-210.6391103089563
 30
0.0
 10
164.7167056448596
 20
-210.6391103089563
 30
0.0
 10
164.7167056448596
 20
-210.6391103089563
 30
0.0
 10
164.6617053427938
 20
-210.6391103089563
 30
0.0
 10
164.6167071763928
 20
-210.6840932165691
 30
0.0
 10
164.6167071763928
 20
-210.7391164068173
 30
0.0
 10
164.6167071763928
 20
-210.7391164068173
 30
0.0
 10
164.6167071763928
 20
-212.7750965163056
 30
0.0
 10
164.6167071763928
 20
-212.7750965163056
 30
0.0
 10
164.6167071763928
 20
-212.8301197065538
 30
0.0
 10
164.6617053427938
 20
-212.8751026141666
 30
0.0
 10
164.7167056448596
 20
-212.8751026141666
 30
0.0
 10
164.7167056448596
 20
-212.8751026141666
 30
0.0
 10
167.616707006763
 20
-212.8751026141666
 30
0.0
 10
167.616707006763
 20
-212.8751026141666
 30
0.0
 10
167.7167054752298
 20
-212.8751026141666
 30
0.0
 10
167.616707006763
 20
-212.7750965163056
 30
0.0
 10
167.616707006763
 20
-212.8751026141666
 30
0.0
 10
167.616707006763
 20
-212.8751026141666
 30
0.0
 10
167.616707006763
 20
-218.6751205967614
 30
0.0
 10
167.616707006763
 20
-218.6751205967614
 30
0.0
 10
167.616707006763
 20
-218.775096177046
 30
0.0
 10
167.7167054752298
 20
-218.6751205967614
 30
0.0
 10
167.616707006763
 20
-218.6751205967614
 30
0.0
 10
167.616707006763
 20
-218.6751205967614
 30
0.0
 10
164.7167056448596
 20
-218.6751205967614
 30
0.0
 10
164.7167056448596
 20
-218.6751205967614
 30
0.0
 10
164.6617053427938
 20
-218.6751205967614
 30
0.0
 10
164.6167071763928
 20
-218.7201035043742
 30
0.0
 10
164.6167071763928
 20
-218.775096177046
 30
0.0
 10
164.6167071763928
 20
-218.775096177046
 30
0.0
 10
164.6167071763928
 20
-224.7750958377864
 30
0.0
 10
164.6167071763928
 20
-224.7750958377864
 30
0.0
 10
164.6167071763928
 20
-224.8301190280345
 30
0.0
 10
164.6617053427938
 20
-224.8751019356473
 30
0.0
 10
164.7167056448596
 20
-224.8751019356473
 30
0.0
 10
164.7167056448596
 20
-224.8751019356473
 30
0.0
 10
167.616707006763
 20
-224.8751019356473
 30
0.0
 10
167.616707006763
 20
-224.8751019356473
 30
0.0
 10
167.7167054752298
 20
-224.8751019356473
 30
0.0
 10
167.616707006763
 20
-224.7750958377864
 30
0.0
 10
167.616707006763
 20
-224.8751019356473
 30
0.0
 10
167.616707006763
 20
-224.8751019356473
 30
0.0
 10
167.616707006763
 20
-230.6751199182421
 30
0.0
 10
167.616707006763
 20
-230.6751199182421
 30
0.0
 10
167.616707006763
 20
-230.7750954985267
 30
0.0
 10
167.7167054752298
 20
-230.6751199182421
 30
0.0
 10
167.616707006763
 20
-230.6751199182421
 30
0.0
 10
167.616707006763
 20
-230.6751199182421
 30
0.0
 10
164.7167056448596
 20
-230.6751199182421
 30
0.0
 10
164.7167056448596
 20
-230.6751199182421
 30
0.0
 10
164.6617053427938
 20
-230.6751199182421
 30
0.0
 10
164.6167071763928
 20
-230.7201028258549
 30
0.0
 10
164.6167071763928
 20
-230.7750954985267
 30
0.0
 10
164.6167071763928
 20
-230.7750954985267
 30
0.0
 10
164.6167071763928
 20
-236.775095159267
 30
0.0
 10
164.6167071763928
 20
-236.775095159267
 30
0.0
 10
164.6167071763928
 20
-236.8301183495152
 30
0.0
 10
164.6617053427938
 20
-236.875101257128
 30
0.0
 10
164.7167056448596
 20
-236.875101257128
 30
0.0
 10
164.7167056448596
 20
-236.875101257128
 30
0.0
 10
167.616707006763
 20
-236.875101257128
 30
0.0
 10
167.616707006763
 20
-236.875101257128
 30
0.0
 10
167.7167054752298
 20
-236.875101257128
 30
0.0
 10
167.616707006763
 20
-236.775095159267
 30
0.0
 10
167.616707006763
 20
-236.875101257128
 30
0.0
 10
167.616707006763
 20
-236.875101257128
 30
0.0
 10
167.616707006763
 20
-242.6751192397228
 30
0.0
 10
167.616707006763
 20
-242.6751192397228
 30
0.0
 10
167.616707006763
 20
-242.7750948200074
 30
0.0
 10
167.7167054752298
 20
-242.6751192397228
 30
0.0
 10
167.616707006763
 20
-242.6751192397228
 30
0.0
 10
167.616707006763
 20
-242.6751192397228
 30
0.0
 10
164.7167056448596
 20
-242.6751192397228
 30
0.0
 10
164.7167056448596
 20
-242.6751192397228
 30
0.0
 10
164.6617053427938
 20
-242.6751192397228
 30
0.0
 10
164.6167071763928
 20
-242.7201021473356
 30
0.0
 10
164.6167071763928
 20
-242.7750948200074
 30
0.0
 10
164.6167071763928
 20
-242.7750948200074
 30
0.0
 10
164.6167071763928
 20
-248.7750944807477
 30
0.0
 10
164.6167071763928
 20
-248.7750944807477
 30
0.0
 10
164.6167071763928
 20
-248.8301176709959
 30
0.0
 10
164.6617053427938
 20
-248.8751005786087
 30
0.0
 10
164.7167056448596
 20
-248.8751005786087
 30
0.0
 10
164.7167056448596
 20
-248.8751005786087
 30
0.0
 10
167.616707006763
 20
-248.8751005786087
 30
0.0
 10
167.616707006763
 20
-248.8751005786087
 30
0.0
 10
167.7167054752298
 20
-248.8751005786087
 30
0.0
 10
167.616707006763
 20
-248.7750944807477
 30
0.0
 10
167.616707006763
 20
-248.8751005786087
 30
0.0
 10
167.616707006763
 20
-248.8751005786087
 30
0.0
 10
167.616707006763
 20
-254.6751185612035
 30
0.0
 10
167.616707006763
 20
-254.6751185612035
 30
0.0
 10
167.616707006763
 20
-254.7750941414881
 30
0.0
 10
167.7167054752298
 20
-254.6751185612035
 30
0.0
 10
167.616707006763
 20
-254.6751185612035
 30
0.0
 10
167.616707006763
 20
-254.6751185612035
 30
0.0
 10
164.7167056448596
 20
-254.6751185612035
 30
0.0
 10
164.7167056448596
 20
-254.6751185612035
 30
0.0
 10
164.6617053427938
 20
-254.6751185612035
 30
0.0
 10
164.6167071763928
 20
-254.7201014688163
 30
0.0
 10
164.6167071763928
 20
-254.7750941414881
 30
0.0
 10
164.6167071763928
 20
-254.7750941414881
 30
0.0
 10
164.6167071763928
 20
-260.7750938022284
 30
0.0
 10
164.6167071763928
 20
-260.7750938022284
 30
0.0
 10
164.6167071763928
 20
-260.8301169924766
 30
0.0
 10
164.6617053427938
 20
-260.8750999000894
 30
0.0
 10
164.7167056448596
 20
-260.8750999000894
 30
0.0
 10
164.7167056448596
 20
-260.8750999000894
 30
0.0
 10
167.616707006763
 20
-260.8750999000894
 30
0.0
 10
167.616707006763
 20
-260.8750999000894
 30
0.0
 10
167.7167054752298
 20
-260.8750999000894
 30
0.0
 10
167.616707006763
 20
-260.7750938022284
 30
0.0
 10
167.616707006763
 20
-260.8750999000894
 30
0.0
 10
167.616707006763
 20
-260.8750999000894
 30
0.0
 10
167.616707006763
 20
-266.675102623896
 30
0.0
 10
167.616707006763
 20
-266.675102623896
 30
0.0
 10
167.616707006763
 20
-266.775108721757
 30
0.0
 10
167.7167054752298
 20
-266.675102623896
 30
0.0
 10
167.616707006763
 20
-266.675102623896
 30
0.0
 10
167.616707006763
 20
-266.675102623896
 30
0.0
 10
164.7167056448596
 20
-266.675102623896
 30
0.0
 10
164.7167056448596
 20
-266.675102623896
 30
0.0
 10
164.6617053427938
 20
-266.675102623896
 30
0.0
 10
164.6167071763928
 20
-266.720100790297
 30
0.0
 10
164.6167071763928
 20
-266.775108721757
 30
0.0
 10
164.6167071763928
 20
-266.775108721757
 30
0.0
 10
164.6167071763928
 20
-272.7751083824973
 30
0.0
 10
164.6167071763928
 20
-272.7751083824973
 30
0.0
 10
164.6167071763928
 20
-272.8301010551691
 30
0.0
 10
164.6617053427938
 20
-272.8750992215701
 30
0.0
 10
164.7167056448596
 20
-272.8750992215701
 30
0.0
 10
164.7167056448596
 20
-272.8750992215701
 30
0.0
 10
167.616707006763
 20
-272.8750992215701
 30
0.0
 10
167.616707006763
 20
-272.8750992215701
 30
0.0
 10
167.7167054752298
 20
-272.8750992215701
 30
0.0
 10
167.616707006763
 20
-272.7751083824973
 30
0.0
 10
167.616707006763
 20
-272.8750992215701
 30
0.0
 10
167.616707006763
 20
-272.8750992215701
 30
0.0
 10
167.616707006763
 20
-278.6751019453767
 30
0.0
 10
167.616707006763
 20
-278.6751019453767
 30
0.0
 10
167.616707006763
 20
-278.7751080432377
 30
0.0
 10
167.7167054752298
 20
-278.6751019453767
 30
0.0
 10
167.616707006763
 20
-278.6751019453767
 30
0.0
 10
167.616707006763
 20
-278.6751019453767
 30
0.0
 10
164.7167056448596
 20
-278.6751019453767
 30
0.0
 10
164.7167056448596
 20
-278.6751019453767
 30
0.0
 10
164.6617053427938
 20
-278.6751019453767
 30
0.0
 10
164.6167071763928
 20
-278.7201001117777
 30
0.0
 10
164.6167071763928
 20
-278.7751080432377
 30
0.0
 10
164.6167071763928
 20
-278.7751080432377
 30
0.0
 10
164.6167071763928
 20
-280.8111034115142
 30
0.0
 10
164.6167071763928
 20
-280.8111034115142
 30
0.0
 10
164.6167071763928
 20
-280.866096084186
 30
0.0
 10
164.6617053427938
 20
-280.9111095093752
 30
0.0
 10
164.7167056448596
 20
-280.9111095093752
 30
0.0
 10
164.7167056448596
 20
-280.9111095093752
 30
0.0
 10
167.7167054752298
 20
-280.9111095093752
 30
0.0
 10
167.7167054752298
 20
-280.9111095093752
 30
0.0
 10
167.7167054752298
 20
-280.9111095093752
 30
0.0
 10
179.7167047967105
 20
-280.9111095093752
 30
0.0
 10
179.7167047967105
 20
-280.9111095093752
 30
0.0
 10
180.7877038816605
 20
-280.9111095093752
 30
0.0
 10
181.8397057753019
 20
-280.629096585868
 30
0.0
 10
182.7667076760112
 20
-280.0941082127977
 30
0.0
 10
183.6937095767204
 20
-279.558097500918
 30
0.0
 10
184.4637061762487
 20
-278.7881085307838
 30
0.0
 10
184.9997092587343
 20
-277.8611066300746
 30
0.0
 10
185.5177069711442
 20
-276.9641035069659
 30
0.0
 10
186.2617025955802
 20
-276.2191084319029
 30
0.0
 10
187.1587057186888
 20
-275.7011030900989
 30
0.0
 10
188.0557088417974
 20
-275.184104828316
 30
0.0
 10
189.0737065259357
 20
-274.9111098486349
 30
0.0
 10
190.1087025001285
 20
-274.9111098486349
 30
0.0
 10
190.1087025001285
 20
-274.9111098486349
 30
0.0
 10
199.3247053969942
 20
-274.9111098486349
 30
0.0
 10
199.3247053969942
 20
-274.9111098486349
 30
0.0
 10
200.359701371187
 20
-274.9111098486349
 30
0.0
 10
201.3777066847194
 20
-275.184104828316
 30
0.0
 10
202.274702178434
 20
-275.7011030900989
 30
0.0
 10
203.1717053015426
 20
-276.2191084319029
 30
0.0
 10
203.9157085553726
 20
-276.9641035069659
 30
0.0
 10
204.4337062677826
 20
-277.8611066300746
 30
0.0
 10
204.969701720874
 20
-278.7881085307838
 30
0.0
 10
205.7397059497964
 20
-279.558097500918
 30
0.0
 10
206.6667078505057
 20
-280.0941082127977
 30
0.0
 10
207.5937021218209
 20
-280.629096585868
 30
0.0
 10
208.6457040154622
 20
-280.9111095093752
 30
0.0
 10
209.7167031004122
 20
-280.9111095093752
 30
0.0
 10
209.7167031004122
 20
-280.9111095093752
 30
0.0
 10
221.7167024218929
 20
-280.9111095093752
 30
0.0
 10
221.7167024218929
 20
-280.9111095093752
 30
0.0
 10
221.7167024218929
 20
-280.9111095093752
 30
0.0
 10
224.7167022522631
 20
-280.9111095093752
 30
0.0
 10
224.7167022522631
 20
-280.9111095093752
 30
0.0
 10
224.771702554329
 20
-280.9111095093752
 30
0.0
 10
224.81670072073
 20
-280.866096084186
 30
0.0
 10
224.81670072073
 20
-280.8111034115142
 30
0.0
  0
SPLINE
  5
4B
330
46
100
AcDbEntity
  8
Layer 1
 62
   175
420
  2837403
370
    20
100
AcDbSpline
210
0.0
220
0.0
230
1.0
 70
    11
 71
     3
 72
    32
 73
    28
 74
     0
 42
0.0000000001
 43
0.0000000001
 12
1.0
 22
0.0
 32
0.0
 13
1.0
 23
0.0
 33
0.0
 40
0.0
 40
0.0
 40
0.0
 40
0.0
 40
1.0
 40
1.0
 40
1.0
 40
2.0
 40
2.0
 40
2.0
 40
3.0
 40
3.0
 40
3.0
 40
4.0
 40
4.0
 40
4.0
 40
5.0
 40
5.0
 40
5.0
 40
6.0
 40
6.0
 40
6.0
 40
7.0
 40
7.0
 40
7.0
 40
8.0
 40
8.0
 40
8.0
 40
9.0
 40
9.0
 40
9.0
 40
9.0
 10
176.7167049663403
 20
-271.8111039204038
 30
0.0
 10
176.7167049663403
 20
-271.8111039204038
 30
0.0
 10
173.8167074191344
 20
-271.8111039204038
 30
0.0
 10
173.8167074191344
 20
-271.8111039204038
 30
0.0
 10
173.7167051359702
 20
-271.8111039204038
 30
0.0
 10
173.8167074191344
 20
-271.9111100182647
 30
0.0
 10
173.8167074191344
 20
-271.8111039204038
 30
0.0
 10
173.8167074191344
 20
-271.8111039204038
 30
0.0
 10
173.8167074191344
 20
-269.0111010269673
 30
0.0
 10
173.8167074191344
 20
-269.0111010269673
 30
0.0
 10
173.8167074191344
 20
-268.9111101878945
 30
0.0
 10
173.7167051359702
 20
-269.0111010269673
 30
0.0
 10
173.8167074191344
 20
-269.0111010269673
 30
0.0
 10
173.8167074191344
 20
-269.0111010269673
 30
0.0
 10
179.6167063282437
 20
-269.0111010269673
 30
0.0
 10
179.6167063282437
 20
-269.0111010269673
 30
0.0
 10
179.7167047967105
 20
-269.0111010269673
 30
0.0
 10
179.6167063282437
 20
-268.9111101878945
 30
0.0
 10
179.6167063282437
 20
-269.0111010269673
 30
0.0
 10
179.6167063282437
 20
-269.0111010269673
 30
0.0
 10
179.6167063282437
 20
-271.8111039204038
 30
0.0
 10
179.6167063282437
 20
-271.8111039204038
 30
0.0
 10
179.6167063282437
 20
-271.9111100182647
 30
0.0
 10
179.7167047967105
 20
-271.8111039204038
 30
0.0
 10
179.6167063282437
 20
-271.8111039204038
 30
0.0
 10
179.6167063282437
 20
-271.8111039204038
 30
0.0
 10
176.7167049663403
 20
-271.8111039204038
 30
0.0
 10
176.7167049663403
 20
-271.8111039204038
 30
0.0
  0
SPLINE
  5
4C
330
46
100
AcDbEntity
  8
Layer 1
 62
   175
420
  2837403
370
    20
100
AcDbSpline
210
0.0
220
0.0
230
1.0
 70
    11
 71
     3
 72
    32
 73
    28
 74
     0
 42
0.0000000001
 43
0.0000000001
 12
1.0
 22
0.0
 32
0.0
 13
1.0
 23
0.0
 33
0.0
 40
0.0
 40
0.0
 40
0.0
 40
0.0
 40
1.0
 40
1.0
 40
1.0
 40
2.0
 40
2.0
 40
2.0
 40
3.0
 40
3.0
 40
3.0
 40
4.0
 40
4.0
 40
4.0
 40
5.0
 40
5.0
 40
5.0
 40
6.0
 40
6.0
 40
6.0
 40
7.0
 40
7.0
 40
7.0
 40
8.0
 40
8.0
 40
8.0
 40
9.0
 40
9.0
 40
9.0
 40
9.0
 10
188.716704287821
 20
-271.8111039204038
 30
0.0
 10
188.716704287821
 20
-271.8111039204038
 30
0.0
 10
185.8167029259177
 20
-271.8111039204038
 30
0.0
 10
185.8167029259177
 20
-271.8111039204038
 30
0.0
 10
185.7167044574509
 20
-271.8111039204038
 30
0.0
 10
185.8167029259177
 20
-271.9111100182647
 30
0.0
 10
185.8167029259177
 20
-271.8111039204038
 30
0.0
 10
185.8167029259177
 20
-271.8111039204038
 30
0.0
 10
185.8167029259177
 20
-269.0111010269673
 30
0.0
 10
185.8167029259177
 20
-269.0111010269673
 30
0.0
 10
185.8167029259177
 20
-268.9111101878945
 30
0.0
 10
185.7167044574509
 20
-269.0111010269673
 30
0.0
 10
185.8167029259177
 20
-269.0111010269673
 30
0.0
 10
185.8167029259177
 20
-269.0111010269673
 30
0.0
 10
191.6167056497244
 20
-269.0111010269673
 30
0.0
 10
191.6167056497244
 20
-269.0111010269673
 30
0.0
 10
191.7167041181912
 20
-269.0111010269673
 30
0.0
 10
191.6167056497244
 20
-268.9111101878945
 30
0.0
 10
191.6167056497244
 20
-269.0111010269673
 30
0.0
 10
191.6167056497244
 20
-269.0111010269673
 30
0.0
 10
191.6167056497244
 20
-271.8111039204038
 30
0.0
 10
191.6167056497244
 20
-271.8111039204038
 30
0.0
 10
191.6167056497244
 20
-271.9111100182647
 30
0.0
 10
191.7167041181912
 20
-271.8111039204038
 30
0.0
 10
191.6167056497244
 20
-271.8111039204038
 30
0.0
 10
191.6167056497244
 20
-271.8111039204038
 30
0.0
 10
188.716704287821
 20
-271.8111039204038
 30
0.0
 10
188.716704287821
 20
-271.8111039204038
 30
0.0
  0
SPLINE
  5
4D
330
46
100
AcDbEntity
  8
Layer 1
 62
   175
420
  2837403
370
    20
100
AcDbSpline
210
0.0
220
0.0
230
1.0
 70
    11
 71
     3
 72
    32
 73
    28
 74
     0
 42
0.0000000001
 43
0.0000000001
 12
1.0
 22
0.0
 32
0.0
 13
1.0
 23
0.0
 33
0.0
 40
0.0
 40
0.0
 40
0.0
 40
0.0
 40
1.0
 40
1.0
 40
1.0
 40
2.0
 40
2.0
 40
2.0
 40
3.0
 40
3.0
 40
3.0
 40
4.0
 40
4.0
 40
4.0
 40
5.0
 40
5.0
 40
5.0
 40
6.0
 40
6.0
 40
6.0
 40
7.0
 40
7.0
 40
7.0
 40
8.0
 40
8.0
 40
8.0
 40
9.0
 40
9.0
 40
9.0
 40
9.0
 10
200.7167036093017
 20
-271.8111039204038
 30
0.0
 10
200.7167036093017
 20
-271.8111039204038
 30
0.0
 10
197.8167022473984
 20
-271.8111039204038
 30
0.0
 10
197.8167022473984
 20
-271.8111039204038
 30
0.0
 10
197.7167037789316
 20
-271.8111039204038
 30
0.0
 10
197.8167022473984
 20
-271.9111100182647
 30
0.0
 10
197.8167022473984
 20
-271.8111039204038
 30
0.0
 10
197.8167022473984
 20
-271.8111039204038
 30
0.0
 10
197.8167022473984
 20
-269.0111010269673
 30
0.0
 10
197.8167022473984
 20
-269.0111010269673
 30
0.0
 10
197.8167022473984
 20
-268.9111101878945
 30
0.0
 10
197.7167037789316
 20
-269.0111010269673
 30
0.0
 10
197.8167022473984
 20
-269.0111010269673
 30
0.0
 10
197.8167022473984
 20
-269.0111010269673
 30
0.0
 10
203.6167049712051
 20
-269.0111010269673
 30
0.0
 10
203.6167049712051
 20
-269.0111010269673
 30
0.0
 10
203.7167034396719
 20
-269.0111010269673
 30
0.0
 10
203.6167049712051
 20
-268.9111101878945
 30
0.0
 10
203.6167049712051
 20
-269.0111010269673
 30
0.0
 10
203.6167049712051
 20
-269.0111010269673
 30
0.0
 10
203.6167049712051
 20
-271.8111039204038
 30
0.0
 10
203.6167049712051
 20
-271.8111039204038
 30
0.0
 10
203.6167049712051
 20
-271.9111100182647
 30
0.0
 10
203.7167034396719
 20
-271.8111039204038
 30
0.0
 10
203.6167049712051
 20
-271.8111039204038
 30
0.0
 10
203.6167049712051
 20
-271.8111039204038
 30
0.0
 10
200.7167036093017
 20
-271.8111039204038
 30
0.0
 10
200.7167036093017
 20
-271.8111039204038
 30
0.0
  0
SPLINE
  5
4E
330
46
100
AcDbEntity
  8
Layer 1
 62
   175
420
  2837403
370
    20
100
AcDbSpline
210
0.0
220
0.0
230
1.0
 70
    11
 71
     3
 72
    32
 73
    28
 74
     0
 42
0.0000000001
 43
0.0000000001
 12
1.0
 22
0.0
 32
0.0
 13
1.0
 23
0.0
 33
0.0
 40
0.0
 40
0.0
 40
0.0
 40
0.0
 40
1.0
 40
1.0
 40
1.0
 40
2.0
 40
2.0
 40
2.0
 40
3.0
 40
3.0
 40
3.0
 40
4.0
 40
4.0
 40
4.0
 40
5.0
 40
5.0
 40
5.0
 40
6.0
 40
6.0
 40
6.0
 40
7.0
 40
7.0
 40
7.0
 40
8.0
 40
8.0
 40
8.0
 40
9.0
 40
9.0
 40
9.0
 40
9.0
 10
212.7167029307824
 20
-271.8111039204038
 30
0.0
 10
212.7167029307824
 20
-271.8111039204038
 30
0.0
 10
209.8167015688791
 20
-271.8111039204038
 30
0.0
 10
209.8167015688791
 20
-271.8111039204038
 30
0.0
 10
209.7167031004122
 20
-271.8111039204038
 30
0.0
 10
209.8167015688791
 20
-271.9111100182647
 30
0.0
 10
209.8167015688791
 20
-271.8111039204038
 30
0.0
 10
209.8167015688791
 20
-271.8111039204038
 30
0.0
 10
209.8167015688791
 20
-269.0111010269673
 30
0.0
 10
209.8167015688791
 20
-269.0111010269673
 30
0.0
 10
209.8167015688791
 20
-268.9111101878945
 30
0.0
 10
209.7167031004122
 20
-269.0111010269673
 30
0.0
 10
209.8167015688791
 20
-269.0111010269673
 30
0.0
 10
209.8167015688791
 20
-269.0111010269673
 30
0.0
 10
215.6167042926857
 20
-269.0111010269673
 30
0.0
 10
215.6167042926857
 20
-269.0111010269673
 30
0.0
 10
215.7167027611526
 20
-269.0111010269673
 30
0.0
 10
215.6167042926857
 20
-268.9111101878945
 30
0.0
 10
215.6167042926857
 20
-269.0111010269673
 30
0.0
 10
215.6167042926857
 20
-269.0111010269673
 30
0.0
 10
215.6167042926857
 20
-271.8111039204038
 30
0.0
 10
215.6167042926857
 20
-271.8111039204038
 30
0.0
 10
215.6167042926857
 20
-271.9111100182647
 30
0.0
 10
215.7167027611526
 20
-271.8111039204038
 30
0.0
 10
215.6167042926857
 20
-271.8111039204038
 30
0.0
 10
215.6167042926857
 20
-271.8111039204038
 30
0.0
 10
212.7167029307824
 20
-271.8111039204038
 30
0.0
 10
212.7167029307824
 20
-271.8111039204038
 30
0.0
  0
ENDBLK
  5
49
330
46
100
AcDbEntity
  8
0
100
AcDbBlockEnd
  0
BLOCK
  5
51
330
4F
100
AcDbEntity
  8
0
100
AcDbBlockBegin
  2
block 4
 70
     0
 10
0.0
 20
0.0
 30
0.0
  3
block 4
  1

  0
SPLINE
  5
53
330
4F
100
AcDbEntity
  8
Layer 1
 62
   178
420
        1
370
    20
100
AcDbSpline
210
0.0
220
0.0
230
1.0
 70
    11
 71
     3
 72
   461
 73
   457
 74
     0
 42
0.0000000001
 43
0.0000000001
 12
1.0
 22
0.0
 32
0.0
 13
1.0
 23
0.0
 33
0.0
 40
0.0
 40
0.0
 40
0.0
 40
0.0
 40
1.0
 40
1.0
 40
1.0
 40
2.0
 40
2.0
 40
2.0
 40
3.0
 40
3.0
 40
3.0
 40
4.0
 40
4.0
 40
4.0
 40
5.0
 40
5.0
 40
5.0
 40
6.0
 40
6.0
 40
6.0
 40
7.0
 40
7.0
 40
7.0
 40
8.0
 40
8.0
 40
8.0
 40
9.0
 40
9.0
 40
9.0
 40
10.0
 40
10.0
 40
10.0
 40
11.0
 40
11.0
 40
11.0
 40
12.0
 40
12.0
 40
12.0
 40
13.0
 40
13.0
 40
13.0
 40
14.0
 40
14.0
 40
14.0
 40
15.0
 40
15.0
 40
15.0
 40
16.0
 40
16.0
 40
16.0
 40
17.0
 40
17.0
 40
17.0
 40
18.0
 40
18.0
 40
18.0
 40
19.0
 40
19.0
 40
19.0
 40
20.0
 40
20.0
 40
20.0
 40
21.0
 40
21.0
 40
21.0
 40
22.0
 40
22.0
 40
22.0
 40
23.0
 40
23.0
 40
23.0
 40
24.0
 40
24.0
 40
24.0
 40
25.0
 40
25.0
 40
25.0
 40
26.0
 40
26.0
 40
26.0
 40
27.0
 40
27.0
 40
27.0
 40
28.0
 40
28.0
 40
28.0
 40
29.0
 40
29.0
 40
29.0
 40
30.0
 40
30.0
 40
30.0
 40
31.0
 40
31.0
 40
31.0
 40
32.0
 40
32.0
 40
32.0
 40
33.0
 40
33.0
 40
33.0
 40
34.0
 40
34.0
 40
34.0
 40
35.0
 40
35.0
 40
35.0
 40
36.0
 40
36.0
 40
36.0
 40
37.0
 40
37.0
 40
37.0
 40
38.0
 40
38.0
 40
38.0
 40
39.0
 40
39.0
 40
39.0
 40
40.0
 40
40.0
 40
40.0
 40
41.0
 40
41.0
 40
41.0
 40
42.0
 40
42.0
 40
42.0
 40
43.0
 40
43.0
 40
43.0
 40
44.0
 40
44.0
 40
44.0
 40
45.0
 40
45.0
 40
45.0
 40
46.0
 40
46.0
 40
46.0
 40
47.0
 40
47.0
 40
47.0
 40
48.0
 40
48.0
 40
48.0
 40
49.0
 40
49.0
 40
49.0
 40
50.0
 40
50.0
 40
50.0
 40
51.0
 40
51.0
 40
51.0
 40
52.0
 40
52.0
 40
52.0
 40
53.0
 40
53.0
 40
53.0
 40
54.0
 40
54.0
 40
54.0
 40
55.0
 40
55.0
 40
55.0
 40
56.0
 40
56.0
 40
56.0
 40
57.0
 40
57.0
 40
57.0
 40
58.0
 40
58.0
 40
58.0
 40
59.0
 40
59.0
 40
59.0
 40
60.0
 40
60.0
 40
60.0
 40
61.0
 40
61.0
 40
61.0
 40
62.0
 40
62.0
 40
62.0
 40
63.0
 40
63.0
 40
63.0
 40
64.0
 40
64.0
 40
64.0
 40
65.0
 40
65.0
 40
65.0
 40
66.0
 40
66.0
 40
66.0
 40
67.0
 40
67.0
 40
67.0
 40
68.0
 40
68.0
 40
68.0
 40
69.0
 40
69.0
 40
69.0
 40
70.0
 40
70.0
 40
70.0
 40
71.0
 40
71.0
 40
71.0
 40
72.0
 40
72.0
 40
72.0
 40
73.0
 40
73.0
 40
73.0
 40
74.0
 40
74.0
 40
74.0
 40
75.0
 40
75.0
 40
75.0
 40
76.0
 40
76.0
 40
76.0
 40
77.0
 40
77.0
 40
77.0
 40
78.0
 40
78.0
 40
78.0
 40
79.0
 40
79.0
 40
79.0
 40
80.0
 40
80.0
 40
80.0
 40
81.0
 40
81.0
 40
81.0
 40
82.0
 40
82.0
 40
82.0
 40
83.0
 40
83.0
 40
83.0
 40
84.0
 40
84.0
 40
84.0
 40
85.0
 40
85.0
 40
85.0
 40
86.0
 40
86.0
 40
86.0
 40
87.0
 40
87.0
 40
87.0
 40
88.0
 40
88.0
 40
88.0
 40
89.0
 40
89.0
 40
89.0
 40
90.0
 40
90.0
 40
90.0
 40
91.0
 40
91.0
 40
91.0
 40
92.0
 40
92.0
 40
92.0
 40
93.0
 40
93.0
 40
93.0
 40
94.0
 40
94.0
 40
94.0
 40
95.0
 40
95.0
 40
95.0
 40
96.0
 40
96.0
 40
96.0
 40
97.0
 40
97.0
 40
97.0
 40
98.0
 40
98.0
 40
98.0
 40
99.0
 40
99.0
 40
99.0
 40
100.0
 40
100.0
 40
100.0
 40
101.0
 40
101.0
 40
101.0
 40
102.0
 40
102.0
 40
102.0
 40
103.0
 40
103.0
 40
103.0
 40
104.0
 40
104.0
 40
104.0
 40
105.0
 40
105.0
 40
105.0
 40
106.0
 40
106.0
 40
106.0
 40
107.0
 40
107.0
 40
107.0
 40
108.0
 40
108.0
 40
108.0
 40
109.0
 40
109.0
 40
109.0
 40
110.0
 40
110.0
 40
110.0
 40
111.0
 40
111.0
 40
111.0
 40
112.0
 40
112.0
 40
112.0
 40
113.0
 40
113.0
 40
113.0
 40
114.0
 40
114.0
 40
114.0
 40
115.0
 40
115.0
 40
115.0
 40
116.0
 40
116.0
 40
116.0
 40
117.0
 40
117.0
 40
117.0
 40
118.0
 40
118.0
 40
118.0
 40
119.0
 40
119.0
 40
119.0
 40
120.0
 40
120.0
 40
120.0
 40
121.0
 40
121.0
 40
121.0
 40
122.0
 40
122.0
 40
122.0
 40
123.0
 40
123.0
 40
123.0
 40
124.0
 40
124.0
 40
124.0
 40
125.0
 40
125.0
 40
125.0
 40
126.0
 40
126.0
 40
126.0
 40
127.0
 40
127.0
 40
127.0
 40
128.0
 40
128.0
 40
128.0
 40
129.0
 40
129.0
 40
129.0
 40
130.0
 40
130.0
 40
130.0
 40
131.0
 40
131.0
 40
131.0
 40
132.0
 40
132.0
 40
132.0
 40
133.0
 40
133.0
 40
133.0
 40
134.0
 40
134.0
 40
134.0
 40
135.0
 40
135.0
 40
135.0
 40
136.0
 40
136.0
 40
136.0
 40
137.0
 40
137.0
 40
137.0
 40
138.0
 40
138.0
 40
138.0
 40
139.0
 40
139.0
 40
139.0
 40
140.0
 40
140.0
 40
140.0
 40
141.0
 40
141.0
 40
141.0
 40
142.0
 40
142.0
 40
142.0
 40
143.0
 40
143.0
 40
143.0
 40
144.0
 40
144.0
 40
144.0
 40
145.0
 40
145.0
 40
145.0
 40
146.0
 40
146.0
 40
146.0
 40
147.0
 40
147.0
 40
147.0
 40
148.0
 40
148.0
 40
148.0
 40
149.0
 40
149.0
 40
149.0
 40
150.0
 40
150.0
 40
150.0
 40
151.0
 40
151.0
 40
151.0
 40
152.0
 40
152.0
 40
152.0
 40
152.0
 10
89.04881293825176
 20
-101.9898205999301
 30
0.0
 10
89.04881293825176
 20
-101.9898205999301
 30
0.0
 10
91.94880667076099
 20
-101.9898205999301
 30
0.0
 10
91.94880667076099
 20
-101.9898205999301
 30
0.0
 10
92.04881276862194
 20
-101.9898205999301
 30
0.0
 10
91.94880667076099
 20
-101.8898221314632
 30
0.0
 10
91.94880667076099
 20
-101.9898205999301
 30
0.0
 10
91.94880667076099
 20
-101.9898205999301
 30
0.0
 10
91.94880667076099
 20
-104.8898219618334
 30
0.0
 10
91.94880667076099
 20
-104.8898219618334
 30
0.0
 10
91.94880667076099
 20
-104.9448222638993
 30
0.0
 10
91.99380483716195
 20
-104.9898204303002
 30
0.0
 10
92.04881276862194
 20
-104.9898204303002
 30
0.0
 10
92.04881276862194
 20
-104.9898204303002
 30
0.0
 10
98.04881242936229
 20
-104.9898204303002
 30
0.0
 10
98.04881242936229
 20
-104.9898204303002
 30
0.0
 10
98.10380510203407
 20
-104.9898204303002
 30
0.0
 10
98.14880326843503
 20
-104.9448222638993
 30
0.0
 10
98.14880326843503
 20
-104.8898219618334
 30
0.0
 10
98.14880326843503
 20
-104.8898219618334
 30
0.0
 10
98.14880326843503
 20
-101.9898205999301
 30
0.0
 10
98.14880326843503
 20
-101.9898205999301
 30
0.0
 10
98.14880326843503
 20
-101.8898221314632
 30
0.0
 10
98.04881242936229
 20
-101.9898205999301
 30
0.0
 10
98.14880326843503
 20
-101.9898205999301
 30
0.0
 10
98.14880326843503
 20
-101.9898205999301
 30
0.0
 10
103.9488059922417
 20
-101.9898205999301
 30
0.0
 10
103.9488059922417
 20
-101.9898205999301
 30
0.0
 10
104.0488120901026
 20
-101.9898205999301
 30
0.0
 10
103.9488059922417
 20
-101.8898221314632
 30
0.0
 10
103.9488059922417
 20
-101.9898205999301
 30
0.0
 10
103.9488059922417
 20
-101.9898205999301
 30
0.0
 10
103.9488059922417
 20
-104.8898219618334
 30
0.0
 10
103.9488059922417
 20
-104.8898219618334
 30
0.0
 10
103.9488059922417
 20
-104.9448222638993
 30
0.0
 10
103.9938041586426
 20
-104.9898204303002
 30
0.0
 10
104.0488120901026
 20
-104.9898204303002
 30
0.0
 10
104.0488120901026
 20
-104.9898204303002
 30
0.0
 10
110.048811750843
 20
-104.9898204303002
 30
0.0
 10
110.048811750843
 20
-104.9898204303002
 30
0.0
 10
110.1038044235148
 20
-104.9898204303002
 30
0.0
 10
110.1488025899157
 20
-104.9448222638993
 30
0.0
 10
110.1488025899157
 20
-104.8898219618334
 30
0.0
 10
110.1488025899157
 20
-104.8898219618334
 30
0.0
 10
110.1488025899157
 20
-101.9898205999301
 30
0.0
 10
110.1488025899157
 20
-101.9898205999301
 30
0.0
 10
110.1488025899157
 20
-101.8898221314632
 30
0.0
 10
110.048811750843
 20
-101.9898205999301
 30
0.0
 10
110.1488025899157
 20
-101.9898205999301
 30
0.0
 10
110.1488025899157
 20
-101.9898205999301
 30
0.0
 10
115.9488053137224
 20
-101.9898205999301
 30
0.0
 10
115.9488053137224
 20
-101.9898205999301
 30
0.0
 10
116.0488114115833
 20
-101.9898205999301
 30
0.0
 10
115.9488053137224
 20
-101.8898221314632
 30
0.0
 10
115.9488053137224
 20
-101.9898205999301
 30
0.0
 10
115.9488053137224
 20
-101.9898205999301
 30
0.0
 10
115.9488053137224
 20
-104.8898219618334
 30
0.0
 10
115.9488053137224
 20
-104.8898219618334
 30
0.0
 10
115.9488053137224
 20
-104.9448222638993
 30
0.0
 10
115.9938034801233
 20
-104.9898204303002
 30
0.0
 10
116.0488114115833
 20
-104.9898204303002
 30
0.0
 10
116.0488114115833
 20
-104.9898204303002
 30
0.0
 10
122.0488110723237
 20
-104.9898204303002
 30
0.0
 10
122.0488110723237
 20
-104.9898204303002
 30
0.0
 10
122.1038037449955
 20
-104.9898204303002
 30
0.0
 10
122.1488019113964
 20
-104.9448222638993
 30
0.0
 10
122.1488019113964
 20
-104.8898219618334
 30
0.0
 10
122.1488019113964
 20
-104.8898219618334
 30
0.0
 10
122.1488019113964
 20
-101.9898205999301
 30
0.0
 10
122.1488019113964
 20
-101.9898205999301
 30
0.0
 10
122.1488019113964
 20
-101.8898221314632
 30
0.0
 10
122.0488110723237
 20
-101.9898205999301
 30
0.0
 10
122.1488019113964
 20
-101.9898205999301
 30
0.0
 10
122.1488019113964
 20
-101.9898205999301
 30
0.0
 10
127.9488046352031
 20
-101.9898205999301
 30
0.0
 10
127.9488046352031
 20
-101.9898205999301
 30
0.0
 10
128.048810733064
 20
-101.9898205999301
 30
0.0
 10
127.9488046352031
 20
-101.8898221314632
 30
0.0
 10
127.9488046352031
 20
-101.9898205999301
 30
0.0
 10
127.9488046352031
 20
-101.9898205999301
 30
0.0
 10
127.9488046352031
 20
-104.8898219618334
 30
0.0
 10
127.9488046352031
 20
-104.8898219618334
 30
0.0
 10
127.9488046352031
 20
-104.9448222638993
 30
0.0
 10
127.993802801604
 20
-104.9898204303002
 30
0.0
 10
128.048810733064
 20
-104.9898204303002
 30
0.0
 10
128.048810733064
 20
-104.9898204303002
 30
0.0
 10
134.0488103938044
 20
-104.9898204303002
 30
0.0
 10
134.0488103938044
 20
-104.9898204303002
 30
0.0
 10
134.1038030664762
 20
-104.9898204303002
 30
0.0
 10
134.1488012328771
 20
-104.9448222638993
 30
0.0
 10
134.1488012328771
 20
-104.8898219618334
 30
0.0
 10
134.1488012328771
 20
-104.8898219618334
 30
0.0
 10
134.1488012328771
 20
-101.9898205999301
 30
0.0
 10
134.1488012328771
 20
-101.9898205999301
 30
0.0
 10
134.1488012328771
 20
-101.8898221314632
 30
0.0
 10
134.0488103938044
 20
-101.9898205999301
 30
0.0
 10
134.1488012328771
 20
-101.9898205999301
 30
0.0
 10
134.1488012328771
 20
-101.9898205999301
 30
0.0
 10
139.9488039566837
 20
-101.9898205999301
 30
0.0
 10
139.9488039566837
 20
-101.9898205999301
 30
0.0
 10
140.0488100545447
 20
-101.9898205999301
 30
0.0
 10
139.9488039566837
 20
-101.8898221314632
 30
0.0
 10
139.9488039566837
 20
-101.9898205999301
 30
0.0
 10
139.9488039566837
 20
-101.9898205999301
 30
0.0
 10
139.9488039566837
 20
-104.8898219618334
 30
0.0
 10
139.9488039566837
 20
-104.8898219618334
 30
0.0
 10
139.9488039566837
 20
-104.9448222638993
 30
0.0
 10
139.9938021230847
 20
-104.9898204303002
 30
0.0
 10
140.0488100545447
 20
-104.9898204303002
 30
0.0
 10
140.0488100545447
 20
-104.9898204303002
 30
0.0
 10
146.048809715285
 20
-104.9898204303002
 30
0.0
 10
146.048809715285
 20
-104.9898204303002
 30
0.0
 10
146.1038023879568
 20
-104.9898204303002
 30
0.0
 10
146.1488005543578
 20
-104.9448222638993
 30
0.0
 10
146.1488005543578
 20
-104.8898219618334
 30
0.0
 10
146.1488005543578
 20
-104.8898219618334
 30
0.0
 10
146.1488005543578
 20
-101.9898205999301
 30
0.0
 10
146.1488005543578
 20
-101.9898205999301
 30
0.0
 10
146.1488005543578
 20
-101.8898221314632
 30
0.0
 10
146.048809715285
 20
-101.9898205999301
 30
0.0
 10
146.1488005543578
 20
-101.9898205999301
 30
0.0
 10
146.1488005543578
 20
-101.9898205999301
 30
0.0
 10
149.0488095456552
 20
-101.9898205999301
 30
0.0
 10
149.0488095456552
 20
-101.9898205999301
 30
0.0
 10
149.103802218327
 20
-101.9898205999301
 30
0.0
 10
149.148800384728
 20
-101.9448224335291
 30
0.0
 10
149.148800384728
 20
-101.8898221314632
 30
0.0
 10
149.148800384728
 20
-101.8898221314632
 30
0.0
 10
149.148800384728
 20
-95.98982475388645
 30
0.0
 10
149.148800384728
 20
-95.98982475388645
 30
0.0
 10
149.148800384728
 20
-95.88982247072288
 30
0.0
 10
149.0488095456552
 20
-95.98982475388645
 30
0.0
 10
149.148800384728
 20
-95.98982475388645
 30
0.0
 10
149.148800384728
 20
-95.98982475388645
 30
0.0
 10
152.0488093760254
 20
-95.98982475388645
 30
0.0
 10
152.0488093760254
 20
-95.98982475388645
 30
0.0
 10
152.1038020486972
 20
-95.98982475388645
 30
0.0
 10
152.1488002150982
 20
-95.94482277278875
 30
0.0
 10
152.1488002150982
 20
-95.88982247072288
 30
0.0
 10
152.1488002150982
 20
-95.88982247072288
 30
0.0
 10
152.1488002150982
 20
-89.88982280998253
 30
0.0
 10
152.1488002150982
 20
-89.88982280998253
 30
0.0
 10
152.1488002150982
 20
-89.83482250791664
 30
0.0
 10
152.1038020486972
 20
-89.78982434151567
 30
0.0
 10
152.0488093760254
 20
-89.78982434151567
 30
0.0
 10
152.0488093760254
 20
-89.78982434151567
 30
0.0
 10
149.148800384728
 20
-89.78982434151567
 30
0.0
 10
149.148800384728
 20
-89.78982434151567
 30
0.0
 10
149.0488095456552
 20
-89.78982434151567
 30
0.0
 10
149.148800384728
 20
-89.88982280998253
 30
0.0
 10
149.148800384728
 20
-89.78982434151567
 30
0.0
 10
149.148800384728
 20
-89.78982434151567
 30
0.0
 10
149.148800384728
 20
-83.98982543240577
 30
0.0
 10
149.148800384728
 20
-83.98982543240577
 30
0.0
 10
149.148800384728
 20
-83.88982314924218
 30
0.0
 10
149.0488095456552
 20
-83.98982543240577
 30
0.0
 10
149.148800384728
 20
-83.98982543240577
 30
0.0
 10
149.148800384728
 20
-83.98982543240577
 30
0.0
 10
152.0488093760254
 20
-83.98982543240577
 30
0.0
 10
152.0488093760254
 20
-83.98982543240577
 30
0.0
 10
152.1038020486972
 20
-83.98982543240577
 30
0.0
 10
152.1488002150982
 20
-83.94482345130807
 30
0.0
 10
152.1488002150982
 20
-83.88982314924218
 30
0.0
 10
152.1488002150982
 20
-83.88982314924218
 30
0.0
 10
152.1488002150982
 20
-77.88982348850183
 30
0.0
 10
152.1488002150982
 20
-77.88982348850183
 30
0.0
 10
152.1488002150982
 20
-77.83482318643595
 30
0.0
 10
152.1038020486972
 20
-77.78982502003498
 30
0.0
 10
152.0488093760254
 20
-77.78982502003498
 30
0.0
 10
152.0488093760254
 20
-77.78982502003498
 30
0.0
 10
149.148800384728
 20
-77.78982502003498
 30
0.0
 10
149.148800384728
 20
-77.78982502003498
 30
0.0
 10
149.0488095456552
 20
-77.78982502003498
 30
0.0
 10
149.148800384728
 20
-77.88982348850183
 30
0.0
 10
149.148800384728
 20
-77.78982502003498
 30
0.0
 10
149.148800384728
 20
-77.78982502003498
 30
0.0
 10
149.148800384728
 20
-71.9898261109257
 30
0.0
 10
149.148800384728
 20
-71.9898261109257
 30
0.0
 10
149.148800384728
 20
-71.88982382776149
 30
0.0
 10
149.0488095456552
 20
-71.9898261109257
 30
0.0
 10
149.148800384728
 20
-71.9898261109257
 30
0.0
 10
149.148800384728
 20
-71.9898261109257
 30
0.0
 10
152.0488093760254
 20
-71.9898261109257
 30
0.0
 10
152.0488093760254
 20
-71.9898261109257
 30
0.0
 10
152.1038020486972
 20
-71.9898261109257
 30
0.0
 10
152.1488002150982
 20
-71.94482412982737
 30
0.0
 10
152.1488002150982
 20
-71.88982382776149
 30
0.0
 10
152.1488002150982
 20
-71.88982382776149
 30
0.0
 10
152.1488002150982
 20
-65.88982607436951
 30
0.0
 10
152.1488002150982
 20
-65.88982607436951
 30
0.0
 10
152.1488002150982
 20
-65.83482577230362
 30
0.0
 10
152.1038020486972
 20
-65.78982569855428
 30
0.0
 10
152.0488093760254
 20
-65.78982569855428
 30
0.0
 10
152.0488093760254
 20
-65.78982569855428
 30
0.0
 10
149.148800384728
 20
-65.78982569855428
 30
0.0
 10
149.148800384728
 20
-65.78982569855428
 30
0.0
 10
149.0488095456552
 20
-65.78982569855428
 30
0.0
 10
149.148800384728
 20
-65.88982607436951
 30
0.0
 10
149.148800384728
 20
-65.78982569855428
 30
0.0
 10
149.148800384728
 20
-65.78982569855428
 30
0.0
 10
149.148800384728
 20
-59.98982678944502
 30
0.0
 10
149.148800384728
 20
-59.98982678944502
 30
0.0
 10
149.148800384728
 20
-59.88982641362916
 30
0.0
 10
149.0488095456552
 20
-59.98982678944502
 30
0.0
 10
149.148800384728
 20
-59.98982678944502
 30
0.0
 10
149.148800384728
 20
-59.98982678944502
 30
0.0
 10
152.0488093760254
 20
-59.98982678944502
 30
0.0
 10
152.0488093760254
 20
-59.98982678944502
 30
0.0
 10
152.1038020486972
 20
-59.98982678944502
 30
0.0
 10
152.1488002150982
 20
-59.94482671569504
 30
0.0
 10
152.1488002150982
 20
-59.88982641362916
 30
0.0
 10
152.1488002150982
 20
-59.88982641362916
 30
0.0
 10
152.1488002150982
 20
-53.88982675288882
 30
0.0
 10
152.1488002150982
 20
-53.88982675288882
 30
0.0
 10
152.1488002150982
 20
-53.83482645082293
 30
0.0
 10
152.1038020486972
 20
-53.7898263770736
 30
0.0
 10
152.0488093760254
 20
-53.7898263770736
 30
0.0
 10
152.0488093760254
 20
-53.7898263770736
 30
0.0
 10
149.148800384728
 20
-53.7898263770736
 30
0.0
 10
149.148800384728
 20
-53.7898263770736
 30
0.0
 10
149.0488095456552
 20
-53.7898263770736
 30
0.0
 10
149.148800384728
 20
-53.88982675288882
 30
0.0
 10
149.148800384728
 20
-53.7898263770736
 30
0.0
 10
149.148800384728
 20
-53.7898263770736
 30
0.0
 10
149.148800384728
 20
-47.88982709214847
 30
0.0
 10
149.148800384728
 20
-47.88982709214847
 30
0.0
 10
149.148800384728
 20
-47.83482679008258
 30
0.0
 10
149.103802218327
 20
-47.78982671633325
 30
0.0
 10
149.0488095456552
 20
-47.78982671633325
 30
0.0
 10
149.0488095456552
 20
-47.78982671633325
 30
0.0
 10
146.1488005543578
 20
-47.78982671633325
 30
0.0
 10
146.1488005543578
 20
-47.78982671633325
 30
0.0
 10
146.048809715285
 20
-47.78982671633325
 30
0.0
 10
146.1488005543578
 20
-47.88982709214847
 30
0.0
 10
146.1488005543578
 20
-47.78982671633325
 30
0.0
 10
146.1488005543578
 20
-47.78982671633325
 30
0.0
 10
146.1488005543578
 20
-44.88982726177829
 30
0.0
 10
146.1488005543578
 20
-44.88982726177829
 30
0.0
 10
146.1488005543578
 20
-44.83482695971241
 30
0.0
 10
146.1038023879568
 20
-44.78982688596307
 30
0.0
 10
146.048809715285
 20
-44.78982688596307
 30
0.0
 10
146.048809715285
 20
-44.78982688596307
 30
0.0
 10
140.0488100545447
 20
-44.78982688596307
 30
0.0
 10
140.0488100545447
 20
-44.78982688596307
 30
0.0
 10
139.9938021230847
 20
-44.78982688596307
 30
0.0
 10
139.9488039566837
 20
-44.83482695971241
 30
0.0
 10
139.9488039566837
 20
-44.88982726177829
 30
0.0
 10
139.9488039566837
 20
-44.88982726177829
 30
0.0
 10
139.9488039566837
 20
-47.78982671633325
 30
0.0
 10
139.9488039566837
 20
-47.78982671633325
 30
0.0
 10
139.9488039566837
 20
-47.88982709214847
 30
0.0
 10
140.0488100545447
 20
-47.78982671633325
 30
0.0
 10
139.9488039566837
 20
-47.78982671633325
 30
0.0
 10
139.9488039566837
 20
-47.78982671633325
 30
0.0
 10
134.1488012328771
 20
-47.78982671633325
 30
0.0
 10
134.1488012328771
 20
-47.78982671633325
 30
0.0
 10
134.0488103938044
 20
-47.78982671633325
 30
0.0
 10
134.1488012328771
 20
-47.88982709214847
 30
0.0
 10
134.1488012328771
 20
-47.78982671633325
 30
0.0
 10
134.1488012328771
 20
-47.78982671633325
 30
0.0
 10
134.1488012328771
 20
-44.88982726177829
 30
0.0
 10
134.1488012328771
 20
-44.88982726177829
 30
0.0
 10
134.1488012328771
 20
-44.83482695971241
 30
0.0
 10
134.1038030664762
 20
-44.78982688596307
 30
0.0
 10
134.0488103938044
 20
-44.78982688596307
 30
0.0
 10
134.0488103938044
 20
-44.78982688596307
 30
0.0
 10
128.048810733064
 20
-44.78982688596307
 30
0.0
 10
128.048810733064
 20
-44.78982688596307
 30
0.0
 10
127.993802801604
 20
-44.78982688596307
 30
0.0
 10
127.9488046352031
 20
-44.83482695971241
 30
0.0
 10
127.9488046352031
 20
-44.88982726177829
 30
0.0
 10
127.9488046352031
 20
-44.88982726177829
 30
0.0
 10
127.9488046352031
 20
-47.78982671633325
 30
0.0
 10
127.9488046352031
 20
-47.78982671633325
 30
0.0
 10
127.9488046352031
 20
-47.88982709214847
 30
0.0
 10
128.048810733064
 20
-47.78982671633325
 30
0.0
 10
127.9488046352031
 20
-47.78982671633325
 30
0.0
 10
127.9488046352031
 20
-47.78982671633325
 30
0.0
 10
122.1488019113964
 20
-47.78982671633325
 30
0.0
 10
122.1488019113964
 20
-47.78982671633325
 30
0.0
 10
122.0488110723237
 20
-47.78982671633325
 30
0.0
 10
122.1488019113964
 20
-47.88982709214847
 30
0.0
 10
122.1488019113964
 20
-47.78982671633325
 30
0.0
 10
122.1488019113964
 20
-47.78982671633325
 30
0.0
 10
122.1488019113964
 20
-44.88982726177829
 30
0.0
 10
122.1488019113964
 20
-44.88982726177829
 30
0.0
 10
122.1488019113964
 20
-44.83482695971241
 30
0.0
 10
122.1038037449955
 20
-44.78982688596307
 30
0.0
 10
122.0488110723237
 20
-44.78982688596307
 30
0.0
 10
122.0488110723237
 20
-44.78982688596307
 30
0.0
 10
116.0488114115833
 20
-44.78982688596307
 30
0.0
 10
116.0488114115833
 20
-44.78982688596307
 30
0.0
 10
115.9938034801233
 20
-44.78982688596307
 30
0.0
 10
115.9488053137224
 20
-44.83482695971241
 30
0.0
 10
115.9488053137224
 20
-44.88982726177829
 30
0.0
 10
115.9488053137224
 20
-44.88982726177829
 30
0.0
 10
115.9488053137224
 20
-47.78982671633325
 30
0.0
 10
115.9488053137224
 20
-47.78982671633325
 30
0.0
 10
115.9488053137224
 20
-47.88982709214847
 30
0.0
 10
116.0488114115833
 20
-47.78982671633325
 30
0.0
 10
115.9488053137224
 20
-47.78982671633325
 30
0.0
 10
115.9488053137224
 20
-47.78982671633325
 30
0.0
 10
110.1488025899157
 20
-47.78982671633325
 30
0.0
 10
110.1488025899157
 20
-47.78982671633325
 30
0.0
 10
110.048811750843
 20
-47.78982671633325
 30
0.0
 10
110.1488025899157
 20
-47.88982709214847
 30
0.0
 10
110.1488025899157
 20
-47.78982671633325
 30
0.0
 10
110.1488025899157
 20
-47.78982671633325
 30
0.0
 10
110.1488025899157
 20
-44.88982726177829
 30
0.0
 10
110.1488025899157
 20
-44.88982726177829
 30
0.0
 10
110.1488025899157
 20
-44.83482695971241
 30
0.0
 10
110.1038044235148
 20
-44.78982688596307
 30
0.0
 10
110.048811750843
 20
-44.78982688596307
 30
0.0
 10
110.048811750843
 20
-44.78982688596307
 30
0.0
 10
104.0488120901026
 20
-44.78982688596307
 30
0.0
 10
104.0488120901026
 20
-44.78982688596307
 30
0.0
 10
103.9938041586426
 20
-44.78982688596307
 30
0.0
 10
103.9488059922417
 20
-44.83482695971241
 30
0.0
 10
103.9488059922417
 20
-44.88982726177829
 30
0.0
 10
103.9488059922417
 20
-44.88982726177829
 30
0.0
 10
103.9488059922417
 20
-47.78982671633325
 30
0.0
 10
103.9488059922417
 20
-47.78982671633325
 30
0.0
 10
103.9488059922417
 20
-47.88982709214847
 30
0.0
 10
104.0488120901026
 20
-47.78982671633325
 30
0.0
 10
103.9488059922417
 20
-47.78982671633325
 30
0.0
 10
103.9488059922417
 20
-47.78982671633325
 30
0.0
 10
98.14880326843503
 20
-47.78982671633325
 30
0.0
 10
98.14880326843503
 20
-47.78982671633325
 30
0.0
 10
98.04881242936229
 20
-47.78982671633325
 30
0.0
 10
98.14880326843503
 20
-47.88982709214847
 30
0.0
 10
98.14880326843503
 20
-47.78982671633325
 30
0.0
 10
98.14880326843503
 20
-47.78982671633325
 30
0.0
 10
98.14880326843503
 20
-44.88982726177829
 30
0.0
 10
98.14880326843503
 20
-44.88982726177829
 30
0.0
 10
98.14880326843503
 20
-44.83482695971241
 30
0.0
 10
98.10380510203407
 20
-44.78982688596307
 30
0.0
 10
98.04881242936229
 20
-44.78982688596307
 30
0.0
 10
98.04881242936229
 20
-44.78982688596307
 30
0.0
 10
92.04881276862194
 20
-44.78982688596307
 30
0.0
 10
92.04881276862194
 20
-44.78982688596307
 30
0.0
 10
91.99380483716195
 20
-44.78982688596307
 30
0.0
 10
91.94880667076099
 20
-44.83482695971241
 30
0.0
 10
91.94880667076099
 20
-44.88982726177829
 30
0.0
 10
91.94880667076099
 20
-44.88982726177829
 30
0.0
 10
91.94880667076099
 20
-47.78982671633325
 30
0.0
 10
91.94880667076099
 20
-47.78982671633325
 30
0.0
 10
91.94880667076099
 20
-47.88982709214847
 30
0.0
 10
92.04881276862194
 20
-47.78982671633325
 30
0.0
 10
91.94880667076099
 20
-47.78982671633325
 30
0.0
 10
91.94880667076099
 20
-47.78982671633325
 30
0.0
 10
89.04881293825176
 20
-47.78982671633325
 30
0.0
 10
89.04881293825176
 20
-47.78982671633325
 30
0.0
 10
88.99380500679177
 20
-47.78982671633325
 30
0.0
 10
88.94880684039082
 20
-47.83482679008258
 30
0.0
 10
88.94880684039082
 20
-47.88982709214847
 30
0.0
 10
88.94880684039082
 20
-47.88982709214847
 30
0.0
 10
88.94880684039082
 20
-53.7898263770736
 30
0.0
 10
88.94880684039082
 20
-53.7898263770736
 30
0.0
 10
88.94880684039082
 20
-53.88982675288882
 30
0.0
 10
89.04881293825176
 20
-53.7898263770736
 30
0.0
 10
88.94880684039082
 20
-53.7898263770736
 30
0.0
 10
88.94880684039082
 20
-53.7898263770736
 30
0.0
 10
86.04881310788159
 20
-53.7898263770736
 30
0.0
 10
86.04881310788159
 20
-53.7898263770736
 30
0.0
 10
85.9938051764216
 20
-53.7898263770736
 30
0.0
 10
85.94880701002064
 20
-53.83482645082293
 30
0.0
 10
85.94880701002064
 20
-53.88982675288882
 30
0.0
 10
85.94880701002064
 20
-53.88982675288882
 30
0.0
 10
85.94880701002064
 20
-59.88982641362916
 30
0.0
 10
85.94880701002064
 20
-59.88982641362916
 30
0.0
 10
85.94880701002064
 20
-59.94482671569504
 30
0.0
 10
85.9938051764216
 20
-59.98982678944502
 30
0.0
 10
86.04881310788159
 20
-59.98982678944502
 30
0.0
 10
86.04881310788159
 20
-59.98982678944502
 30
0.0
 10
88.94880684039082
 20
-59.98982678944502
 30
0.0
 10
88.94880684039082
 20
-59.98982678944502
 30
0.0
 10
89.04881293825176
 20
-59.98982678944502
 30
0.0
 10
88.94880684039082
 20
-59.88982641362916
 30
0.0
 10
88.94880684039082
 20
-59.98982678944502
 30
0.0
 10
88.94880684039082
 20
-59.98982678944502
 30
0.0
 10
88.94880684039082
 20
-65.78982569855428
 30
0.0
 10
88.94880684039082
 20
-65.78982569855428
 30
0.0
 10
88.94880684039082
 20
-65.88982607436951
 30
0.0
 10
89.04881293825176
 20
-65.78982569855428
 30
0.0
 10
88.94880684039082
 20
-65.78982569855428
 30
0.0
 10
88.94880684039082
 20
-65.78982569855428
 30
0.0
 10
86.04881310788159
 20
-65.78982569855428
 30
0.0
 10
86.04881310788159
 20
-65.78982569855428
 30
0.0
 10
85.9938051764216
 20
-65.78982569855428
 30
0.0
 10
85.94880701002064
 20
-65.83482577230362
 30
0.0
 10
85.94880701002064
 20
-65.88982607436951
 30
0.0
 10
85.94880701002064
 20
-65.88982607436951
 30
0.0
 10
85.94880701002064
 20
-71.88982382776149
 30
0.0
 10
85.94880701002064
 20
-71.88982382776149
 30
0.0
 10
85.94880701002064
 20
-71.94482412982737
 30
0.0
 10
85.9938051764216
 20
-71.9898261109257
 30
0.0
 10
86.04881310788159
 20
-71.9898261109257
 30
0.0
 10
86.04881310788159
 20
-71.9898261109257
 30
0.0
 10
88.94880684039082
 20
-71.9898261109257
 30
0.0
 10
88.94880684039082
 20
-71.9898261109257
 30
0.0
 10
89.04881293825176
 20
-71.9898261109257
 30
0.0
 10
88.94880684039082
 20
-71.88982382776149
 30
0.0
 10
88.94880684039082
 20
-71.9898261109257
 30
0.0
 10
88.94880684039082
 20
-71.9898261109257
 30
0.0
 10
88.94880684039082
 20
-77.78982502003498
 30
0.0
 10
88.94880684039082
 20
-77.78982502003498
 30
0.0
 10
88.94880684039082
 20
-77.88982348850183
 30
0.0
 10
89.04881293825176
 20
-77.78982502003498
 30
0.0
 10
88.94880684039082
 20
-77.78982502003498
 30
0.0
 10
88.94880684039082
 20
-77.78982502003498
 30
0.0
 10
86.04881310788159
 20
-77.78982502003498
 30
0.0
 10
86.04881310788159
 20
-77.78982502003498
 30
0.0
 10
85.9938051764216
 20
-77.78982502003498
 30
0.0
 10
85.94880701002064
 20
-77.83482318643595
 30
0.0
 10
85.94880701002064
 20
-77.88982348850183
 30
0.0
 10
85.94880701002064
 20
-77.88982348850183
 30
0.0
 10
85.94880701002064
 20
-83.88982314924218
 30
0.0
 10
85.94880701002064
 20
-83.88982314924218
 30
0.0
 10
85.94880701002064
 20
-83.94482345130807
 30
0.0
 10
85.9938051764216
 20
-83.98982543240577
 30
0.0
 10
86.04881310788159
 20
-83.98982543240577
 30
0.0
 10
86.04881310788159
 20
-83.98982543240577
 30
0.0
 10
88.94880684039082
 20
-83.98982543240577
 30
0.0
 10
88.94880684039082
 20
-83.98982543240577
 30
0.0
 10
89.04881293825176
 20
-83.98982543240577
 30
0.0
 10
88.94880684039082
 20
-83.88982314924218
 30
0.0
 10
88.94880684039082
 20
-83.98982543240577
 30
0.0
 10
88.94880684039082
 20
-83.98982543240577
 30
0.0
 10
88.94880684039082
 20
-89.78982434151567
 30
0.0
 10
88.94880684039082
 20
-89.78982434151567
 30
0.0
 10
88.94880684039082
 20
-89.88982280998253
 30
0.0
 10
89.04881293825176
 20
-89.78982434151567
 30
0.0
 10
88.94880684039082
 20
-89.78982434151567
 30
0.0
 10
88.94880684039082
 20
-89.78982434151567
 30
0.0
 10
86.04881310788159
 20
-89.78982434151567
 30
0.0
 10
86.04881310788159
 20
-89.78982434151567
 30
0.0
 10
85.9938051764216
 20
-89.78982434151567
 30
0.0
 10
85.94880701002064
 20
-89.83482250791664
 30
0.0
 10
85.94880701002064
 20
-89.88982280998253
 30
0.0
 10
85.94880701002064
 20
-89.88982280998253
 30
0.0
 10
85.94880701002064
 20
-95.88982247072288
 30
0.0
 10
85.94880701002064
 20
-95.88982247072288
 30
0.0
 10
85.94880701002064
 20
-95.94482277278875
 30
0.0
 10
85.9938051764216
 20
-95.98982475388645
 30
0.0
 10
86.04881310788159
 20
-95.98982475388645
 30
0.0
 10
86.04881310788159
 20
-95.98982475388645
 30
0.0
 10
88.94880684039082
 20
-95.98982475388645
 30
0.0
 10
88.94880684039082
 20
-95.98982475388645
 30
0.0
 10
89.04881293825176
 20
-95.98982475388645
 30
0.0
 10
88.94880684039082
 20
-95.88982247072288
 30
0.0
 10
88.94880684039082
 20
-95.98982475388645
 30
0.0
 10
88.94880684039082
 20
-95.98982475388645
 30
0.0
 10
88.94880684039082
 20
-101.8898221314632
 30
0.0
 10
88.94880684039082
 20
-101.8898221314632
 30
0.0
 10
88.94880684039082
 20
-101.9448224335291
 30
0.0
 10
88.99380500679177
 20
-101.9898205999301
 30
0.0
 10
89.04881293825176
 20
-101.9898205999301
 30
0.0
  0
ENDBLK
  5
52
330
4F
100
AcDbEntity
  8
0
100
AcDbBlockEnd
  0
BLOCK
  5
56
330
54
100
AcDbEntity
  8
0
100
AcDbBlockBegin
  2
block 5
 70
     0
 10
0.0
 20
0.0
 30
0.0
  3
block 5
  1

  0
INSERT
  5
59
330
54
100
AcDbEntity
  8
Layer 1
100
AcDbBlockReference
  2
block 6
 10
0.0
 20
0.0
 30
0.0
  0
INSERT
  5
65
330
54
100
AcDbEntity
  8
Layer 1
100
AcDbBlockReference
  2
block 7
 10
0.0
 20
0.0
 30
0.0
  0
INSERT
  5
6B
330
54
100
AcDbEntity
  8
Layer 1
100
AcDbBlockReference
  2
block 8
 10
0.0
 20
0.0
 30
0.0
  0
ENDBLK
  5
57
330
54
100
AcDbEntity
  8
0
100
AcDbBlockEnd
  0
BLOCK
  5
5A
330
58
100
AcDbEntity
  8
0
100
AcDbBlockBegin
  2
block 6
 70
     0
 10
0.0
 20
0.0
 30
0.0
  3
block 6
  1

  0
SPLINE
  5
5C
330
58
100
AcDbEntity
  8
Layer 1
 62
   175
420
  2837403
370
    20
100
AcDbSpline
210
0.0
220
0.0
230
1.0
 70
    11
 71
     3
 72
    32
 73
    28
 74
     0
 42
0.0000000001
 43
0.0000000001
 12
1.0
 22
0.0
 32
0.0
 13
1.0
 23
0.0
 33
0.0
 40
0.0
 40
0.0
 40
0.0
 40
0.0
 40
1.0
 40
1.0
 40
1.0
 40
2.0
 40
2.0
 40
2.0
 40
3.0
 40
3.0
 40
3.0
 40
4.0
 40
4.0
 40
4.0
 40
5.0
 40
5.0
 40
5.0
 40
6.0
 40
6.0
 40
6.0
 40
7.0
 40
7.0
 40
7.0
 40
8.0
 40
8.0
 40
8.0
 40
9.0
 40
9.0
 40
9.0
 40
9.0
 10
13.9169080553416
 20
-271.8111115497978
 30
0.0
 10
13.9169080553416
 20
-271.8111115497978
 30
0.0
 10
11.01690669343827
 20
-271.8111115497978
 30
0.0
 10
11.01690669343827
 20
-271.8111115497978
 30
0.0
 10
10.91690822497142
 20
-271.8111115497978
 30
0.0
 10
11.01690669343827
 20
-271.9111100182647
 30
0.0
 10
11.01690669343827
 20
-271.8111115497978
 30
0.0
 10
11.01690669343827
 20
-271.8111115497978
 30
0.0
 10
11.01690669343827
 20
-269.0111162857555
 30
0.0
 10
11.01690669343827
 20
-269.0111162857555
 30
0.0
 10
11.01690669343827
 20
-268.9111101878945
 30
0.0
 10
10.91690822497142
 20
-269.0111162857555
 30
0.0
 10
11.01690669343827
 20
-269.0111162857555
 30
0.0
 10
11.01690669343827
 20
-269.0111162857555
 30
0.0
 10
16.81690941724491
 20
-269.0111162857555
 30
0.0
 10
16.81690941724491
 20
-269.0111162857555
 30
0.0
 10
16.91690788571177
 20
-269.0111162857555
 30
0.0
 10
16.81690941724491
 20
-268.9111101878945
 30
0.0
 10
16.81690941724491
 20
-269.0111162857555
 30
0.0
 10
16.81690941724491
 20
-269.0111162857555
 30
0.0
 10
16.81690941724491
 20
-271.8111115497978
 30
0.0
 10
16.81690941724491
 20
-271.8111115497978
 30
0.0
 10
16.81690941724491
 20
-271.9111100182647
 30
0.0
 10
16.91690788571177
 20
-271.8111115497978
 30
0.0
 10
16.81690941724491
 20
-271.8111115497978
 30
0.0
 10
16.81690941724491
 20
-271.8111115497978
 30
0.0
 10
13.9169080553416
 20
-271.8111115497978
 30
0.0
 10
13.9169080553416
 20
-271.8111115497978
 30
0.0
  0
SPLINE
  5
5D
330
58
100
AcDbEntity
  8
Layer 1
 62
   175
420
  2837403
370
    20
100
AcDbSpline
210
0.0
220
0.0
230
1.0
 70
    11
 71
     3
 72
    32
 73
    28
 74
     0
 42
0.0000000001
 43
0.0000000001
 12
1.0
 22
0.0
 32
0.0
 13
1.0
 23
0.0
 33
0.0
 40
0.0
 40
0.0
 40
0.0
 40
0.0
 40
1.0
 40
1.0
 40
1.0
 40
2.0
 40
2.0
 40
2.0
 40
3.0
 40
3.0
 40
3.0
 40
4.0
 40
4.0
 40
4.0
 40
5.0
 40
5.0
 40
5.0
 40
6.0
 40
6.0
 40
6.0
 40
7.0
 40
7.0
 40
7.0
 40
8.0
 40
8.0
 40
8.0
 40
9.0
 40
9.0
 40
9.0
 40
9.0
 10
25.91690737682229
 20
-271.8111115497978
 30
0.0
 10
25.91690737682229
 20
-271.8111115497978
 30
0.0
 10
23.01690601491897
 20
-271.8111115497978
 30
0.0
 10
23.01690601491897
 20
-271.8111115497978
 30
0.0
 10
22.91690754645212
 20
-271.8111115497978
 30
0.0
 10
23.01690601491897
 20
-271.9111100182647
 30
0.0
 10
23.01690601491897
 20
-271.8111115497978
 30
0.0
 10
23.01690601491897
 20
-271.8111115497978
 30
0.0
 10
23.01690601491897
 20
-269.0111162857555
 30
0.0
 10
23.01690601491897
 20
-269.0111162857555
 30
0.0
 10
23.01690601491897
 20
-268.9111101878945
 30
0.0
 10
22.91690754645212
 20
-269.0111162857555
 30
0.0
 10
23.01690601491897
 20
-269.0111162857555
 30
0.0
 10
23.01690601491897
 20
-269.0111162857555
 30
0.0
 10
28.81690873872561
 20
-269.0111162857555
 30
0.0
 10
28.81690873872561
 20
-269.0111162857555
 30
0.0
 10
28.91690720719246
 20
-269.0111162857555
 30
0.0
 10
28.81690873872561
 20
-268.9111101878945
 30
0.0
 10
28.81690873872561
 20
-269.0111162857555
 30
0.0
 10
28.81690873872561
 20
-269.0111162857555
 30
0.0
 10
28.81690873872561
 20
-271.8111115497978
 30
0.0
 10
28.81690873872561
 20
-271.8111115497978
 30
0.0
 10
28.81690873872561
 20
-271.9111100182647
 30
0.0
 10
28.91690720719246
 20
-271.8111115497978
 30
0.0
 10
28.81690873872561
 20
-271.8111115497978
 30
0.0
 10
28.81690873872561
 20
-271.8111115497978
 30
0.0
 10
25.91690737682229
 20
-271.8111115497978
 30
0.0
 10
25.91690737682229
 20
-271.8111115497978
 30
0.0
  0
SPLINE
  5
5E
330
58
100
AcDbEntity
  8
Layer 1
 62
   175
420
  2837403
370
    20
100
AcDbSpline
210
0.0
220
0.0
230
1.0
 70
    11
 71
     3
 72
    32
 73
    28
 74
     0
 42
0.0000000001
 43
0.0000000001
 12
1.0
 22
0.0
 32
0.0
 13
1.0
 23
0.0
 33
0.0
 40
0.0
 40
0.0
 40
0.0
 40
0.0
 40
1.0
 40
1.0
 40
1.0
 40
2.0
 40
2.0
 40
2.0
 40
3.0
 40
3.0
 40
3.0
 40
4.0
 40
4.0
 40
4.0
 40
5.0
 40
5.0
 40
5.0
 40
6.0
 40
6.0
 40
6.0
 40
7.0
 40
7.0
 40
7.0
 40
8.0
 40
8.0
 40
8.0
 40
9.0
 40
9.0
 40
9.0
 40
9.0
 10
37.91690669830298
 20
-271.8111115497978
 30
0.0
 10
37.91690669830298
 20
-271.8111115497978
 30
0.0
 10
35.01690533639966
 20
-271.8111115497978
 30
0.0
 10
35.01690533639966
 20
-271.8111115497978
 30
0.0
 10
34.91690686793281
 20
-271.8111115497978
 30
0.0
 10
35.01690533639966
 20
-271.9111100182647
 30
0.0
 10
35.01690533639966
 20
-271.8111115497978
 30
0.0
 10
35.01690533639966
 20
-271.8111115497978
 30
0.0
 10
35.01690533639966
 20
-269.0111162857555
 30
0.0
 10
35.01690533639966
 20
-269.0111162857555
 30
0.0
 10
35.01690533639966
 20
-268.9111101878945
 30
0.0
 10
34.91690686793281
 20
-269.0111162857555
 30
0.0
 10
35.01690533639966
 20
-269.0111162857555
 30
0.0
 10
35.01690533639966
 20
-269.0111162857555
 30
0.0
 10
40.8169080602063
 20
-269.0111162857555
 30
0.0
 10
40.8169080602063
 20
-269.0111162857555
 30
0.0
 10
40.91690652867315
 20
-269.0111162857555
 30
0.0
 10
40.8169080602063
 20
-268.9111101878945
 30
0.0
 10
40.8169080602063
 20
-269.0111162857555
 30
0.0
 10
40.8169080602063
 20
-269.0111162857555
 30
0.0
 10
40.8169080602063
 20
-271.8111115497978
 30
0.0
 10
40.8169080602063
 20
-271.8111115497978
 30
0.0
 10
40.8169080602063
 20
-271.9111100182647
 30
0.0
 10
40.91690652867315
 20
-271.8111115497978
 30
0.0
 10
40.8169080602063
 20
-271.8111115497978
 30
0.0
 10
40.8169080602063
 20
-271.8111115497978
 30
0.0
 10
37.91690669830298
 20
-271.8111115497978
 30
0.0
 10
37.91690669830298
 20
-271.8111115497978
 30
0.0
  0
SPLINE
  5
5F
330
58
100
AcDbEntity
  8
Layer 1
 62
   175
420
  2837403
370
    20
100
AcDbSpline
210
0.0
220
0.0
230
1.0
 70
    11
 71
     3
 72
    32
 73
    28
 74
     0
 42
0.0000000001
 43
0.0000000001
 12
1.0
 22
0.0
 32
0.0
 13
1.0
 23
0.0
 33
0.0
 40
0.0
 40
0.0
 40
0.0
 40
0.0
 40
1.0
 40
1.0
 40
1.0
 40
2.0
 40
2.0
 40
2.0
 40
3.0
 40
3.0
 40
3.0
 40
4.0
 40
4.0
 40
4.0
 40
5.0
 40
5.0
 40
5.0
 40
6.0
 40
6.0
 40
6.0
 40
7.0
 40
7.0
 40
7.0
 40
8.0
 40
8.0
 40
8.0
 40
9.0
 40
9.0
 40
9.0
 40
9.0
 10
49.91691364917777
 20
-271.8111115497978
 30
0.0
 10
49.91691364917777
 20
-271.8111115497978
 30
0.0
 10
47.01690465788035
 20
-271.8111115497978
 30
0.0
 10
47.01690465788035
 20
-271.8111115497978
 30
0.0
 10
46.9169061894135
 20
-271.8111115497978
 30
0.0
 10
47.01690465788035
 20
-271.9111100182647
 30
0.0
 10
47.01690465788035
 20
-271.8111115497978
 30
0.0
 10
47.01690465788035
 20
-271.8111115497978
 30
0.0
 10
47.01690465788035
 20
-269.0111162857555
 30
0.0
 10
47.01690465788035
 20
-269.0111162857555
 30
0.0
 10
47.01690465788035
 20
-268.9111101878945
 30
0.0
 10
46.9169061894135
 20
-269.0111162857555
 30
0.0
 10
47.01690465788035
 20
-269.0111162857555
 30
0.0
 10
47.01690465788035
 20
-269.0111162857555
 30
0.0
 10
52.816907381687
 20
-269.0111162857555
 30
0.0
 10
52.816907381687
 20
-269.0111162857555
 30
0.0
 10
52.91691347954795
 20
-269.0111162857555
 30
0.0
 10
52.816907381687
 20
-268.9111101878945
 30
0.0
 10
52.816907381687
 20
-269.0111162857555
 30
0.0
 10
52.816907381687
 20
-269.0111162857555
 30
0.0
 10
52.816907381687
 20
-271.8111115497978
 30
0.0
 10
52.816907381687
 20
-271.8111115497978
 30
0.0
 10
52.816907381687
 20
-271.9111100182647
 30
0.0
 10
52.91691347954795
 20
-271.8111115497978
 30
0.0
 10
52.816907381687
 20
-271.8111115497978
 30
0.0
 10
52.816907381687
 20
-271.8111115497978
 30
0.0
 10
49.91691364917777
 20
-271.8111115497978
 30
0.0
 10
49.91691364917777
 20
-271.8111115497978
 30
0.0
  0
SPLINE
  5
60
330
58
100
AcDbEntity
  8
Layer 1
 62
   175
420
  2837403
370
    20
100
AcDbSpline
210
0.0
220
0.0
230
1.0
 70
    11
 71
     3
 72
    32
 73
    28
 74
     0
 42
0.0000000001
 43
0.0000000001
 12
1.0
 22
0.0
 32
0.0
 13
1.0
 23
0.0
 33
0.0
 40
0.0
 40
0.0
 40
0.0
 40
0.0
 40
1.0
 40
1.0
 40
1.0
 40
2.0
 40
2.0
 40
2.0
 40
3.0
 40
3.0
 40
3.0
 40
4.0
 40
4.0
 40
4.0
 40
5.0
 40
5.0
 40
5.0
 40
6.0
 40
6.0
 40
6.0
 40
7.0
 40
7.0
 40
7.0
 40
8.0
 40
8.0
 40
8.0
 40
9.0
 40
9.0
 40
9.0
 40
9.0
 10
61.91691297065847
 20
-271.8111115497978
 30
0.0
 10
61.91691297065847
 20
-271.8111115497978
 30
0.0
 10
59.01690397936105
 20
-271.8111115497978
 30
0.0
 10
59.01690397936105
 20
-271.8111115497978
 30
0.0
 10
58.91691314028829
 20
-271.8111115497978
 30
0.0
 10
59.01690397936105
 20
-271.9111100182647
 30
0.0
 10
59.01690397936105
 20
-271.8111115497978
 30
0.0
 10
59.01690397936105
 20
-271.8111115497978
 30
0.0
 10
59.01690397936105
 20
-269.0111162857555
 30
0.0
 10
59.01690397936105
 20
-269.0111162857555
 30
0.0
 10
59.01690397936105
 20
-268.9111101878945
 30
0.0
 10
58.91691314028829
 20
-269.0111162857555
 30
0.0
 10
59.01690397936105
 20
-269.0111162857555
 30
0.0
 10
59.01690397936105
 20
-269.0111162857555
 30
0.0
 10
64.81690670316769
 20
-269.0111162857555
 30
0.0
 10
64.81690670316769
 20
-269.0111162857555
 30
0.0
 10
64.91691280102864
 20
-269.0111162857555
 30
0.0
 10
64.81690670316769
 20
-268.9111101878945
 30
0.0
 10
64.81690670316769
 20
-269.0111162857555
 30
0.0
 10
64.81690670316769
 20
-269.0111162857555
 30
0.0
 10
64.81690670316769
 20
-271.8111115497978
 30
0.0
 10
64.81690670316769
 20
-271.8111115497978
 30
0.0
 10
64.81690670316769
 20
-271.9111100182647
 30
0.0
 10
64.91691280102864
 20
-271.8111115497978
 30
0.0
 10
64.81690670316769
 20
-271.8111115497978
 30
0.0
 10
64.81690670316769
 20
-271.8111115497978
 30
0.0
 10
61.91691297065847
 20
-271.8111115497978
 30
0.0
 10
61.91691297065847
 20
-271.8111115497978
 30
0.0
  0
SPLINE
  5
61
330
58
100
AcDbEntity
  8
Layer 1
 62
   175
420
  2837403
370
    20
100
AcDbSpline
210
0.0
220
0.0
230
1.0
 70
    11
 71
     3
 72
    32
 73
    28
 74
     0
 42
0.0000000001
 43
0.0000000001
 12
1.0
 22
0.0
 32
0.0
 13
1.0
 23
0.0
 33
0.0
 40
0.0
 40
0.0
 40
0.0
 40
0.0
 40
1.0
 40
1.0
 40
1.0
 40
2.0
 40
2.0
 40
2.0
 40
3.0
 40
3.0
 40
3.0
 40
4.0
 40
4.0
 40
4.0
 40
5.0
 40
5.0
 40
5.0
 40
6.0
 40
6.0
 40
6.0
 40
7.0
 40
7.0
 40
7.0
 40
8.0
 40
8.0
 40
8.0
 40
9.0
 40
9.0
 40
9.0
 40
9.0
 10
73.91691229213916
 20
-271.8111115497978
 30
0.0
 10
73.91691229213916
 20
-271.8111115497978
 30
0.0
 10
71.01690330084175
 20
-271.8111115497978
 30
0.0
 10
71.01690330084175
 20
-271.8111115497978
 30
0.0
 10
70.91691246176899
 20
-271.8111115497978
 30
0.0
 10
71.01690330084175
 20
-271.9111100182647
 30
0.0
 10
71.01690330084175
 20
-271.8111115497978
 30
0.0
 10
71.01690330084175
 20
-271.8111115497978
 30
0.0
 10
71.01690330084175
 20
-269.0111162857555
 30
0.0
 10
71.01690330084175
 20
-269.0111162857555
 30
0.0
 10
71.01690330084175
 20
-268.9111101878945
 30
0.0
 10
70.91691246176899
 20
-269.0111162857555
 30
0.0
 10
71.01690330084175
 20
-269.0111162857555
 30
0.0
 10
71.01690330084175
 20
-269.0111162857555
 30
0.0
 10
76.81690602464839
 20
-269.0111162857555
 30
0.0
 10
76.81690602464839
 20
-269.0111162857555
 30
0.0
 10
76.91691212250933
 20
-269.0111162857555
 30
0.0
 10
76.81690602464839
 20
-268.9111101878945
 30
0.0
 10
76.81690602464839
 20
-269.0111162857555
 30
0.0
 10
76.81690602464839
 20
-269.0111162857555
 30
0.0
 10
76.81690602464839
 20
-271.8111115497978
 30
0.0
 10
76.81690602464839
 20
-271.8111115497978
 30
0.0
 10
76.81690602464839
 20
-271.9111100182647
 30
0.0
 10
76.91691212250933
 20
-271.8111115497978
 30
0.0
 10
76.81690602464839
 20
-271.8111115497978
 30
0.0
 10
76.81690602464839
 20
-271.8111115497978
 30
0.0
 10
73.91691229213916
 20
-271.8111115497978
 30
0.0
 10
73.91691229213916
 20
-271.8111115497978
 30
0.0
  0
SPLINE
  5
62
330
58
100
AcDbEntity
  8
Layer 1
 62
   178
420
        1
370
    20
100
AcDbSpline
210
0.0
220
0.0
230
1.0
 70
     8
 71
     3
 72
   203
 73
   199
 74
     0
 42
0.0000000001
 43
0.0000000001
 12
1.0
 22
0.0
 32
0.0
 13
1.0
 23
0.0
 33
0.0
 40
0.0
 40
0.0
 40
0.0
 40
0.0
 40
1.0
 40
1.0
 40
1.0
 40
2.0
 40
2.0
 40
2.0
 40
3.0
 40
3.0
 40
3.0
 40
4.0
 40
4.0
 40
4.0
 40
5.0
 40
5.0
 40
5.0
 40
6.0
 40
6.0
 40
6.0
 40
7.0
 40
7.0
 40
7.0
 40
8.0
 40
8.0
 40
8.0
 40
9.0
 40
9.0
 40
9.0
 40
10.0
 40
10.0
 40
10.0
 40
11.0
 40
11.0
 40
11.0
 40
12.0
 40
12.0
 40
12.0
 40
13.0
 40
13.0
 40
13.0
 40
14.0
 40
14.0
 40
14.0
 40
15.0
 40
15.0
 40
15.0
 40
16.0
 40
16.0
 40
16.0
 40
17.0
 40
17.0
 40
17.0
 40
18.0
 40
18.0
 40
18.0
 40
19.0
 40
19.0
 40
19.0
 40
20.0
 40
20.0
 40
20.0
 40
21.0
 40
21.0
 40
21.0
 40
22.0
 40
22.0
 40
22.0
 40
23.0
 40
23.0
 40
23.0
 40
24.0
 40
24.0
 40
24.0
 40
25.0
 40
25.0
 40
25.0
 40
26.0
 40
26.0
 40
26.0
 40
27.0
 40
27.0
 40
27.0
 40
28.0
 40
28.0
 40
28.0
 40
29.0
 40
29.0
 40
29.0
 40
30.0
 40
30.0
 40
30.0
 40
31.0
 40
31.0
 40
31.0
 40
32.0
 40
32.0
 40
32.0
 40
33.0
 40
33.0
 40
33.0
 40
34.0
 40
34.0
 40
34.0
 40
35.0
 40
35.0
 40
35.0
 40
36.0
 40
36.0
 40
36.0
 40
37.0
 40
37.0
 40
37.0
 40
38.0
 40
38.0
 40
38.0
 40
39.0
 40
39.0
 40
39.0
 40
40.0
 40
40.0
 40
40.0
 40
41.0
 40
41.0
 40
41.0
 40
42.0
 40
42.0
 40
42.0
 40
43.0
 40
43.0
 40
43.0
 40
44.0
 40
44.0
 40
44.0
 40
45.0
 40
45.0
 40
45.0
 40
46.0
 40
46.0
 40
46.0
 40
47.0
 40
47.0
 40
47.0
 40
48.0
 40
48.0
 40
48.0
 40
49.0
 40
49.0
 40
49.0
 40
50.0
 40
50.0
 40
50.0
 40
51.0
 40
51.0
 40
51.0
 40
52.0
 40
52.0
 40
52.0
 40
53.0
 40
53.0
 40
53.0
 40
54.0
 40
54.0
 40
54.0
 40
55.0
 40
55.0
 40
55.0
 40
56.0
 40
56.0
 40
56.0
 40
57.0
 40
57.0
 40
57.0
 40
58.0
 40
58.0
 40
58.0
 40
59.0
 40
59.0
 40
59.0
 40
60.0
 40
60.0
 40
60.0
 40
61.0
 40
61.0
 40
61.0
 40
62.0
 40
62.0
 40
62.0
 40
63.0
 40
63.0
 40
63.0
 40
64.0
 40
64.0
 40
64.0
 40
65.0
 40
65.0
 40
65.0
 40
66.0
 40
66.0
 40
66.0
 40
66.0
 10
9.316909841319482
 20
-184.8111183764112
 30
0.0
 10
9.316909841319482
 20
-184.8111183764112
 30
0.0
 10
9.316909841319482
 20
-187.7111178309661
 30
0.0
 10
9.316909841319482
 20
-187.7111178309661
 30
0.0
 10
9.316909841319482
 20
-187.8111182067813
 30
0.0
 10
9.416908309786335
 20
-187.7111178309661
 30
0.0
 10
9.316909841319482
 20
-187.7111178309661
 30
0.0
 10
9.316909841319482
 20
-187.7111178309661
 30
0.0
 10
6.416908479416162
 20
-187.7111178309661
 30
0.0
 10
6.416908479416162
 20
-187.7111178309661
 30
0.0
 10
6.361908177350278
 20
-187.7111178309661
 30
0.0
 10
6.316910010949309
 20
-187.7561179047155
 30
0.0
 10
6.316910010949309
 20
-187.8111182067813
 30
0.0
 10
6.316910010949309
 20
-187.8111182067813
 30
0.0
 10
6.316910010949309
 20
-193.8111178675217
 30
0.0
 10
6.316910010949309
 20
-193.8111178675217
 30
0.0
 10
6.316910010949309
 20
-193.8661181695876
 30
0.0
 10
6.361908177350278
 20
-193.9111182433375
 30
0.0
 10
6.416908479416162
 20
-193.9111182433375
 30
0.0
 10
6.416908479416162
 20
-193.9111182433375
 30
0.0
 10
9.316909841319482
 20
-193.9111182433375
 30
0.0
 10
9.316909841319482
 20
-193.9111182433375
 30
0.0
 10
9.416908309786335
 20
-193.9111182433375
 30
0.0
 10
9.316909841319482
 20
-193.8111178675217
 30
0.0
 10
9.316909841319482
 20
-193.9111182433375
 30
0.0
 10
9.316909841319482
 20
-193.9111182433375
 30
0.0
 10
9.316909841319482
 20
-199.7111171524468
 30
0.0
 10
9.316909841319482
 20
-199.7111171524468
 30
0.0
 10
9.316909841319482
 20
-199.811117528262
 30
0.0
 10
9.416908309786335
 20
-199.7111171524468
 30
0.0
 10
9.316909841319482
 20
-199.7111171524468
 30
0.0
 10
9.316909841319482
 20
-199.7111171524468
 30
0.0
 10
6.416908479416162
 20
-199.7111171524468
 30
0.0
 10
6.416908479416162
 20
-199.7111171524468
 30
0.0
 10
6.361908177350278
 20
-199.7111171524468
 30
0.0
 10
6.316910010949309
 20
-199.7561172261962
 30
0.0
 10
6.316910010949309
 20
-199.811117528262
 30
0.0
 10
6.316910010949309
 20
-199.811117528262
 30
0.0
 10
6.316910010949309
 20
-205.811115281654
 30
0.0
 10
6.316910010949309
 20
-205.811115281654
 30
0.0
 10
6.316910010949309
 20
-205.8661155837199
 30
0.0
 10
6.361908177350278
 20
-205.9111175648182
 30
0.0
 10
6.416908479416162
 20
-205.9111175648182
 30
0.0
 10
6.416908479416162
 20
-205.9111175648182
 30
0.0
 10
9.316909841319482
 20
-205.9111175648182
 30
0.0
 10
9.316909841319482
 20
-205.9111175648182
 30
0.0
 10
9.416908309786335
 20
-205.9111175648182
 30
0.0
 10
9.316909841319482
 20
-205.811115281654
 30
0.0
 10
9.316909841319482
 20
-205.9111175648182
 30
0.0
 10
9.316909841319482
 20
-205.9111175648182
 30
0.0
 10
9.316909841319482
 20
-211.7111164739275
 30
0.0
 10
9.316909841319482
 20
-211.7111164739275
 30
0.0
 10
9.316909841319482
 20
-211.8111149423944
 30
0.0
 10
9.416908309786335
 20
-211.7111164739275
 30
0.0
 10
9.316909841319482
 20
-211.7111164739275
 30
0.0
 10
9.316909841319482
 20
-211.7111164739275
 30
0.0
 10
6.416908479416162
 20
-211.7111164739275
 30
0.0
 10
6.416908479416162
 20
-211.7111164739275
 30
0.0
 10
6.361908177350278
 20
-211.7111164739275
 30
0.0
 10
6.316910010949309
 20
-211.7561146403285
 30
0.0
 10
6.316910010949309
 20
-211.8111149423944
 30
0.0
 10
6.316910010949309
 20
-211.8111149423944
 30
0.0
 10
6.316910010949309
 20
-217.8111146031347
 30
0.0
 10
6.316910010949309
 20
-217.8111146031347
 30
0.0
 10
6.316910010949309
 20
-217.8661149052006
 30
0.0
 10
6.361908177350278
 20
-217.9111168862989
 30
0.0
 10
6.416908479416162
 20
-217.9111168862989
 30
0.0
 10
6.416908479416162
 20
-217.9111168862989
 30
0.0
 10
9.316909841319482
 20
-217.9111168862989
 30
0.0
 10
9.316909841319482
 20
-217.9111168862989
 30
0.0
 10
9.416908309786335
 20
-217.9111168862989
 30
0.0
 10
9.316909841319482
 20
-217.8111146031347
 30
0.0
 10
9.316909841319482
 20
-217.9111168862989
 30
0.0
 10
9.316909841319482
 20
-217.9111168862989
 30
0.0
 10
9.316909841319482
 20
-223.7111157954082
 30
0.0
 10
9.316909841319482
 20
-223.7111157954082
 30
0.0
 10
9.316909841319482
 20
-223.8111142638751
 30
0.0
 10
9.416908309786335
 20
-223.7111157954082
 30
0.0
 10
9.316909841319482
 20
-223.7111157954082
 30
0.0
 10
9.316909841319482
 20
-223.7111157954082
 30
0.0
 10
6.416908479416162
 20
-223.7111157954082
 30
0.0
 10
6.416908479416162
 20
-223.7111157954082
 30
0.0
 10
6.361908177350278
 20
-223.7111157954082
 30
0.0
 10
6.316910010949309
 20
-223.7561139618092
 30
0.0
 10
6.316910010949309
 20
-223.8111142638751
 30
0.0
 10
6.316910010949309
 20
-223.8111142638751
 30
0.0
 10
6.316910010949309
 20
-229.8111139246154
 30
0.0
 10
6.316910010949309
 20
-229.8111139246154
 30
0.0
 10
6.316910010949309
 20
-229.8661142266813
 30
0.0
 10
6.361908177350278
 20
-229.9111162077796
 30
0.0
 10
6.416908479416162
 20
-229.9111162077796
 30
0.0
 10
6.416908479416162
 20
-229.9111162077796
 30
0.0
 10
9.316909841319482
 20
-229.9111162077796
 30
0.0
 10
9.316909841319482
 20
-229.9111162077796
 30
0.0
 10
9.416908309786335
 20
-229.9111162077796
 30
0.0
 10
9.316909841319482
 20
-229.8111139246154
 30
0.0
 10
9.316909841319482
 20
-229.9111162077796
 30
0.0
 10
9.316909841319482
 20
-229.9111162077796
 30
0.0
 10
9.316909841319482
 20
-235.7111151168889
 30
0.0
 10
9.316909841319482
 20
-235.7111151168889
 30
0.0
 10
9.316909841319482
 20
-235.8111135853557
 30
0.0
 10
9.416908309786335
 20
-235.7111151168889
 30
0.0
 10
9.316909841319482
 20
-235.7111151168889
 30
0.0
 10
9.316909841319482
 20
-235.7111151168889
 30
0.0
 10
6.416908479416162
 20
-235.7111151168889
 30
0.0
 10
6.416908479416162
 20
-235.7111151168889
 30
0.0
 10
6.361908177350278
 20
-235.7111151168889
 30
0.0
 10
6.316910010949309
 20
-235.7561132832899
 30
0.0
 10
6.316910010949309
 20
-235.8111135853557
 30
0.0
 10
6.316910010949309
 20
-235.8111135853557
 30
0.0
 10
6.316910010949309
 20
-241.8111132460961
 30
0.0
 10
6.316910010949309
 20
-241.8111132460961
 30
0.0
 10
6.316910010949309
 20
-241.866113548162
 30
0.0
 10
6.361908177350278
 20
-241.9111117145629
 30
0.0
 10
6.416908479416162
 20
-241.9111117145629
 30
0.0
 10
6.416908479416162
 20
-241.9111117145629
 30
0.0
 10
9.316909841319482
 20
-241.9111117145629
 30
0.0
 10
9.316909841319482
 20
-241.9111117145629
 30
0.0
 10
9.416908309786335
 20
-241.9111117145629
 30
0.0
 10
9.316909841319482
 20
-241.8111132460961
 30
0.0
 10
9.316909841319482
 20
-241.9111117145629
 30
0.0
 10
9.316909841319482
 20
-241.9111117145629
 30
0.0
 10
9.316909841319482
 20
-247.7111144383696
 30
0.0
 10
9.316909841319482
 20
-247.7111144383696
 30
0.0
 10
9.316909841319482
 20
-247.8111129068364
 30
0.0
 10
9.416908309786335
 20
-247.7111144383696
 30
0.0
 10
9.316909841319482
 20
-247.7111144383696
 30
0.0
 10
9.316909841319482
 20
-247.7111144383696
 30
0.0
 10
6.416908479416162
 20
-247.7111144383696
 30
0.0
 10
6.416908479416162
 20
-247.7111144383696
 30
0.0
 10
6.361908177350278
 20
-247.7111144383696
 30
0.0
 10
6.316910010949309
 20
-247.7561126047705
 30
0.0
 10
6.316910010949309
 20
-247.8111129068364
 30
0.0
 10
6.316910010949309
 20
-247.8111129068364
 30
0.0
 10
6.316910010949309
 20
-253.8111125675768
 30
0.0
 10
6.316910010949309
 20
-253.8111125675768
 30
0.0
 10
6.316910010949309
 20
-253.8661128696427
 30
0.0
 10
6.361908177350278
 20
-253.9111110360436
 30
0.0
 10
6.416908479416162
 20
-253.9111110360436
 30
0.0
 10
6.416908479416162
 20
-253.9111110360436
 30
0.0
 10
9.316909841319482
 20
-253.9111110360436
 30
0.0
 10
9.316909841319482
 20
-253.9111110360436
 30
0.0
 10
9.416908309786335
 20
-253.9111110360436
 30
0.0
 10
9.316909841319482
 20
-253.8111125675768
 30
0.0
 10
9.316909841319482
 20
-253.9111110360436
 30
0.0
 10
9.316909841319482
 20
-253.9111110360436
 30
0.0
 10
9.316909841319482
 20
-259.7111137598503
 30
0.0
 10
9.316909841319482
 20
-259.7111137598503
 30
0.0
 10
9.316909841319482
 20
-259.8111122283171
 30
0.0
 10
9.416908309786335
 20
-259.7111137598503
 30
0.0
 10
9.316909841319482
 20
-259.7111137598503
 30
0.0
 10
9.316909841319482
 20
-259.7111137598503
 30
0.0
 10
6.416908479416162
 20
-259.7111137598503
 30
0.0
 10
6.416908479416162
 20
-259.7111137598503
 30
0.0
 10
6.361908177350278
 20
-259.7111137598503
 30
0.0
 10
6.316910010949309
 20
-259.7561119262513
 30
0.0
 10
6.316910010949309
 20
-259.8111122283171
 30
0.0
 10
6.316910010949309
 20
-259.8111122283171
 30
0.0
 10
6.316910010949309
 20
-265.8111118890575
 30
0.0
 10
6.316910010949309
 20
-265.8111118890575
 30
0.0
 10
6.316910010949309
 20
-265.8661121911234
 30
0.0
 10
6.361908177350278
 20
-265.9111103575243
 30
0.0
 10
6.416908479416162
 20
-265.9111103575243
 30
0.0
 10
6.416908479416162
 20
-265.9111103575243
 30
0.0
 10
9.316909841319482
 20
-265.9111103575243
 30
0.0
 10
9.316909841319482
 20
-265.9111103575243
 30
0.0
 10
9.416908309786335
 20
-265.9111103575243
 30
0.0
 10
9.316909841319482
 20
-265.8111118890575
 30
0.0
 10
9.316909841319482
 20
-265.9111103575243
 30
0.0
 10
9.316909841319482
 20
-265.9111103575243
 30
0.0
 10
9.316909841319482
 20
-271.711113081331
 30
0.0
 10
9.316909841319482
 20
-271.711113081331
 30
0.0
 10
9.316909841319482
 20
-271.8111115497978
 30
0.0
 10
9.416908309786335
 20
-271.711113081331
 30
0.0
 10
9.316909841319482
 20
-271.711113081331
 30
0.0
 10
9.316909841319482
 20
-271.711113081331
 30
0.0
 10
6.416908479416162
 20
-271.711113081331
 30
0.0
 10
6.416908479416162
 20
-271.711113081331
 30
0.0
 10
6.361908177350278
 20
-271.711113081331
 30
0.0
 10
6.316910010949309
 20
-271.756111247732
 30
0.0
 10
6.316910010949309
 20
-271.8111115497978
 30
0.0
 10
6.316910010949309
 20
-271.8111115497978
 30
0.0
 10
6.316910010949309
 20
-277.8111112105382
 30
0.0
 10
6.316910010949309
 20
-277.8111112105382
 30
0.0
 10
6.316910010949309
 20
-277.866111512604
 30
0.0
 10
6.361908177350278
 20
-277.9111096790051
 30
0.0
 10
6.416908479416162
 20
-277.9111096790051
 30
0.0
 10
6.416908479416162
 20
-277.9111096790051
 30
0.0
 10
9.316909841319482
 20
-277.9111096790051
 30
0.0
 10
9.316909841319482
 20
-277.9111096790051
 30
0.0
 10
9.416908309786335
 20
-277.9111096790051
 30
0.0
 10
9.316909841319482
 20
-277.8111112105382
 30
0.0
 10
9.316909841319482
 20
-277.9111096790051
 30
0.0
 10
9.316909841319482
 20
-277.9111096790051
 30
0.0
 10
9.316909841319482
 20
-280.8111110409084
 30
0.0
 10
9.316909841319482
 20
-280.8111110409084
 30
0.0
 10
9.316909841319482
 20
-280.8661113429742
 30
0.0
 10
9.361908007720452
 20
-280.9111095093752
 30
0.0
 10
9.416908309786335
 20
-280.9111095093752
 30
0.0
  0
SPLINE
  5
63
330
58
100
AcDbEntity
  8
Layer 1
 62
   178
420
        1
370
    20
100
AcDbSpline
210
0.0
220
0.0
230
1.0
 70
     8
 71
     3
 72
   245
 73
   241
 74
     0
 42
0.0000000001
 43
0.0000000001
 12
1.0
 22
0.0
 32
0.0
 13
1.0
 23
0.0
 33
0.0
 40
0.0
 40
0.0
 40
0.0
 40
0.0
 40
1.0
 40
1.0
 40
1.0
 40
2.0
 40
2.0
 40
2.0
 40
3.0
 40
3.0
 40
3.0
 40
4.0
 40
4.0
 40
4.0
 40
5.0
 40
5.0
 40
5.0
 40
6.0
 40
6.0
 40
6.0
 40
7.0
 40
7.0
 40
7.0
 40
8.0
 40
8.0
 40
8.0
 40
9.0
 40
9.0
 40
9.0
 40
10.0
 40
10.0
 40
10.0
 40
11.0
 40
11.0
 40
11.0
 40
12.0
 40
12.0
 40
12.0
 40
13.0
 40
13.0
 40
13.0
 40
14.0
 40
14.0
 40
14.0
 40
15.0
 40
15.0
 40
15.0
 40
16.0
 40
16.0
 40
16.0
 40
17.0
 40
17.0
 40
17.0
 40
18.0
 40
18.0
 40
18.0
 40
19.0
 40
19.0
 40
19.0
 40
20.0
 40
20.0
 40
20.0
 40
21.0
 40
21.0
 40
21.0
 40
22.0
 40
22.0
 40
22.0
 40
23.0
 40
23.0
 40
23.0
 40
24.0
 40
24.0
 40
24.0
 40
25.0
 40
25.0
 40
25.0
 40
26.0
 40
26.0
 40
26.0
 40
27.0
 40
27.0
 40
27.0
 40
28.0
 40
28.0
 40
28.0
 40
29.0
 40
29.0
 40
29.0
 40
30.0
 40
30.0
 40
30.0
 40
31.0
 40
31.0
 40
31.0
 40
32.0
 40
32.0
 40
32.0
 40
33.0
 40
33.0
 40
33.0
 40
34.0
 40
34.0
 40
34.0
 40
35.0
 40
35.0
 40
35.0
 40
36.0
 40
36.0
 40
36.0
 40
37.0
 40
37.0
 40
37.0
 40
38.0
 40
38.0
 40
38.0
 40
39.0
 40
39.0
 40
39.0
 40
40.0
 40
40.0
 40
40.0
 40
41.0
 40
41.0
 40
41.0
 40
42.0
 40
42.0
 40
42.0
 40
43.0
 40
43.0
 40
43.0
 40
44.0
 40
44.0
 40
44.0
 40
45.0
 40
45.0
 40
45.0
 40
46.0
 40
46.0
 40
46.0
 40
47.0
 40
47.0
 40
47.0
 40
48.0
 40
48.0
 40
48.0
 40
49.0
 40
49.0
 40
49.0
 40
50.0
 40
50.0
 40
50.0
 40
51.0
 40
51.0
 40
51.0
 40
52.0
 40
52.0
 40
52.0
 40
53.0
 40
53.0
 40
53.0
 40
54.0
 40
54.0
 40
54.0
 40
55.0
 40
55.0
 40
55.0
 40
56.0
 40
56.0
 40
56.0
 40
57.0
 40
57.0
 40
57.0
 40
58.0
 40
58.0
 40
58.0
 40
59.0
 40
59.0
 40
59.0
 40
60.0
 40
60.0
 40
60.0
 40
61.0
 40
61.0
 40
61.0
 40
62.0
 40
62.0
 40
62.0
 40
63.0
 40
63.0
 40
63.0
 40
64.0
 40
64.0
 40
64.0
 40
65.0
 40
65.0
 40
65.0
 40
66.0
 40
66.0
 40
66.0
 40
67.0
 40
67.0
 40
67.0
 40
68.0
 40
68.0
 40
68.0
 40
69.0
 40
69.0
 40
69.0
 40
70.0
 40
70.0
 40
70.0
 40
71.0
 40
71.0
 40
71.0
 40
72.0
 40
72.0
 40
72.0
 40
73.0
 40
73.0
 40
73.0
 40
74.0
 40
74.0
 40
74.0
 40
75.0
 40
75.0
 40
75.0
 40
76.0
 40
76.0
 40
76.0
 40
77.0
 40
77.0
 40
77.0
 40
78.0
 40
78.0
 40
78.0
 40
79.0
 40
79.0
 40
79.0
 40
80.0
 40
80.0
 40
80.0
 40
80.0
 10
9.416908309786335
 20
-280.9111095093752
 30
0.0
 10
9.416908309786335
 20
-280.9111095093752
 30
0.0
 10
21.41690763126703
 20
-280.9111095093752
 30
0.0
 10
21.41690763126703
 20
-280.9111095093752
 30
0.0
 10
22.48790671621704
 20
-280.9111095093752
 30
0.0
 10
23.5399086098584
 20
-280.6291118446562
 30
0.0
 10
24.46691051056768
 20
-280.0941158421918
 30
0.0
 10
25.39391241127695
 20
-279.5581127597062
 30
0.0
 10
26.16390901080522
 20
-278.7881161601779
 30
0.0
 10
26.69991209329082
 20
-277.8611142594686
 30
0.0
 10
27.21790980570075
 20
-276.96411113636
 30
0.0
 10
27.96190543013671
 20
-276.219116061297
 30
0.0
 10
28.85890855324533
 20
-275.7011107194929
 30
0.0
 10
29.75591167635396
 20
-275.1841124577101
 30
0.0
 10
30.77390936049225
 20
-274.9111098486349
 30
0.0
 10
31.80890533468503
 20
-274.9111098486349
 30
0.0
 10
31.80890533468503
 20
-274.9111098486349
 30
0.0
 10
56.02489975400753
 20
-274.9111098486349
 30
0.0
 10
56.02489975400753
 20
-274.9111098486349
 30
0.0
 10
57.0599033575944
 20
-274.9111098486349
 30
0.0
 10
58.0779086711268
 20
-275.1841124577101
 30
0.0
 10
58.97491179423542
 20
-275.7011107194929
 30
0.0
 10
59.87189965855585
 20
-276.219116061297
 30
0.0
 10
60.61590291238591
 20
-276.96411113636
 30
0.0
 10
61.13390825418993
 20
-277.8611142594686
 30
0.0
 10
61.66990370728143
 20
-278.7881161601779
 30
0.0
 10
62.4399079362038
 20
-279.5581127597062
 30
0.0
 10
63.36690983691308
 20
-280.0941158421918
 30
0.0
 10
64.29391173762235
 20
-280.6291118446562
 30
0.0
 10
65.34591363126371
 20
-280.9111095093752
 30
0.0
 10
66.41691271621373
 20
-280.9111095093752
 30
0.0
 10
66.41691271621373
 20
-280.9111095093752
 30
0.0
 10
78.41691203769442
 20
-280.9111095093752
 30
0.0
 10
78.41691203769442
 20
-280.9111095093752
 30
0.0
 10
78.4719047103662
 20
-280.9111095093752
 30
0.0
 10
78.51690287676718
 20
-280.8661113429742
 30
0.0
 10
78.51690287676718
 20
-280.8111110409084
 30
0.0
 10
78.51690287676718
 20
-280.8111110409084
 30
0.0
 10
78.51690287676718
 20
-278.8751141410986
 30
0.0
 10
78.51690287676718
 20
-278.8751141410986
 30
0.0
 10
78.51690287676718
 20
-278.7751156726318
 30
0.0
 10
78.41691203769442
 20
-278.8751141410986
 30
0.0
 10
78.51690287676718
 20
-278.8751141410986
 30
0.0
 10
78.51690287676718
 20
-278.8751141410986
 30
0.0
 10
81.41691186806459
 20
-278.8751141410986
 30
0.0
 10
81.41691186806459
 20
-278.8751141410986
 30
0.0
 10
81.47190454073638
 20
-278.8751141410986
 30
0.0
 10
81.51690270713735
 20
-278.8301159746977
 30
0.0
 10
81.51690270713735
 20
-278.7751156726318
 30
0.0
 10
81.51690270713735
 20
-278.7751156726318
 30
0.0
 10
81.51690270713735
 20
-272.7751160118914
 30
0.0
 10
81.51690270713735
 20
-272.7751160118914
 30
0.0
 10
81.51690270713735
 20
-272.7201157098255
 30
0.0
 10
81.47190454073638
 20
-272.6751099140305
 30
0.0
 10
81.41691186806459
 20
-272.6751099140305
 30
0.0
 10
81.41691186806459
 20
-272.6751099140305
 30
0.0
 10
78.51690287676718
 20
-272.6751099140305
 30
0.0
 10
78.51690287676718
 20
-272.6751099140305
 30
0.0
 10
78.41691203769442
 20
-272.6751099140305
 30
0.0
 10
78.51690287676718
 20
-272.7751160118914
 30
0.0
 10
78.51690287676718
 20
-272.6751099140305
 30
0.0
 10
78.51690287676718
 20
-272.6751099140305
 30
0.0
 10
78.51690287676718
 20
-266.8751148196179
 30
0.0
 10
78.51690287676718
 20
-266.8751148196179
 30
0.0
 10
78.51690287676718
 20
-266.775116351151
 30
0.0
 10
78.41691203769442
 20
-266.8751148196179
 30
0.0
 10
78.51690287676718
 20
-266.8751148196179
 30
0.0
 10
78.51690287676718
 20
-266.8751148196179
 30
0.0
 10
81.41691186806459
 20
-266.8751148196179
 30
0.0
 10
81.41691186806459
 20
-266.8751148196179
 30
0.0
 10
81.47190454073638
 20
-266.8751148196179
 30
0.0
 10
81.51690270713735
 20
-266.830116653217
 30
0.0
 10
81.51690270713735
 20
-266.775116351151
 30
0.0
 10
81.51690270713735
 20
-266.775116351151
 30
0.0
 10
81.51690270713735
 20
-260.7751166904107
 30
0.0
 10
81.51690270713735
 20
-260.7751166904107
 30
0.0
 10
81.51690270713735
 20
-260.7201163883448
 30
0.0
 10
81.47190454073638
 20
-260.6751105925497
 30
0.0
 10
81.41691186806459
 20
-260.6751105925497
 30
0.0
 10
81.41691186806459
 20
-260.6751105925497
 30
0.0
 10
78.51690287676718
 20
-260.6751105925497
 30
0.0
 10
78.51690287676718
 20
-260.6751105925497
 30
0.0
 10
78.41691203769442
 20
-260.6751105925497
 30
0.0
 10
78.51690287676718
 20
-260.7751166904107
 30
0.0
 10
78.51690287676718
 20
-260.6751105925497
 30
0.0
 10
78.51690287676718
 20
-260.6751105925497
 30
0.0
 10
78.51690287676718
 20
-254.8751154981372
 30
0.0
 10
78.51690287676718
 20
-254.8751154981372
 30
0.0
 10
78.51690287676718
 20
-254.7751170296704
 30
0.0
 10
78.41691203769442
 20
-254.8751154981372
 30
0.0
 10
78.51690287676718
 20
-254.8751154981372
 30
0.0
 10
78.51690287676718
 20
-254.8751154981372
 30
0.0
 10
81.41691186806459
 20
-254.8751154981372
 30
0.0
 10
81.41691186806459
 20
-254.8751154981372
 30
0.0
 10
81.47190454073638
 20
-254.8751154981372
 30
0.0
 10
81.51690270713735
 20
-254.8301173317363
 30
0.0
 10
81.51690270713735
 20
-254.7751170296704
 30
0.0
 10
81.51690270713735
 20
-254.7751170296704
 30
0.0
 10
81.51690270713735
 20
-248.77511736893
 30
0.0
 10
81.51690270713735
 20
-248.77511736893
 30
0.0
 10
81.51690270713735
 20
-248.7201170668641
 30
0.0
 10
81.47190454073638
 20
-248.6751112710691
 30
0.0
 10
81.41691186806459
 20
-248.6751112710691
 30
0.0
 10
81.41691186806459
 20
-248.6751112710691
 30
0.0
 10
78.51690287676718
 20
-248.6751112710691
 30
0.0
 10
78.51690287676718
 20
-248.6751112710691
 30
0.0
 10
78.41691203769442
 20
-248.6751112710691
 30
0.0
 10
78.51690287676718
 20
-248.77511736893
 30
0.0
 10
78.51690287676718
 20
-248.6751112710691
 30
0.0
 10
78.51690287676718
 20
-248.6751112710691
 30
0.0
 10
78.51690287676718
 20
-242.8751161766565
 30
0.0
 10
78.51690287676718
 20
-242.8751161766565
 30
0.0
 10
78.51690287676718
 20
-242.7751177081897
 30
0.0
 10
78.41691203769442
 20
-242.8751161766565
 30
0.0
 10
78.51690287676718
 20
-242.8751161766565
 30
0.0
 10
78.51690287676718
 20
-242.8751161766565
 30
0.0
 10
81.41691186806459
 20
-242.8751161766565
 30
0.0
 10
81.41691186806459
 20
-242.8751161766565
 30
0.0
 10
81.47190454073638
 20
-242.8751161766565
 30
0.0
 10
81.51690270713735
 20
-242.8301180102556
 30
0.0
 10
81.51690270713735
 20
-242.7751177081897
 30
0.0
 10
81.51690270713735
 20
-242.7751177081897
 30
0.0
 10
81.51690270713735
 20
-236.7751180474493
 30
0.0
 10
81.51690270713735
 20
-236.7751180474493
 30
0.0
 10
81.51690270713735
 20
-236.7201177453834
 30
0.0
 10
81.47190454073638
 20
-236.6751119495884
 30
0.0
 10
81.41691186806459
 20
-236.6751119495884
 30
0.0
 10
81.41691186806459
 20
-236.6751119495884
 30
0.0
 10
78.51690287676718
 20
-236.6751119495884
 30
0.0
 10
78.51690287676718
 20
-236.6751119495884
 30
0.0
 10
78.41691203769442
 20
-236.6751119495884
 30
0.0
 10
78.51690287676718
 20
-236.7751180474493
 30
0.0
 10
78.51690287676718
 20
-236.6751119495884
 30
0.0
 10
78.51690287676718
 20
-236.6751119495884
 30
0.0
 10
78.51690287676718
 20
-230.8751168551758
 30
0.0
 10
78.51690287676718
 20
-230.8751168551758
 30
0.0
 10
78.51690287676718
 20
-230.7751145720123
 30
0.0
 10
78.41691203769442
 20
-230.8751168551758
 30
0.0
 10
78.51690287676718
 20
-230.8751168551758
 30
0.0
 10
78.51690287676718
 20
-230.8751168551758
 30
0.0
 10
81.41691186806459
 20
-230.8751168551758
 30
0.0
 10
81.41691186806459
 20
-230.8751168551758
 30
0.0
 10
81.47190454073638
 20
-230.8751168551758
 30
0.0
 10
81.51690270713735
 20
-230.8301148740775
 30
0.0
 10
81.51690270713735
 20
-230.7751145720123
 30
0.0
 10
81.51690270713735
 20
-230.7751145720123
 30
0.0
 10
81.51690270713735
 20
-224.7751149112719
 30
0.0
 10
81.51690270713735
 20
-224.7751149112719
 30
0.0
 10
81.51690270713735
 20
-224.7201146092054
 30
0.0
 10
81.47190454073638
 20
-224.6751164428044
 30
0.0
 10
81.41691186806459
 20
-224.6751164428044
 30
0.0
 10
81.41691186806459
 20
-224.6751164428044
 30
0.0
 10
78.51690287676718
 20
-224.6751164428044
 30
0.0
 10
78.51690287676718
 20
-224.6751164428044
 30
0.0
 10
78.41691203769442
 20
-224.6751164428044
 30
0.0
 10
78.51690287676718
 20
-224.7751149112719
 30
0.0
 10
78.51690287676718
 20
-224.6751164428044
 30
0.0
 10
78.51690287676718
 20
-224.6751164428044
 30
0.0
 10
78.51690287676718
 20
-218.8751175336951
 30
0.0
 10
78.51690287676718
 20
-218.8751175336951
 30
0.0
 10
78.51690287676718
 20
-218.7751152505316
 30
0.0
 10
78.41691203769442
 20
-218.8751175336951
 30
0.0
 10
78.51690287676718
 20
-218.8751175336951
 30
0.0
 10
78.51690287676718
 20
-218.8751175336951
 30
0.0
 10
81.41691186806459
 20
-218.8751175336951
 30
0.0
 10
81.41691186806459
 20
-218.8751175336951
 30
0.0
 10
81.47190454073638
 20
-218.8751175336951
 30
0.0
 10
81.51690270713735
 20
-218.8301155525968
 30
0.0
 10
81.51690270713735
 20
-218.7751152505316
 30
0.0
 10
81.51690270713735
 20
-218.7751152505316
 30
0.0
 10
81.51690270713735
 20
-212.7751155897912
 30
0.0
 10
81.51690270713735
 20
-212.7751155897912
 30
0.0
 10
81.51690270713735
 20
-212.7201152877247
 30
0.0
 10
81.47190454073638
 20
-212.6751171213237
 30
0.0
 10
81.41691186806459
 20
-212.6751171213237
 30
0.0
 10
81.41691186806459
 20
-212.6751171213237
 30
0.0
 10
78.51690287676718
 20
-212.6751171213237
 30
0.0
 10
78.51690287676718
 20
-212.6751171213237
 30
0.0
 10
78.41691203769442
 20
-212.6751171213237
 30
0.0
 10
78.51690287676718
 20
-212.7751155897912
 30
0.0
 10
78.51690287676718
 20
-212.6751171213237
 30
0.0
 10
78.51690287676718
 20
-212.6751171213237
 30
0.0
 10
78.51690287676718
 20
-210.7391164068173
 30
0.0
 10
78.51690287676718
 20
-210.7391164068173
 30
0.0
 10
78.51690287676718
 20
-210.7391164068173
 30
0.0
 10
78.51690287676718
 20
-208.8111151120242
 30
0.0
 10
78.51690287676718
 20
-208.8111151120242
 30
0.0
 10
78.51690287676718
 20
-208.7871168528827
 30
0.0
 10
78.50890727175052
 20
-208.7651174949961
 30
0.0
 10
78.4939078829502
 20
-208.7471159396178
 30
0.0
 10
78.4939078829502
 20
-208.7471159396178
 30
0.0
 10
74.27390690085977
 20
-203.71811689536
 30
0.0
 10
74.27390690085977
 20
-203.71811689536
 30
0.0
 10
74.20890446312896
 20
-203.6411172354075
 30
0.0
 10
74.19691105560399
 20
-203.782116067767
 30
0.0
 10
74.27390690085977
 20
-203.71811689536
 30
0.0
 10
74.27390690085977
 20
-203.71811689536
 30
0.0
 10
76.49489981726973
 20
-201.8541166803223
 30
0.0
 10
76.49489981726973
 20
-201.8541166803223
 30
0.0
 10
76.53789908241654
 20
-201.8181173842624
 30
0.0
 10
76.54290396494605
 20
-201.7551176624825
 30
0.0
 10
76.50790030481589
 20
-201.7131178479628
 30
0.0
 10
76.50790030481589
 20
-201.7131178479628
 30
0.0
 10
72.65090589399675
 20
-197.1161179858219
 30
0.0
 10
72.65090589399675
 20
-197.1161179858219
 30
0.0
 10
72.61491041263362
 20
-197.0741181713022
 30
0.0
 10
72.55190687615698
 20
-197.0691171034701
 30
0.0
 10
72.50989943224316
 20
-197.1041169489029
 30
0.0
 10
72.50989943224316
 20
-197.1041169489029
 30
0.0
 10
70.28789943581201
 20
-198.9681171639406
 30
0.0
 10
70.28789943581201
 20
-198.9681171639406
 30
0.0
 10
70.21191067057741
 20
-199.033117694323
 30
0.0
 10
70.3529018735428
 20
-199.0451168238937
 30
0.0
 10
70.28789943581201
 20
-198.9681171639406
 30
0.0
 10
70.28789943581201
 20
-198.9681171639406
 30
0.0
 10
66.55990282043328
 20
-194.525116621706
 30
0.0
 10
66.55990282043328
 20
-194.525116621706
 30
0.0
 10
66.49590746272366
 20
-194.4491183197283
 30
0.0
 10
66.4839140551987
 20
-194.5891177014607
 30
0.0
 10
66.55990282043328
 20
-194.525116621706
 30
0.0
 10
66.55990282043328
 20
-194.525116621706
 30
0.0
 10
68.78190281686443
 20
-192.6611183140166
 30
0.0
 10
68.78190281686443
 20
-192.6611183140166
 30
0.0
 10
68.82391026077826
 20
-192.6261184685832
 30
0.0
 10
68.82990696454074
 20
-192.5631168394549
 30
0.0
 10
68.79391148317761
 20
-192.5201175743081
 30
0.0
 10
68.79391148317761
 20
-192.5201175743081
 30
0.0
 10
64.93690181357027
 20
-187.9241171627943
 30
0.0
 10
64.93690181357027
 20
-187.9241171627943
 30
0.0
 10
64.90191341222832
 20
-187.8821173482746
 30
0.0
 10
64.83890987575168
 20
-187.8761187371638
 30
0.0
 10
64.79690243183786
 20
-187.9121180332236
 30
0.0
 10
64.79690243183786
 20
-187.9121180332236
 30
0.0
 10
62.57490243540671
 20
-189.776118248262
 30
0.0
 10
62.57490243540671
 20
-189.776118248262
 30
0.0
 10
62.49790659015093
 20
-189.8401174206683
 30
0.0
 10
62.63891305190453
 20
-189.8521184575874
 30
0.0
 10
62.57490243540671
 20
-189.776118248262
 30
0.0
 10
62.57490243540671
 20
-189.776118248262
 30
0.0
 10
58.35490145331628
 20
-184.7471182503303
 30
0.0
 10
58.35490145331628
 20
-184.7471182503303
 30
0.0
  0
ENDBLK
  5
5B
330
58
100
AcDbEntity
  8
0
100
AcDbBlockEnd
  0
BLOCK
  5
66
330
64
100
AcDbEntity
  8
0
100
AcDbBlockBegin
  2
block 7
 70
     0
 10
0.0
 20
0.0
 30
0.0
  3
block 7
  1

  0
SPLINE
  5
68
330
64
100
AcDbEntity
  8
Layer 1
 62
   178
420
        1
370
    20
100
AcDbSpline
210
0.0
220
0.0
230
1.0
 70
     8
 71
     3
 72
    59
 73
    55
 74
     0
 42
0.0000000001
 43
0.0000000001
 12
1.0
 22
0.0
 32
0.0
 13
1.0
 23
0.0
 33
0.0
 40
0.0
 40
0.0
 40
0.0
 40
0.0
 40
1.0
 40
1.0
 40
1.0
 40
2.0
 40
2.0
 40
2.0
 40
3.0
 40
3.0
 40
3.0
 40
4.0
 40
4.0
 40
4.0
 40
5.0
 40
5.0
 40
5.0
 40
6.0
 40
6.0
 40
6.0
 40
7.0
 40
7.0
 40
7.0
 40
8.0
 40
8.0
 40
8.0
 40
9.0
 40
9.0
 40
9.0
 40
10.0
 40
10.0
 40
10.0
 40
11.0
 40
11.0
 40
11.0
 40
12.0
 40
12.0
 40
12.0
 40
13.0
 40
13.0
 40
13.0
 40
14.0
 40
14.0
 40
14.0
 40
15.0
 40
15.0
 40
15.0
 40
16.0
 40
16.0
 40
16.0
 40
17.0
 40
17.0
 40
17.0
 40
18.0
 40
18.0
 40
18.0
 40
18.0
 10
9.316909841319482
 20
-138.6111221331204
 30
0.0
 10
9.316909841319482
 20
-138.6111221331204
 30
0.0
 10
9.316909841319482
 20
-141.6111219634906
 30
0.0
 10
9.316909841319482
 20
-141.6111219634906
 30
0.0
 10
9.316909841319482
 20
-141.6111219634906
 30
0.0
 10
9.316909841319482
 20
-152.5111152436536
 30
0.0
 10
9.316909841319482
 20
-152.5111152436536
 30
0.0
 10
9.316909841319482
 20
-152.6111213415145
 30
0.0
 10
9.416908309786335
 20
-152.5111152436536
 30
0.0
 10
9.316909841319482
 20
-152.5111152436536
 30
0.0
 10
9.316909841319482
 20
-152.5111152436536
 30
0.0
 10
6.416908479416162
 20
-152.5111152436536
 30
0.0
 10
6.416908479416162
 20
-152.5111152436536
 30
0.0
 10
6.361908177350278
 20
-152.5111152436536
 30
0.0
 10
6.316910010949309
 20
-152.556121039448
 30
0.0
 10
6.316910010949309
 20
-152.6111213415145
 30
0.0
 10
6.316910010949309
 20
-152.6111213415145
 30
0.0
 10
6.316910010949309
 20
-158.6111210022549
 30
0.0
 10
6.316910010949309
 20
-158.6111210022549
 30
0.0
 10
6.316910010949309
 20
-158.6661213043201
 30
0.0
 10
6.361908177350278
 20
-158.7111194707211
 30
0.0
 10
6.416908479416162
 20
-158.7111194707211
 30
0.0
 10
6.416908479416162
 20
-158.7111194707211
 30
0.0
 10
9.316909841319482
 20
-158.7111194707211
 30
0.0
 10
9.316909841319482
 20
-158.7111194707211
 30
0.0
 10
9.416908309786335
 20
-158.7111194707211
 30
0.0
 10
9.316909841319482
 20
-158.6111210022549
 30
0.0
 10
9.316909841319482
 20
-158.7111194707211
 30
0.0
 10
9.316909841319482
 20
-158.7111194707211
 30
0.0
 10
9.316909841319482
 20
-164.5111145651343
 30
0.0
 10
9.316909841319482
 20
-164.5111145651343
 30
0.0
 10
9.316909841319482
 20
-164.6111206629953
 30
0.0
 10
9.416908309786335
 20
-164.5111145651343
 30
0.0
 10
9.316909841319482
 20
-164.5111145651343
 30
0.0
 10
9.316909841319482
 20
-164.5111145651343
 30
0.0
 10
6.416908479416162
 20
-164.5111145651343
 30
0.0
 10
6.416908479416162
 20
-164.5111145651343
 30
0.0
 10
6.361908177350278
 20
-164.5111145651343
 30
0.0
 10
6.316910010949309
 20
-164.5561203609287
 30
0.0
 10
6.316910010949309
 20
-164.6111206629953
 30
0.0
 10
6.316910010949309
 20
-164.6111206629953
 30
0.0
 10
6.316910010949309
 20
-170.6111203237356
 30
0.0
 10
6.316910010949309
 20
-170.6111203237356
 30
0.0
 10
6.316910010949309
 20
-170.6661206258008
 30
0.0
 10
6.361908177350278
 20
-170.7111187922018
 30
0.0
 10
6.416908479416162
 20
-170.7111187922018
 30
0.0
 10
6.416908479416162
 20
-170.7111187922018
 30
0.0
 10
9.316909841319482
 20
-170.7111187922018
 30
0.0
 10
9.316909841319482
 20
-170.7111187922018
 30
0.0
 10
9.416908309786335
 20
-170.7111187922018
 30
0.0
 10
9.316909841319482
 20
-170.6111203237356
 30
0.0
 10
9.316909841319482
 20
-170.7111187922018
 30
0.0
 10
9.316909841319482
 20
-170.7111187922018
 30
0.0
 10
9.316909841319482
 20
-184.8111183764112
 30
0.0
 10
9.316909841319482
 20
-184.8111183764112
 30
0.0
  0
SPLINE
  5
69
330
64
100
AcDbEntity
  8
Layer 1
 62
   178
420
        1
370
    20
100
AcDbSpline
210
0.0
220
0.0
230
1.0
 70
     8
 71
     3
 72
    68
 73
    64
 74
     0
 42
0.0000000001
 43
0.0000000001
 12
1.0
 22
0.0
 32
0.0
 13
1.0
 23
0.0
 33
0.0
 40
0.0
 40
0.0
 40
0.0
 40
0.0
 40
1.0
 40
1.0
 40
1.0
 40
2.0
 40
2.0
 40
2.0
 40
3.0
 40
3.0
 40
3.0
 40
4.0
 40
4.0
 40
4.0
 40
5.0
 40
5.0
 40
5.0
 40
6.0
 40
6.0
 40
6.0
 40
7.0
 40
7.0
 40
7.0
 40
8.0
 40
8.0
 40
8.0
 40
9.0
 40
9.0
 40
9.0
 40
10.0
 40
10.0
 40
10.0
 40
11.0
 40
11.0
 40
11.0
 40
12.0
 40
12.0
 40
12.0
 40
13.0
 40
13.0
 40
13.0
 40
14.0
 40
14.0
 40
14.0
 40
15.0
 40
15.0
 40
15.0
 40
16.0
 40
16.0
 40
16.0
 40
17.0
 40
17.0
 40
17.0
 40
18.0
 40
18.0
 40
18.0
 40
19.0
 40
19.0
 40
19.0
 40
20.0
 40
20.0
 40
20.0
 40
21.0
 40
21.0
 40
21.0
 40
21.0
 10
58.35490145331628
 20
-184.7471182503303
 30
0.0
 10
58.40990175538217
 20
-184.7471182503303
 30
0.0
 10
58.51690400763268
 20
-184.666119834195
 30
0.0
 10
58.51690400763268
 20
-184.6111195321297
 30
0.0
 10
58.51690400763268
 20
-184.6111195321297
 30
0.0
 10
58.51690400763268
 20
-181.6111197017596
 30
0.0
 10
58.51690400763268
 20
-181.6111197017596
 30
0.0
 10
58.51690400763268
 20
-181.6111197017596
 30
0.0
 10
58.51690400763268
 20
-170.7111187922018
 30
0.0
 10
58.51690400763268
 20
-170.7111187922018
 30
0.0
 10
58.51690400763268
 20
-170.6111203237356
 30
0.0
 10
58.41690553916583
 20
-170.7111187922018
 30
0.0
 10
58.51690400763268
 20
-170.7111187922018
 30
0.0
 10
58.51690400763268
 20
-170.7111187922018
 30
0.0
 10
61.416905369536
 20
-170.7111187922018
 30
0.0
 10
61.416905369536
 20
-170.7111187922018
 30
0.0
 10
61.47190567160189
 20
-170.7111187922018
 30
0.0
 10
61.51690383800286
 20
-170.6661206258008
 30
0.0
 10
61.51690383800286
 20
-170.6111203237356
 30
0.0
 10
61.51690383800286
 20
-170.6111203237356
 30
0.0
 10
61.51690383800286
 20
-164.6111206629953
 30
0.0
 10
61.51690383800286
 20
-164.6111206629953
 30
0.0
 10
61.51690383800286
 20
-164.5561203609287
 30
0.0
 10
61.47190567160189
 20
-164.5111145651343
 30
0.0
 10
61.416905369536
 20
-164.5111145651343
 30
0.0
 10
61.416905369536
 20
-164.5111145651343
 30
0.0
 10
58.51690400763268
 20
-164.5111145651343
 30
0.0
 10
58.51690400763268
 20
-164.5111145651343
 30
0.0
 10
58.41690553916583
 20
-164.5111145651343
 30
0.0
 10
58.51690400763268
 20
-164.6111206629953
 30
0.0
 10
58.51690400763268
 20
-164.5111145651343
 30
0.0
 10
58.51690400763268
 20
-164.5111145651343
 30
0.0
 10
58.51690400763268
 20
-158.7111194707211
 30
0.0
 10
58.51690400763268
 20
-158.7111194707211
 30
0.0
 10
58.51690400763268
 20
-158.6111210022549
 30
0.0
 10
58.41690553916583
 20
-158.7111194707211
 30
0.0
 10
58.51690400763268
 20
-158.7111194707211
 30
0.0
 10
58.51690400763268
 20
-158.7111194707211
 30
0.0
 10
61.416905369536
 20
-158.7111194707211
 30
0.0
 10
61.416905369536
 20
-158.7111194707211
 30
0.0
 10
61.47190567160189
 20
-158.7111194707211
 30
0.0
 10
61.51690383800286
 20
-158.6661213043201
 30
0.0
 10
61.51690383800286
 20
-158.6111210022549
 30
0.0
 10
61.51690383800286
 20
-158.6111210022549
 30
0.0
 10
61.51690383800286
 20
-152.6111213415145
 30
0.0
 10
61.51690383800286
 20
-152.6111213415145
 30
0.0
 10
61.51690383800286
 20
-152.556121039448
 30
0.0
 10
61.47190567160189
 20
-152.5111152436536
 30
0.0
 10
61.416905369536
 20
-152.5111152436536
 30
0.0
 10
61.416905369536
 20
-152.5111152436536
 30
0.0
 10
58.51690400763268
 20
-152.5111152436536
 30
0.0
 10
58.51690400763268
 20
-152.5111152436536
 30
0.0
 10
58.41690553916583
 20
-152.5111152436536
 30
0.0
 10
58.51690400763268
 20
-152.6111213415145
 30
0.0
 10
58.51690400763268
 20
-152.5111152436536
 30
0.0
 10
58.51690400763268
 20
-152.5111152436536
 30
0.0
 10
58.51690400763268
 20
-141.6111219634906
 30
0.0
 10
58.51690400763268
 20
-141.6111219634906
 30
0.0
 10
58.51690400763268
 20
-141.6111219634906
 30
0.0
 10
58.51690400763268
 20
-138.6111221331204
 30
0.0
 10
58.51690400763268
 20
-138.6111221331204
 30
0.0
 10
58.51690400763268
 20
-138.5561218310539
 30
0.0
 10
58.38890566281935
 20
-138.4751167391996
 30
0.0
 10
58.33390536075347
 20
-138.4751167391996
 30
0.0
  0
ENDBLK
  5
67
330
64
100
AcDbEntity
  8
0
100
AcDbBlockEnd
  0
BLOCK
  5
6C
330
6A
100
AcDbEntity
  8
0
100
AcDbBlockBegin
  2
block 8
 70
     0
 10
0.0
 20
0.0
 30
0.0
  3
block 8
  1

  0
SPLINE
  5
6E
330
6A
100
AcDbEntity
  8
Layer 1
 62
   178
420
        1
370
    20
100
AcDbSpline
210
0.0
220
0.0
230
1.0
 70
     8
 71
     3
 72
   191
 73
   187
 74
     0
 42
0.0000000001
 43
0.0000000001
 12
1.0
 22
0.0
 32
0.0
 13
1.0
 23
0.0
 33
0.0
 40
0.0
 40
0.0
 40
0.0
 40
0.0
 40
1.0
 40
1.0
 40
1.0
 40
2.0
 40
2.0
 40
2.0
 40
3.0
 40
3.0
 40
3.0
 40
4.0
 40
4.0
 40
4.0
 40
5.0
 40
5.0
 40
5.0
 40
6.0
 40
6.0
 40
6.0
 40
7.0
 40
7.0
 40
7.0
 40
8.0
 40
8.0
 40
8.0
 40
9.0
 40
9.0
 40
9.0
 40
10.0
 40
10.0
 40
10.0
 40
11.0
 40
11.0
 40
11.0
 40
12.0
 40
12.0
 40
12.0
 40
13.0
 40
13.0
 40
13.0
 40
14.0
 40
14.0
 40
14.0
 40
15.0
 40
15.0
 40
15.0
 40
16.0
 40
16.0
 40
16.0
 40
17.0
 40
17.0
 40
17.0
 40
18.0
 40
18.0
 40
18.0
 40
19.0
 40
19.0
 40
19.0
 40
20.0
 40
20.0
 40
20.0
 40
21.0
 40
21.0
 40
21.0
 40
22.0
 40
22.0
 40
22.0
 40
23.0
 40
23.0
 40
23.0
 40
24.0
 40
24.0
 40
24.0
 40
25.0
 40
25.0
 40
25.0
 40
26.0
 40
26.0
 40
26.0
 40
27.0
 40
27.0
 40
27.0
 40
28.0
 40
28.0
 40
28.0
 40
29.0
 40
29.0
 40
29.0
 40
30.0
 40
30.0
 40
30.0
 40
31.0
 40
31.0
 40
31.0
 40
32.0
 40
32.0
 40
32.0
 40
33.0
 40
33.0
 40
33.0
 40
34.0
 40
34.0
 40
34.0
 40
35.0
 40
35.0
 40
35.0
 40
36.0
 40
36.0
 40
36.0
 40
37.0
 40
37.0
 40
37.0
 40
38.0
 40
38.0
 40
38.0
 40
39.0
 40
39.0
 40
39.0
 40
40.0
 40
40.0
 40
40.0
 40
41.0
 40
41.0
 40
41.0
 40
42.0
 40
42.0
 40
42.0
 40
43.0
 40
43.0
 40
43.0
 40
44.0
 40
44.0
 40
44.0
 40
45.0
 40
45.0
 40
45.0
 40
46.0
 40
46.0
 40
46.0
 40
47.0
 40
47.0
 40
47.0
 40
48.0
 40
48.0
 40
48.0
 40
49.0
 40
49.0
 40
49.0
 40
50.0
 40
50.0
 40
50.0
 40
51.0
 40
51.0
 40
51.0
 40
52.0
 40
52.0
 40
52.0
 40
53.0
 40
53.0
 40
53.0
 40
54.0
 40
54.0
 40
54.0
 40
55.0
 40
55.0
 40
55.0
 40
56.0
 40
56.0
 40
56.0
 40
57.0
 40
57.0
 40
57.0
 40
58.0
 40
58.0
 40
58.0
 40
59.0
 40
59.0
 40
59.0
 40
60.0
 40
60.0
 40
60.0
 40
61.0
 40
61.0
 40
61.0
 40
62.0
 40
62.0
 40
62.0
 40
62.0
 10
58.33390536075347
 20
-138.4751167391996
 30
0.0
 10
58.33390536075347
 20
-138.4751167391996
 30
0.0
 10
61.9209107731668
 20
-134.2001154550433
 30
0.0
 10
61.9209107731668
 20
-134.2001154550433
 30
0.0
 10
61.98490613087641
 20
-134.1231157950901
 30
0.0
 10
61.84389966912282
 20
-134.1361162826363
 30
0.0
 10
61.9209107731668
 20
-134.2001154550433
 30
0.0
 10
61.9209107731668
 20
-134.2001154550433
 30
0.0
 10
64.14190368957676
 20
-136.06411757743
 30
0.0
 10
64.14190368957676
 20
-136.06411757743
 30
0.0
 10
64.18490295472357
 20
-136.1001168734899
 30
0.0
 10
64.2479064912002
 20
-136.0941163550306
 30
0.0
 10
64.28291015133036
 20
-136.0521165405103
 30
0.0
 10
64.28291015133036
 20
-136.0521165405103
 30
0.0
 10
68.1399045621495
 20
-131.4561161289971
 30
0.0
 10
68.1399045621495
 20
-131.4561161289971
 30
0.0
 10
68.17590004351263
 20
-131.4131168638503
 30
0.0
 10
68.16990333975014
 20
-131.3501171420704
 30
0.0
 10
68.12791115462451
 20
-131.315117296637
 30
0.0
 10
68.12791115462451
 20
-131.315117296637
 30
0.0
 10
65.90591115819336
 20
-129.4511189889483
 30
0.0
 10
65.90591115819336
 20
-129.4511189889483
 30
0.0
 10
65.82990713417057
 20
-129.3861165512175
 30
0.0
 10
65.84190054169555
 20
-129.5271191982737
 30
0.0
 10
65.90591115819336
 20
-129.4511189889483
 30
0.0
 10
65.90591115819336
 20
-129.4511189889483
 30
0.0
 10
69.49390839183968
 20
-125.1751182541649
 30
0.0
 10
69.49390839183968
 20
-125.1751182541649
 30
0.0
 10
69.50890778064
 20
-125.157116698786
 30
0.0
 10
69.51690338565665
 20
-125.1351173408987
 30
0.0
 10
69.51690338565665
 20
-125.1111190817579
 30
0.0
 10
69.51690338565665
 20
-125.1111190817579
 30
0.0
 10
69.51690338565665
 20
-123.1831177869648
 30
0.0
 10
69.51690338565665
 20
-123.1831177869648
 30
0.0
 10
69.51690338565665
 20
-123.1831177869648
 30
0.0
 10
69.51690338565665
 20
-118.2471172420876
 30
0.0
 10
69.51690338565665
 20
-118.2471172420876
 30
0.0
 10
69.51690338565665
 20
-118.1471187736213
 30
0.0
 10
69.4169125465839
 20
-118.2471172420876
 30
0.0
 10
69.51690338565665
 20
-118.2471172420876
 30
0.0
 10
69.51690338565665
 20
-118.2471172420876
 30
0.0
 10
72.41691237695407
 20
-118.2471172420876
 30
0.0
 10
72.41691237695407
 20
-118.2471172420876
 30
0.0
 10
72.47190504962586
 20
-118.2471172420876
 30
0.0
 10
72.51690321602683
 20
-118.2021190756866
 30
0.0
 10
72.51690321602683
 20
-118.1471187736213
 30
0.0
 10
72.51690321602683
 20
-118.1471187736213
 30
0.0
 10
72.51690321602683
 20
-112.1471152981836
 30
0.0
 10
72.51690321602683
 20
-112.1471152981836
 30
0.0
 10
72.51690321602683
 20
-112.0921149961177
 30
0.0
 10
72.47190504962586
 20
-112.0471168297168
 30
0.0
 10
72.41691237695407
 20
-112.0471168297168
 30
0.0
 10
72.41691237695407
 20
-112.0471168297168
 30
0.0
 10
69.51690338565665
 20
-112.0471168297168
 30
0.0
 10
69.51690338565665
 20
-112.0471168297168
 30
0.0
 10
69.4169125465839
 20
-112.0471168297168
 30
0.0
 10
69.51690338565665
 20
-112.1471152981836
 30
0.0
 10
69.51690338565665
 20
-112.0471168297168
 30
0.0
 10
69.51690338565665
 20
-112.0471168297168
 30
0.0
 10
69.51690338565665
 20
-107.1111200995369
 30
0.0
 10
69.51690338565665
 20
-107.1111200995369
 30
0.0
 10
69.51690338565665
 20
-107.056119797471
 30
0.0
 10
69.47190521925569
 20
-107.01112163107
 30
0.0
 10
69.4169125465839
 20
-107.01112163107
 30
0.0
 10
69.4169125465839
 20
-107.01112163107
 30
0.0
 10
66.41691271621373
 20
-107.01112163107
 30
0.0
 10
66.41691271621373
 20
-107.01112163107
 30
0.0
 10
66.36190478475375
 20
-107.01112163107
 30
0.0
 10
66.31690661835277
 20
-107.056119797471
 30
0.0
 10
66.31690661835277
 20
-107.1111200995369
 30
0.0
 10
66.31690661835277
 20
-107.1111200995369
 30
0.0
 10
66.31690661835277
 20
-110.0111214614402
 30
0.0
 10
66.31690661835277
 20
-110.0111214614402
 30
0.0
 10
66.31690661835277
 20
-110.111119929907
 30
0.0
 10
66.41691271621373
 20
-110.0111214614402
 30
0.0
 10
66.31690661835277
 20
-110.0111214614402
 30
0.0
 10
66.31690661835277
 20
-110.0111214614402
 30
0.0
 10
60.51690389454613
 20
-110.0111214614402
 30
0.0
 10
60.51690389454613
 20
-110.0111214614402
 30
0.0
 10
60.41691305547338
 20
-110.0111214614402
 30
0.0
 10
60.51690389454613
 20
-110.111119929907
 30
0.0
 10
60.51690389454613
 20
-110.0111214614402
 30
0.0
 10
60.51690389454613
 20
-110.0111214614402
 30
0.0
 10
60.51690389454613
 20
-107.1111200995369
 30
0.0
 10
60.51690389454613
 20
-107.1111200995369
 30
0.0
 10
60.51690389454613
 20
-107.056119797471
 30
0.0
 10
60.47190572814517
 20
-107.01112163107
 30
0.0
 10
60.41691305547338
 20
-107.01112163107
 30
0.0
 10
60.41691305547338
 20
-107.01112163107
 30
0.0
 10
54.41690576533893
 20
-107.01112163107
 30
0.0
 10
54.41690576533893
 20
-107.01112163107
 30
0.0
 10
54.36190546327305
 20
-107.01112163107
 30
0.0
 10
54.31690729687208
 20
-107.056119797471
 30
0.0
 10
54.31690729687208
 20
-107.1111200995369
 30
0.0
 10
54.31690729687208
 20
-107.1111200995369
 30
0.0
 10
54.31690729687208
 20
-110.0111214614402
 30
0.0
 10
54.31690729687208
 20
-110.0111214614402
 30
0.0
 10
54.31690729687208
 20
-110.111119929907
 30
0.0
 10
54.41690576533893
 20
-110.0111214614402
 30
0.0
 10
54.31690729687208
 20
-110.0111214614402
 30
0.0
 10
54.31690729687208
 20
-110.0111214614402
 30
0.0
 10
48.51690457306544
 20
-110.0111214614402
 30
0.0
 10
48.51690457306544
 20
-110.0111214614402
 30
0.0
 10
48.41690610459859
 20
-110.0111214614402
 30
0.0
 10
48.51690457306544
 20
-110.111119929907
 30
0.0
 10
48.51690457306544
 20
-110.0111214614402
 30
0.0
 10
48.51690457306544
 20
-110.0111214614402
 30
0.0
 10
48.51690457306544
 20
-107.1111200995369
 30
0.0
 10
48.51690457306544
 20
-107.1111200995369
 30
0.0
 10
48.51690457306544
 20
-107.056119797471
 30
0.0
 10
48.47190640666447
 20
-107.01112163107
 30
0.0
 10
48.41690610459859
 20
-107.01112163107
 30
0.0
 10
48.41690610459859
 20
-107.01112163107
 30
0.0
 10
42.41690644385824
 20
-107.01112163107
 30
0.0
 10
42.41690644385824
 20
-107.01112163107
 30
0.0
 10
42.36190614179236
 20
-107.01112163107
 30
0.0
 10
42.31690797539139
 20
-107.056119797471
 30
0.0
 10
42.31690797539139
 20
-107.1111200995369
 30
0.0
 10
42.31690797539139
 20
-107.1111200995369
 30
0.0
 10
42.31690797539139
 20
-110.0111214614402
 30
0.0
 10
42.31690797539139
 20
-110.0111214614402
 30
0.0
 10
42.31690797539139
 20
-110.111119929907
 30
0.0
 10
42.41690644385824
 20
-110.0111214614402
 30
0.0
 10
42.31690797539139
 20
-110.0111214614402
 30
0.0
 10
42.31690797539139
 20
-110.0111214614402
 30
0.0
 10
36.51690525158475
 20
-110.0111214614402
 30
0.0
 10
36.51690525158475
 20
-110.0111214614402
 30
0.0
 10
36.41690678311789
 20
-110.0111214614402
 30
0.0
 10
36.51690525158475
 20
-110.111119929907
 30
0.0
 10
36.51690525158475
 20
-110.0111214614402
 30
0.0
 10
36.51690525158475
 20
-110.0111214614402
 30
0.0
 10
36.51690525158475
 20
-107.1111200995369
 30
0.0
 10
36.51690525158475
 20
-107.1111200995369
 30
0.0
 10
36.51690525158475
 20
-107.056119797471
 30
0.0
 10
36.47190708518378
 20
-107.01112163107
 30
0.0
 10
36.41690678311789
 20
-107.01112163107
 30
0.0
 10
36.41690678311789
 20
-107.01112163107
 30
0.0
 10
30.41690712237755
 20
-107.01112163107
 30
0.0
 10
30.41690712237755
 20
-107.01112163107
 30
0.0
 10
30.36190682031166
 20
-107.01112163107
 30
0.0
 10
30.31690865391069
 20
-107.056119797471
 30
0.0
 10
30.31690865391069
 20
-107.1111200995369
 30
0.0
 10
30.31690865391069
 20
-107.1111200995369
 30
0.0
 10
30.31690865391069
 20
-110.0111214614402
 30
0.0
 10
30.31690865391069
 20
-110.0111214614402
 30
0.0
 10
30.31690865391069
 20
-110.111119929907
 30
0.0
 10
30.41690712237755
 20
-110.0111214614402
 30
0.0
 10
30.31690865391069
 20
-110.0111214614402
 30
0.0
 10
30.31690865391069
 20
-110.0111214614402
 30
0.0
 10
24.51690593010406
 20
-110.0111214614402
 30
0.0
 10
24.51690593010406
 20
-110.0111214614402
 30
0.0
 10
24.4169074616372
 20
-110.0111214614402
 30
0.0
 10
24.51690593010406
 20
-110.111119929907
 30
0.0
 10
24.51690593010406
 20
-110.0111214614402
 30
0.0
 10
24.51690593010406
 20
-110.0111214614402
 30
0.0
 10
24.51690593010406
 20
-107.1111200995369
 30
0.0
 10
24.51690593010406
 20
-107.1111200995369
 30
0.0
 10
24.51690593010406
 20
-107.056119797471
 30
0.0
 10
24.47190776370309
 20
-107.01112163107
 30
0.0
 10
24.4169074616372
 20
-107.01112163107
 30
0.0
 10
24.4169074616372
 20
-107.01112163107
 30
0.0
 10
18.41690780089685
 20
-107.01112163107
 30
0.0
 10
18.41690780089685
 20
-107.01112163107
 30
0.0
 10
18.36190749883097
 20
-107.01112163107
 30
0.0
 10
18.31690933243
 20
-107.056119797471
 30
0.0
 10
18.31690933243
 20
-107.1111200995369
 30
0.0
 10
18.31690933243
 20
-107.1111200995369
 30
0.0
 10
18.31690933243
 20
-110.0111214614402
 30
0.0
 10
18.31690933243
 20
-110.0111214614402
 30
0.0
 10
18.31690933243
 20
-110.111119929907
 30
0.0
 10
18.41690780089685
 20
-110.0111214614402
 30
0.0
 10
18.31690933243
 20
-110.0111214614402
 30
0.0
 10
18.31690933243
 20
-110.0111214614402
 30
0.0
 10
12.51690660862336
 20
-110.0111214614402
 30
0.0
 10
12.51690660862336
 20
-110.0111214614402
 30
0.0
 10
12.41690814015651
 20
-110.0111214614402
 30
0.0
 10
12.51690660862336
 20
-110.111119929907
 30
0.0
 10
12.51690660862336
 20
-110.0111214614402
 30
0.0
 10
12.51690660862336
 20
-110.0111214614402
 30
0.0
 10
12.51690660862336
 20
-107.1111200995369
 30
0.0
 10
12.51690660862336
 20
-107.1111200995369
 30
0.0
 10
12.51690660862336
 20
-107.056119797471
 30
0.0
 10
12.47190844222239
 20
-107.01112163107
 30
0.0
 10
12.41690814015651
 20
-107.01112163107
 30
0.0
 10
12.41690814015651
 20
-107.01112163107
 30
0.0
 10
9.416908309786335
 20
-107.01112163107
 30
0.0
 10
9.416908309786335
 20
-107.01112163107
 30
0.0
  0
SPLINE
  5
6F
330
6A
100
AcDbEntity
  8
Layer 1
 62
   178
420
        1
370
    20
100
AcDbSpline
210
0.0
220
0.0
230
1.0
 70
     8
 71
     3
 72
    59
 73
    55
 74
     0
 42
0.0000000001
 43
0.0000000001
 12
1.0
 22
0.0
 32
0.0
 13
1.0
 23
0.0
 33
0.0
 40
0.0
 40
0.0
 40
0.0
 40
0.0
 40
1.0
 40
1.0
 40
1.0
 40
2.0
 40
2.0
 40
2.0
 40
3.0
 40
3.0
 40
3.0
 40
4.0
 40
4.0
 40
4.0
 40
5.0
 40
5.0
 40
5.0
 40
6.0
 40
6.0
 40
6.0
 40
7.0
 40
7.0
 40
7.0
 40
8.0
 40
8.0
 40
8.0
 40
9.0
 40
9.0
 40
9.0
 40
10.0
 40
10.0
 40
10.0
 40
11.0
 40
11.0
 40
11.0
 40
12.0
 40
12.0
 40
12.0
 40
13.0
 40
13.0
 40
13.0
 40
14.0
 40
14.0
 40
14.0
 40
15.0
 40
15.0
 40
15.0
 40
16.0
 40
16.0
 40
16.0
 40
17.0
 40
17.0
 40
17.0
 40
18.0
 40
18.0
 40
18.0
 40
18.0
 10
9.416908309786335
 20
-107.01112163107
 30
0.0
 10
9.361908007720452
 20
-107.01112163107
 30
0.0
 10
9.316909841319482
 20
-107.056119797471
 30
0.0
 10
9.316909841319482
 20
-107.1111200995369
 30
0.0
 10
9.316909841319482
 20
-107.1111200995369
 30
0.0
 10
9.316909841319482
 20
-113.6611189662387
 30
0.0
 10
9.316909841319482
 20
-113.6611189662387
 30
0.0
 10
9.316909841319482
 20
-113.7611174347062
 30
0.0
 10
9.416908309786335
 20
-113.6611189662387
 30
0.0
 10
9.316909841319482
 20
-113.6611189662387
 30
0.0
 10
9.316909841319482
 20
-113.6611189662387
 30
0.0
 10
6.416908479416162
 20
-113.6611189662387
 30
0.0
 10
6.416908479416162
 20
-113.6611189662387
 30
0.0
 10
6.361908177350278
 20
-113.6611189662387
 30
0.0
 10
6.316910010949309
 20
-113.7061171326396
 30
0.0
 10
6.316910010949309
 20
-113.7611174347062
 30
0.0
 10
6.316910010949309
 20
-113.7611174347062
 30
0.0
 10
6.316910010949309
 20
-119.7611170954465
 30
0.0
 10
6.316910010949309
 20
-119.7611170954465
 30
0.0
 10
6.316910010949309
 20
-119.8161173975118
 30
0.0
 10
6.361908177350278
 20
-119.8611193786101
 30
0.0
 10
6.416908479416162
 20
-119.8611193786101
 30
0.0
 10
6.416908479416162
 20
-119.8611193786101
 30
0.0
 10
9.316909841319482
 20
-119.8611193786101
 30
0.0
 10
9.316909841319482
 20
-119.8611193786101
 30
0.0
 10
9.416908309786335
 20
-119.8611193786101
 30
0.0
 10
9.316909841319482
 20
-119.7611170954465
 30
0.0
 10
9.316909841319482
 20
-119.8611193786101
 30
0.0
 10
9.316909841319482
 20
-119.8611193786101
 30
0.0
 10
9.316909841319482
 20
-125.6611182877194
 30
0.0
 10
9.316909841319482
 20
-125.6611182877194
 30
0.0
 10
9.316909841319482
 20
-125.7611167561869
 30
0.0
 10
9.416908309786335
 20
-125.6611182877194
 30
0.0
 10
9.316909841319482
 20
-125.6611182877194
 30
0.0
 10
9.316909841319482
 20
-125.6611182877194
 30
0.0
 10
6.416908479416162
 20
-125.6611182877194
 30
0.0
 10
6.416908479416162
 20
-125.6611182877194
 30
0.0
 10
6.361908177350278
 20
-125.6611182877194
 30
0.0
 10
6.316910010949309
 20
-125.7061164541203
 30
0.0
 10
6.316910010949309
 20
-125.7611167561869
 30
0.0
 10
6.316910010949309
 20
-125.7611167561869
 30
0.0
 10
6.316910010949309
 20
-131.7611164169266
 30
0.0
 10
6.316910010949309
 20
-131.7611164169266
 30
0.0
 10
6.316910010949309
 20
-131.8161167189931
 30
0.0
 10
6.361908177350278
 20
-131.8611187000908
 30
0.0
 10
6.416908479416162
 20
-131.8611187000908
 30
0.0
 10
6.416908479416162
 20
-131.8611187000908
 30
0.0
 10
9.316909841319482
 20
-131.8611187000908
 30
0.0
 10
9.316909841319482
 20
-131.8611187000908
 30
0.0
 10
9.416908309786335
 20
-131.8611187000908
 30
0.0
 10
9.316909841319482
 20
-131.7611164169266
 30
0.0
 10
9.316909841319482
 20
-131.8611187000908
 30
0.0
 10
9.316909841319482
 20
-131.8611187000908
 30
0.0
 10
9.316909841319482
 20
-138.6111221331204
 30
0.0
 10
9.316909841319482
 20
-138.6111221331204
 30
0.0
  0
ENDBLK
  5
6D
330
6A
100
AcDbEntity
  8
0
100
AcDbBlockEnd
  0
BLOCK
  5
72
330
70
100
AcDbEntity
  8
0
100
AcDbBlockBegin
  2
block 9
 70
     0
 10
0.0
 20
0.0
 30
0.0
  3
block 9
  1

  0
SPLINE
  5
74
330
70
100
AcDbEntity
  8
Layer 1
 62
   178
420
        1
370
    20
100
AcDbSpline
210
0.0
220
0.0
230
1.0
 70
     8
 71
     3
 72
   440
 73
   436
 74
     0
 42
0.0000000001
 43
0.0000000001
 12
1.0
 22
0.0
 32
0.0
 13
1.0
 23
0.0
 33
0.0
 40
0.0
 40
0.0
 40
0.0
 40
0.0
 40
1.0
 40
1.0
 40
1.0
 40
2.0
 40
2.0
 40
2.0
 40
3.0
 40
3.0
 40
3.0
 40
4.0
 40
4.0
 40
4.0
 40
5.0
 40
5.0
 40
5.0
 40
6.0
 40
6.0
 40
6.0
 40
7.0
 40
7.0
 40
7.0
 40
8.0
 40
8.0
 40
8.0
 40
9.0
 40
9.0
 40
9.0
 40
10.0
 40
10.0
 40
10.0
 40
11.0
 40
11.0
 40
11.0
 40
12.0
 40
12.0
 40
12.0
 40
13.0
 40
13.0
 40
13.0
 40
14.0
 40
14.0
 40
14.0
 40
15.0
 40
15.0
 40
15.0
 40
16.0
 40
16.0
 40
16.0
 40
17.0
 40
17.0
 40
17.0
 40
18.0
 40
18.0
 40
18.0
 40
19.0
 40
19.0
 40
19.0
 40
20.0
 40
20.0
 40
20.0
 40
21.0
 40
21.0
 40
21.0
 40
22.0
 40
22.0
 40
22.0
 40
23.0
 40
23.0
 40
23.0
 40
24.0
 40
24.0
 40
24.0
 40
25.0
 40
25.0
 40
25.0
 40
26.0
 40
26.0
 40
26.0
 40
27.0
 40
27.0
 40
27.0
 40
28.0
 40
28.0
 40
28.0
 40
29.0
 40
29.0
 40
29.0
 40
30.0
 40
30.0
 40
30.0
 40
31.0
 40
31.0
 40
31.0
 40
32.0
 40
32.0
 40
32.0
 40
33.0
 40
33.0
 40
33.0
 40
34.0
 40
34.0
 40
34.0
 40
35.0
 40
35.0
 40
35.0
 40
36.0
 40
36.0
 40
36.0
 40
37.0
 40
37.0
 40
37.0
 40
38.0
 40
38.0
 40
38.0
 40
39.0
 40
39.0
 40
39.0
 40
40.0
 40
40.0
 40
40.0
 40
41.0
 40
41.0
 40
41.0
 40
42.0
 40
42.0
 40
42.0
 40
43.0
 40
43.0
 40
43.0
 40
44.0
 40
44.0
 40
44.0
 40
45.0
 40
45.0
 40
45.0
 40
46.0
 40
46.0
 40
46.0
 40
47.0
 40
47.0
 40
47.0
 40
48.0
 40
48.0
 40
48.0
 40
49.0
 40
49.0
 40
49.0
 40
50.0
 40
50.0
 40
50.0
 40
51.0
 40
51.0
 40
51.0
 40
52.0
 40
52.0
 40
52.0
 40
53.0
 40
53.0
 40
53.0
 40
54.0
 40
54.0
 40
54.0
 40
55.0
 40
55.0
 40
55.0
 40
56.0
 40
56.0
 40
56.0
 40
57.0
 40
57.0
 40
57.0
 40
58.0
 40
58.0
 40
58.0
 40
59.0
 40
59.0
 40
59.0
 40
60.0
 40
60.0
 40
60.0
 40
61.0
 40
61.0
 40
61.0
 40
62.0
 40
62.0
 40
62.0
 40
63.0
 40
63.0
 40
63.0
 40
64.0
 40
64.0
 40
64.0
 40
65.0
 40
65.0
 40
65.0
 40
66.0
 40
66.0
 40
66.0
 40
67.0
 40
67.0
 40
67.0
 40
68.0
 40
68.0
 40
68.0
 40
69.0
 40
69.0
 40
69.0
 40
70.0
 40
70.0
 40
70.0
 40
71.0
 40
71.0
 40
71.0
 40
72.0
 40
72.0
 40
72.0
 40
73.0
 40
73.0
 40
73.0
 40
74.0
 40
74.0
 40
74.0
 40
75.0
 40
75.0
 40
75.0
 40
76.0
 40
76.0
 40
76.0
 40
77.0
 40
77.0
 40
77.0
 40
78.0
 40
78.0
 40
78.0
 40
79.0
 40
79.0
 40
79.0
 40
80.0
 40
80.0
 40
80.0
 40
81.0
 40
81.0
 40
81.0
 40
82.0
 40
82.0
 40
82.0
 40
83.0
 40
83.0
 40
83.0
 40
84.0
 40
84.0
 40
84.0
 40
85.0
 40
85.0
 40
85.0
 40
86.0
 40
86.0
 40
86.0
 40
87.0
 40
87.0
 40
87.0
 40
88.0
 40
88.0
 40
88.0
 40
89.0
 40
89.0
 40
89.0
 40
90.0
 40
90.0
 40
90.0
 40
91.0
 40
91.0
 40
91.0
 40
92.0
 40
92.0
 40
92.0
 40
93.0
 40
93.0
 40
93.0
 40
94.0
 40
94.0
 40
94.0
 40
95.0
 40
95.0
 40
95.0
 40
96.0
 40
96.0
 40
96.0
 40
97.0
 40
97.0
 40
97.0
 40
98.0
 40
98.0
 40
98.0
 40
99.0
 40
99.0
 40
99.0
 40
100.0
 40
100.0
 40
100.0
 40
101.0
 40
101.0
 40
101.0
 40
102.0
 40
102.0
 40
102.0
 40
103.0
 40
103.0
 40
103.0
 40
104.0
 40
104.0
 40
104.0
 40
105.0
 40
105.0
 40
105.0
 40
106.0
 40
106.0
 40
106.0
 40
107.0
 40
107.0
 40
107.0
 40
108.0
 40
108.0
 40
108.0
 40
109.0
 40
109.0
 40
109.0
 40
110.0
 40
110.0
 40
110.0
 40
111.0
 40
111.0
 40
111.0
 40
112.0
 40
112.0
 40
112.0
 40
113.0
 40
113.0
 40
113.0
 40
114.0
 40
114.0
 40
114.0
 40
115.0
 40
115.0
 40
115.0
 40
116.0
 40
116.0
 40
116.0
 40
117.0
 40
117.0
 40
117.0
 40
118.0
 40
118.0
 40
118.0
 40
119.0
 40
119.0
 40
119.0
 40
120.0
 40
120.0
 40
120.0
 40
121.0
 40
121.0
 40
121.0
 40
122.0
 40
122.0
 40
122.0
 40
123.0
 40
123.0
 40
123.0
 40
124.0
 40
124.0
 40
124.0
 40
125.0
 40
125.0
 40
125.0
 40
126.0
 40
126.0
 40
126.0
 40
127.0
 40
127.0
 40
127.0
 40
128.0
 40
128.0
 40
128.0
 40
129.0
 40
129.0
 40
129.0
 40
130.0
 40
130.0
 40
130.0
 40
131.0
 40
131.0
 40
131.0
 40
132.0
 40
132.0
 40
132.0
 40
133.0
 40
133.0
 40
133.0
 40
134.0
 40
134.0
 40
134.0
 40
135.0
 40
135.0
 40
135.0
 40
136.0
 40
136.0
 40
136.0
 40
137.0
 40
137.0
 40
137.0
 40
138.0
 40
138.0
 40
138.0
 40
139.0
 40
139.0
 40
139.0
 40
140.0
 40
140.0
 40
140.0
 40
141.0
 40
141.0
 40
141.0
 40
142.0
 40
142.0
 40
142.0
 40
143.0
 40
143.0
 40
143.0
 40
144.0
 40
144.0
 40
144.0
 40
145.0
 40
145.0
 40
145.0
 40
145.0
 10
234.1224740146708
 20
-184.6111195321291
 30
0.0
 10
234.1224740146708
 20
-184.6111195321291
 30
0.0
 10
234.1224768756936
 20
-187.8111239288277
 30
0.0
 10
234.1224768756936
 20
-187.8111239288277
 30
0.0
 10
234.1224768756936
 20
-187.8661166014995
 30
0.0
 10
234.1674750420946
 20
-187.9111300266887
 30
0.0
 10
234.2224753441605
 20
-187.9111300266887
 30
0.0
 10
234.2224753441605
 20
-187.9111300266887
 30
0.0
 10
237.1224767060638
 20
-187.9111300266887
 30
0.0
 10
237.1224767060638
 20
-187.9111300266887
 30
0.0
 10
237.2224751745306
 20
-187.9111300266887
 30
0.0
 10
237.1224767060638
 20
-187.8111239288277
 30
0.0
 10
237.1224767060638
 20
-187.9111300266887
 30
0.0
 10
237.1224767060638
 20
-187.9111300266887
 30
0.0
 10
237.1224767060638
 20
-193.7111174917071
 30
0.0
 10
237.1224767060638
 20
-193.7111174917071
 30
0.0
 10
237.1224767060638
 20
-193.8111235895681
 30
0.0
 10
237.2224751745306
 20
-193.7111174917071
 30
0.0
 10
237.1224767060638
 20
-193.7111174917071
 30
0.0
 10
237.1224767060638
 20
-193.7111174917071
 30
0.0
 10
234.2224753441605
 20
-193.7111174917071
 30
0.0
 10
234.2224753441605
 20
-193.7111174917071
 30
0.0
 10
234.1674750420946
 20
-193.7111174917071
 30
0.0
 10
234.1224768756936
 20
-193.7561309168963
 30
0.0
 10
234.1224768756936
 20
-193.8111235895681
 30
0.0
 10
234.1224768756936
 20
-193.8111235895681
 30
0.0
 10
234.1224768756936
 20
-199.8111232503084
 30
0.0
 10
234.1224768756936
 20
-199.8111232503084
 30
0.0
 10
234.1224768756936
 20
-199.8661159229802
 30
0.0
 10
234.1674750420946
 20
-199.9111293481694
 30
0.0
 10
234.2224753441605
 20
-199.9111293481694
 30
0.0
 10
234.2224753441605
 20
-199.9111293481694
 30
0.0
 10
237.1224767060638
 20
-199.9111293481694
 30
0.0
 10
237.1224767060638
 20
-199.9111293481694
 30
0.0
 10
237.2224751745306
 20
-199.9111293481694
 30
0.0
 10
237.1224767060638
 20
-199.8111232503084
 30
0.0
 10
237.1224767060638
 20
-199.9111293481694
 30
0.0
 10
237.1224767060638
 20
-199.9111293481694
 30
0.0
 10
237.1224767060638
 20
-205.7111168131878
 30
0.0
 10
237.1224767060638
 20
-205.7111168131878
 30
0.0
 10
237.1224767060638
 20
-205.8111229110488
 30
0.0
 10
237.2224751745306
 20
-205.7111168131878
 30
0.0
 10
237.1224767060638
 20
-205.7111168131878
 30
0.0
 10
237.1224767060638
 20
-205.7111168131878
 30
0.0
 10
234.2224753441605
 20
-205.7111168131878
 30
0.0
 10
234.2224753441605
 20
-205.7111168131878
 30
0.0
 10
234.1674750420946
 20
-205.7111168131878
 30
0.0
 10
234.1224768756936
 20
-205.756130238377
 30
0.0
 10
234.1224768756936
 20
-205.8111229110488
 30
0.0
 10
234.1224768756936
 20
-205.8111229110488
 30
0.0
 10
234.1224768756936
 20
-211.8111225717891
 30
0.0
 10
234.1224768756936
 20
-211.8111225717891
 30
0.0
 10
234.1224768756936
 20
-211.8661152444609
 30
0.0
 10
234.1674750420946
 20
-211.9111286696501
 30
0.0
 10
234.2224753441605
 20
-211.9111286696501
 30
0.0
 10
234.2224753441605
 20
-211.9111286696501
 30
0.0
 10
237.1224767060638
 20
-211.9111286696501
 30
0.0
 10
237.1224767060638
 20
-211.9111286696501
 30
0.0
 10
237.2224751745306
 20
-211.9111286696501
 30
0.0
 10
237.1224767060638
 20
-211.8111225717891
 30
0.0
 10
237.1224767060638
 20
-211.9111286696501
 30
0.0
 10
237.1224767060638
 20
-211.9111286696501
 30
0.0
 10
237.1224767060638
 20
-217.7111161346685
 30
0.0
 10
237.1224767060638
 20
-217.7111161346685
 30
0.0
 10
237.1224767060638
 20
-217.8111222325294
 30
0.0
 10
237.2224751745306
 20
-217.7111161346685
 30
0.0
 10
237.1224767060638
 20
-217.7111161346685
 30
0.0
 10
237.1224767060638
 20
-217.7111161346685
 30
0.0
 10
234.2224753441605
 20
-217.7111161346685
 30
0.0
 10
234.2224753441605
 20
-217.7111161346685
 30
0.0
 10
234.1674750420946
 20
-217.7111161346685
 30
0.0
 10
234.1224768756936
 20
-217.7561295598577
 30
0.0
 10
234.1224768756936
 20
-217.8111222325294
 30
0.0
 10
234.1224768756936
 20
-217.8111222325294
 30
0.0
 10
234.1224768756936
 20
-223.8111218932698
 30
0.0
 10
234.1224768756936
 20
-223.8111218932698
 30
0.0
 10
234.1224768756936
 20
-223.8661145659416
 30
0.0
 10
234.1674750420946
 20
-223.9111279911307
 30
0.0
 10
234.2224753441605
 20
-223.9111279911307
 30
0.0
 10
234.2224753441605
 20
-223.9111279911307
 30
0.0
 10
237.1224767060638
 20
-223.9111279911307
 30
0.0
 10
237.1224767060638
 20
-223.9111279911307
 30
0.0
 10
237.2224751745306
 20
-223.9111279911307
 30
0.0
 10
237.1224767060638
 20
-223.8111218932698
 30
0.0
 10
237.1224767060638
 20
-223.9111279911307
 30
0.0
 10
237.1224767060638
 20
-223.9111279911307
 30
0.0
 10
237.1224767060638
 20
-229.7111154561492
 30
0.0
 10
237.1224767060638
 20
-229.7111154561492
 30
0.0
 10
237.1224767060638
 20
-229.8111215540101
 30
0.0
 10
237.2224751745306
 20
-229.7111154561492
 30
0.0
 10
237.1224767060638
 20
-229.7111154561492
 30
0.0
 10
237.1224767060638
 20
-229.7111154561492
 30
0.0
 10
234.2224753441605
 20
-229.7111154561492
 30
0.0
 10
234.2224753441605
 20
-229.7111154561492
 30
0.0
 10
234.1674750420946
 20
-229.7111154561492
 30
0.0
 10
234.1224768756936
 20
-229.7561288813384
 30
0.0
 10
234.1224768756936
 20
-229.8111215540101
 30
0.0
 10
234.1224768756936
 20
-229.8111215540101
 30
0.0
 10
234.1224768756936
 20
-235.8111212147505
 30
0.0
 10
234.1224768756936
 20
-235.8111212147505
 30
0.0
 10
234.1224768756936
 20
-235.8661138874223
 30
0.0
 10
234.1674750420946
 20
-235.9111273126114
 30
0.0
 10
234.2224753441605
 20
-235.9111273126114
 30
0.0
 10
234.2224753441605
 20
-235.9111273126114
 30
0.0
 10
237.1224767060638
 20
-235.9111273126114
 30
0.0
 10
237.1224767060638
 20
-235.9111273126114
 30
0.0
 10
237.2224751745306
 20
-235.9111273126114
 30
0.0
 10
237.1224767060638
 20
-235.8111212147505
 30
0.0
 10
237.1224767060638
 20
-235.9111273126114
 30
0.0
 10
237.1224767060638
 20
-235.9111273126114
 30
0.0
 10
237.1224767060638
 20
-241.7111147776299
 30
0.0
 10
237.1224767060638
 20
-241.7111147776299
 30
0.0
 10
237.1224767060638
 20
-241.8111208754908
 30
0.0
 10
237.2224751745306
 20
-241.7111147776299
 30
0.0
 10
237.1224767060638
 20
-241.7111147776299
 30
0.0
 10
237.1224767060638
 20
-241.7111147776299
 30
0.0
 10
234.2224753441605
 20
-241.7111147776299
 30
0.0
 10
234.2224753441605
 20
-241.7111147776299
 30
0.0
 10
234.1674750420946
 20
-241.7111147776299
 30
0.0
 10
234.1224768756936
 20
-241.756128202819
 30
0.0
 10
234.1224768756936
 20
-241.8111208754908
 30
0.0
 10
234.1224768756936
 20
-241.8111208754908
 30
0.0
 10
234.1224768756936
 20
-247.8111205362312
 30
0.0
 10
234.1224768756936
 20
-247.8111205362312
 30
0.0
 10
234.1224768756936
 20
-247.866113208903
 30
0.0
 10
234.1674750420946
 20
-247.9111266340921
 30
0.0
 10
234.2224753441605
 20
-247.9111266340921
 30
0.0
 10
234.2224753441605
 20
-247.9111266340921
 30
0.0
 10
237.1224767060638
 20
-247.9111266340921
 30
0.0
 10
237.1224767060638
 20
-247.9111266340921
 30
0.0
 10
237.2224751745306
 20
-247.9111266340921
 30
0.0
 10
237.1224767060638
 20
-247.8111205362312
 30
0.0
 10
237.1224767060638
 20
-247.9111266340921
 30
0.0
 10
237.1224767060638
 20
-247.9111266340921
 30
0.0
 10
237.1224767060638
 20
-253.7111140991106
 30
0.0
 10
237.1224767060638
 20
-253.7111140991106
 30
0.0
 10
237.1224767060638
 20
-253.8111201969715
 30
0.0
 10
237.2224751745306
 20
-253.7111140991106
 30
0.0
 10
237.1224767060638
 20
-253.7111140991106
 30
0.0
 10
237.1224767060638
 20
-253.7111140991106
 30
0.0
 10
234.2224753441605
 20
-253.7111140991106
 30
0.0
 10
234.2224753441605
 20
-253.7111140991106
 30
0.0
 10
234.1674750420946
 20
-253.7111140991106
 30
0.0
 10
234.1224768756936
 20
-253.7561275242998
 30
0.0
 10
234.1224768756936
 20
-253.8111201969715
 30
0.0
 10
234.1224768756936
 20
-253.8111201969715
 30
0.0
 10
234.1224768756936
 20
-259.8111198577119
 30
0.0
 10
234.1224768756936
 20
-259.8111198577119
 30
0.0
 10
234.1224768756936
 20
-259.8661125303836
 30
0.0
 10
234.1674750420946
 20
-259.9111259555728
 30
0.0
 10
234.2224753441605
 20
-259.9111259555728
 30
0.0
 10
234.2224753441605
 20
-259.9111259555728
 30
0.0
 10
237.1224767060638
 20
-259.9111259555728
 30
0.0
 10
237.1224767060638
 20
-259.9111259555728
 30
0.0
 10
237.2224751745306
 20
-259.9111259555728
 30
0.0
 10
237.1224767060638
 20
-259.8111198577119
 30
0.0
 10
237.1224767060638
 20
-259.9111259555728
 30
0.0
 10
237.1224767060638
 20
-259.9111259555728
 30
0.0
 10
237.1224767060638
 20
-265.7111134205913
 30
0.0
 10
237.1224767060638
 20
-265.7111134205913
 30
0.0
 10
237.1224767060638
 20
-265.8111195184522
 30
0.0
 10
237.2224751745306
 20
-265.7111134205913
 30
0.0
 10
237.1224767060638
 20
-265.7111134205913
 30
0.0
 10
237.1224767060638
 20
-265.7111134205913
 30
0.0
 10
234.2224753441605
 20
-265.7111134205913
 30
0.0
 10
234.2224753441605
 20
-265.7111134205913
 30
0.0
 10
234.1674750420946
 20
-265.7111134205913
 30
0.0
 10
234.1224768756936
 20
-265.7561268457804
 30
0.0
 10
234.1224768756936
 20
-265.8111195184522
 30
0.0
 10
234.1224768756936
 20
-265.8111195184522
 30
0.0
 10
234.1224768756936
 20
-271.8111191791926
 30
0.0
 10
234.1224768756936
 20
-271.8111191791926
 30
0.0
 10
234.1224768756936
 20
-271.8661118518643
 30
0.0
 10
234.1674750420946
 20
-271.9111252770535
 30
0.0
 10
234.2224753441605
 20
-271.9111252770535
 30
0.0
 10
234.2224753441605
 20
-271.9111252770535
 30
0.0
 10
237.1224767060638
 20
-271.9111252770535
 30
0.0
 10
237.1224767060638
 20
-271.9111252770535
 30
0.0
 10
237.2224751745306
 20
-271.9111252770535
 30
0.0
 10
237.1224767060638
 20
-271.8111191791926
 30
0.0
 10
237.1224767060638
 20
-271.9111252770535
 30
0.0
 10
237.1224767060638
 20
-271.9111252770535
 30
0.0
 10
237.1224767060638
 20
-277.711112742072
 30
0.0
 10
237.1224767060638
 20
-277.711112742072
 30
0.0
 10
237.1224767060638
 20
-277.8111188399329
 30
0.0
 10
237.2224751745306
 20
-277.711112742072
 30
0.0
 10
237.1224767060638
 20
-277.711112742072
 30
0.0
 10
237.1224767060638
 20
-277.711112742072
 30
0.0
 10
234.2224753441605
 20
-277.711112742072
 30
0.0
 10
234.2224753441605
 20
-277.711112742072
 30
0.0
 10
234.1674750420946
 20
-277.711112742072
 30
0.0
 10
234.1224768756936
 20
-277.7561261672611
 30
0.0
 10
234.1224768756936
 20
-277.8111188399329
 30
0.0
 10
234.1224768756936
 20
-277.8111188399329
 30
0.0
 10
234.1224768756936
 20
-280.8111186703031
 30
0.0
 10
234.1224768756936
 20
-280.8111186703031
 30
0.0
 10
234.1224768756936
 20
-280.8661113429749
 30
0.0
 10
234.1674750420946
 20
-280.911124768164
 30
0.0
 10
234.2224753441605
 20
-280.911124768164
 30
0.0
 10
234.2224753441605
 20
-280.911124768164
 30
0.0
 10
237.2224751745306
 20
-280.911124768164
 30
0.0
 10
237.2224751745306
 20
-280.911124768164
 30
0.0
 10
237.2224751745306
 20
-280.911124768164
 30
0.0
 10
249.2224744960113
 20
-280.911124768164
 30
0.0
 10
249.2224744960113
 20
-280.911124768164
 30
0.0
 10
250.2934735809613
 20
-280.911124768164
 30
0.0
 10
251.3454754746027
 20
-280.6291118446568
 30
0.0
 10
252.2724697459179
 20
-280.0941082127983
 30
0.0
 10
253.1994716466272
 20
-279.558128018495
 30
0.0
 10
253.9694758755495
 20
-278.7881085307845
 30
0.0
 10
254.5054713286411
 20
-277.8611066300752
 30
0.0
 10
255.023469041051
 20
-276.9641035069666
 30
0.0
 10
255.767472294881
 20
-276.2191084319035
 30
0.0
 10
256.6644754179896
 20
-275.7011030900995
 30
0.0
 10
257.5614709117042
 20
-275.1841048283167
 30
0.0
 10
258.5794762252366
 20
-274.9111251074237
 30
0.0
 10
259.6144721994294
 20
-274.9111251074237
 30
0.0
 10
259.6144721994294
 20
-274.9111251074237
 30
0.0
 10
268.8304750962951
 20
-274.9111251074237
 30
0.0
 10
268.8304750962951
 20
-274.9111251074237
 30
0.0
 10
269.8654710704878
 20
-274.9111251074237
 30
0.0
 10
270.8834687546262
 20
-275.1841048283167
 30
0.0
 10
271.7804718777348
 20
-275.7011030900995
 30
0.0
 10
272.6774750008434
 20
-276.2191084319035
 30
0.0
 10
273.4214706252794
 20
-276.9641035069666
 30
0.0
 10
273.9394683376893
 20
-277.8611066300752
 30
0.0
 10
274.4754714201749
 20
-278.7881085307845
 30
0.0
 10
275.2454680197031
 20
-279.558128018495
 30
0.0
 10
276.1724699204124
 20
-280.0941082127983
 30
0.0
 10
277.0994718211217
 20
-280.6291118446568
 30
0.0
 10
278.1514737147631
 20
-280.911124768164
 30
0.0
 10
279.2224727997131
 20
-280.911124768164
 30
0.0
 10
279.2224727997131
 20
-280.911124768164
 30
0.0
 10
291.2224721211938
 20
-280.911124768164
 30
0.0
 10
291.2224721211938
 20
-280.911124768164
 30
0.0
 10
291.2224721211938
 20
-280.911124768164
 30
0.0
 10
294.2224719515639
 20
-280.911124768164
 30
0.0
 10
294.2224719515639
 20
-280.911124768164
 30
0.0
 10
294.2774722536298
 20
-280.911124768164
 30
0.0
 10
294.3224704200308
 20
-280.8661113429749
 30
0.0
 10
294.3224704200308
 20
-280.8111186703031
 30
0.0
 10
294.3224704200308
 20
-280.8111186703031
 30
0.0
 10
294.3224704200308
 20
-277.8111188399329
 30
0.0
 10
294.3224704200308
 20
-277.8111188399329
 30
0.0
 10
294.3224704200308
 20
-277.7561261672611
 30
0.0
 10
294.2774722536298
 20
-277.711112742072
 30
0.0
 10
294.2224719515639
 20
-277.711112742072
 30
0.0
 10
294.2224719515639
 20
-277.711112742072
 30
0.0
 10
291.3224705896606
 20
-277.711112742072
 30
0.0
 10
291.3224705896606
 20
-277.711112742072
 30
0.0
 10
291.2224721211938
 20
-277.711112742072
 30
0.0
 10
291.3224705896606
 20
-277.8111188399329
 30
0.0
 10
291.3224705896606
 20
-277.711112742072
 30
0.0
 10
291.3224705896606
 20
-277.711112742072
 30
0.0
 10
291.3224705896606
 20
-271.9111252770535
 30
0.0
 10
291.3224705896606
 20
-271.9111252770535
 30
0.0
 10
291.3224705896606
 20
-271.8111191791926
 30
0.0
 10
291.2224721211938
 20
-271.9111252770535
 30
0.0
 10
291.3224705896606
 20
-271.9111252770535
 30
0.0
 10
291.3224705896606
 20
-271.9111252770535
 30
0.0
 10
294.2224719515639
 20
-271.9111252770535
 30
0.0
 10
294.2224719515639
 20
-271.9111252770535
 30
0.0
 10
294.2774722536298
 20
-271.9111252770535
 30
0.0
 10
294.3224704200308
 20
-271.8661118518643
 30
0.0
 10
294.3224704200308
 20
-271.8111191791926
 30
0.0
 10
294.3224704200308
 20
-271.8111191791926
 30
0.0
 10
294.3224704200308
 20
-265.8111195184522
 30
0.0
 10
294.3224704200308
 20
-265.8111195184522
 30
0.0
 10
294.3224704200308
 20
-265.7561268457804
 30
0.0
 10
294.2774722536298
 20
-265.7111134205913
 30
0.0
 10
294.2224719515639
 20
-265.7111134205913
 30
0.0
 10
294.2224719515639
 20
-265.7111134205913
 30
0.0
 10
291.3224705896606
 20
-265.7111134205913
 30
0.0
 10
291.3224705896606
 20
-265.7111134205913
 30
0.0
 10
291.2224721211938
 20
-265.7111134205913
 30
0.0
 10
291.3224705896606
 20
-265.8111195184522
 30
0.0
 10
291.3224705896606
 20
-265.7111134205913
 30
0.0
 10
291.3224705896606
 20
-265.7111134205913
 30
0.0
 10
291.3224705896606
 20
-259.9111259555728
 30
0.0
 10
291.3224705896606
 20
-259.9111259555728
 30
0.0
 10
291.3224705896606
 20
-259.8111198577119
 30
0.0
 10
291.2224721211938
 20
-259.9111259555728
 30
0.0
 10
291.3224705896606
 20
-259.9111259555728
 30
0.0
 10
291.3224705896606
 20
-259.9111259555728
 30
0.0
 10
294.2224719515639
 20
-259.9111259555728
 30
0.0
 10
294.2224719515639
 20
-259.9111259555728
 30
0.0
 10
294.2774722536298
 20
-259.9111259555728
 30
0.0
 10
294.3224704200308
 20
-259.8661125303836
 30
0.0
 10
294.3224704200308
 20
-259.8111198577119
 30
0.0
 10
294.3224704200308
 20
-259.8111198577119
 30
0.0
 10
294.3224704200308
 20
-253.8111201969715
 30
0.0
 10
294.3224704200308
 20
-253.8111201969715
 30
0.0
 10
294.3224704200308
 20
-253.7561275242998
 30
0.0
 10
294.2774722536298
 20
-253.7111140991106
 30
0.0
 10
294.2224719515639
 20
-253.7111140991106
 30
0.0
 10
294.2224719515639
 20
-253.7111140991106
 30
0.0
 10
291.3224705896606
 20
-253.7111140991106
 30
0.0
 10
291.3224705896606
 20
-253.7111140991106
 30
0.0
 10
291.2224721211938
 20
-253.7111140991106
 30
0.0
 10
291.3224705896606
 20
-253.8111201969715
 30
0.0
 10
291.3224705896606
 20
-253.7111140991106
 30
0.0
 10
291.3224705896606
 20
-253.7111140991106
 30
0.0
 10
291.3224705896606
 20
-247.9111266340921
 30
0.0
 10
291.3224705896606
 20
-247.9111266340921
 30
0.0
 10
291.3224705896606
 20
-247.8111205362312
 30
0.0
 10
291.2224721211938
 20
-247.9111266340921
 30
0.0
 10
291.3224705896606
 20
-247.9111266340921
 30
0.0
 10
291.3224705896606
 20
-247.9111266340921
 30
0.0
 10
294.2224719515639
 20
-247.9111266340921
 30
0.0
 10
294.2224719515639
 20
-247.9111266340921
 30
0.0
 10
294.2774722536298
 20
-247.9111266340921
 30
0.0
 10
294.3224704200308
 20
-247.866113208903
 30
0.0
 10
294.3224704200308
 20
-247.8111205362312
 30
0.0
 10
294.3224704200308
 20
-247.8111205362312
 30
0.0
 10
294.3224704200308
 20
-241.8111208754908
 30
0.0
 10
294.3224704200308
 20
-241.8111208754908
 30
0.0
 10
294.3224704200308
 20
-241.756128202819
 30
0.0
 10
294.2774722536298
 20
-241.7111147776299
 30
0.0
 10
294.2224719515639
 20
-241.7111147776299
 30
0.0
 10
294.2224719515639
 20
-241.7111147776299
 30
0.0
 10
291.3224705896606
 20
-241.7111147776299
 30
0.0
 10
291.3224705896606
 20
-241.7111147776299
 30
0.0
 10
291.2224721211938
 20
-241.7111147776299
 30
0.0
 10
291.3224705896606
 20
-241.8111208754908
 30
0.0
 10
291.3224705896606
 20
-241.7111147776299
 30
0.0
 10
291.3224705896606
 20
-241.7111147776299
 30
0.0
 10
291.3224705896606
 20
-235.9111273126114
 30
0.0
 10
291.3224705896606
 20
-235.9111273126114
 30
0.0
 10
291.3224705896606
 20
-235.8111212147505
 30
0.0
 10
291.2224721211938
 20
-235.9111273126114
 30
0.0
 10
291.3224705896606
 20
-235.9111273126114
 30
0.0
 10
291.3224705896606
 20
-235.9111273126114
 30
0.0
 10
294.2224719515639
 20
-235.9111273126114
 30
0.0
 10
294.2224719515639
 20
-235.9111273126114
 30
0.0
 10
294.2774722536298
 20
-235.9111273126114
 30
0.0
 10
294.3224704200308
 20
-235.8661138874223
 30
0.0
 10
294.3224704200308
 20
-235.8111212147505
 30
0.0
 10
294.3224704200308
 20
-235.8111212147505
 30
0.0
 10
294.3224704200308
 20
-229.8111215540101
 30
0.0
 10
294.3224704200308
 20
-229.8111215540101
 30
0.0
 10
294.3224704200308
 20
-229.7561288813384
 30
0.0
 10
294.2774722536298
 20
-229.7111154561492
 30
0.0
 10
294.2224719515639
 20
-229.7111154561492
 30
0.0
 10
294.2224719515639
 20
-229.7111154561492
 30
0.0
 10
291.3224705896606
 20
-229.7111154561492
 30
0.0
 10
291.3224705896606
 20
-229.7111154561492
 30
0.0
 10
291.2224721211938
 20
-229.7111154561492
 30
0.0
 10
291.3224705896606
 20
-229.8111215540101
 30
0.0
 10
291.3224705896606
 20
-229.7111154561492
 30
0.0
 10
291.3224705896606
 20
-229.7111154561492
 30
0.0
 10
291.3224705896606
 20
-223.9111279911307
 30
0.0
 10
291.3224705896606
 20
-223.9111279911307
 30
0.0
 10
291.3224705896606
 20
-223.8111218932698
 30
0.0
 10
291.2224721211938
 20
-223.9111279911307
 30
0.0
 10
291.3224705896606
 20
-223.9111279911307
 30
0.0
 10
291.3224705896606
 20
-223.9111279911307
 30
0.0
 10
294.2224719515639
 20
-223.9111279911307
 30
0.0
 10
294.2224719515639
 20
-223.9111279911307
 30
0.0
 10
294.2774722536298
 20
-223.9111279911307
 30
0.0
 10
294.3224704200308
 20
-223.8661145659416
 30
0.0
 10
294.3224704200308
 20
-223.8111218932698
 30
0.0
 10
294.3224704200308
 20
-223.8111218932698
 30
0.0
 10
294.3224704200308
 20
-217.8111222325294
 30
0.0
 10
294.3224704200308
 20
-217.8111222325294
 30
0.0
 10
294.3224704200308
 20
-217.7561295598577
 30
0.0
 10
294.2774722536298
 20
-217.7111161346685
 30
0.0
 10
294.2224719515639
 20
-217.7111161346685
 30
0.0
 10
294.2224719515639
 20
-217.7111161346685
 30
0.0
 10
291.3224705896606
 20
-217.7111161346685
 30
0.0
 10
291.3224705896606
 20
-217.7111161346685
 30
0.0
 10
291.2224721211938
 20
-217.7111161346685
 30
0.0
 10
291.3224705896606
 20
-217.8111222325294
 30
0.0
 10
291.3224705896606
 20
-217.7111161346685
 30
0.0
 10
291.3224705896606
 20
-217.7111161346685
 30
0.0
 10
291.3224705896606
 20
-211.9111286696501
 30
0.0
 10
291.3224705896606
 20
-211.9111286696501
 30
0.0
 10
291.3224705896606
 20
-211.8111225717891
 30
0.0
 10
291.2224721211938
 20
-211.9111286696501
 30
0.0
 10
291.3224705896606
 20
-211.9111286696501
 30
0.0
 10
291.3224705896606
 20
-211.9111286696501
 30
0.0
 10
294.2224719515639
 20
-211.9111286696501
 30
0.0
 10
294.2224719515639
 20
-211.9111286696501
 30
0.0
 10
294.2774722536298
 20
-211.9111286696501
 30
0.0
 10
294.3224704200308
 20
-211.8661152444609
 30
0.0
 10
294.3224704200308
 20
-211.8111225717891
 30
0.0
 10
294.3224704200308
 20
-211.8111225717891
 30
0.0
 10
294.3224704200308
 20
-205.8111229110488
 30
0.0
 10
294.3224704200308
 20
-205.8111229110488
 30
0.0
 10
294.3224704200308
 20
-205.756130238377
 30
0.0
 10
294.2774722536298
 20
-205.7111168131878
 30
0.0
 10
294.2224719515639
 20
-205.7111168131878
 30
0.0
 10
294.2224719515639
 20
-205.7111168131878
 30
0.0
 10
291.3224705896606
 20
-205.7111168131878
 30
0.0
 10
291.3224705896606
 20
-205.7111168131878
 30
0.0
 10
291.2224721211938
 20
-205.7111168131878
 30
0.0
 10
291.3224705896606
 20
-205.8111229110488
 30
0.0
 10
291.3224705896606
 20
-205.7111168131878
 30
0.0
 10
291.3224705896606
 20
-205.7111168131878
 30
0.0
 10
291.3224705896606
 20
-199.9111293481694
 30
0.0
 10
291.3224705896606
 20
-199.9111293481694
 30
0.0
 10
291.3224705896606
 20
-199.8111232503084
 30
0.0
 10
291.2224721211938
 20
-199.9111293481694
 30
0.0
 10
291.3224705896606
 20
-199.9111293481694
 30
0.0
 10
291.3224705896606
 20
-199.9111293481694
 30
0.0
 10
294.2224719515639
 20
-199.9111293481694
 30
0.0
 10
294.2224719515639
 20
-199.9111293481694
 30
0.0
 10
294.2774722536298
 20
-199.9111293481694
 30
0.0
 10
294.3224704200308
 20
-199.8661159229802
 30
0.0
 10
294.3224704200308
 20
-199.8111232503084
 30
0.0
 10
294.3224704200308
 20
-199.8111232503084
 30
0.0
 10
294.3224704200308
 20
-193.8111235895681
 30
0.0
 10
294.3224704200308
 20
-193.8111235895681
 30
0.0
 10
294.3224704200308
 20
-193.7561309168963
 30
0.0
 10
294.2774722536298
 20
-193.7111174917071
 30
0.0
 10
294.2224719515639
 20
-193.7111174917071
 30
0.0
 10
294.2224719515639
 20
-193.7111174917071
 30
0.0
 10
291.3224705896606
 20
-193.7111174917071
 30
0.0
 10
291.3224705896606
 20
-193.7111174917071
 30
0.0
 10
291.2224721211938
 20
-193.7111174917071
 30
0.0
 10
291.3224705896606
 20
-193.8111235895681
 30
0.0
 10
291.3224705896606
 20
-193.7111174917071
 30
0.0
 10
291.3224705896606
 20
-193.7111174917071
 30
0.0
 10
291.3224705896606
 20
-187.9111300266887
 30
0.0
 10
291.3224705896606
 20
-187.9111300266887
 30
0.0
 10
291.3224705896606
 20
-187.8111239288277
 30
0.0
 10
291.2224721211938
 20
-187.9111300266887
 30
0.0
 10
291.3224705896606
 20
-187.9111300266887
 30
0.0
 10
291.3224705896606
 20
-187.9111300266887
 30
0.0
 10
294.2224719515639
 20
-187.9111300266887
 30
0.0
 10
294.2224719515639
 20
-187.9111300266887
 30
0.0
 10
294.2774722536298
 20
-187.9111300266887
 30
0.0
 10
294.3224704200308
 20
-187.8661166014995
 30
0.0
 10
294.3224704200308
 20
-187.8111239288277
 30
0.0
 10
294.3224704200308
 20
-187.8111239288277
 30
0.0
 10
294.3224704200308
 20
-184.8111240984576
 30
0.0
 10
294.3224704200308
 20
-184.8111240984576
 30
0.0
  0
SPLINE
  5
75
330
70
100
AcDbEntity
  8
Layer 1
 62
   175
420
  2837403
370
    20
100
AcDbSpline
210
0.0
220
0.0
230
1.0
 70
    11
 71
     3
 72
    32
 73
    28
 74
     0
 42
0.0000000001
 43
0.0000000001
 12
1.0
 22
0.0
 32
0.0
 13
1.0
 23
0.0
 33
0.0
 40
0.0
 40
0.0
 40
0.0
 40
0.0
 40
1.0
 40
1.0
 40
1.0
 40
2.0
 40
2.0
 40
2.0
 40
3.0
 40
3.0
 40
3.0
 40
4.0
 40
4.0
 40
4.0
 40
5.0
 40
5.0
 40
5.0
 40
6.0
 40
6.0
 40
6.0
 40
7.0
 40
7.0
 40
7.0
 40
8.0
 40
8.0
 40
8.0
 40
9.0
 40
9.0
 40
9.0
 40
9.0
 10
246.2224746656412
 20
-271.8111191791926
 30
0.0
 10
246.2224746656412
 20
-271.8111191791926
 30
0.0
 10
243.3224733037378
 20
-271.8111191791926
 30
0.0
 10
243.3224733037378
 20
-271.8111191791926
 30
0.0
 10
243.222474835271
 20
-271.8111191791926
 30
0.0
 10
243.3224733037378
 20
-271.9111252770535
 30
0.0
 10
243.3224733037378
 20
-271.8111191791926
 30
0.0
 10
243.3224733037378
 20
-271.8111191791926
 30
0.0
 10
243.3224733037378
 20
-269.0111315445443
 30
0.0
 10
243.3224733037378
 20
-269.0111315445443
 30
0.0
 10
243.3224733037378
 20
-268.9111254466833
 30
0.0
 10
243.222474835271
 20
-269.0111315445443
 30
0.0
 10
243.3224733037378
 20
-269.0111315445443
 30
0.0
 10
243.3224733037378
 20
-269.0111315445443
 30
0.0
 10
249.1224760275445
 20
-269.0111315445443
 30
0.0
 10
249.1224760275445
 20
-269.0111315445443
 30
0.0
 10
249.2224744960113
 20
-269.0111315445443
 30
0.0
 10
249.1224760275445
 20
-268.9111254466833
 30
0.0
 10
249.1224760275445
 20
-269.0111315445443
 30
0.0
 10
249.1224760275445
 20
-269.0111315445443
 30
0.0
 10
249.1224760275445
 20
-271.8111191791926
 30
0.0
 10
249.1224760275445
 20
-271.8111191791926
 30
0.0
 10
249.1224760275445
 20
-271.9111252770535
 30
0.0
 10
249.2224744960113
 20
-271.8111191791926
 30
0.0
 10
249.1224760275445
 20
-271.8111191791926
 30
0.0
 10
249.1224760275445
 20
-271.8111191791926
 30
0.0
 10
246.2224746656412
 20
-271.8111191791926
 30
0.0
 10
246.2224746656412
 20
-271.8111191791926
 30
0.0
  0
SPLINE
  5
76
330
70
100
AcDbEntity
  8
Layer 1
 62
   175
420
  2837403
370
    20
100
AcDbSpline
210
0.0
220
0.0
230
1.0
 70
    11
 71
     3
 72
    32
 73
    28
 74
     0
 42
0.0000000001
 43
0.0000000001
 12
1.0
 22
0.0
 32
0.0
 13
1.0
 23
0.0
 33
0.0
 40
0.0
 40
0.0
 40
0.0
 40
0.0
 40
1.0
 40
1.0
 40
1.0
 40
2.0
 40
2.0
 40
2.0
 40
3.0
 40
3.0
 40
3.0
 40
4.0
 40
4.0
 40
4.0
 40
5.0
 40
5.0
 40
5.0
 40
6.0
 40
6.0
 40
6.0
 40
7.0
 40
7.0
 40
7.0
 40
8.0
 40
8.0
 40
8.0
 40
9.0
 40
9.0
 40
9.0
 40
9.0
 10
258.2224739871219
 20
-271.8111191791926
 30
0.0
 10
258.2224739871219
 20
-271.8111191791926
 30
0.0
 10
255.3224726252186
 20
-271.8111191791926
 30
0.0
 10
255.3224726252186
 20
-271.8111191791926
 30
0.0
 10
255.2224741567517
 20
-271.8111191791926
 30
0.0
 10
255.3224726252186
 20
-271.9111252770535
 30
0.0
 10
255.3224726252186
 20
-271.8111191791926
 30
0.0
 10
255.3224726252186
 20
-271.8111191791926
 30
0.0
 10
255.3224726252186
 20
-269.0111315445443
 30
0.0
 10
255.3224726252186
 20
-269.0111315445443
 30
0.0
 10
255.3224726252186
 20
-268.9111254466833
 30
0.0
 10
255.2224741567517
 20
-269.0111315445443
 30
0.0
 10
255.3224726252186
 20
-269.0111315445443
 30
0.0
 10
255.3224726252186
 20
-269.0111315445443
 30
0.0
 10
261.1224753490252
 20
-269.0111315445443
 30
0.0
 10
261.1224753490252
 20
-269.0111315445443
 30
0.0
 10
261.222473817492
 20
-269.0111315445443
 30
0.0
 10
261.1224753490252
 20
-268.9111254466833
 30
0.0
 10
261.1224753490252
 20
-269.0111315445443
 30
0.0
 10
261.1224753490252
 20
-269.0111315445443
 30
0.0
 10
261.1224753490252
 20
-271.8111191791926
 30
0.0
 10
261.1224753490252
 20
-271.8111191791926
 30
0.0
 10
261.1224753490252
 20
-271.9111252770535
 30
0.0
 10
261.222473817492
 20
-271.8111191791926
 30
0.0
 10
261.1224753490252
 20
-271.8111191791926
 30
0.0
 10
261.1224753490252
 20
-271.8111191791926
 30
0.0
 10
258.2224739871219
 20
-271.8111191791926
 30
0.0
 10
258.2224739871219
 20
-271.8111191791926
 30
0.0
  0
SPLINE
  5
77
330
70
100
AcDbEntity
  8
Layer 1
 62
   175
420
  2837403
370
    20
100
AcDbSpline
210
0.0
220
0.0
230
1.0
 70
    11
 71
     3
 72
    32
 73
    28
 74
     0
 42
0.0000000001
 43
0.0000000001
 12
1.0
 22
0.0
 32
0.0
 13
1.0
 23
0.0
 33
0.0
 40
0.0
 40
0.0
 40
0.0
 40
0.0
 40
1.0
 40
1.0
 40
1.0
 40
2.0
 40
2.0
 40
2.0
 40
3.0
 40
3.0
 40
3.0
 40
4.0
 40
4.0
 40
4.0
 40
5.0
 40
5.0
 40
5.0
 40
6.0
 40
6.0
 40
6.0
 40
7.0
 40
7.0
 40
7.0
 40
8.0
 40
8.0
 40
8.0
 40
9.0
 40
9.0
 40
9.0
 40
9.0
 10
270.2224733086026
 20
-271.8111191791926
 30
0.0
 10
270.2224733086026
 20
-271.8111191791926
 30
0.0
 10
267.3224719466992
 20
-271.8111191791926
 30
0.0
 10
267.3224719466992
 20
-271.8111191791926
 30
0.0
 10
267.2224734782324
 20
-271.8111191791926
 30
0.0
 10
267.3224719466992
 20
-271.9111252770535
 30
0.0
 10
267.3224719466992
 20
-271.8111191791926
 30
0.0
 10
267.3224719466992
 20
-271.8111191791926
 30
0.0
 10
267.3224719466992
 20
-269.0111315445443
 30
0.0
 10
267.3224719466992
 20
-269.0111315445443
 30
0.0
 10
267.3224719466992
 20
-268.9111254466833
 30
0.0
 10
267.2224734782324
 20
-269.0111315445443
 30
0.0
 10
267.3224719466992
 20
-269.0111315445443
 30
0.0
 10
267.3224719466992
 20
-269.0111315445443
 30
0.0
 10
273.1224746705059
 20
-269.0111315445443
 30
0.0
 10
273.1224746705059
 20
-269.0111315445443
 30
0.0
 10
273.2224731389727
 20
-269.0111315445443
 30
0.0
 10
273.1224746705059
 20
-268.9111254466833
 30
0.0
 10
273.1224746705059
 20
-269.0111315445443
 30
0.0
 10
273.1224746705059
 20
-269.0111315445443
 30
0.0
 10
273.1224746705059
 20
-271.8111191791926
 30
0.0
 10
273.1224746705059
 20
-271.8111191791926
 30
0.0
 10
273.1224746705059
 20
-271.9111252770535
 30
0.0
 10
273.2224731389727
 20
-271.8111191791926
 30
0.0
 10
273.1224746705059
 20
-271.8111191791926
 30
0.0
 10
273.1224746705059
 20
-271.8111191791926
 30
0.0
 10
270.2224733086026
 20
-271.8111191791926
 30
0.0
 10
270.2224733086026
 20
-271.8111191791926
 30
0.0
  0
SPLINE
  5
78
330
70
100
AcDbEntity
  8
Layer 1
 62
   175
420
  2837403
370
    20
100
AcDbSpline
210
0.0
220
0.0
230
1.0
 70
    11
 71
     3
 72
    32
 73
    28
 74
     0
 42
0.0000000001
 43
0.0000000001
 12
1.0
 22
0.0
 32
0.0
 13
1.0
 23
0.0
 33
0.0
 40
0.0
 40
0.0
 40
0.0
 40
0.0
 40
1.0
 40
1.0
 40
1.0
 40
2.0
 40
2.0
 40
2.0
 40
3.0
 40
3.0
 40
3.0
 40
4.0
 40
4.0
 40
4.0
 40
5.0
 40
5.0
 40
5.0
 40
6.0
 40
6.0
 40
6.0
 40
7.0
 40
7.0
 40
7.0
 40
8.0
 40
8.0
 40
8.0
 40
9.0
 40
9.0
 40
9.0
 40
9.0
 10
282.2224726300832
 20
-271.8111191791926
 30
0.0
 10
282.2224726300832
 20
-271.8111191791926
 30
0.0
 10
279.3224712681799
 20
-271.8111191791926
 30
0.0
 10
279.3224712681799
 20
-271.8111191791926
 30
0.0
 10
279.2224727997131
 20
-271.8111191791926
 30
0.0
 10
279.3224712681799
 20
-271.9111252770535
 30
0.0
 10
279.3224712681799
 20
-271.8111191791926
 30
0.0
 10
279.3224712681799
 20
-271.8111191791926
 30
0.0
 10
279.3224712681799
 20
-269.0111315445443
 30
0.0
 10
279.3224712681799
 20
-269.0111315445443
 30
0.0
 10
279.3224712681799
 20
-268.9111254466833
 30
0.0
 10
279.2224727997131
 20
-269.0111315445443
 30
0.0
 10
279.3224712681799
 20
-269.0111315445443
 30
0.0
 10
279.3224712681799
 20
-269.0111315445443
 30
0.0
 10
285.1224701772892
 20
-269.0111315445443
 30
0.0
 10
285.1224701772892
 20
-269.0111315445443
 30
0.0
 10
285.2224724604534
 20
-269.0111315445443
 30
0.0
 10
285.1224701772892
 20
-268.9111254466833
 30
0.0
 10
285.1224701772892
 20
-269.0111315445443
 30
0.0
 10
285.1224701772892
 20
-269.0111315445443
 30
0.0
 10
285.1224701772892
 20
-271.8111191791926
 30
0.0
 10
285.1224701772892
 20
-271.8111191791926
 30
0.0
 10
285.1224701772892
 20
-271.9111252770535
 30
0.0
 10
285.2224724604534
 20
-271.8111191791926
 30
0.0
 10
285.1224701772892
 20
-271.8111191791926
 30
0.0
 10
285.1224701772892
 20
-271.8111191791926
 30
0.0
 10
282.2224726300832
 20
-271.8111191791926
 30
0.0
 10
282.2224726300832
 20
-271.8111191791926
 30
0.0
  0
SPLINE
  5
79
330
70
100
AcDbEntity
  8
Layer 1
 62
   178
420
        1
370
    20
100
AcDbSpline
210
0.0
220
0.0
230
1.0
 70
     8
 71
     3
 72
   218
 73
   214
 74
     0
 42
0.0000000001
 43
0.0000000001
 12
1.0
 22
0.0
 32
0.0
 13
1.0
 23
0.0
 33
0.0
 40
0.0
 40
0.0
 40
0.0
 40
0.0
 40
1.0
 40
1.0
 40
1.0
 40
2.0
 40
2.0
 40
2.0
 40
3.0
 40
3.0
 40
3.0
 40
4.0
 40
4.0
 40
4.0
 40
5.0
 40
5.0
 40
5.0
 40
6.0
 40
6.0
 40
6.0
 40
7.0
 40
7.0
 40
7.0
 40
8.0
 40
8.0
 40
8.0
 40
9.0
 40
9.0
 40
9.0
 40
10.0
 40
10.0
 40
10.0
 40
11.0
 40
11.0
 40
11.0
 40
12.0
 40
12.0
 40
12.0
 40
13.0
 40
13.0
 40
13.0
 40
14.0
 40
14.0
 40
14.0
 40
15.0
 40
15.0
 40
15.0
 40
16.0
 40
16.0
 40
16.0
 40
17.0
 40
17.0
 40
17.0
 40
18.0
 40
18.0
 40
18.0
 40
19.0
 40
19.0
 40
19.0
 40
20.0
 40
20.0
 40
20.0
 40
21.0
 40
21.0
 40
21.0
 40
22.0
 40
22.0
 40
22.0
 40
23.0
 40
23.0
 40
23.0
 40
24.0
 40
24.0
 40
24.0
 40
25.0
 40
25.0
 40
25.0
 40
26.0
 40
26.0
 40
26.0
 40
27.0
 40
27.0
 40
27.0
 40
28.0
 40
28.0
 40
28.0
 40
29.0
 40
29.0
 40
29.0
 40
30.0
 40
30.0
 40
30.0
 40
31.0
 40
31.0
 40
31.0
 40
32.0
 40
32.0
 40
32.0
 40
33.0
 40
33.0
 40
33.0
 40
34.0
 40
34.0
 40
34.0
 40
35.0
 40
35.0
 40
35.0
 40
36.0
 40
36.0
 40
36.0
 40
37.0
 40
37.0
 40
37.0
 40
38.0
 40
38.0
 40
38.0
 40
39.0
 40
39.0
 40
39.0
 40
40.0
 40
40.0
 40
40.0
 40
41.0
 40
41.0
 40
41.0
 40
42.0
 40
42.0
 40
42.0
 40
43.0
 40
43.0
 40
43.0
 40
44.0
 40
44.0
 40
44.0
 40
45.0
 40
45.0
 40
45.0
 40
46.0
 40
46.0
 40
46.0
 40
47.0
 40
47.0
 40
47.0
 40
48.0
 40
48.0
 40
48.0
 40
49.0
 40
49.0
 40
49.0
 40
50.0
 40
50.0
 40
50.0
 40
51.0
 40
51.0
 40
51.0
 40
52.0
 40
52.0
 40
52.0
 40
53.0
 40
53.0
 40
53.0
 40
54.0
 40
54.0
 40
54.0
 40
55.0
 40
55.0
 40
55.0
 40
56.0
 40
56.0
 40
56.0
 40
57.0
 40
57.0
 40
57.0
 40
58.0
 40
58.0
 40
58.0
 40
59.0
 40
59.0
 40
59.0
 40
60.0
 40
60.0
 40
60.0
 40
61.0
 40
61.0
 40
61.0
 40
62.0
 40
62.0
 40
62.0
 40
63.0
 40
63.0
 40
63.0
 40
64.0
 40
64.0
 40
64.0
 40
65.0
 40
65.0
 40
65.0
 40
66.0
 40
66.0
 40
66.0
 40
67.0
 40
67.0
 40
67.0
 40
68.0
 40
68.0
 40
68.0
 40
69.0
 40
69.0
 40
69.0
 40
70.0
 40
70.0
 40
70.0
 40
71.0
 40
71.0
 40
71.0
 40
71.0
 10
294.3224704200308
 20
-138.6111221331194
 30
0.0
 10
294.3224704200308
 20
-138.6111221331194
 30
0.0
 10
294.3224689895187
 20
-131.761120231623
 30
0.0
 10
294.3224689895187
 20
-131.761120231623
 30
0.0
 10
294.3224689895187
 20
-131.70512047893
 30
0.0
 10
294.2774708231178
 20
-131.661114133762
 30
0.0
 10
294.2224705210525
 20
-131.661114133762
 30
0.0
 10
294.2224705210525
 20
-131.661114133762
 30
0.0
 10
291.3224691591486
 20
-131.661114133762
 30
0.0
 10
291.3224691591486
 20
-131.661114133762
 30
0.0
 10
291.2224706906823
 20
-131.661114133762
 30
0.0
 10
291.3224691591486
 20
-131.761120231623
 30
0.0
 10
291.3224691591486
 20
-131.661114133762
 30
0.0
 10
291.3224691591486
 20
-131.661114133762
 30
0.0
 10
291.3224691591486
 20
-125.8611266687436
 30
0.0
 10
291.3224691591486
 20
-125.8611266687436
 30
0.0
 10
291.3224691591486
 20
-125.7611205708826
 30
0.0
 10
291.2224706906823
 20
-125.8611266687436
 30
0.0
 10
291.3224691591486
 20
-125.8611266687436
 30
0.0
 10
291.3224691591486
 20
-125.8611266687436
 30
0.0
 10
294.2224705210525
 20
-125.8611266687436
 30
0.0
 10
294.2224705210525
 20
-125.8611266687436
 30
0.0
 10
294.2774708231178
 20
-125.8611266687436
 30
0.0
 10
294.3224689895187
 20
-125.8161132435544
 30
0.0
 10
294.3224689895187
 20
-125.7611205708826
 30
0.0
 10
294.3224689895187
 20
-125.7611205708826
 30
0.0
 10
294.3224689895187
 20
-119.7611209101423
 30
0.0
 10
294.3224689895187
 20
-119.7611209101423
 30
0.0
 10
294.3224689895187
 20
-119.7051211574493
 30
0.0
 10
294.2774708231178
 20
-119.6611148122813
 30
0.0
 10
294.2224705210525
 20
-119.6611148122813
 30
0.0
 10
294.2224705210525
 20
-119.6611148122813
 30
0.0
 10
291.3224691591486
 20
-119.6611148122813
 30
0.0
 10
291.3224691591486
 20
-119.6611148122813
 30
0.0
 10
291.2224706906823
 20
-119.6611148122813
 30
0.0
 10
291.3224691591486
 20
-119.7611209101423
 30
0.0
 10
291.3224691591486
 20
-119.6611148122813
 30
0.0
 10
291.3224691591486
 20
-119.6611148122813
 30
0.0
 10
291.3224691591486
 20
-113.8611273472635
 30
0.0
 10
291.3224691591486
 20
-113.8611273472635
 30
0.0
 10
291.3224691591486
 20
-113.7611212494026
 30
0.0
 10
291.2224706906823
 20
-113.8611273472635
 30
0.0
 10
291.3224691591486
 20
-113.8611273472635
 30
0.0
 10
291.3224691591486
 20
-113.8611273472635
 30
0.0
 10
294.2224705210525
 20
-113.8611273472635
 30
0.0
 10
294.2224705210525
 20
-113.8611273472635
 30
0.0
 10
294.2774708231178
 20
-113.8611273472635
 30
0.0
 10
294.3224689895187
 20
-113.8161139220744
 30
0.0
 10
294.3224689895187
 20
-113.7611212494026
 30
0.0
 10
294.3224689895187
 20
-113.7611212494026
 30
0.0
 10
294.3224689895187
 20
-107.1111277289306
 30
0.0
 10
294.3224689895187
 20
-107.1111277289306
 30
0.0
 10
294.3224689895187
 20
-107.0551279762377
 30
0.0
 10
294.2774708231178
 20
-107.0111216310697
 30
0.0
 10
294.2224705210525
 20
-107.0111216310697
 30
0.0
 10
294.2224705210525
 20
-107.0111216310697
 30
0.0
 10
291.2224706906823
 20
-107.0111216310697
 30
0.0
 10
291.2224706906823
 20
-107.0111216310697
 30
0.0
 10
291.2224706906823
 20
-107.0111216310697
 30
0.0
 10
285.222471029942
 20
-107.0111216310697
 30
0.0
 10
285.222471029942
 20
-107.0111216310697
 30
0.0
 10
285.1674707278755
 20
-107.0111216310697
 30
0.0
 10
285.1224725614745
 20
-107.0551279762377
 30
0.0
 10
285.1224725614745
 20
-107.1111277289306
 30
0.0
 10
285.1224725614745
 20
-107.1111277289306
 30
0.0
 10
285.1224725614745
 20
-110.0111214614399
 30
0.0
 10
285.1224725614745
 20
-110.0111214614399
 30
0.0
 10
285.1224725614745
 20
-110.1111275593008
 30
0.0
 10
285.222471029942
 20
-110.0111214614399
 30
0.0
 10
285.1224725614745
 20
-110.0111214614399
 30
0.0
 10
285.1224725614745
 20
-110.0111214614399
 30
0.0
 10
279.3224736523652
 20
-110.0111214614399
 30
0.0
 10
279.3224736523652
 20
-110.0111214614399
 30
0.0
 10
279.2224713692016
 20
-110.0111214614399
 30
0.0
 10
279.3224736523652
 20
-110.1111275593008
 30
0.0
 10
279.3224736523652
 20
-110.0111214614399
 30
0.0
 10
279.3224736523652
 20
-110.0111214614399
 30
0.0
 10
279.3224736523652
 20
-107.1111277289306
 30
0.0
 10
279.3224736523652
 20
-107.1111277289306
 30
0.0
 10
279.3224736523652
 20
-107.0551279762377
 30
0.0
 10
279.2774716712675
 20
-107.0111216310697
 30
0.0
 10
279.2224713692016
 20
-107.0111216310697
 30
0.0
 10
279.2224713692016
 20
-107.0111216310697
 30
0.0
 10
273.2224717084613
 20
-107.0111216310697
 30
0.0
 10
273.2224717084613
 20
-107.0111216310697
 30
0.0
 10
273.1674714063954
 20
-107.0111216310697
 30
0.0
 10
273.1224732399945
 20
-107.0551279762377
 30
0.0
 10
273.1224732399945
 20
-107.1111277289306
 30
0.0
 10
273.1224732399945
 20
-107.1111277289306
 30
0.0
 10
273.1224732399945
 20
-110.0111214614399
 30
0.0
 10
273.1224732399945
 20
-110.0111214614399
 30
0.0
 10
273.1224732399945
 20
-110.1111275593008
 30
0.0
 10
273.2224717084613
 20
-110.0111214614399
 30
0.0
 10
273.1224732399945
 20
-110.0111214614399
 30
0.0
 10
273.1224732399945
 20
-110.0111214614399
 30
0.0
 10
267.3224743308852
 20
-110.0111214614399
 30
0.0
 10
267.3224743308852
 20
-110.0111214614399
 30
0.0
 10
267.2224720477209
 20
-110.0111214614399
 30
0.0
 10
267.3224743308852
 20
-110.1111275593008
 30
0.0
 10
267.3224743308852
 20
-110.0111214614399
 30
0.0
 10
267.3224743308852
 20
-110.0111214614399
 30
0.0
 10
267.3224743308852
 20
-107.1111277289306
 30
0.0
 10
267.3224743308852
 20
-107.1111277289306
 30
0.0
 10
267.3224743308852
 20
-107.0551279762377
 30
0.0
 10
267.2774723497868
 20
-107.0111216310697
 30
0.0
 10
267.2224720477209
 20
-107.0111216310697
 30
0.0
 10
267.2224720477209
 20
-107.0111216310697
 30
0.0
 10
261.2224723869806
 20
-107.0111216310697
 30
0.0
 10
261.2224723869806
 20
-107.0111216310697
 30
0.0
 10
261.1674720849147
 20
-107.0111216310697
 30
0.0
 10
261.1224739185138
 20
-107.0551279762377
 30
0.0
 10
261.1224739185138
 20
-107.1111277289306
 30
0.0
 10
261.1224739185138
 20
-107.1111277289306
 30
0.0
 10
261.1224739185138
 20
-110.0111214614399
 30
0.0
 10
261.1224739185138
 20
-110.0111214614399
 30
0.0
 10
261.1224739185138
 20
-110.1111275593008
 30
0.0
 10
261.2224723869806
 20
-110.0111214614399
 30
0.0
 10
261.1224739185138
 20
-110.0111214614399
 30
0.0
 10
261.1224739185138
 20
-110.0111214614399
 30
0.0
 10
255.3224750094045
 20
-110.0111214614399
 30
0.0
 10
255.3224750094045
 20
-110.0111214614399
 30
0.0
 10
255.2224746335886
 20
-110.0111214614399
 30
0.0
 10
255.3224750094045
 20
-110.1111275593008
 30
0.0
 10
255.3224750094045
 20
-110.0111214614399
 30
0.0
 10
255.3224750094045
 20
-110.0111214614399
 30
0.0
 10
255.3224750094045
 20
-107.1111277289306
 30
0.0
 10
255.3224750094045
 20
-107.1111277289306
 30
0.0
 10
255.3224750094045
 20
-107.0551279762377
 30
0.0
 10
255.2774749356545
 20
-107.0111216310697
 30
0.0
 10
255.2224746335886
 20
-107.0111216310697
 30
0.0
 10
255.2224746335886
 20
-107.0111216310697
 30
0.0
 10
249.2224749728483
 20
-107.0111216310697
 30
0.0
 10
249.2224749728483
 20
-107.0111216310697
 30
0.0
 10
249.1674746707824
 20
-107.0111216310697
 30
0.0
 10
249.1224745970331
 20
-107.0551279762377
 30
0.0
 10
249.1224745970331
 20
-107.1111277289306
 30
0.0
 10
249.1224745970331
 20
-107.1111277289306
 30
0.0
 10
249.1224745970331
 20
-110.0111214614399
 30
0.0
 10
249.1224745970331
 20
-110.0111214614399
 30
0.0
 10
249.1224745970331
 20
-110.1111275593008
 30
0.0
 10
249.2224749728483
 20
-110.0111214614399
 30
0.0
 10
249.1224745970331
 20
-110.0111214614399
 30
0.0
 10
249.1224745970331
 20
-110.0111214614399
 30
0.0
 10
243.3224756879238
 20
-110.0111214614399
 30
0.0
 10
243.3224756879238
 20
-110.0111214614399
 30
0.0
 10
243.2224753121079
 20
-110.0111214614399
 30
0.0
 10
243.3224756879238
 20
-110.1111275593008
 30
0.0
 10
243.3224756879238
 20
-110.0111214614399
 30
0.0
 10
243.3224756879238
 20
-110.0111214614399
 30
0.0
 10
243.3224756879238
 20
-107.1111277289306
 30
0.0
 10
243.3224756879238
 20
-107.1111277289306
 30
0.0
 10
243.3224756879238
 20
-107.0551279762377
 30
0.0
 10
243.2774756141738
 20
-107.0111216310697
 30
0.0
 10
243.2224753121079
 20
-107.0111216310697
 30
0.0
 10
243.2224753121079
 20
-107.0111216310697
 30
0.0
 10
237.2224756513676
 20
-107.0111216310697
 30
0.0
 10
237.2224756513676
 20
-107.0111216310697
 30
0.0
 10
237.2224756513676
 20
-107.0111216310697
 30
0.0
 10
234.2224758209974
 20
-107.0111216310697
 30
0.0
 10
234.2224758209974
 20
-107.0111216310697
 30
0.0
 10
234.1674755189315
 20
-107.0111216310697
 30
0.0
 10
234.1224754451822
 20
-107.0551279762377
 30
0.0
 10
234.1224754451822
 20
-107.1111277289306
 30
0.0
 10
234.1224754451822
 20
-107.1111277289306
 30
0.0
 10
234.1224754451822
 20
-113.7611212494026
 30
0.0
 10
234.1224754451822
 20
-113.7611212494026
 30
0.0
 10
234.1224754451822
 20
-113.8161139220744
 30
0.0
 10
234.1674755189315
 20
-113.8611273472635
 30
0.0
 10
234.2224758209974
 20
-113.8611273472635
 30
0.0
 10
234.2224758209974
 20
-113.8611273472635
 30
0.0
 10
237.1224752755524
 20
-113.8611273472635
 30
0.0
 10
237.1224752755524
 20
-113.8611273472635
 30
0.0
 10
237.2224756513676
 20
-113.8611273472635
 30
0.0
 10
237.1224752755524
 20
-113.7611212494026
 30
0.0
 10
237.1224752755524
 20
-113.8611273472635
 30
0.0
 10
237.1224752755524
 20
-113.8611273472635
 30
0.0
 10
237.1224752755524
 20
-119.6611148122813
 30
0.0
 10
237.1224752755524
 20
-119.6611148122813
 30
0.0
 10
237.1224752755524
 20
-119.7611209101423
 30
0.0
 10
237.2224756513676
 20
-119.6611148122813
 30
0.0
 10
237.1224752755524
 20
-119.6611148122813
 30
0.0
 10
237.1224752755524
 20
-119.6611148122813
 30
0.0
 10
234.2224758209974
 20
-119.6611148122813
 30
0.0
 10
234.2224758209974
 20
-119.6611148122813
 30
0.0
 10
234.1674755189315
 20
-119.6611148122813
 30
0.0
 10
234.1224754451822
 20
-119.7051211574493
 30
0.0
 10
234.1224754451822
 20
-119.7611209101423
 30
0.0
 10
234.1224754451822
 20
-119.7611209101423
 30
0.0
 10
234.1224754451822
 20
-125.7611205708826
 30
0.0
 10
234.1224754451822
 20
-125.7611205708826
 30
0.0
 10
234.1224754451822
 20
-125.8161132435544
 30
0.0
 10
234.1674755189315
 20
-125.8611266687436
 30
0.0
 10
234.2224758209974
 20
-125.8611266687436
 30
0.0
 10
234.2224758209974
 20
-125.8611266687436
 30
0.0
 10
237.1224752755524
 20
-125.8611266687436
 30
0.0
 10
237.1224752755524
 20
-125.8611266687436
 30
0.0
 10
237.2224756513676
 20
-125.8611266687436
 30
0.0
 10
237.1224752755524
 20
-125.7611205708826
 30
0.0
 10
237.1224752755524
 20
-125.8611266687436
 30
0.0
 10
237.1224752755524
 20
-125.8611266687436
 30
0.0
 10
237.1224752755524
 20
-131.661114133762
 30
0.0
 10
237.1224752755524
 20
-131.661114133762
 30
0.0
 10
237.1224752755524
 20
-131.761120231623
 30
0.0
 10
237.2224756513676
 20
-131.661114133762
 30
0.0
 10
237.1224752755524
 20
-131.661114133762
 30
0.0
 10
237.1224752755524
 20
-131.661114133762
 30
0.0
 10
234.2224758209974
 20
-131.661114133762
 30
0.0
 10
234.2224758209974
 20
-131.661114133762
 30
0.0
 10
234.1674755189315
 20
-131.661114133762
 30
0.0
 10
234.1224754451822
 20
-131.70512047893
 30
0.0
 10
234.1224754451822
 20
-131.761120231623
 30
0.0
 10
234.1224754451822
 20
-131.761120231623
 30
0.0
 10
234.1224740146708
 20
-138.6111221331194
 30
0.0
 10
234.1224740146708
 20
-138.6111221331194
 30
0.0
  0
SPLINE
  5
7A
330
70
100
AcDbEntity
  8
Layer 1
 62
   178
420
        1
370
    20
100
AcDbSpline
210
0.0
220
0.0
230
1.0
 70
     8
 71
     3
 72
    62
 73
    58
 74
     0
 42
0.0000000001
 43
0.0000000001
 12
1.0
 22
0.0
 32
0.0
 13
1.0
 23
0.0
 33
0.0
 40
0.0
 40
0.0
 40
0.0
 40
0.0
 40
1.0
 40
1.0
 40
1.0
 40
2.0
 40
2.0
 40
2.0
 40
3.0
 40
3.0
 40
3.0
 40
4.0
 40
4.0
 40
4.0
 40
5.0
 40
5.0
 40
5.0
 40
6.0
 40
6.0
 40
6.0
 40
7.0
 40
7.0
 40
7.0
 40
8.0
 40
8.0
 40
8.0
 40
9.0
 40
9.0
 40
9.0
 40
10.0
 40
10.0
 40
10.0
 40
11.0
 40
11.0
 40
11.0
 40
12.0
 40
12.0
 40
12.0
 40
13.0
 40
13.0
 40
13.0
 40
14.0
 40
14.0
 40
14.0
 40
15.0
 40
15.0
 40
15.0
 40
16.0
 40
16.0
 40
16.0
 40
17.0
 40
17.0
 40
17.0
 40
18.0
 40
18.0
 40
18.0
 40
19.0
 40
19.0
 40
19.0
 40
19.0
 10
234.1224740146708
 20
-138.6111221331194
 30
0.0
 10
234.1224740146708
 20
-138.6111221331194
 30
0.0
 10
234.1224740146708
 20
-141.6111219634896
 30
0.0
 10
234.1224740146708
 20
-141.6111219634896
 30
0.0
 10
234.1224740146708
 20
-141.6111219634896
 30
0.0
 10
234.1224740146708
 20
-152.6111213415139
 30
0.0
 10
234.1224740146708
 20
-152.6111213415139
 30
0.0
 10
234.1224740146708
 20
-152.6661216435804
 30
0.0
 10
234.1674740884201
 20
-152.7111198099814
 30
0.0
 10
234.2224734368121
 20
-152.7111198099814
 30
0.0
 10
234.2224734368121
 20
-152.7111198099814
 30
0.0
 10
237.1224738450409
 20
-152.7111198099814
 30
0.0
 10
237.1224738450409
 20
-152.7111198099814
 30
0.0
 10
237.2224732671823
 20
-152.7111198099814
 30
0.0
 10
237.1224738450409
 20
-152.6111213415139
 30
0.0
 10
237.1224738450409
 20
-152.7111198099814
 30
0.0
 10
237.1224738450409
 20
-152.7111198099814
 30
0.0
 10
237.1224738450409
 20
-158.5111149043933
 30
0.0
 10
237.1224738450409
 20
-158.5111149043933
 30
0.0
 10
237.1224738450409
 20
-158.6111210022543
 30
0.0
 10
237.2224732671823
 20
-158.5111149043933
 30
0.0
 10
237.1224738450409
 20
-158.5111149043933
 30
0.0
 10
237.1224738450409
 20
-158.5111149043933
 30
0.0
 10
234.2224734368121
 20
-158.5111149043933
 30
0.0
 10
234.2224734368121
 20
-158.5111149043933
 30
0.0
 10
234.1674740884201
 20
-158.5111149043933
 30
0.0
 10
234.1224740146708
 20
-158.556120700189
 30
0.0
 10
234.1224740146708
 20
-158.6111210022543
 30
0.0
 10
234.1224740146708
 20
-158.6111210022543
 30
0.0
 10
234.1224740146708
 20
-164.6111206629946
 30
0.0
 10
234.1224740146708
 20
-164.6111206629946
 30
0.0
 10
234.1224740146708
 20
-164.6661209650611
 30
0.0
 10
234.1674740884201
 20
-164.7111191314621
 30
0.0
 10
234.2224734368121
 20
-164.7111191314621
 30
0.0
 10
234.2224734368121
 20
-164.7111191314621
 30
0.0
 10
237.1224738450409
 20
-164.7111191314621
 30
0.0
 10
237.1224738450409
 20
-164.7111191314621
 30
0.0
 10
237.2224732671823
 20
-164.7111191314621
 30
0.0
 10
237.1224738450409
 20
-164.6111206629946
 30
0.0
 10
237.1224738450409
 20
-164.7111191314621
 30
0.0
 10
237.1224738450409
 20
-164.7111191314621
 30
0.0
 10
237.1224738450409
 20
-170.511114225874
 30
0.0
 10
237.1224738450409
 20
-170.511114225874
 30
0.0
 10
237.1224738450409
 20
-170.611120323735
 30
0.0
 10
237.2224732671823
 20
-170.511114225874
 30
0.0
 10
237.1224738450409
 20
-170.511114225874
 30
0.0
 10
237.1224738450409
 20
-170.511114225874
 30
0.0
 10
234.2224734368121
 20
-170.511114225874
 30
0.0
 10
234.2224734368121
 20
-170.511114225874
 30
0.0
 10
234.1674740884201
 20
-170.511114225874
 30
0.0
 10
234.1224740146708
 20
-170.5561200216697
 30
0.0
 10
234.1224740146708
 20
-170.611120323735
 30
0.0
 10
234.1224740146708
 20
-170.611120323735
 30
0.0
 10
234.1224740146708
 20
-181.6111197017589
 30
0.0
 10
234.1224740146708
 20
-181.6111197017589
 30
0.0
 10
234.1224740146708
 20
-181.6111197017589
 30
0.0
 10
234.1224740146708
 20
-184.6111195321291
 30
0.0
 10
234.1224740146708
 20
-184.6111195321291
 30
0.0
  0
SPLINE
  5
7B
330
70
100
AcDbEntity
  8
Layer 1
 62
   178
420
        1
370
    20
100
AcDbSpline
210
0.0
220
0.0
230
1.0
 70
     8
 71
     3
 72
    62
 73
    58
 74
     0
 42
0.0000000001
 43
0.0000000001
 12
1.0
 22
0.0
 32
0.0
 13
1.0
 23
0.0
 33
0.0
 40
0.0
 40
0.0
 40
0.0
 40
0.0
 40
1.0
 40
1.0
 40
1.0
 40
2.0
 40
2.0
 40
2.0
 40
3.0
 40
3.0
 40
3.0
 40
4.0
 40
4.0
 40
4.0
 40
5.0
 40
5.0
 40
5.0
 40
6.0
 40
6.0
 40
6.0
 40
7.0
 40
7.0
 40
7.0
 40
8.0
 40
8.0
 40
8.0
 40
9.0
 40
9.0
 40
9.0
 40
10.0
 40
10.0
 40
10.0
 40
11.0
 40
11.0
 40
11.0
 40
12.0
 40
12.0
 40
12.0
 40
13.0
 40
13.0
 40
13.0
 40
14.0
 40
14.0
 40
14.0
 40
15.0
 40
15.0
 40
15.0
 40
16.0
 40
16.0
 40
16.0
 40
17.0
 40
17.0
 40
17.0
 40
18.0
 40
18.0
 40
18.0
 40
19.0
 40
19.0
 40
19.0
 40
19.0
 10
294.3224704200308
 20
-184.8111240984576
 30
0.0
 10
294.3224704200308
 20
-184.8111240984576
 30
0.0
 10
294.3224704200308
 20
-181.6111197017589
 30
0.0
 10
294.3224704200308
 20
-181.6111197017589
 30
0.0
 10
294.3224704200308
 20
-181.6111197017589
 30
0.0
 10
294.3224704200308
 20
-170.611120323735
 30
0.0
 10
294.3224704200308
 20
-170.611120323735
 30
0.0
 10
294.3224704200308
 20
-170.5561200216697
 30
0.0
 10
294.2774722536298
 20
-170.511114225874
 30
0.0
 10
294.2224719515639
 20
-170.511114225874
 30
0.0
 10
294.2224719515639
 20
-170.511114225874
 30
0.0
 10
291.3224705896606
 20
-170.511114225874
 30
0.0
 10
291.3224705896606
 20
-170.511114225874
 30
0.0
 10
291.2224721211938
 20
-170.511114225874
 30
0.0
 10
291.3224705896606
 20
-170.611120323735
 30
0.0
 10
291.3224705896606
 20
-170.511114225874
 30
0.0
 10
291.3224705896606
 20
-170.511114225874
 30
0.0
 10
291.3224705896606
 20
-164.7111191314621
 30
0.0
 10
291.3224705896606
 20
-164.7111191314621
 30
0.0
 10
291.3224705896606
 20
-164.6111206629946
 30
0.0
 10
291.2224721211938
 20
-164.7111191314621
 30
0.0
 10
291.3224705896606
 20
-164.7111191314621
 30
0.0
 10
291.3224705896606
 20
-164.7111191314621
 30
0.0
 10
294.2224719515639
 20
-164.7111191314621
 30
0.0
 10
294.2224719515639
 20
-164.7111191314621
 30
0.0
 10
294.2774722536298
 20
-164.7111191314621
 30
0.0
 10
294.3224704200308
 20
-164.6661209650611
 30
0.0
 10
294.3224704200308
 20
-164.6111206629946
 30
0.0
 10
294.3224704200308
 20
-164.6111206629946
 30
0.0
 10
294.3224704200308
 20
-158.6111210022543
 30
0.0
 10
294.3224704200308
 20
-158.6111210022543
 30
0.0
 10
294.3224704200308
 20
-158.556120700189
 30
0.0
 10
294.2774722536298
 20
-158.5111149043933
 30
0.0
 10
294.2224719515639
 20
-158.5111149043933
 30
0.0
 10
294.2224719515639
 20
-158.5111149043933
 30
0.0
 10
291.3224705896606
 20
-158.5111149043933
 30
0.0
 10
291.3224705896606
 20
-158.5111149043933
 30
0.0
 10
291.2224721211938
 20
-158.5111149043933
 30
0.0
 10
291.3224705896606
 20
-158.6111210022543
 30
0.0
 10
291.3224705896606
 20
-158.5111149043933
 30
0.0
 10
291.3224705896606
 20
-158.5111149043933
 30
0.0
 10
291.3224705896606
 20
-152.7111198099814
 30
0.0
 10
291.3224705896606
 20
-152.7111198099814
 30
0.0
 10
291.3224705896606
 20
-152.6111213415139
 30
0.0
 10
291.2224721211938
 20
-152.7111198099814
 30
0.0
 10
291.3224705896606
 20
-152.7111198099814
 30
0.0
 10
291.3224705896606
 20
-152.7111198099814
 30
0.0
 10
294.2224719515639
 20
-152.7111198099814
 30
0.0
 10
294.2224719515639
 20
-152.7111198099814
 30
0.0
 10
294.2774722536298
 20
-152.7111198099814
 30
0.0
 10
294.3224704200308
 20
-152.6661216435804
 30
0.0
 10
294.3224704200308
 20
-152.6111213415139
 30
0.0
 10
294.3224704200308
 20
-152.6111213415139
 30
0.0
 10
294.3224704200308
 20
-141.6111219634896
 30
0.0
 10
294.3224704200308
 20
-141.6111219634896
 30
0.0
 10
294.3224704200308
 20
-141.6111219634896
 30
0.0
 10
294.3224704200308
 20
-138.6111221331194
 30
0.0
 10
294.3224704200308
 20
-138.6111221331194
 30
0.0
  0
ENDBLK
  5
73
330
70
100
AcDbEntity
  8
0
100
AcDbBlockEnd
  0
BLOCK
  5
7E
330
7C
100
AcDbEntity
  8
0
100
AcDbBlockBegin
  2
block 10
 70
     0
 10
0.0
 20
0.0
 30
0.0
  3
block 10
  1

  0
SPLINE
  5
80
330
7C
100
AcDbEntity
  8
Layer 1
 62
   178
420
        1
370
    20
100
AcDbSpline
210
0.0
220
0.0
230
1.0
 70
    11
 71
     3
 72
   101
 73
    97
 74
     0
 42
0.0000000001
 43
0.0000000001
 12
1.0
 22
0.0
 32
0.0
 13
1.0
 23
0.0
 33
0.0
 40
0.0
 40
0.0
 40
0.0
 40
0.0
 40
1.0
 40
1.0
 40
1.0
 40
2.0
 40
2.0
 40
2.0
 40
3.0
 40
3.0
 40
3.0
 40
4.0
 40
4.0
 40
4.0
 40
5.0
 40
5.0
 40
5.0
 40
6.0
 40
6.0
 40
6.0
 40
7.0
 40
7.0
 40
7.0
 40
8.0
 40
8.0
 40
8.0
 40
9.0
 40
9.0
 40
9.0
 40
10.0
 40
10.0
 40
10.0
 40
11.0
 40
11.0
 40
11.0
 40
12.0
 40
12.0
 40
12.0
 40
13.0
 40
13.0
 40
13.0
 40
14.0
 40
14.0
 40
14.0
 40
15.0
 40
15.0
 40
15.0
 40
16.0
 40
16.0
 40
16.0
 40
17.0
 40
17.0
 40
17.0
 40
18.0
 40
18.0
 40
18.0
 40
19.0
 40
19.0
 40
19.0
 40
20.0
 40
20.0
 40
20.0
 40
21.0
 40
21.0
 40
21.0
 40
22.0
 40
22.0
 40
22.0
 40
23.0
 40
23.0
 40
23.0
 40
24.0
 40
24.0
 40
24.0
 40
25.0
 40
25.0
 40
25.0
 40
26.0
 40
26.0
 40
26.0
 40
27.0
 40
27.0
 40
27.0
 40
28.0
 40
28.0
 40
28.0
 40
29.0
 40
29.0
 40
29.0
 40
30.0
 40
30.0
 40
30.0
 40
31.0
 40
31.0
 40
31.0
 40
32.0
 40
32.0
 40
32.0
 40
32.0
 10
224.8186276609561
 20
-122.2044191947636
 30
0.0
 10
224.8186276609561
 20
-122.2044191947636
 30
0.0
 10
224.8147737805
 20
-119.770832672687
 30
0.0
 10
224.8147737805
 20
-119.770832672687
 30
0.0
 10
224.8147738010664
 20
-119.7158400000152
 30
0.0
 10
224.7697756514959
 20
-119.6708418167851
 30
0.0
 10
224.7147753494294
 20
-119.6708417962148
 30
0.0
 10
224.7147753494294
 20
-119.6708417962148
 30
0.0
 10
221.8147739875267
 20
-119.6708407116061
 30
0.0
 10
221.8147739875267
 20
-119.6708407116061
 30
0.0
 10
221.7147755190592
 20
-119.6708406742066
 30
0.0
 10
221.8147739501298
 20
-119.7708315506782
 30
0.0
 10
221.8147739875267
 20
-119.6708407116061
 30
0.0
 10
221.8147739875267
 20
-119.6708407116061
 30
0.0
 10
221.8147761567441
 20
-113.8708379877997
 30
0.0
 10
221.8147761567441
 20
-113.8708379877997
 30
0.0
 10
221.8147761941462
 20
-113.7708318899385
 30
0.0
 10
221.7147776882767
 20
-113.8708379504002
 30
0.0
 10
221.8147761567441
 20
-113.8708379877997
 30
0.0
 10
221.8147761567441
 20
-113.8708379877997
 30
0.0
 10
224.7147775186468
 20
-113.8708390724081
 30
0.0
 10
224.7147775186468
 20
-113.8708390724081
 30
0.0
 10
224.7697778207133
 20
-113.8708390929784
 30
0.0
 10
224.8147760035726
 20
-113.8268327646403
 30
0.0
 10
224.8147760245164
 20
-113.7708330119473
 30
0.0
 10
224.8147760245164
 20
-113.7708330119473
 30
0.0
 10
224.8147781492255
 20
-108.08983357731
 30
0.0
 10
224.8147781492255
 20
-108.08983357731
 30
0.0
 10
224.8147781492255
 20
-108.08983357731
 30
0.0
 10
224.8147792712337
 20
-105.0898337469401
 30
0.0
 10
224.8147792712337
 20
-105.0898337469401
 30
0.0
 10
224.8147792918028
 20
-105.034841074269
 30
0.0
 10
224.769781142231
 20
-104.9898428910388
 30
0.0
 10
224.7147808401645
 20
-104.9898428704682
 30
0.0
 10
224.7147808401645
 20
-104.9898428704682
 30
0.0
 10
221.7147810097943
 20
-104.9898417484593
 30
0.0
 10
221.7147810097943
 20
-104.9898417484593
 30
0.0
 10
221.7147810097943
 20
-104.9898417484593
 30
0.0
 10
167.7147859704837
 20
-104.9898215523088
 30
0.0
 10
167.7147859704837
 20
-104.9898215523088
 30
0.0
 10
167.7147859704837
 20
-104.9898215523088
 30
0.0
 10
164.7147861401139
 20
-104.9898204303002
 30
0.0
 10
164.7147861401139
 20
-104.9898204303002
 30
0.0
 10
164.659785838048
 20
-104.9898204097296
 30
0.0
 10
164.6147857474691
 20
-105.0348185593004
 30
0.0
 10
164.614785726902
 20
-105.0898112319725
 30
0.0
 10
164.614785726902
 20
-105.0898112319725
 30
0.0
 10
164.6147846048935
 20
-108.0898110623424
 30
0.0
 10
164.6147846048935
 20
-108.0898110623424
 30
0.0
 10
164.6147846048935
 20
-108.0898110623424
 30
0.0
 10
164.6147824801834
 20
-113.7708104969788
 30
0.0
 10
164.6147824801834
 20
-113.7708104969788
 30
0.0
 10
164.6147824592393
 20
-113.8268102496721
 30
0.0
 10
164.6597825165303
 20
-113.8708166116702
 30
0.0
 10
164.7147828185959
 20
-113.8708166322405
 30
0.0
 10
164.7147828185959
 20
-113.8708166322405
 30
0.0
 10
167.6147822731508
 20
-113.8708177168483
 30
0.0
 10
167.6147822731508
 20
-113.8708177168483
 30
0.0
 10
167.7147826489661
 20
-113.8708177542487
 30
0.0
 10
167.6147823105536
 20
-113.7708116189873
 30
0.0
 10
167.6147822731508
 20
-113.8708177168483
 30
0.0
 10
167.6147822731508
 20
-113.8708177168483
 30
0.0
 10
167.6147801039334
 20
-119.6708204406543
 30
0.0
 10
167.6147801039334
 20
-119.6708204406543
 30
0.0
 10
167.6147800665365
 20
-119.770811279727
 30
0.0
 10
167.7147804797487
 20
-119.670820478055
 30
0.0
 10
167.6147801039334
 20
-119.6708204406543
 30
0.0
 10
167.6147801039334
 20
-119.6708204406543
 30
0.0
 10
164.7147806493788
 20
-119.6708193560468
 30
0.0
 10
164.7147806493788
 20
-119.6708193560468
 30
0.0
 10
164.6597803473126
 20
-119.6708193354765
 30
0.0
 10
164.6147802567341
 20
-119.715817485047
 30
0.0
 10
164.6147802361666
 20
-119.7708101577188
 30
0.0
 10
164.6147802361666
 20
-119.7708101577188
 30
0.0
 10
164.6186341166234
 20
-122.2043966797954
 30
0.0
 10
164.6186341166234
 20
-122.2043966797954
 30
0.0
 10
164.6186341166234
 20
-122.2043966797954
 30
0.0
 10
164.6186329946152
 20
-125.2043965101649
 30
0.0
 10
164.6186329946152
 20
-125.2043965101649
 30
0.0
 10
164.6186329736711
 20
-125.2603962628579
 30
0.0
 10
164.6636330309618
 20
-125.3044026248557
 30
0.0
 10
164.7186333330277
 20
-125.304402645426
 30
0.0
 10
164.7186333330277
 20
-125.304402645426
 30
0.0
 10
167.7186331633979
 20
-125.3044037674349
 30
0.0
 10
167.7186331633979
 20
-125.3044037674349
 30
0.0
 10
167.7186331633979
 20
-125.3044037674349
 30
0.0
 10
221.7186282027082
 20
-125.3044239635857
 30
0.0
 10
221.7186282027082
 20
-125.3044239635857
 30
0.0
 10
221.7186282027082
 20
-125.3044239635857
 30
0.0
 10
224.7186280330796
 20
-125.3044250855952
 30
0.0
 10
224.7186280330796
 20
-125.3044250855952
 30
0.0
 10
224.7736283351449
 20
-125.3044251061642
 30
0.0
 10
224.8186265180041
 20
-125.2604187778267
 30
0.0
 10
224.8186265389479
 20
-125.2044190251338
 30
0.0
 10
224.8186265389479
 20
-125.2044190251338
 30
0.0
 10
224.8186276609561
 20
-122.2044191947636
 30
0.0
 10
224.8186276609561
 20
-122.2044191947636
 30
0.0
  0
ENDBLK
  5
7F
330
7C
100
AcDbEntity
  8
0
100
AcDbBlockEnd
  0
BLOCK
  5
83
330
81
100
AcDbEntity
  8
0
100
AcDbBlockBegin
  2
block 11
 70
     0
 10
0.0
 20
0.0
 30
0.0
  3
block 11
  1

  0
INSERT
  5
86
330
81
100
AcDbEntity
  8
Layer 1
100
AcDbBlockReference
  2
block 12
 10
0.0
 20
0.0
 30
0.0
  0
INSERT
  5
92
330
81
100
AcDbEntity
  8
Layer 1
100
AcDbBlockReference
  2
block 13
 10
0.0
 20
0.0
 30
0.0
  0
INSERT
  5
98
330
81
100
AcDbEntity
  8
Layer 1
100
AcDbBlockReference
  2
block 14
 10
0.0
 20
0.0
 30
0.0
  0
ENDBLK
  5
84
330
81
100
AcDbEntity
  8
0
100
AcDbBlockEnd
  0
BLOCK
  5
87
330
85
100
AcDbEntity
  8
0
100
AcDbBlockBegin
  2
block 12
 70
     0
 10
0.0
 20
0.0
 30
0.0
  3
block 12
  1

  0
SPLINE
  5
89
330
85
100
AcDbEntity
  8
Layer 1
 62
   175
420
  2837403
370
    20
100
AcDbSpline
210
0.0
220
0.0
230
1.0
 70
    11
 71
     3
 72
    32
 73
    28
 74
     0
 42
0.0000000001
 43
0.0000000001
 12
1.0
 22
0.0
 32
0.0
 13
1.0
 23
0.0
 33
0.0
 40
0.0
 40
0.0
 40
0.0
 40
0.0
 40
1.0
 40
1.0
 40
1.0
 40
2.0
 40
2.0
 40
2.0
 40
3.0
 40
3.0
 40
3.0
 40
4.0
 40
4.0
 40
4.0
 40
5.0
 40
5.0
 40
5.0
 40
6.0
 40
6.0
 40
6.0
 40
7.0
 40
7.0
 40
7.0
 40
8.0
 40
8.0
 40
8.0
 40
9.0
 40
9.0
 40
9.0
 40
9.0
 10
93.54880505441292
 20
-271.8111115497978
 30
0.0
 10
93.54880505441292
 20
-271.8111115497978
 30
0.0
 10
90.6488036925096
 20
-271.8111115497978
 30
0.0
 10
90.6488036925096
 20
-271.8111115497978
 30
0.0
 10
90.54880522404275
 20
-271.8111115497978
 30
0.0
 10
90.6488036925096
 20
-271.9111100182647
 30
0.0
 10
90.6488036925096
 20
-271.8111115497978
 30
0.0
 10
90.6488036925096
 20
-271.8111115497978
 30
0.0
 10
90.6488036925096
 20
-269.0111162857555
 30
0.0
 10
90.6488036925096
 20
-269.0111162857555
 30
0.0
 10
90.6488036925096
 20
-268.9111101878945
 30
0.0
 10
90.54880522404275
 20
-269.0111162857555
 30
0.0
 10
90.6488036925096
 20
-269.0111162857555
 30
0.0
 10
90.6488036925096
 20
-269.0111162857555
 30
0.0
 10
96.44880641631624
 20
-269.0111162857555
 30
0.0
 10
96.44880641631624
 20
-269.0111162857555
 30
0.0
 10
96.5488048847831
 20
-269.0111162857555
 30
0.0
 10
96.44880641631624
 20
-268.9111101878945
 30
0.0
 10
96.44880641631624
 20
-269.0111162857555
 30
0.0
 10
96.44880641631624
 20
-269.0111162857555
 30
0.0
 10
96.44880641631624
 20
-271.8111115497978
 30
0.0
 10
96.44880641631624
 20
-271.8111115497978
 30
0.0
 10
96.44880641631624
 20
-271.9111100182647
 30
0.0
 10
96.5488048847831
 20
-271.8111115497978
 30
0.0
 10
96.44880641631624
 20
-271.8111115497978
 30
0.0
 10
96.44880641631624
 20
-271.8111115497978
 30
0.0
 10
93.54880505441292
 20
-271.8111115497978
 30
0.0
 10
93.54880505441292
 20
-271.8111115497978
 30
0.0
  0
SPLINE
  5
8A
330
85
100
AcDbEntity
  8
Layer 1
 62
   175
420
  2837403
370
    20
100
AcDbSpline
210
0.0
220
0.0
230
1.0
 70
    11
 71
     3
 72
    32
 73
    28
 74
     0
 42
0.0000000001
 43
0.0000000001
 12
1.0
 22
0.0
 32
0.0
 13
1.0
 23
0.0
 33
0.0
 40
0.0
 40
0.0
 40
0.0
 40
0.0
 40
1.0
 40
1.0
 40
1.0
 40
2.0
 40
2.0
 40
2.0
 40
3.0
 40
3.0
 40
3.0
 40
4.0
 40
4.0
 40
4.0
 40
5.0
 40
5.0
 40
5.0
 40
6.0
 40
6.0
 40
6.0
 40
7.0
 40
7.0
 40
7.0
 40
8.0
 40
8.0
 40
8.0
 40
9.0
 40
9.0
 40
9.0
 40
9.0
 10
105.5488043758936
 20
-271.8111115497978
 30
0.0
 10
105.5488043758936
 20
-271.8111115497978
 30
0.0
 10
102.6488030139903
 20
-271.8111115497978
 30
0.0
 10
102.6488030139903
 20
-271.8111115497978
 30
0.0
 10
102.5488045455234
 20
-271.8111115497978
 30
0.0
 10
102.6488030139903
 20
-271.9111100182647
 30
0.0
 10
102.6488030139903
 20
-271.8111115497978
 30
0.0
 10
102.6488030139903
 20
-271.8111115497978
 30
0.0
 10
102.6488030139903
 20
-269.0111162857555
 30
0.0
 10
102.6488030139903
 20
-269.0111162857555
 30
0.0
 10
102.6488030139903
 20
-268.9111101878945
 30
0.0
 10
102.5488045455234
 20
-269.0111162857555
 30
0.0
 10
102.6488030139903
 20
-269.0111162857555
 30
0.0
 10
102.6488030139903
 20
-269.0111162857555
 30
0.0
 10
108.4488057377969
 20
-269.0111162857555
 30
0.0
 10
108.4488057377969
 20
-269.0111162857555
 30
0.0
 10
108.5488042062638
 20
-269.0111162857555
 30
0.0
 10
108.4488057377969
 20
-268.9111101878945
 30
0.0
 10
108.4488057377969
 20
-269.0111162857555
 30
0.0
 10
108.4488057377969
 20
-269.0111162857555
 30
0.0
 10
108.4488057377969
 20
-271.8111115497978
 30
0.0
 10
108.4488057377969
 20
-271.8111115497978
 30
0.0
 10
108.4488057377969
 20
-271.9111100182647
 30
0.0
 10
108.5488042062638
 20
-271.8111115497978
 30
0.0
 10
108.4488057377969
 20
-271.8111115497978
 30
0.0
 10
108.4488057377969
 20
-271.8111115497978
 30
0.0
 10
105.5488043758936
 20
-271.8111115497978
 30
0.0
 10
105.5488043758936
 20
-271.8111115497978
 30
0.0
  0
SPLINE
  5
8B
330
85
100
AcDbEntity
  8
Layer 1
 62
   175
420
  2837403
370
    20
100
AcDbSpline
210
0.0
220
0.0
230
1.0
 70
    11
 71
     3
 72
    32
 73
    28
 74
     0
 42
0.0000000001
 43
0.0000000001
 12
1.0
 22
0.0
 32
0.0
 13
1.0
 23
0.0
 33
0.0
 40
0.0
 40
0.0
 40
0.0
 40
0.0
 40
1.0
 40
1.0
 40
1.0
 40
2.0
 40
2.0
 40
2.0
 40
3.0
 40
3.0
 40
3.0
 40
4.0
 40
4.0
 40
4.0
 40
5.0
 40
5.0
 40
5.0
 40
6.0
 40
6.0
 40
6.0
 40
7.0
 40
7.0
 40
7.0
 40
8.0
 40
8.0
 40
8.0
 40
9.0
 40
9.0
 40
9.0
 40
9.0
 10
117.5488036973743
 20
-271.8111115497978
 30
0.0
 10
117.5488036973743
 20
-271.8111115497978
 30
0.0
 10
114.648802335471
 20
-271.8111115497978
 30
0.0
 10
114.648802335471
 20
-271.8111115497978
 30
0.0
 10
114.5488038670041
 20
-271.8111115497978
 30
0.0
 10
114.648802335471
 20
-271.9111100182647
 30
0.0
 10
114.648802335471
 20
-271.8111115497978
 30
0.0
 10
114.648802335471
 20
-271.8111115497978
 30
0.0
 10
114.648802335471
 20
-269.0111162857555
 30
0.0
 10
114.648802335471
 20
-269.0111162857555
 30
0.0
 10
114.648802335471
 20
-268.9111101878945
 30
0.0
 10
114.5488038670041
 20
-269.0111162857555
 30
0.0
 10
114.648802335471
 20
-269.0111162857555
 30
0.0
 10
114.648802335471
 20
-269.0111162857555
 30
0.0
 10
120.4488050592776
 20
-269.0111162857555
 30
0.0
 10
120.4488050592776
 20
-269.0111162857555
 30
0.0
 10
120.5488035277445
 20
-269.0111162857555
 30
0.0
 10
120.4488050592776
 20
-268.9111101878945
 30
0.0
 10
120.4488050592776
 20
-269.0111162857555
 30
0.0
 10
120.4488050592776
 20
-269.0111162857555
 30
0.0
 10
120.4488050592776
 20
-271.8111115497978
 30
0.0
 10
120.4488050592776
 20
-271.8111115497978
 30
0.0
 10
120.4488050592776
 20
-271.9111100182647
 30
0.0
 10
120.5488035277445
 20
-271.8111115497978
 30
0.0
 10
120.4488050592776
 20
-271.8111115497978
 30
0.0
 10
120.4488050592776
 20
-271.8111115497978
 30
0.0
 10
117.5488036973743
 20
-271.8111115497978
 30
0.0
 10
117.5488036973743
 20
-271.8111115497978
 30
0.0
  0
SPLINE
  5
8C
330
85
100
AcDbEntity
  8
Layer 1
 62
   175
420
  2837403
370
    20
100
AcDbSpline
210
0.0
220
0.0
230
1.0
 70
    11
 71
     3
 72
    32
 73
    28
 74
     0
 42
0.0000000001
 43
0.0000000001
 12
1.0
 22
0.0
 32
0.0
 13
1.0
 23
0.0
 33
0.0
 40
0.0
 40
0.0
 40
0.0
 40
0.0
 40
1.0
 40
1.0
 40
1.0
 40
2.0
 40
2.0
 40
2.0
 40
3.0
 40
3.0
 40
3.0
 40
4.0
 40
4.0
 40
4.0
 40
5.0
 40
5.0
 40
5.0
 40
6.0
 40
6.0
 40
6.0
 40
7.0
 40
7.0
 40
7.0
 40
8.0
 40
8.0
 40
8.0
 40
9.0
 40
9.0
 40
9.0
 40
9.0
 10
129.5488106482491
 20
-271.8111115497978
 30
0.0
 10
129.5488106482491
 20
-271.8111115497978
 30
0.0
 10
126.6488016569517
 20
-271.8111115497978
 30
0.0
 10
126.6488016569517
 20
-271.8111115497978
 30
0.0
 10
126.5488031884848
 20
-271.8111115497978
 30
0.0
 10
126.6488016569517
 20
-271.9111100182647
 30
0.0
 10
126.6488016569517
 20
-271.8111115497978
 30
0.0
 10
126.6488016569517
 20
-271.8111115497978
 30
0.0
 10
126.6488016569517
 20
-269.0111162857555
 30
0.0
 10
126.6488016569517
 20
-269.0111162857555
 30
0.0
 10
126.6488016569517
 20
-268.9111101878945
 30
0.0
 10
126.5488031884848
 20
-269.0111162857555
 30
0.0
 10
126.6488016569517
 20
-269.0111162857555
 30
0.0
 10
126.6488016569517
 20
-269.0111162857555
 30
0.0
 10
132.4488043807583
 20
-269.0111162857555
 30
0.0
 10
132.4488043807583
 20
-269.0111162857555
 30
0.0
 10
132.5488104786193
 20
-269.0111162857555
 30
0.0
 10
132.4488043807583
 20
-268.9111101878945
 30
0.0
 10
132.4488043807583
 20
-269.0111162857555
 30
0.0
 10
132.4488043807583
 20
-269.0111162857555
 30
0.0
 10
132.4488043807583
 20
-271.8111115497978
 30
0.0
 10
132.4488043807583
 20
-271.8111115497978
 30
0.0
 10
132.4488043807583
 20
-271.9111100182647
 30
0.0
 10
132.5488104786193
 20
-271.8111115497978
 30
0.0
 10
132.4488043807583
 20
-271.8111115497978
 30
0.0
 10
132.4488043807583
 20
-271.8111115497978
 30
0.0
 10
129.5488106482491
 20
-271.8111115497978
 30
0.0
 10
129.5488106482491
 20
-271.8111115497978
 30
0.0
  0
SPLINE
  5
8D
330
85
100
AcDbEntity
  8
Layer 1
 62
   175
420
  2837403
370
    20
100
AcDbSpline
210
0.0
220
0.0
230
1.0
 70
    11
 71
     3
 72
    32
 73
    28
 74
     0
 42
0.0000000001
 43
0.0000000001
 12
1.0
 22
0.0
 32
0.0
 13
1.0
 23
0.0
 33
0.0
 40
0.0
 40
0.0
 40
0.0
 40
0.0
 40
1.0
 40
1.0
 40
1.0
 40
2.0
 40
2.0
 40
2.0
 40
3.0
 40
3.0
 40
3.0
 40
4.0
 40
4.0
 40
4.0
 40
5.0
 40
5.0
 40
5.0
 40
6.0
 40
6.0
 40
6.0
 40
7.0
 40
7.0
 40
7.0
 40
8.0
 40
8.0
 40
8.0
 40
9.0
 40
9.0
 40
9.0
 40
9.0
 10
141.5488099697298
 20
-271.8111115497978
 30
0.0
 10
141.5488099697298
 20
-271.8111115497978
 30
0.0
 10
138.6488009784324
 20
-271.8111115497978
 30
0.0
 10
138.6488009784324
 20
-271.8111115497978
 30
0.0
 10
138.5488101393596
 20
-271.8111115497978
 30
0.0
 10
138.6488009784324
 20
-271.9111100182647
 30
0.0
 10
138.6488009784324
 20
-271.8111115497978
 30
0.0
 10
138.6488009784324
 20
-271.8111115497978
 30
0.0
 10
138.6488009784324
 20
-269.0111162857555
 30
0.0
 10
138.6488009784324
 20
-269.0111162857555
 30
0.0
 10
138.6488009784324
 20
-268.9111101878945
 30
0.0
 10
138.5488101393596
 20
-269.0111162857555
 30
0.0
 10
138.6488009784324
 20
-269.0111162857555
 30
0.0
 10
138.6488009784324
 20
-269.0111162857555
 30
0.0
 10
144.448803702239
 20
-269.0111162857555
 30
0.0
 10
144.448803702239
 20
-269.0111162857555
 30
0.0
 10
144.5488098001
 20
-269.0111162857555
 30
0.0
 10
144.448803702239
 20
-268.9111101878945
 30
0.0
 10
144.448803702239
 20
-269.0111162857555
 30
0.0
 10
144.448803702239
 20
-269.0111162857555
 30
0.0
 10
144.448803702239
 20
-271.8111115497978
 30
0.0
 10
144.448803702239
 20
-271.8111115497978
 30
0.0
 10
144.448803702239
 20
-271.9111100182647
 30
0.0
 10
144.5488098001
 20
-271.8111115497978
 30
0.0
 10
144.448803702239
 20
-271.8111115497978
 30
0.0
 10
144.448803702239
 20
-271.8111115497978
 30
0.0
 10
141.5488099697298
 20
-271.8111115497978
 30
0.0
 10
141.5488099697298
 20
-271.8111115497978
 30
0.0
  0
SPLINE
  5
8E
330
85
100
AcDbEntity
  8
Layer 1
 62
   175
420
  2837403
370
    20
100
AcDbSpline
210
0.0
220
0.0
230
1.0
 70
    11
 71
     3
 72
    32
 73
    28
 74
     0
 42
0.0000000001
 43
0.0000000001
 12
1.0
 22
0.0
 32
0.0
 13
1.0
 23
0.0
 33
0.0
 40
0.0
 40
0.0
 40
0.0
 40
0.0
 40
1.0
 40
1.0
 40
1.0
 40
2.0
 40
2.0
 40
2.0
 40
3.0
 40
3.0
 40
3.0
 40
4.0
 40
4.0
 40
4.0
 40
5.0
 40
5.0
 40
5.0
 40
6.0
 40
6.0
 40
6.0
 40
7.0
 40
7.0
 40
7.0
 40
8.0
 40
8.0
 40
8.0
 40
9.0
 40
9.0
 40
9.0
 40
9.0
 10
153.5488092912105
 20
-271.8111115497978
 30
0.0
 10
153.5488092912105
 20
-271.8111115497978
 30
0.0
 10
150.6488002999131
 20
-271.8111115497978
 30
0.0
 10
150.6488002999131
 20
-271.8111115497978
 30
0.0
 10
150.5488094608403
 20
-271.8111115497978
 30
0.0
 10
150.6488002999131
 20
-271.9111100182647
 30
0.0
 10
150.6488002999131
 20
-271.8111115497978
 30
0.0
 10
150.6488002999131
 20
-271.8111115497978
 30
0.0
 10
150.6488002999131
 20
-269.0111162857555
 30
0.0
 10
150.6488002999131
 20
-269.0111162857555
 30
0.0
 10
150.6488002999131
 20
-268.9111101878945
 30
0.0
 10
150.5488094608403
 20
-269.0111162857555
 30
0.0
 10
150.6488002999131
 20
-269.0111162857555
 30
0.0
 10
150.6488002999131
 20
-269.0111162857555
 30
0.0
 10
156.4488030237197
 20
-269.0111162857555
 30
0.0
 10
156.4488030237197
 20
-269.0111162857555
 30
0.0
 10
156.5488091215807
 20
-269.0111162857555
 30
0.0
 10
156.4488030237197
 20
-268.9111101878945
 30
0.0
 10
156.4488030237197
 20
-269.0111162857555
 30
0.0
 10
156.4488030237197
 20
-269.0111162857555
 30
0.0
 10
156.4488030237197
 20
-271.8111115497978
 30
0.0
 10
156.4488030237197
 20
-271.8111115497978
 30
0.0
 10
156.4488030237197
 20
-271.9111100182647
 30
0.0
 10
156.5488091215807
 20
-271.8111115497978
 30
0.0
 10
156.4488030237197
 20
-271.8111115497978
 30
0.0
 10
156.4488030237197
 20
-271.8111115497978
 30
0.0
 10
153.5488092912105
 20
-271.8111115497978
 30
0.0
 10
153.5488092912105
 20
-271.8111115497978
 30
0.0
  0
SPLINE
  5
8F
330
85
100
AcDbEntity
  8
Layer 1
 62
   178
420
        1
370
    20
100
AcDbSpline
210
0.0
220
0.0
230
1.0
 70
     8
 71
     3
 72
   203
 73
   199
 74
     0
 42
0.0000000001
 43
0.0000000001
 12
1.0
 22
0.0
 32
0.0
 13
1.0
 23
0.0
 33
0.0
 40
0.0
 40
0.0
 40
0.0
 40
0.0
 40
1.0
 40
1.0
 40
1.0
 40
2.0
 40
2.0
 40
2.0
 40
3.0
 40
3.0
 40
3.0
 40
4.0
 40
4.0
 40
4.0
 40
5.0
 40
5.0
 40
5.0
 40
6.0
 40
6.0
 40
6.0
 40
7.0
 40
7.0
 40
7.0
 40
8.0
 40
8.0
 40
8.0
 40
9.0
 40
9.0
 40
9.0
 40
10.0
 40
10.0
 40
10.0
 40
11.0
 40
11.0
 40
11.0
 40
12.0
 40
12.0
 40
12.0
 40
13.0
 40
13.0
 40
13.0
 40
14.0
 40
14.0
 40
14.0
 40
15.0
 40
15.0
 40
15.0
 40
16.0
 40
16.0
 40
16.0
 40
17.0
 40
17.0
 40
17.0
 40
18.0
 40
18.0
 40
18.0
 40
19.0
 40
19.0
 40
19.0
 40
20.0
 40
20.0
 40
20.0
 40
21.0
 40
21.0
 40
21.0
 40
22.0
 40
22.0
 40
22.0
 40
23.0
 40
23.0
 40
23.0
 40
24.0
 40
24.0
 40
24.0
 40
25.0
 40
25.0
 40
25.0
 40
26.0
 40
26.0
 40
26.0
 40
27.0
 40
27.0
 40
27.0
 40
28.0
 40
28.0
 40
28.0
 40
29.0
 40
29.0
 40
29.0
 40
30.0
 40
30.0
 40
30.0
 40
31.0
 40
31.0
 40
31.0
 40
32.0
 40
32.0
 40
32.0
 40
33.0
 40
33.0
 40
33.0
 40
34.0
 40
34.0
 40
34.0
 40
35.0
 40
35.0
 40
35.0
 40
36.0
 40
36.0
 40
36.0
 40
37.0
 40
37.0
 40
37.0
 40
38.0
 40
38.0
 40
38.0
 40
39.0
 40
39.0
 40
39.0
 40
40.0
 40
40.0
 40
40.0
 40
41.0
 40
41.0
 40
41.0
 40
42.0
 40
42.0
 40
42.0
 40
43.0
 40
43.0
 40
43.0
 40
44.0
 40
44.0
 40
44.0
 40
45.0
 40
45.0
 40
45.0
 40
46.0
 40
46.0
 40
46.0
 40
47.0
 40
47.0
 40
47.0
 40
48.0
 40
48.0
 40
48.0
 40
49.0
 40
49.0
 40
49.0
 40
50.0
 40
50.0
 40
50.0
 40
51.0
 40
51.0
 40
51.0
 40
52.0
 40
52.0
 40
52.0
 40
53.0
 40
53.0
 40
53.0
 40
54.0
 40
54.0
 40
54.0
 40
55.0
 40
55.0
 40
55.0
 40
56.0
 40
56.0
 40
56.0
 40
57.0
 40
57.0
 40
57.0
 40
58.0
 40
58.0
 40
58.0
 40
59.0
 40
59.0
 40
59.0
 40
60.0
 40
60.0
 40
60.0
 40
61.0
 40
61.0
 40
61.0
 40
62.0
 40
62.0
 40
62.0
 40
63.0
 40
63.0
 40
63.0
 40
64.0
 40
64.0
 40
64.0
 40
65.0
 40
65.0
 40
65.0
 40
66.0
 40
66.0
 40
66.0
 40
66.0
 10
88.94880684039082
 20
-184.8111183764112
 30
0.0
 10
88.94880684039082
 20
-184.8111183764112
 30
0.0
 10
88.94880684039082
 20
-187.7111178309661
 30
0.0
 10
88.94880684039082
 20
-187.7111178309661
 30
0.0
 10
88.94880684039082
 20
-187.8111182067813
 30
0.0
 10
89.04880530885767
 20
-187.7111178309661
 30
0.0
 10
88.94880684039082
 20
-187.7111178309661
 30
0.0
 10
88.94880684039082
 20
-187.7111178309661
 30
0.0
 10
86.0488054784875
 20
-187.7111178309661
 30
0.0
 10
86.0488054784875
 20
-187.7111178309661
 30
0.0
 10
85.9938051764216
 20
-187.7111178309661
 30
0.0
 10
85.94880701002064
 20
-187.7561179047155
 30
0.0
 10
85.94880701002064
 20
-187.8111182067813
 30
0.0
 10
85.94880701002064
 20
-187.8111182067813
 30
0.0
 10
85.94880701002064
 20
-193.8111178675217
 30
0.0
 10
85.94880701002064
 20
-193.8111178675217
 30
0.0
 10
85.94880701002064
 20
-193.8661181695876
 30
0.0
 10
85.9938051764216
 20
-193.9111182433375
 30
0.0
 10
86.0488054784875
 20
-193.9111182433375
 30
0.0
 10
86.0488054784875
 20
-193.9111182433375
 30
0.0
 10
88.94880684039082
 20
-193.9111182433375
 30
0.0
 10
88.94880684039082
 20
-193.9111182433375
 30
0.0
 10
89.04880530885767
 20
-193.9111182433375
 30
0.0
 10
88.94880684039082
 20
-193.8111178675217
 30
0.0
 10
88.94880684039082
 20
-193.9111182433375
 30
0.0
 10
88.94880684039082
 20
-193.9111182433375
 30
0.0
 10
88.94880684039082
 20
-199.7111171524468
 30
0.0
 10
88.94880684039082
 20
-199.7111171524468
 30
0.0
 10
88.94880684039082
 20
-199.811117528262
 30
0.0
 10
89.04880530885767
 20
-199.7111171524468
 30
0.0
 10
88.94880684039082
 20
-199.7111171524468
 30
0.0
 10
88.94880684039082
 20
-199.7111171524468
 30
0.0
 10
86.0488054784875
 20
-199.7111171524468
 30
0.0
 10
86.0488054784875
 20
-199.7111171524468
 30
0.0
 10
85.9938051764216
 20
-199.7111171524468
 30
0.0
 10
85.94880701002064
 20
-199.7561172261962
 30
0.0
 10
85.94880701002064
 20
-199.811117528262
 30
0.0
 10
85.94880701002064
 20
-199.811117528262
 30
0.0
 10
85.94880701002064
 20
-205.811115281654
 30
0.0
 10
85.94880701002064
 20
-205.811115281654
 30
0.0
 10
85.94880701002064
 20
-205.8661155837199
 30
0.0
 10
85.9938051764216
 20
-205.9111175648182
 30
0.0
 10
86.0488054784875
 20
-205.9111175648182
 30
0.0
 10
86.0488054784875
 20
-205.9111175648182
 30
0.0
 10
88.94880684039082
 20
-205.9111175648182
 30
0.0
 10
88.94880684039082
 20
-205.9111175648182
 30
0.0
 10
89.04880530885767
 20
-205.9111175648182
 30
0.0
 10
88.94880684039082
 20
-205.811115281654
 30
0.0
 10
88.94880684039082
 20
-205.9111175648182
 30
0.0
 10
88.94880684039082
 20
-205.9111175648182
 30
0.0
 10
88.94880684039082
 20
-211.7111164739275
 30
0.0
 10
88.94880684039082
 20
-211.7111164739275
 30
0.0
 10
88.94880684039082
 20
-211.8111149423944
 30
0.0
 10
89.04880530885767
 20
-211.7111164739275
 30
0.0
 10
88.94880684039082
 20
-211.7111164739275
 30
0.0
 10
88.94880684039082
 20
-211.7111164739275
 30
0.0
 10
86.0488054784875
 20
-211.7111164739275
 30
0.0
 10
86.0488054784875
 20
-211.7111164739275
 30
0.0
 10
85.9938051764216
 20
-211.7111164739275
 30
0.0
 10
85.94880701002064
 20
-211.7561146403285
 30
0.0
 10
85.94880701002064
 20
-211.8111149423944
 30
0.0
 10
85.94880701002064
 20
-211.8111149423944
 30
0.0
 10
85.94880701002064
 20
-217.8111146031347
 30
0.0
 10
85.94880701002064
 20
-217.8111146031347
 30
0.0
 10
85.94880701002064
 20
-217.8661149052006
 30
0.0
 10
85.9938051764216
 20
-217.9111168862989
 30
0.0
 10
86.0488054784875
 20
-217.9111168862989
 30
0.0
 10
86.0488054784875
 20
-217.9111168862989
 30
0.0
 10
88.94880684039082
 20
-217.9111168862989
 30
0.0
 10
88.94880684039082
 20
-217.9111168862989
 30
0.0
 10
89.04880530885767
 20
-217.9111168862989
 30
0.0
 10
88.94880684039082
 20
-217.8111146031347
 30
0.0
 10
88.94880684039082
 20
-217.9111168862989
 30
0.0
 10
88.94880684039082
 20
-217.9111168862989
 30
0.0
 10
88.94880684039082
 20
-223.7111157954082
 30
0.0
 10
88.94880684039082
 20
-223.7111157954082
 30
0.0
 10
88.94880684039082
 20
-223.8111142638751
 30
0.0
 10
89.04880530885767
 20
-223.7111157954082
 30
0.0
 10
88.94880684039082
 20
-223.7111157954082
 30
0.0
 10
88.94880684039082
 20
-223.7111157954082
 30
0.0
 10
86.0488054784875
 20
-223.7111157954082
 30
0.0
 10
86.0488054784875
 20
-223.7111157954082
 30
0.0
 10
85.9938051764216
 20
-223.7111157954082
 30
0.0
 10
85.94880701002064
 20
-223.7561139618092
 30
0.0
 10
85.94880701002064
 20
-223.8111142638751
 30
0.0
 10
85.94880701002064
 20
-223.8111142638751
 30
0.0
 10
85.94880701002064
 20
-229.8111139246154
 30
0.0
 10
85.94880701002064
 20
-229.8111139246154
 30
0.0
 10
85.94880701002064
 20
-229.8661142266813
 30
0.0
 10
85.9938051764216
 20
-229.9111162077796
 30
0.0
 10
86.0488054784875
 20
-229.9111162077796
 30
0.0
 10
86.0488054784875
 20
-229.9111162077796
 30
0.0
 10
88.94880684039082
 20
-229.9111162077796
 30
0.0
 10
88.94880684039082
 20
-229.9111162077796
 30
0.0
 10
89.04880530885767
 20
-229.9111162077796
 30
0.0
 10
88.94880684039082
 20
-229.8111139246154
 30
0.0
 10
88.94880684039082
 20
-229.9111162077796
 30
0.0
 10
88.94880684039082
 20
-229.9111162077796
 30
0.0
 10
88.94880684039082
 20
-235.7111151168889
 30
0.0
 10
88.94880684039082
 20
-235.7111151168889
 30
0.0
 10
88.94880684039082
 20
-235.8111135853557
 30
0.0
 10
89.04880530885767
 20
-235.7111151168889
 30
0.0
 10
88.94880684039082
 20
-235.7111151168889
 30
0.0
 10
88.94880684039082
 20
-235.7111151168889
 30
0.0
 10
86.0488054784875
 20
-235.7111151168889
 30
0.0
 10
86.0488054784875
 20
-235.7111151168889
 30
0.0
 10
85.9938051764216
 20
-235.7111151168889
 30
0.0
 10
85.94880701002064
 20
-235.7561132832899
 30
0.0
 10
85.94880701002064
 20
-235.8111135853557
 30
0.0
 10
85.94880701002064
 20
-235.8111135853557
 30
0.0
 10
85.94880701002064
 20
-241.8111132460961
 30
0.0
 10
85.94880701002064
 20
-241.8111132460961
 30
0.0
 10
85.94880701002064
 20
-241.866113548162
 30
0.0
 10
85.9938051764216
 20
-241.9111117145629
 30
0.0
 10
86.0488054784875
 20
-241.9111117145629
 30
0.0
 10
86.0488054784875
 20
-241.9111117145629
 30
0.0
 10
88.94880684039082
 20
-241.9111117145629
 30
0.0
 10
88.94880684039082
 20
-241.9111117145629
 30
0.0
 10
89.04880530885767
 20
-241.9111117145629
 30
0.0
 10
88.94880684039082
 20
-241.8111132460961
 30
0.0
 10
88.94880684039082
 20
-241.9111117145629
 30
0.0
 10
88.94880684039082
 20
-241.9111117145629
 30
0.0
 10
88.94880684039082
 20
-247.7111144383696
 30
0.0
 10
88.94880684039082
 20
-247.7111144383696
 30
0.0
 10
88.94880684039082
 20
-247.8111129068364
 30
0.0
 10
89.04880530885767
 20
-247.7111144383696
 30
0.0
 10
88.94880684039082
 20
-247.7111144383696
 30
0.0
 10
88.94880684039082
 20
-247.7111144383696
 30
0.0
 10
86.0488054784875
 20
-247.7111144383696
 30
0.0
 10
86.0488054784875
 20
-247.7111144383696
 30
0.0
 10
85.9938051764216
 20
-247.7111144383696
 30
0.0
 10
85.94880701002064
 20
-247.7561126047705
 30
0.0
 10
85.94880701002064
 20
-247.8111129068364
 30
0.0
 10
85.94880701002064
 20
-247.8111129068364
 30
0.0
 10
85.94880701002064
 20
-253.8111125675768
 30
0.0
 10
85.94880701002064
 20
-253.8111125675768
 30
0.0
 10
85.94880701002064
 20
-253.8661128696427
 30
0.0
 10
85.9938051764216
 20
-253.9111110360436
 30
0.0
 10
86.0488054784875
 20
-253.9111110360436
 30
0.0
 10
86.0488054784875
 20
-253.9111110360436
 30
0.0
 10
88.94880684039082
 20
-253.9111110360436
 30
0.0
 10
88.94880684039082
 20
-253.9111110360436
 30
0.0
 10
89.04880530885767
 20
-253.9111110360436
 30
0.0
 10
88.94880684039082
 20
-253.8111125675768
 30
0.0
 10
88.94880684039082
 20
-253.9111110360436
 30
0.0
 10
88.94880684039082
 20
-253.9111110360436
 30
0.0
 10
88.94880684039082
 20
-259.7111137598503
 30
0.0
 10
88.94880684039082
 20
-259.7111137598503
 30
0.0
 10
88.94880684039082
 20
-259.8111122283171
 30
0.0
 10
89.04880530885767
 20
-259.7111137598503
 30
0.0
 10
88.94880684039082
 20
-259.7111137598503
 30
0.0
 10
88.94880684039082
 20
-259.7111137598503
 30
0.0
 10
86.0488054784875
 20
-259.7111137598503
 30
0.0
 10
86.0488054784875
 20
-259.7111137598503
 30
0.0
 10
85.9938051764216
 20
-259.7111137598503
 30
0.0
 10
85.94880701002064
 20
-259.7561119262513
 30
0.0
 10
85.94880701002064
 20
-259.8111122283171
 30
0.0
 10
85.94880701002064
 20
-259.8111122283171
 30
0.0
 10
85.94880701002064
 20
-265.8111118890575
 30
0.0
 10
85.94880701002064
 20
-265.8111118890575
 30
0.0
 10
85.94880701002064
 20
-265.8661121911234
 30
0.0
 10
85.9938051764216
 20
-265.9111103575243
 30
0.0
 10
86.0488054784875
 20
-265.9111103575243
 30
0.0
 10
86.0488054784875
 20
-265.9111103575243
 30
0.0
 10
88.94880684039082
 20
-265.9111103575243
 30
0.0
 10
88.94880684039082
 20
-265.9111103575243
 30
0.0
 10
89.04880530885767
 20
-265.9111103575243
 30
0.0
 10
88.94880684039082
 20
-265.8111118890575
 30
0.0
 10
88.94880684039082
 20
-265.9111103575243
 30
0.0
 10
88.94880684039082
 20
-265.9111103575243
 30
0.0
 10
88.94880684039082
 20
-271.711113081331
 30
0.0
 10
88.94880684039082
 20
-271.711113081331
 30
0.0
 10
88.94880684039082
 20
-271.8111115497978
 30
0.0
 10
89.04880530885767
 20
-271.711113081331
 30
0.0
 10
88.94880684039082
 20
-271.711113081331
 30
0.0
 10
88.94880684039082
 20
-271.711113081331
 30
0.0
 10
86.0488054784875
 20
-271.711113081331
 30
0.0
 10
86.0488054784875
 20
-271.711113081331
 30
0.0
 10
85.9938051764216
 20
-271.711113081331
 30
0.0
 10
85.94880701002064
 20
-271.756111247732
 30
0.0
 10
85.94880701002064
 20
-271.8111115497978
 30
0.0
 10
85.94880701002064
 20
-271.8111115497978
 30
0.0
 10
85.94880701002064
 20
-277.8111112105382
 30
0.0
 10
85.94880701002064
 20
-277.8111112105382
 30
0.0
 10
85.94880701002064
 20
-277.866111512604
 30
0.0
 10
85.9938051764216
 20
-277.9111096790051
 30
0.0
 10
86.0488054784875
 20
-277.9111096790051
 30
0.0
 10
86.0488054784875
 20
-277.9111096790051
 30
0.0
 10
88.94880684039082
 20
-277.9111096790051
 30
0.0
 10
88.94880684039082
 20
-277.9111096790051
 30
0.0
 10
89.04880530885767
 20
-277.9111096790051
 30
0.0
 10
88.94880684039082
 20
-277.8111112105382
 30
0.0
 10
88.94880684039082
 20
-277.9111096790051
 30
0.0
 10
88.94880684039082
 20
-277.9111096790051
 30
0.0
 10
88.94880684039082
 20
-280.8111110409084
 30
0.0
 10
88.94880684039082
 20
-280.8111110409084
 30
0.0
 10
88.94880684039082
 20
-280.8661113429742
 30
0.0
 10
88.99380500679177
 20
-280.9111095093752
 30
0.0
 10
89.04880530885767
 20
-280.9111095093752
 30
0.0
  0
SPLINE
  5
90
330
85
100
AcDbEntity
  8
Layer 1
 62
   178
420
        1
370
    20
100
AcDbSpline
210
0.0
220
0.0
230
1.0
 70
     8
 71
     3
 72
   245
 73
   241
 74
     0
 42
0.0000000001
 43
0.0000000001
 12
1.0
 22
0.0
 32
0.0
 13
1.0
 23
0.0
 33
0.0
 40
0.0
 40
0.0
 40
0.0
 40
0.0
 40
1.0
 40
1.0
 40
1.0
 40
2.0
 40
2.0
 40
2.0
 40
3.0
 40
3.0
 40
3.0
 40
4.0
 40
4.0
 40
4.0
 40
5.0
 40
5.0
 40
5.0
 40
6.0
 40
6.0
 40
6.0
 40
7.0
 40
7.0
 40
7.0
 40
8.0
 40
8.0
 40
8.0
 40
9.0
 40
9.0
 40
9.0
 40
10.0
 40
10.0
 40
10.0
 40
11.0
 40
11.0
 40
11.0
 40
12.0
 40
12.0
 40
12.0
 40
13.0
 40
13.0
 40
13.0
 40
14.0
 40
14.0
 40
14.0
 40
15.0
 40
15.0
 40
15.0
 40
16.0
 40
16.0
 40
16.0
 40
17.0
 40
17.0
 40
17.0
 40
18.0
 40
18.0
 40
18.0
 40
19.0
 40
19.0
 40
19.0
 40
20.0
 40
20.0
 40
20.0
 40
21.0
 40
21.0
 40
21.0
 40
22.0
 40
22.0
 40
22.0
 40
23.0
 40
23.0
 40
23.0
 40
24.0
 40
24.0
 40
24.0
 40
25.0
 40
25.0
 40
25.0
 40
26.0
 40
26.0
 40
26.0
 40
27.0
 40
27.0
 40
27.0
 40
28.0
 40
28.0
 40
28.0
 40
29.0
 40
29.0
 40
29.0
 40
30.0
 40
30.0
 40
30.0
 40
31.0
 40
31.0
 40
31.0
 40
32.0
 40
32.0
 40
32.0
 40
33.0
 40
33.0
 40
33.0
 40
34.0
 40
34.0
 40
34.0
 40
35.0
 40
35.0
 40
35.0
 40
36.0
 40
36.0
 40
36.0
 40
37.0
 40
37.0
 40
37.0
 40
38.0
 40
38.0
 40
38.0
 40
39.0
 40
39.0
 40
39.0
 40
40.0
 40
40.0
 40
40.0
 40
41.0
 40
41.0
 40
41.0
 40
42.0
 40
42.0
 40
42.0
 40
43.0
 40
43.0
 40
43.0
 40
44.0
 40
44.0
 40
44.0
 40
45.0
 40
45.0
 40
45.0
 40
46.0
 40
46.0
 40
46.0
 40
47.0
 40
47.0
 40
47.0
 40
48.0
 40
48.0
 40
48.0
 40
49.0
 40
49.0
 40
49.0
 40
50.0
 40
50.0
 40
50.0
 40
51.0
 40
51.0
 40
51.0
 40
52.0
 40
52.0
 40
52.0
 40
53.0
 40
53.0
 40
53.0
 40
54.0
 40
54.0
 40
54.0
 40
55.0
 40
55.0
 40
55.0
 40
56.0
 40
56.0
 40
56.0
 40
57.0
 40
57.0
 40
57.0
 40
58.0
 40
58.0
 40
58.0
 40
59.0
 40
59.0
 40
59.0
 40
60.0
 40
60.0
 40
60.0
 40
61.0
 40
61.0
 40
61.0
 40
62.0
 40
62.0
 40
62.0
 40
63.0
 40
63.0
 40
63.0
 40
64.0
 40
64.0
 40
64.0
 40
65.0
 40
65.0
 40
65.0
 40
66.0
 40
66.0
 40
66.0
 40
67.0
 40
67.0
 40
67.0
 40
68.0
 40
68.0
 40
68.0
 40
69.0
 40
69.0
 40
69.0
 40
70.0
 40
70.0
 40
70.0
 40
71.0
 40
71.0
 40
71.0
 40
72.0
 40
72.0
 40
72.0
 40
73.0
 40
73.0
 40
73.0
 40
74.0
 40
74.0
 40
74.0
 40
75.0
 40
75.0
 40
75.0
 40
76.0
 40
76.0
 40
76.0
 40
77.0
 40
77.0
 40
77.0
 40
78.0
 40
78.0
 40
78.0
 40
79.0
 40
79.0
 40
79.0
 40
80.0
 40
80.0
 40
80.0
 40
80.0
 10
89.04880530885767
 20
-280.9111095093752
 30
0.0
 10
89.04880530885767
 20
-280.9111095093752
 30
0.0
 10
101.0488046303384
 20
-280.9111095093752
 30
0.0
 10
101.0488046303384
 20
-280.9111095093752
 30
0.0
 10
102.1198037152884
 20
-280.9111095093752
 30
0.0
 10
103.1718056089297
 20
-280.6291118446562
 30
0.0
 10
104.098807509639
 20
-280.0941158421918
 30
0.0
 10
105.0258094103483
 20
-279.5581127597062
 30
0.0
 10
105.7958060098766
 20
-278.7881161601779
 30
0.0
 10
106.3318090923621
 20
-277.8611142594686
 30
0.0
 10
106.8498068047721
 20
-276.96411113636
 30
0.0
 10
107.593802429208
 20
-276.219116061297
 30
0.0
 10
108.4908055523167
 20
-275.7011107194929
 30
0.0
 10
109.3878086754253
 20
-275.1841124577101
 30
0.0
 10
110.4058063595636
 20
-274.9111098486349
 30
0.0
 10
111.4408023337564
 20
-274.9111098486349
 30
0.0
 10
111.4408023337564
 20
-274.9111098486349
 30
0.0
 10
135.6567967530789
 20
-274.9111098486349
 30
0.0
 10
135.6567967530789
 20
-274.9111098486349
 30
0.0
 10
136.6918003566657
 20
-274.9111098486349
 30
0.0
 10
137.7098056701981
 20
-275.1841124577101
 30
0.0
 10
138.6068087933068
 20
-275.7011107194929
 30
0.0
 10
139.5037966576272
 20
-276.219116061297
 30
0.0
 10
140.2477999114572
 20
-276.96411113636
 30
0.0
 10
140.7658052532612
 20
-277.8611142594686
 30
0.0
 10
141.3018007063528
 20
-278.7881161601779
 30
0.0
 10
142.0718049352751
 20
-279.5581127597062
 30
0.0
 10
142.9988068359844
 20
-280.0941158421918
 30
0.0
 10
143.9258087366937
 20
-280.6291118446562
 30
0.0
 10
144.9778106303351
 20
-280.9111095093752
 30
0.0
 10
146.048809715285
 20
-280.9111095093752
 30
0.0
 10
146.048809715285
 20
-280.9111095093752
 30
0.0
 10
158.0488090367658
 20
-280.9111095093752
 30
0.0
 10
158.0488090367658
 20
-280.9111095093752
 30
0.0
 10
158.1038017094375
 20
-280.9111095093752
 30
0.0
 10
158.1487998758385
 20
-280.8661113429742
 30
0.0
 10
158.1487998758385
 20
-280.8111110409084
 30
0.0
 10
158.1487998758385
 20
-280.8111110409084
 30
0.0
 10
158.1487998758385
 20
-278.8751141410986
 30
0.0
 10
158.1487998758385
 20
-278.8751141410986
 30
0.0
 10
158.1487998758385
 20
-278.7751156726318
 30
0.0
 10
158.0488090367658
 20
-278.8751141410986
 30
0.0
 10
158.1487998758385
 20
-278.8751141410986
 30
0.0
 10
158.1487998758385
 20
-278.8751141410986
 30
0.0
 10
161.0488088671359
 20
-278.8751141410986
 30
0.0
 10
161.0488088671359
 20
-278.8751141410986
 30
0.0
 10
161.1038015398077
 20
-278.8751141410986
 30
0.0
 10
161.1487997062087
 20
-278.8301159746977
 30
0.0
 10
161.1487997062087
 20
-278.7751156726318
 30
0.0
 10
161.1487997062087
 20
-278.7751156726318
 30
0.0
 10
161.1487997062087
 20
-272.7751160118914
 30
0.0
 10
161.1487997062087
 20
-272.7751160118914
 30
0.0
 10
161.1487997062087
 20
-272.7201157098255
 30
0.0
 10
161.1038015398077
 20
-272.6751099140305
 30
0.0
 10
161.0488088671359
 20
-272.6751099140305
 30
0.0
 10
161.0488088671359
 20
-272.6751099140305
 30
0.0
 10
158.1487998758385
 20
-272.6751099140305
 30
0.0
 10
158.1487998758385
 20
-272.6751099140305
 30
0.0
 10
158.0488090367658
 20
-272.6751099140305
 30
0.0
 10
158.1487998758385
 20
-272.7751160118914
 30
0.0
 10
158.1487998758385
 20
-272.6751099140305
 30
0.0
 10
158.1487998758385
 20
-272.6751099140305
 30
0.0
 10
158.1487998758385
 20
-266.8751148196179
 30
0.0
 10
158.1487998758385
 20
-266.8751148196179
 30
0.0
 10
158.1487998758385
 20
-266.775116351151
 30
0.0
 10
158.0488090367658
 20
-266.8751148196179
 30
0.0
 10
158.1487998758385
 20
-266.8751148196179
 30
0.0
 10
158.1487998758385
 20
-266.8751148196179
 30
0.0
 10
161.0488088671359
 20
-266.8751148196179
 30
0.0
 10
161.0488088671359
 20
-266.8751148196179
 30
0.0
 10
161.1038015398077
 20
-266.8751148196179
 30
0.0
 10
161.1487997062087
 20
-266.830116653217
 30
0.0
 10
161.1487997062087
 20
-266.775116351151
 30
0.0
 10
161.1487997062087
 20
-266.775116351151
 30
0.0
 10
161.1487997062087
 20
-260.7751166904107
 30
0.0
 10
161.1487997062087
 20
-260.7751166904107
 30
0.0
 10
161.1487997062087
 20
-260.7201163883448
 30
0.0
 10
161.1038015398077
 20
-260.6751105925497
 30
0.0
 10
161.0488088671359
 20
-260.6751105925497
 30
0.0
 10
161.0488088671359
 20
-260.6751105925497
 30
0.0
 10
158.1487998758385
 20
-260.6751105925497
 30
0.0
 10
158.1487998758385
 20
-260.6751105925497
 30
0.0
 10
158.0488090367658
 20
-260.6751105925497
 30
0.0
 10
158.1487998758385
 20
-260.7751166904107
 30
0.0
 10
158.1487998758385
 20
-260.6751105925497
 30
0.0
 10
158.1487998758385
 20
-260.6751105925497
 30
0.0
 10
158.1487998758385
 20
-254.8751154981372
 30
0.0
 10
158.1487998758385
 20
-254.8751154981372
 30
0.0
 10
158.1487998758385
 20
-254.7751170296704
 30
0.0
 10
158.0488090367658
 20
-254.8751154981372
 30
0.0
 10
158.1487998758385
 20
-254.8751154981372
 30
0.0
 10
158.1487998758385
 20
-254.8751154981372
 30
0.0
 10
161.0488088671359
 20
-254.8751154981372
 30
0.0
 10
161.0488088671359
 20
-254.8751154981372
 30
0.0
 10
161.1038015398077
 20
-254.8751154981372
 30
0.0
 10
161.1487997062087
 20
-254.8301173317363
 30
0.0
 10
161.1487997062087
 20
-254.7751170296704
 30
0.0
 10
161.1487997062087
 20
-254.7751170296704
 30
0.0
 10
161.1487997062087
 20
-248.77511736893
 30
0.0
 10
161.1487997062087
 20
-248.77511736893
 30
0.0
 10
161.1487997062087
 20
-248.7201170668641
 30
0.0
 10
161.1038015398077
 20
-248.6751112710691
 30
0.0
 10
161.0488088671359
 20
-248.6751112710691
 30
0.0
 10
161.0488088671359
 20
-248.6751112710691
 30
0.0
 10
158.1487998758385
 20
-248.6751112710691
 30
0.0
 10
158.1487998758385
 20
-248.6751112710691
 30
0.0
 10
158.0488090367658
 20
-248.6751112710691
 30
0.0
 10
158.1487998758385
 20
-248.77511736893
 30
0.0
 10
158.1487998758385
 20
-248.6751112710691
 30
0.0
 10
158.1487998758385
 20
-248.6751112710691
 30
0.0
 10
158.1487998758385
 20
-242.8751161766565
 30
0.0
 10
158.1487998758385
 20
-242.8751161766565
 30
0.0
 10
158.1487998758385
 20
-242.7751177081897
 30
0.0
 10
158.0488090367658
 20
-242.8751161766565
 30
0.0
 10
158.1487998758385
 20
-242.8751161766565
 30
0.0
 10
158.1487998758385
 20
-242.8751161766565
 30
0.0
 10
161.0488088671359
 20
-242.8751161766565
 30
0.0
 10
161.0488088671359
 20
-242.8751161766565
 30
0.0
 10
161.1038015398077
 20
-242.8751161766565
 30
0.0
 10
161.1487997062087
 20
-242.8301180102556
 30
0.0
 10
161.1487997062087
 20
-242.7751177081897
 30
0.0
 10
161.1487997062087
 20
-242.7751177081897
 30
0.0
 10
161.1487997062087
 20
-236.7751180474493
 30
0.0
 10
161.1487997062087
 20
-236.7751180474493
 30
0.0
 10
161.1487997062087
 20
-236.7201177453834
 30
0.0
 10
161.1038015398077
 20
-236.6751119495884
 30
0.0
 10
161.0488088671359
 20
-236.6751119495884
 30
0.0
 10
161.0488088671359
 20
-236.6751119495884
 30
0.0
 10
158.1487998758385
 20
-236.6751119495884
 30
0.0
 10
158.1487998758385
 20
-236.6751119495884
 30
0.0
 10
158.0488090367658
 20
-236.6751119495884
 30
0.0
 10
158.1487998758385
 20
-236.7751180474493
 30
0.0
 10
158.1487998758385
 20
-236.6751119495884
 30
0.0
 10
158.1487998758385
 20
-236.6751119495884
 30
0.0
 10
158.1487998758385
 20
-230.8751168551758
 30
0.0
 10
158.1487998758385
 20
-230.8751168551758
 30
0.0
 10
158.1487998758385
 20
-230.7751145720123
 30
0.0
 10
158.0488090367658
 20
-230.8751168551758
 30
0.0
 10
158.1487998758385
 20
-230.8751168551758
 30
0.0
 10
158.1487998758385
 20
-230.8751168551758
 30
0.0
 10
161.0488088671359
 20
-230.8751168551758
 30
0.0
 10
161.0488088671359
 20
-230.8751168551758
 30
0.0
 10
161.1038015398077
 20
-230.8751168551758
 30
0.0
 10
161.1487997062087
 20
-230.8301148740775
 30
0.0
 10
161.1487997062087
 20
-230.7751145720123
 30
0.0
 10
161.1487997062087
 20
-230.7751145720123
 30
0.0
 10
161.1487997062087
 20
-224.7751149112719
 30
0.0
 10
161.1487997062087
 20
-224.7751149112719
 30
0.0
 10
161.1487997062087
 20
-224.7201146092054
 30
0.0
 10
161.1038015398077
 20
-224.6751164428044
 30
0.0
 10
161.0488088671359
 20
-224.6751164428044
 30
0.0
 10
161.0488088671359
 20
-224.6751164428044
 30
0.0
 10
158.1487998758385
 20
-224.6751164428044
 30
0.0
 10
158.1487998758385
 20
-224.6751164428044
 30
0.0
 10
158.0488090367658
 20
-224.6751164428044
 30
0.0
 10
158.1487998758385
 20
-224.7751149112719
 30
0.0
 10
158.1487998758385
 20
-224.6751164428044
 30
0.0
 10
158.1487998758385
 20
-224.6751164428044
 30
0.0
 10
158.1487998758385
 20
-218.8751175336951
 30
0.0
 10
158.1487998758385
 20
-218.8751175336951
 30
0.0
 10
158.1487998758385
 20
-218.7751152505316
 30
0.0
 10
158.0488090367658
 20
-218.8751175336951
 30
0.0
 10
158.1487998758385
 20
-218.8751175336951
 30
0.0
 10
158.1487998758385
 20
-218.8751175336951
 30
0.0
 10
161.0488088671359
 20
-218.8751175336951
 30
0.0
 10
161.0488088671359
 20
-218.8751175336951
 30
0.0
 10
161.1038015398077
 20
-218.8751175336951
 30
0.0
 10
161.1487997062087
 20
-218.8301155525968
 30
0.0
 10
161.1487997062087
 20
-218.7751152505316
 30
0.0
 10
161.1487997062087
 20
-218.7751152505316
 30
0.0
 10
161.1487997062087
 20
-212.7751155897912
 30
0.0
 10
161.1487997062087
 20
-212.7751155897912
 30
0.0
 10
161.1487997062087
 20
-212.7201152877247
 30
0.0
 10
161.1038015398077
 20
-212.6751171213237
 30
0.0
 10
161.0488088671359
 20
-212.6751171213237
 30
0.0
 10
161.0488088671359
 20
-212.6751171213237
 30
0.0
 10
158.1487998758385
 20
-212.6751171213237
 30
0.0
 10
158.1487998758385
 20
-212.6751171213237
 30
0.0
 10
158.0488090367658
 20
-212.6751171213237
 30
0.0
 10
158.1487998758385
 20
-212.7751155897912
 30
0.0
 10
158.1487998758385
 20
-212.6751171213237
 30
0.0
 10
158.1487998758385
 20
-212.6751171213237
 30
0.0
 10
158.1487998758385
 20
-210.7391164068173
 30
0.0
 10
158.1487998758385
 20
-210.7391164068173
 30
0.0
 10
158.1487998758385
 20
-210.7391164068173
 30
0.0
 10
158.1487998758385
 20
-208.8111151120242
 30
0.0
 10
158.1487998758385
 20
-208.8111151120242
 30
0.0
 10
158.1487998758385
 20
-208.7871168528827
 30
0.0
 10
158.1408042708219
 20
-208.7651174949961
 30
0.0
 10
158.1258048820215
 20
-208.7471159396178
 30
0.0
 10
158.1258048820215
 20
-208.7471159396178
 30
0.0
 10
153.9058038999311
 20
-203.71811689536
 30
0.0
 10
153.9058038999311
 20
-203.71811689536
 30
0.0
 10
153.8408014622003
 20
-203.6411172354075
 30
0.0
 10
153.8288080546753
 20
-203.782116067767
 30
0.0
 10
153.9058038999311
 20
-203.71811689536
 30
0.0
 10
153.9058038999311
 20
-203.71811689536
 30
0.0
 10
156.1267968163411
 20
-201.8541166803223
 30
0.0
 10
156.1267968163411
 20
-201.8541166803223
 30
0.0
 10
156.1697960814879
 20
-201.8181173842624
 30
0.0
 10
156.1748009640174
 20
-201.7551176624825
 30
0.0
 10
156.1397973038872
 20
-201.7131178479628
 30
0.0
 10
156.1397973038872
 20
-201.7131178479628
 30
0.0
 10
152.2828028930681
 20
-197.1161179858219
 30
0.0
 10
152.2828028930681
 20
-197.1161179858219
 30
0.0
 10
152.2468074117049
 20
-197.0741181713022
 30
0.0
 10
152.1838038752283
 20
-197.0691171034701
 30
0.0
 10
152.1417964313145
 20
-197.1041169489029
 30
0.0
 10
152.1417964313145
 20
-197.1041169489029
 30
0.0
 10
149.9197964348833
 20
-198.9681171639406
 30
0.0
 10
149.9197964348833
 20
-198.9681171639406
 30
0.0
 10
149.8438076696488
 20
-199.033117694323
 30
0.0
 10
149.9847988726141
 20
-199.0451168238937
 30
0.0
 10
149.9197964348833
 20
-198.9681171639406
 30
0.0
 10
149.9197964348833
 20
-198.9681171639406
 30
0.0
 10
146.1917998195046
 20
-194.525116621706
 30
0.0
 10
146.1917998195046
 20
-194.525116621706
 30
0.0
 10
146.127804461795
 20
-194.4491183197283
 30
0.0
 10
146.11581105427
 20
-194.5891177014607
 30
0.0
 10
146.1917998195046
 20
-194.525116621706
 30
0.0
 10
146.1917998195046
 20
-194.525116621706
 30
0.0
 10
148.4137998159358
 20
-192.6611183140166
 30
0.0
 10
148.4137998159358
 20
-192.6611183140166
 30
0.0
 10
148.4558072598496
 20
-192.6261184685832
 30
0.0
 10
148.4618039636121
 20
-192.5631168394549
 30
0.0
 10
148.425808482249
 20
-192.5201175743081
 30
0.0
 10
148.425808482249
 20
-192.5201175743081
 30
0.0
 10
144.5687988126416
 20
-187.9241171627943
 30
0.0
 10
144.5687988126416
 20
-187.9241171627943
 30
0.0
 10
144.5338104112996
 20
-187.8821173482746
 30
0.0
 10
144.470806874823
 20
-187.8761187371638
 30
0.0
 10
144.4287994309092
 20
-187.9121180332236
 30
0.0
 10
144.4287994309092
 20
-187.9121180332236
 30
0.0
 10
142.206799434478
 20
-189.776118248262
 30
0.0
 10
142.206799434478
 20
-189.776118248262
 30
0.0
 10
142.1298035892223
 20
-189.8401174206683
 30
0.0
 10
142.2708100509759
 20
-189.8521184575874
 30
0.0
 10
142.206799434478
 20
-189.776118248262
 30
0.0
 10
142.206799434478
 20
-189.776118248262
 30
0.0
 10
137.9867984523876
 20
-184.7471182503303
 30
0.0
 10
137.9867984523876
 20
-184.7471182503303
 30
0.0
  0
ENDBLK
  5
88
330
85
100
AcDbEntity
  8
0
100
AcDbBlockEnd
  0
BLOCK
  5
93
330
91
100
AcDbEntity
  8
0
100
AcDbBlockBegin
  2
block 13
 70
     0
 10
0.0
 20
0.0
 30
0.0
  3
block 13
  1

  0
SPLINE
  5
95
330
91
100
AcDbEntity
  8
Layer 1
 62
   178
420
        1
370
    20
100
AcDbSpline
210
0.0
220
0.0
230
1.0
 70
     8
 71
     3
 72
    59
 73
    55
 74
     0
 42
0.0000000001
 43
0.0000000001
 12
1.0
 22
0.0
 32
0.0
 13
1.0
 23
0.0
 33
0.0
 40
0.0
 40
0.0
 40
0.0
 40
0.0
 40
1.0
 40
1.0
 40
1.0
 40
2.0
 40
2.0
 40
2.0
 40
3.0
 40
3.0
 40
3.0
 40
4.0
 40
4.0
 40
4.0
 40
5.0
 40
5.0
 40
5.0
 40
6.0
 40
6.0
 40
6.0
 40
7.0
 40
7.0
 40
7.0
 40
8.0
 40
8.0
 40
8.0
 40
9.0
 40
9.0
 40
9.0
 40
10.0
 40
10.0
 40
10.0
 40
11.0
 40
11.0
 40
11.0
 40
12.0
 40
12.0
 40
12.0
 40
13.0
 40
13.0
 40
13.0
 40
14.0
 40
14.0
 40
14.0
 40
15.0
 40
15.0
 40
15.0
 40
16.0
 40
16.0
 40
16.0
 40
17.0
 40
17.0
 40
17.0
 40
18.0
 40
18.0
 40
18.0
 40
18.0
 10
88.94880684039082
 20
-138.6111221331204
 30
0.0
 10
88.94880684039082
 20
-138.6111221331204
 30
0.0
 10
88.94880684039082
 20
-141.6111219634906
 30
0.0
 10
88.94880684039082
 20
-141.6111219634906
 30
0.0
 10
88.94880684039082
 20
-141.6111219634906
 30
0.0
 10
88.94880684039082
 20
-152.5111152436536
 30
0.0
 10
88.94880684039082
 20
-152.5111152436536
 30
0.0
 10
88.94880684039082
 20
-152.6111213415145
 30
0.0
 10
89.04880530885767
 20
-152.5111152436536
 30
0.0
 10
88.94880684039082
 20
-152.5111152436536
 30
0.0
 10
88.94880684039082
 20
-152.5111152436536
 30
0.0
 10
86.0488054784875
 20
-152.5111152436536
 30
0.0
 10
86.0488054784875
 20
-152.5111152436536
 30
0.0
 10
85.9938051764216
 20
-152.5111152436536
 30
0.0
 10
85.94880701002064
 20
-152.556121039448
 30
0.0
 10
85.94880701002064
 20
-152.6111213415145
 30
0.0
 10
85.94880701002064
 20
-152.6111213415145
 30
0.0
 10
85.94880701002064
 20
-158.6111210022549
 30
0.0
 10
85.94880701002064
 20
-158.6111210022549
 30
0.0
 10
85.94880701002064
 20
-158.6661213043201
 30
0.0
 10
85.9938051764216
 20
-158.7111194707211
 30
0.0
 10
86.0488054784875
 20
-158.7111194707211
 30
0.0
 10
86.0488054784875
 20
-158.7111194707211
 30
0.0
 10
88.94880684039082
 20
-158.7111194707211
 30
0.0
 10
88.94880684039082
 20
-158.7111194707211
 30
0.0
 10
89.04880530885767
 20
-158.7111194707211
 30
0.0
 10
88.94880684039082
 20
-158.6111210022549
 30
0.0
 10
88.94880684039082
 20
-158.7111194707211
 30
0.0
 10
88.94880684039082
 20
-158.7111194707211
 30
0.0
 10
88.94880684039082
 20
-164.5111145651343
 30
0.0
 10
88.94880684039082
 20
-164.5111145651343
 30
0.0
 10
88.94880684039082
 20
-164.6111206629953
 30
0.0
 10
89.04880530885767
 20
-164.5111145651343
 30
0.0
 10
88.94880684039082
 20
-164.5111145651343
 30
0.0
 10
88.94880684039082
 20
-164.5111145651343
 30
0.0
 10
86.0488054784875
 20
-164.5111145651343
 30
0.0
 10
86.0488054784875
 20
-164.5111145651343
 30
0.0
 10
85.9938051764216
 20
-164.5111145651343
 30
0.0
 10
85.94880701002064
 20
-164.5561203609287
 30
0.0
 10
85.94880701002064
 20
-164.6111206629953
 30
0.0
 10
85.94880701002064
 20
-164.6111206629953
 30
0.0
 10
85.94880701002064
 20
-170.6111203237356
 30
0.0
 10
85.94880701002064
 20
-170.6111203237356
 30
0.0
 10
85.94880701002064
 20
-170.6661206258008
 30
0.0
 10
85.9938051764216
 20
-170.7111187922018
 30
0.0
 10
86.0488054784875
 20
-170.7111187922018
 30
0.0
 10
86.0488054784875
 20
-170.7111187922018
 30
0.0
 10
88.94880684039082
 20
-170.7111187922018
 30
0.0
 10
88.94880684039082
 20
-170.7111187922018
 30
0.0
 10
89.04880530885767
 20
-170.7111187922018
 30
0.0
 10
88.94880684039082
 20
-170.6111203237356
 30
0.0
 10
88.94880684039082
 20
-170.7111187922018
 30
0.0
 10
88.94880684039082
 20
-170.7111187922018
 30
0.0
 10
88.94880684039082
 20
-184.8111183764112
 30
0.0
 10
88.94880684039082
 20
-184.8111183764112
 30
0.0
  0
SPLINE
  5
96
330
91
100
AcDbEntity
  8
Layer 1
 62
   178
420
        1
370
    20
100
AcDbSpline
210
0.0
220
0.0
230
1.0
 70
     8
 71
     3
 72
    68
 73
    64
 74
     0
 42
0.0000000001
 43
0.0000000001
 12
1.0
 22
0.0
 32
0.0
 13
1.0
 23
0.0
 33
0.0
 40
0.0
 40
0.0
 40
0.0
 40
0.0
 40
1.0
 40
1.0
 40
1.0
 40
2.0
 40
2.0
 40
2.0
 40
3.0
 40
3.0
 40
3.0
 40
4.0
 40
4.0
 40
4.0
 40
5.0
 40
5.0
 40
5.0
 40
6.0
 40
6.0
 40
6.0
 40
7.0
 40
7.0
 40
7.0
 40
8.0
 40
8.0
 40
8.0
 40
9.0
 40
9.0
 40
9.0
 40
10.0
 40
10.0
 40
10.0
 40
11.0
 40
11.0
 40
11.0
 40
12.0
 40
12.0
 40
12.0
 40
13.0
 40
13.0
 40
13.0
 40
14.0
 40
14.0
 40
14.0
 40
15.0
 40
15.0
 40
15.0
 40
16.0
 40
16.0
 40
16.0
 40
17.0
 40
17.0
 40
17.0
 40
18.0
 40
18.0
 40
18.0
 40
19.0
 40
19.0
 40
19.0
 40
20.0
 40
20.0
 40
20.0
 40
21.0
 40
21.0
 40
21.0
 40
21.0
 10
137.9867984523876
 20
-184.7471182503303
 30
0.0
 10
138.0417987544535
 20
-184.7471182503303
 30
0.0
 10
138.148801006704
 20
-184.666119834195
 30
0.0
 10
138.148801006704
 20
-184.6111195321297
 30
0.0
 10
138.148801006704
 20
-184.6111195321297
 30
0.0
 10
138.148801006704
 20
-181.6111197017596
 30
0.0
 10
138.148801006704
 20
-181.6111197017596
 30
0.0
 10
138.148801006704
 20
-181.6111197017596
 30
0.0
 10
138.148801006704
 20
-170.7111187922018
 30
0.0
 10
138.148801006704
 20
-170.7111187922018
 30
0.0
 10
138.148801006704
 20
-170.6111203237356
 30
0.0
 10
138.0488025382372
 20
-170.7111187922018
 30
0.0
 10
138.148801006704
 20
-170.7111187922018
 30
0.0
 10
138.148801006704
 20
-170.7111187922018
 30
0.0
 10
141.0488023686073
 20
-170.7111187922018
 30
0.0
 10
141.0488023686073
 20
-170.7111187922018
 30
0.0
 10
141.1038026706732
 20
-170.7111187922018
 30
0.0
 10
141.1488008370742
 20
-170.6661206258008
 30
0.0
 10
141.1488008370742
 20
-170.6111203237356
 30
0.0
 10
141.1488008370742
 20
-170.6111203237356
 30
0.0
 10
141.1488008370742
 20
-164.6111206629953
 30
0.0
 10
141.1488008370742
 20
-164.6111206629953
 30
0.0
 10
141.1488008370742
 20
-164.5561203609287
 30
0.0
 10
141.1038026706732
 20
-164.5111145651343
 30
0.0
 10
141.0488023686073
 20
-164.5111145651343
 30
0.0
 10
141.0488023686073
 20
-164.5111145651343
 30
0.0
 10
138.148801006704
 20
-164.5111145651343
 30
0.0
 10
138.148801006704
 20
-164.5111145651343
 30
0.0
 10
138.0488025382372
 20
-164.5111145651343
 30
0.0
 10
138.148801006704
 20
-164.6111206629953
 30
0.0
 10
138.148801006704
 20
-164.5111145651343
 30
0.0
 10
138.148801006704
 20
-164.5111145651343
 30
0.0
 10
138.148801006704
 20
-158.7111194707211
 30
0.0
 10
138.148801006704
 20
-158.7111194707211
 30
0.0
 10
138.148801006704
 20
-158.6111210022549
 30
0.0
 10
138.0488025382372
 20
-158.7111194707211
 30
0.0
 10
138.148801006704
 20
-158.7111194707211
 30
0.0
 10
138.148801006704
 20
-158.7111194707211
 30
0.0
 10
141.0488023686073
 20
-158.7111194707211
 30
0.0
 10
141.0488023686073
 20
-158.7111194707211
 30
0.0
 10
141.1038026706732
 20
-158.7111194707211
 30
0.0
 10
141.1488008370742
 20
-158.6661213043201
 30
0.0
 10
141.1488008370742
 20
-158.6111210022549
 30
0.0
 10
141.1488008370742
 20
-158.6111210022549
 30
0.0
 10
141.1488008370742
 20
-152.6111213415145
 30
0.0
 10
141.1488008370742
 20
-152.6111213415145
 30
0.0
 10
141.1488008370742
 20
-152.556121039448
 30
0.0
 10
141.1038026706732
 20
-152.5111152436536
 30
0.0
 10
141.0488023686073
 20
-152.5111152436536
 30
0.0
 10
141.0488023686073
 20
-152.5111152436536
 30
0.0
 10
138.148801006704
 20
-152.5111152436536
 30
0.0
 10
138.148801006704
 20
-152.5111152436536
 30
0.0
 10
138.0488025382372
 20
-152.5111152436536
 30
0.0
 10
138.148801006704
 20
-152.6111213415145
 30
0.0
 10
138.148801006704
 20
-152.5111152436536
 30
0.0
 10
138.148801006704
 20
-152.5111152436536
 30
0.0
 10
138.148801006704
 20
-141.6111219634906
 30
0.0
 10
138.148801006704
 20
-141.6111219634906
 30
0.0
 10
138.148801006704
 20
-141.6111219634906
 30
0.0
 10
138.148801006704
 20
-138.6111221331204
 30
0.0
 10
138.148801006704
 20
-138.6111221331204
 30
0.0
 10
138.148801006704
 20
-138.5561218310539
 30
0.0
 10
138.0208026618907
 20
-138.4751167391996
 30
0.0
 10
137.9658023598248
 20
-138.4751167391996
 30
0.0
  0
ENDBLK
  5
94
330
91
100
AcDbEntity
  8
0
100
AcDbBlockEnd
  0
BLOCK
  5
99
330
97
100
AcDbEntity
  8
0
100
AcDbBlockBegin
  2
block 14
 70
     0
 10
0.0
 20
0.0
 30
0.0
  3
block 14
  1

  0
SPLINE
  5
9B
330
97
100
AcDbEntity
  8
Layer 1
 62
   178
420
        1
370
    20
100
AcDbSpline
210
0.0
220
0.0
230
1.0
 70
     8
 71
     3
 72
   191
 73
   187
 74
     0
 42
0.0000000001
 43
0.0000000001
 12
1.0
 22
0.0
 32
0.0
 13
1.0
 23
0.0
 33
0.0
 40
0.0
 40
0.0
 40
0.0
 40
0.0
 40
1.0
 40
1.0
 40
1.0
 40
2.0
 40
2.0
 40
2.0
 40
3.0
 40
3.0
 40
3.0
 40
4.0
 40
4.0
 40
4.0
 40
5.0
 40
5.0
 40
5.0
 40
6.0
 40
6.0
 40
6.0
 40
7.0
 40
7.0
 40
7.0
 40
8.0
 40
8.0
 40
8.0
 40
9.0
 40
9.0
 40
9.0
 40
10.0
 40
10.0
 40
10.0
 40
11.0
 40
11.0
 40
11.0
 40
12.0
 40
12.0
 40
12.0
 40
13.0
 40
13.0
 40
13.0
 40
14.0
 40
14.0
 40
14.0
 40
15.0
 40
15.0
 40
15.0
 40
16.0
 40
16.0
 40
16.0
 40
17.0
 40
17.0
 40
17.0
 40
18.0
 40
18.0
 40
18.0
 40
19.0
 40
19.0
 40
19.0
 40
20.0
 40
20.0
 40
20.0
 40
21.0
 40
21.0
 40
21.0
 40
22.0
 40
22.0
 40
22.0
 40
23.0
 40
23.0
 40
23.0
 40
24.0
 40
24.0
 40
24.0
 40
25.0
 40
25.0
 40
25.0
 40
26.0
 40
26.0
 40
26.0
 40
27.0
 40
27.0
 40
27.0
 40
28.0
 40
28.0
 40
28.0
 40
29.0
 40
29.0
 40
29.0
 40
30.0
 40
30.0
 40
30.0
 40
31.0
 40
31.0
 40
31.0
 40
32.0
 40
32.0
 40
32.0
 40
33.0
 40
33.0
 40
33.0
 40
34.0
 40
34.0
 40
34.0
 40
35.0
 40
35.0
 40
35.0
 40
36.0
 40
36.0
 40
36.0
 40
37.0
 40
37.0
 40
37.0
 40
38.0
 40
38.0
 40
38.0
 40
39.0
 40
39.0
 40
39.0
 40
40.0
 40
40.0
 40
40.0
 40
41.0
 40
41.0
 40
41.0
 40
42.0
 40
42.0
 40
42.0
 40
43.0
 40
43.0
 40
43.0
 40
44.0
 40
44.0
 40
44.0
 40
45.0
 40
45.0
 40
45.0
 40
46.0
 40
46.0
 40
46.0
 40
47.0
 40
47.0
 40
47.0
 40
48.0
 40
48.0
 40
48.0
 40
49.0
 40
49.0
 40
49.0
 40
50.0
 40
50.0
 40
50.0
 40
51.0
 40
51.0
 40
51.0
 40
52.0
 40
52.0
 40
52.0
 40
53.0
 40
53.0
 40
53.0
 40
54.0
 40
54.0
 40
54.0
 40
55.0
 40
55.0
 40
55.0
 40
56.0
 40
56.0
 40
56.0
 40
57.0
 40
57.0
 40
57.0
 40
58.0
 40
58.0
 40
58.0
 40
59.0
 40
59.0
 40
59.0
 40
60.0
 40
60.0
 40
60.0
 40
61.0
 40
61.0
 40
61.0
 40
62.0
 40
62.0
 40
62.0
 40
62.0
 10
137.9658023598248
 20
-138.4751167391996
 30
0.0
 10
137.9658023598248
 20
-138.4751167391996
 30
0.0
 10
141.5528077722381
 20
-134.2001154550433
 30
0.0
 10
141.5528077722381
 20
-134.2001154550433
 30
0.0
 10
141.6168031299477
 20
-134.1231157950901
 30
0.0
 10
141.4757966681941
 20
-134.1361162826363
 30
0.0
 10
141.5528077722381
 20
-134.2001154550433
 30
0.0
 10
141.5528077722381
 20
-134.2001154550433
 30
0.0
 10
143.7738006886481
 20
-136.06411757743
 30
0.0
 10
143.7738006886481
 20
-136.06411757743
 30
0.0
 10
143.8167999537949
 20
-136.1001168734899
 30
0.0
 10
143.8798034902715
 20
-136.0941163550306
 30
0.0
 10
143.9148071504017
 20
-136.0521165405103
 30
0.0
 10
143.9148071504017
 20
-136.0521165405103
 30
0.0
 10
147.7718015612208
 20
-131.4561161289971
 30
0.0
 10
147.7718015612208
 20
-131.4561161289971
 30
0.0
 10
147.807797042584
 20
-131.4131168638503
 30
0.0
 10
147.8018003388215
 20
-131.3501171420704
 30
0.0
 10
147.7598081536958
 20
-131.315117296637
 30
0.0
 10
147.7598081536958
 20
-131.315117296637
 30
0.0
 10
145.5378081572647
 20
-129.4511189889483
 30
0.0
 10
145.5378081572647
 20
-129.4511189889483
 30
0.0
 10
145.4618041332419
 20
-129.3861165512175
 30
0.0
 10
145.4737975407669
 20
-129.5271191982737
 30
0.0
 10
145.5378081572647
 20
-129.4511189889483
 30
0.0
 10
145.5378081572647
 20
-129.4511189889483
 30
0.0
 10
149.125805390911
 20
-125.1751182541649
 30
0.0
 10
149.125805390911
 20
-125.1751182541649
 30
0.0
 10
149.1408047797113
 20
-125.157116698786
 30
0.0
 10
149.148800384728
 20
-125.1351173408987
 30
0.0
 10
149.148800384728
 20
-125.1111190817579
 30
0.0
 10
149.148800384728
 20
-125.1111190817579
 30
0.0
 10
149.148800384728
 20
-123.1831177869648
 30
0.0
 10
149.148800384728
 20
-123.1831177869648
 30
0.0
 10
149.148800384728
 20
-123.1831177869648
 30
0.0
 10
149.148800384728
 20
-118.2471172420876
 30
0.0
 10
149.148800384728
 20
-118.2471172420876
 30
0.0
 10
149.148800384728
 20
-118.1471187736213
 30
0.0
 10
149.0488095456552
 20
-118.2471172420876
 30
0.0
 10
149.148800384728
 20
-118.2471172420876
 30
0.0
 10
149.148800384728
 20
-118.2471172420876
 30
0.0
 10
152.0488093760254
 20
-118.2471172420876
 30
0.0
 10
152.0488093760254
 20
-118.2471172420876
 30
0.0
 10
152.1038020486972
 20
-118.2471172420876
 30
0.0
 10
152.1488002150982
 20
-118.2021190756866
 30
0.0
 10
152.1488002150982
 20
-118.1471187736213
 30
0.0
 10
152.1488002150982
 20
-118.1471187736213
 30
0.0
 10
152.1488002150982
 20
-112.1471152981836
 30
0.0
 10
152.1488002150982
 20
-112.1471152981836
 30
0.0
 10
152.1488002150982
 20
-112.0921149961177
 30
0.0
 10
152.1038020486972
 20
-112.0471168297168
 30
0.0
 10
152.0488093760254
 20
-112.0471168297168
 30
0.0
 10
152.0488093760254
 20
-112.0471168297168
 30
0.0
 10
149.148800384728
 20
-112.0471168297168
 30
0.0
 10
149.148800384728
 20
-112.0471168297168
 30
0.0
 10
149.0488095456552
 20
-112.0471168297168
 30
0.0
 10
149.148800384728
 20
-112.1471152981836
 30
0.0
 10
149.148800384728
 20
-112.0471168297168
 30
0.0
 10
149.148800384728
 20
-112.0471168297168
 30
0.0
 10
149.148800384728
 20
-107.1111200995369
 30
0.0
 10
149.148800384728
 20
-107.1111200995369
 30
0.0
 10
149.148800384728
 20
-107.056119797471
 30
0.0
 10
149.103802218327
 20
-107.01112163107
 30
0.0
 10
149.0488095456552
 20
-107.01112163107
 30
0.0
 10
149.0488095456552
 20
-107.01112163107
 30
0.0
 10
146.048809715285
 20
-107.01112163107
 30
0.0
 10
146.048809715285
 20
-107.01112163107
 30
0.0
 10
145.9938017838251
 20
-107.01112163107
 30
0.0
 10
145.9488036174241
 20
-107.056119797471
 30
0.0
 10
145.9488036174241
 20
-107.1111200995369
 30
0.0
 10
145.9488036174241
 20
-107.1111200995369
 30
0.0
 10
145.9488036174241
 20
-110.0111214614402
 30
0.0
 10
145.9488036174241
 20
-110.0111214614402
 30
0.0
 10
145.9488036174241
 20
-110.111119929907
 30
0.0
 10
146.048809715285
 20
-110.0111214614402
 30
0.0
 10
145.9488036174241
 20
-110.0111214614402
 30
0.0
 10
145.9488036174241
 20
-110.0111214614402
 30
0.0
 10
140.1488008936174
 20
-110.0111214614402
 30
0.0
 10
140.1488008936174
 20
-110.0111214614402
 30
0.0
 10
140.0488100545447
 20
-110.0111214614402
 30
0.0
 10
140.1488008936174
 20
-110.111119929907
 30
0.0
 10
140.1488008936174
 20
-110.0111214614402
 30
0.0
 10
140.1488008936174
 20
-110.0111214614402
 30
0.0
 10
140.1488008936174
 20
-107.1111200995369
 30
0.0
 10
140.1488008936174
 20
-107.1111200995369
 30
0.0
 10
140.1488008936174
 20
-107.056119797471
 30
0.0
 10
140.1038027272165
 20
-107.01112163107
 30
0.0
 10
140.0488100545447
 20
-107.01112163107
 30
0.0
 10
140.0488100545447
 20
-107.01112163107
 30
0.0
 10
134.0488027644103
 20
-107.01112163107
 30
0.0
 10
134.0488027644103
 20
-107.01112163107
 30
0.0
 10
133.9938024623444
 20
-107.01112163107
 30
0.0
 10
133.9488042959434
 20
-107.056119797471
 30
0.0
 10
133.9488042959434
 20
-107.1111200995369
 30
0.0
 10
133.9488042959434
 20
-107.1111200995369
 30
0.0
 10
133.9488042959434
 20
-110.0111214614402
 30
0.0
 10
133.9488042959434
 20
-110.0111214614402
 30
0.0
 10
133.9488042959434
 20
-110.111119929907
 30
0.0
 10
134.0488027644103
 20
-110.0111214614402
 30
0.0
 10
133.9488042959434
 20
-110.0111214614402
 30
0.0
 10
133.9488042959434
 20
-110.0111214614402
 30
0.0
 10
128.1488015721368
 20
-110.0111214614402
 30
0.0
 10
128.1488015721368
 20
-110.0111214614402
 30
0.0
 10
128.0488031036699
 20
-110.0111214614402
 30
0.0
 10
128.1488015721368
 20
-110.111119929907
 30
0.0
 10
128.1488015721368
 20
-110.0111214614402
 30
0.0
 10
128.1488015721368
 20
-110.0111214614402
 30
0.0
 10
128.1488015721368
 20
-107.1111200995369
 30
0.0
 10
128.1488015721368
 20
-107.1111200995369
 30
0.0
 10
128.1488015721368
 20
-107.056119797471
 30
0.0
 10
128.1038034057358
 20
-107.01112163107
 30
0.0
 10
128.0488031036699
 20
-107.01112163107
 30
0.0
 10
128.0488031036699
 20
-107.01112163107
 30
0.0
 10
122.0488034429296
 20
-107.01112163107
 30
0.0
 10
122.0488034429296
 20
-107.01112163107
 30
0.0
 10
121.9938031408637
 20
-107.01112163107
 30
0.0
 10
121.9488049744627
 20
-107.056119797471
 30
0.0
 10
121.9488049744627
 20
-107.1111200995369
 30
0.0
 10
121.9488049744627
 20
-107.1111200995369
 30
0.0
 10
121.9488049744627
 20
-110.0111214614402
 30
0.0
 10
121.9488049744627
 20
-110.0111214614402
 30
0.0
 10
121.9488049744627
 20
-110.111119929907
 30
0.0
 10
122.0488034429296
 20
-110.0111214614402
 30
0.0
 10
121.9488049744627
 20
-110.0111214614402
 30
0.0
 10
121.9488049744627
 20
-110.0111214614402
 30
0.0
 10
116.1488022506561
 20
-110.0111214614402
 30
0.0
 10
116.1488022506561
 20
-110.0111214614402
 30
0.0
 10
116.0488037821892
 20
-110.0111214614402
 30
0.0
 10
116.1488022506561
 20
-110.111119929907
 30
0.0
 10
116.1488022506561
 20
-110.0111214614402
 30
0.0
 10
116.1488022506561
 20
-110.0111214614402
 30
0.0
 10
116.1488022506561
 20
-107.1111200995369
 30
0.0
 10
116.1488022506561
 20
-107.1111200995369
 30
0.0
 10
116.1488022506561
 20
-107.056119797471
 30
0.0
 10
116.1038040842551
 20
-107.01112163107
 30
0.0
 10
116.0488037821892
 20
-107.01112163107
 30
0.0
 10
116.0488037821892
 20
-107.01112163107
 30
0.0
 10
110.0488041214489
 20
-107.01112163107
 30
0.0
 10
110.0488041214489
 20
-107.01112163107
 30
0.0
 10
109.993803819383
 20
-107.01112163107
 30
0.0
 10
109.948805652982
 20
-107.056119797471
 30
0.0
 10
109.948805652982
 20
-107.1111200995369
 30
0.0
 10
109.948805652982
 20
-107.1111200995369
 30
0.0
 10
109.948805652982
 20
-110.0111214614402
 30
0.0
 10
109.948805652982
 20
-110.0111214614402
 30
0.0
 10
109.948805652982
 20
-110.111119929907
 30
0.0
 10
110.0488041214489
 20
-110.0111214614402
 30
0.0
 10
109.948805652982
 20
-110.0111214614402
 30
0.0
 10
109.948805652982
 20
-110.0111214614402
 30
0.0
 10
104.1488029291754
 20
-110.0111214614402
 30
0.0
 10
104.1488029291754
 20
-110.0111214614402
 30
0.0
 10
104.0488044607085
 20
-110.0111214614402
 30
0.0
 10
104.1488029291754
 20
-110.111119929907
 30
0.0
 10
104.1488029291754
 20
-110.0111214614402
 30
0.0
 10
104.1488029291754
 20
-110.0111214614402
 30
0.0
 10
104.1488029291754
 20
-107.1111200995369
 30
0.0
 10
104.1488029291754
 20
-107.1111200995369
 30
0.0
 10
104.1488029291754
 20
-107.056119797471
 30
0.0
 10
104.1038047627744
 20
-107.01112163107
 30
0.0
 10
104.0488044607085
 20
-107.01112163107
 30
0.0
 10
104.0488044607085
 20
-107.01112163107
 30
0.0
 10
98.04880479996818
 20
-107.01112163107
 30
0.0
 10
98.04880479996818
 20
-107.01112163107
 30
0.0
 10
97.9938044979023
 20
-107.01112163107
 30
0.0
 10
97.94880633150133
 20
-107.056119797471
 30
0.0
 10
97.94880633150133
 20
-107.1111200995369
 30
0.0
 10
97.94880633150133
 20
-107.1111200995369
 30
0.0
 10
97.94880633150133
 20
-110.0111214614402
 30
0.0
 10
97.94880633150133
 20
-110.0111214614402
 30
0.0
 10
97.94880633150133
 20
-110.111119929907
 30
0.0
 10
98.04880479996818
 20
-110.0111214614402
 30
0.0
 10
97.94880633150133
 20
-110.0111214614402
 30
0.0
 10
97.94880633150133
 20
-110.0111214614402
 30
0.0
 10
92.14880360769469
 20
-110.0111214614402
 30
0.0
 10
92.14880360769469
 20
-110.0111214614402
 30
0.0
 10
92.04880513922784
 20
-110.0111214614402
 30
0.0
 10
92.14880360769469
 20
-110.111119929907
 30
0.0
 10
92.14880360769469
 20
-110.0111214614402
 30
0.0
 10
92.14880360769469
 20
-110.0111214614402
 30
0.0
 10
92.14880360769469
 20
-107.1111200995369
 30
0.0
 10
92.14880360769469
 20
-107.1111200995369
 30
0.0
 10
92.14880360769469
 20
-107.056119797471
 30
0.0
 10
92.10380544129372
 20
-107.01112163107
 30
0.0
 10
92.04880513922784
 20
-107.01112163107
 30
0.0
 10
92.04880513922784
 20
-107.01112163107
 30
0.0
 10
89.04880530885767
 20
-107.01112163107
 30
0.0
 10
89.04880530885767
 20
-107.01112163107
 30
0.0
  0
SPLINE
  5
9C
330
97
100
AcDbEntity
  8
Layer 1
 62
   178
420
        1
370
    20
100
AcDbSpline
210
0.0
220
0.0
230
1.0
 70
     8
 71
     3
 72
    59
 73
    55
 74
     0
 42
0.0000000001
 43
0.0000000001
 12
1.0
 22
0.0
 32
0.0
 13
1.0
 23
0.0
 33
0.0
 40
0.0
 40
0.0
 40
0.0
 40
0.0
 40
1.0
 40
1.0
 40
1.0
 40
2.0
 40
2.0
 40
2.0
 40
3.0
 40
3.0
 40
3.0
 40
4.0
 40
4.0
 40
4.0
 40
5.0
 40
5.0
 40
5.0
 40
6.0
 40
6.0
 40
6.0
 40
7.0
 40
7.0
 40
7.0
 40
8.0
 40
8.0
 40
8.0
 40
9.0
 40
9.0
 40
9.0
 40
10.0
 40
10.0
 40
10.0
 40
11.0
 40
11.0
 40
11.0
 40
12.0
 40
12.0
 40
12.0
 40
13.0
 40
13.0
 40
13.0
 40
14.0
 40
14.0
 40
14.0
 40
15.0
 40
15.0
 40
15.0
 40
16.0
 40
16.0
 40
16.0
 40
17.0
 40
17.0
 40
17.0
 40
18.0
 40
18.0
 40
18.0
 40
18.0
 10
89.04880530885767
 20
-107.01112163107
 30
0.0
 10
88.99380500679177
 20
-107.01112163107
 30
0.0
 10
88.94880684039082
 20
-107.056119797471
 30
0.0
 10
88.94880684039082
 20
-107.1111200995369
 30
0.0
 10
88.94880684039082
 20
-107.1111200995369
 30
0.0
 10
88.94880684039082
 20
-113.6611189662387
 30
0.0
 10
88.94880684039082
 20
-113.6611189662387
 30
0.0
 10
88.94880684039082
 20
-113.7611174347062
 30
0.0
 10
89.04880530885767
 20
-113.6611189662387
 30
0.0
 10
88.94880684039082
 20
-113.6611189662387
 30
0.0
 10
88.94880684039082
 20
-113.6611189662387
 30
0.0
 10
86.0488054784875
 20
-113.6611189662387
 30
0.0
 10
86.0488054784875
 20
-113.6611189662387
 30
0.0
 10
85.9938051764216
 20
-113.6611189662387
 30
0.0
 10
85.94880701002064
 20
-113.7061171326396
 30
0.0
 10
85.94880701002064
 20
-113.7611174347062
 30
0.0
 10
85.94880701002064
 20
-113.7611174347062
 30
0.0
 10
85.94880701002064
 20
-119.7611170954465
 30
0.0
 10
85.94880701002064
 20
-119.7611170954465
 30
0.0
 10
85.94880701002064
 20
-119.8161173975118
 30
0.0
 10
85.9938051764216
 20
-119.8611193786101
 30
0.0
 10
86.0488054784875
 20
-119.8611193786101
 30
0.0
 10
86.0488054784875
 20
-119.8611193786101
 30
0.0
 10
88.94880684039082
 20
-119.8611193786101
 30
0.0
 10
88.94880684039082
 20
-119.8611193786101
 30
0.0
 10
89.04880530885767
 20
-119.8611193786101
 30
0.0
 10
88.94880684039082
 20
-119.7611170954465
 30
0.0
 10
88.94880684039082
 20
-119.8611193786101
 30
0.0
 10
88.94880684039082
 20
-119.8611193786101
 30
0.0
 10
88.94880684039082
 20
-125.6611182877194
 30
0.0
 10
88.94880684039082
 20
-125.6611182877194
 30
0.0
 10
88.94880684039082
 20
-125.7611167561869
 30
0.0
 10
89.04880530885767
 20
-125.6611182877194
 30
0.0
 10
88.94880684039082
 20
-125.6611182877194
 30
0.0
 10
88.94880684039082
 20
-125.6611182877194
 30
0.0
 10
86.0488054784875
 20
-125.6611182877194
 30
0.0
 10
86.0488054784875
 20
-125.6611182877194
 30
0.0
 10
85.9938051764216
 20
-125.6611182877194
 30
0.0
 10
85.94880701002064
 20
-125.7061164541203
 30
0.0
 10
85.94880701002064
 20
-125.7611167561869
 30
0.0
 10
85.94880701002064
 20
-125.7611167561869
 30
0.0
 10
85.94880701002064
 20
-131.7611164169266
 30
0.0
 10
85.94880701002064
 20
-131.7611164169266
 30
0.0
 10
85.94880701002064
 20
-131.8161167189931
 30
0.0
 10
85.9938051764216
 20
-131.8611187000908
 30
0.0
 10
86.0488054784875
 20
-131.8611187000908
 30
0.0
 10
86.0488054784875
 20
-131.8611187000908
 30
0.0
 10
88.94880684039082
 20
-131.8611187000908
 30
0.0
 10
88.94880684039082
 20
-131.8611187000908
 30
0.0
 10
89.04880530885767
 20
-131.8611187000908
 30
0.0
 10
88.94880684039082
 20
-131.7611164169266
 30
0.0
 10
88.94880684039082
 20
-131.8611187000908
 30
0.0
 10
88.94880684039082
 20
-131.8611187000908
 30
0.0
 10
88.94880684039082
 20
-138.6111221331204
 30
0.0
 10
88.94880684039082
 20
-138.6111221331204
 30
0.0
  0
ENDBLK
  5
9A
330
97
100
AcDbEntity
  8
0
100
AcDbBlockEnd
  0
BLOCK
  5
9F
330
9D
100
AcDbEntity
  8
0
100
AcDbBlockBegin
  2
block 15
 70
     0
 10
0.0
 20
0.0
 30
0.0
  3
block 15
  1

  0
INSERT
  5
A2
330
9D
100
AcDbEntity
  8
Layer 1
100
AcDbBlockReference
  2
block 16
 10
0.0
 20
0.0
 30
0.0
  0
POLYLINE
  5
A6
330
9D
100
AcDbEntity
  8
Layer 1
370
     0
100
AcDb2dPolyline
 66
     1
 10
0.0
 20
0.0
 30
0.0
  0
VERTEX
  5
A7
330
A6
100
AcDbEntity
  8
Layer 1
370
     0
100
AcDbVertex
100
AcDb2dVertex
 10
178.7167039525615
 20
-133.1581611419188
 30
0.0
  0
VERTEX
  5
A8
330
A6
100
AcDbEntity
  8
Layer 1
370
     0
100
AcDbVertex
100
AcDb2dVertex
 10
210.7167039445616
 20
-133.1581611419188
 30
0.0
  0
VERTEX
  5
A9
330
A6
100
AcDbEntity
  8
Layer 1
370
     0
100
AcDbVertex
100
AcDb2dVertex
 10
210.7167039445616
 20
-165.1581611339186
 30
0.0
  0
VERTEX
  5
AA
330
A6
100
AcDbEntity
  8
Layer 1
370
     0
100
AcDbVertex
100
AcDb2dVertex
 10
178.7167039525615
 20
-165.1581611339186
 30
0.0
  0
VERTEX
  5
AB
330
A6
100
AcDbEntity
  8
Layer 1
370
     0
100
AcDbVertex
100
AcDb2dVertex
 10
178.7167039525615
 20
-133.1581611419188
 30
0.0
  0
SEQEND
  5
AC
330
A6
100
AcDbEntity
  8
Layer 1
370
     0
  0
ENDBLK
  5
A0
330
9D
100
AcDbEntity
  8
0
100
AcDbBlockEnd
  0
BLOCK
  5
A3
330
A1
100
AcDbEntity
  8
0
100
AcDbBlockBegin
  2
block 16
 70
     0
 10
0.0
 20
0.0
 30
0.0
  3
block 16
  1

  0
SPLINE
  5
A5
330
A1
100
AcDbEntity
  8
Layer 1
 62
   178
420
        1
370
    20
100
AcDbSpline
210
0.0
220
0.0
230
1.0
 70
    11
 71
     3
 72
   113
 73
   109
 74
     0
 42
0.0000000001
 43
0.0000000001
 12
1.0
 22
0.0
 32
0.0
 13
1.0
 23
0.0
 33
0.0
 40
0.0
 40
0.0
 40
0.0
 40
0.0
 40
1.0
 40
1.0
 40
1.0
 40
2.0
 40
2.0
 40
2.0
 40
3.0
 40
3.0
 40
3.0
 40
4.0
 40
4.0
 40
4.0
 40
5.0
 40
5.0
 40
5.0
 40
6.0
 40
6.0
 40
6.0
 40
7.0
 40
7.0
 40
7.0
 40
8.0
 40
8.0
 40
8.0
 40
9.0
 40
9.0
 40
9.0
 40
10.0
 40
10.0
 40
10.0
 40
11.0
 40
11.0
 40
11.0
 40
12.0
 40
12.0
 40
12.0
 40
13.0
 40
13.0
 40
13.0
 40
14.0
 40
14.0
 40
14.0
 40
15.0
 40
15.0
 40
15.0
 40
16.0
 40
16.0
 40
16.0
 40
17.0
 40
17.0
 40
17.0
 40
18.0
 40
18.0
 40
18.0
 40
19.0
 40
19.0
 40
19.0
 40
20.0
 40
20.0
 40
20.0
 40
21.0
 40
21.0
 40
21.0
 40
22.0
 40
22.0
 40
22.0
 40
23.0
 40
23.0
 40
23.0
 40
24.0
 40
24.0
 40
24.0
 40
25.0
 40
25.0
 40
25.0
 40
26.0
 40
26.0
 40
26.0
 40
27.0
 40
27.0
 40
27.0
 40
28.0
 40
28.0
 40
28.0
 40
29.0
 40
29.0
 40
29.0
 40
30.0
 40
30.0
 40
30.0
 40
31.0
 40
31.0
 40
31.0
 40
32.0
 40
32.0
 40
32.0
 40
33.0
 40
33.0
 40
33.0
 40
34.0
 40
34.0
 40
34.0
 40
35.0
 40
35.0
 40
35.0
 40
36.0
 40
36.0
 40
36.0
 40
36.0
 10
164.6167057458817
 20
-129.1581622687839
 30
0.0
 10
164.6167057458817
 20
-129.1581622687839
 30
0.0
 10
164.6167057458817
 20
-140.1581616468079
 30
0.0
 10
164.6167057458817
 20
-140.1581616468079
 30
0.0
 10
164.6167057458817
 20
-140.2131619488731
 30
0.0
 10
164.6617058196314
 20
-140.2581601152741
 30
0.0
 10
164.716705168023
 20
-140.2581601152741
 30
0.0
 10
164.716705168023
 20
-140.2581601152741
 30
0.0
 10
167.6167055762519
 20
-140.2581601152741
 30
0.0
 10
167.6167055762519
 20
-140.2581601152741
 30
0.0
 10
167.7167049983932
 20
-140.2581601152741
 30
0.0
 10
167.6167055762519
 20
-140.1581616468079
 30
0.0
 10
167.6167055762519
 20
-140.2581601152741
 30
0.0
 10
167.6167055762519
 20
-140.2581601152741
 30
0.0
 10
167.6167055762519
 20
-146.0581552096872
 30
0.0
 10
167.6167055762519
 20
-146.0581552096872
 30
0.0
 10
167.6167055762519
 20
-146.1581613075482
 30
0.0
 10
167.7167049983932
 20
-146.0581552096872
 30
0.0
 10
167.6167055762519
 20
-146.0581552096872
 30
0.0
 10
167.6167055762519
 20
-146.0581552096872
 30
0.0
 10
164.716705168023
 20
-146.0581552096872
 30
0.0
 10
164.716705168023
 20
-146.0581552096872
 30
0.0
 10
164.6617058196314
 20
-146.0581552096872
 30
0.0
 10
164.6167057458817
 20
-146.1031610054817
 30
0.0
 10
164.6167057458817
 20
-146.1581613075482
 30
0.0
 10
164.6167057458817
 20
-146.1581613075482
 30
0.0
 10
164.6167057458817
 20
-152.1581609682885
 30
0.0
 10
164.6167057458817
 20
-152.1581609682885
 30
0.0
 10
164.6167057458817
 20
-152.2131612703538
 30
0.0
 10
164.6617058196314
 20
-152.2581594367548
 30
0.0
 10
164.716705168023
 20
-152.2581594367548
 30
0.0
 10
164.716705168023
 20
-152.2581594367548
 30
0.0
 10
167.6167055762519
 20
-152.2581594367548
 30
0.0
 10
167.6167055762519
 20
-152.2581594367548
 30
0.0
 10
167.7167049983932
 20
-152.2581594367548
 30
0.0
 10
167.6167055762519
 20
-152.1581609682885
 30
0.0
 10
167.6167055762519
 20
-152.2581594367548
 30
0.0
 10
167.6167055762519
 20
-152.2581594367548
 30
0.0
 10
167.6167055762519
 20
-158.0581545311679
 30
0.0
 10
167.6167055762519
 20
-158.0581545311679
 30
0.0
 10
167.6167055762519
 20
-158.1581606290289
 30
0.0
 10
167.7167049983932
 20
-158.0581545311679
 30
0.0
 10
167.6167055762519
 20
-158.0581545311679
 30
0.0
 10
167.6167055762519
 20
-158.0581545311679
 30
0.0
 10
164.716705168023
 20
-158.0581545311679
 30
0.0
 10
164.716705168023
 20
-158.0581545311679
 30
0.0
 10
164.6617058196314
 20
-158.0581545311679
 30
0.0
 10
164.6167057458817
 20
-158.1031603269624
 30
0.0
 10
164.6167057458817
 20
-158.1581606290289
 30
0.0
 10
164.6167057458817
 20
-158.1581606290289
 30
0.0
 10
164.6167057458817
 20
-169.1581600070529
 30
0.0
 10
164.6167057458817
 20
-169.1581600070529
 30
0.0
 10
164.6167057458817
 20
-169.1581600070529
 30
0.0
 10
224.8167021512407
 20
-169.1581600070529
 30
0.0
 10
224.8167021512407
 20
-169.1581600070529
 30
0.0
 10
224.8167021512407
 20
-169.1581600070529
 30
0.0
 10
224.8167021512407
 20
-158.1581606290289
 30
0.0
 10
224.8167021512407
 20
-158.1581606290289
 30
0.0
 10
224.8167021512407
 20
-158.1031603269624
 30
0.0
 10
224.7717039848398
 20
-158.0581545311679
 30
0.0
 10
224.7167036827746
 20
-158.0581545311679
 30
0.0
 10
224.7167036827746
 20
-158.0581545311679
 30
0.0
 10
221.8167023208706
 20
-158.0581545311679
 30
0.0
 10
221.8167023208706
 20
-158.0581545311679
 30
0.0
 10
221.7167038524044
 20
-158.0581545311679
 30
0.0
 10
221.8167023208706
 20
-158.1581606290289
 30
0.0
 10
221.8167023208706
 20
-158.0581545311679
 30
0.0
 10
221.8167023208706
 20
-158.0581545311679
 30
0.0
 10
221.8167023208706
 20
-152.2581594367548
 30
0.0
 10
221.8167023208706
 20
-152.2581594367548
 30
0.0
 10
221.8167023208706
 20
-152.1581609682885
 30
0.0
 10
221.7167038524044
 20
-152.2581594367548
 30
0.0
 10
221.8167023208706
 20
-152.2581594367548
 30
0.0
 10
221.8167023208706
 20
-152.2581594367548
 30
0.0
 10
224.7167036827746
 20
-152.2581594367548
 30
0.0
 10
224.7167036827746
 20
-152.2581594367548
 30
0.0
 10
224.7717039848398
 20
-152.2581594367548
 30
0.0
 10
224.8167021512407
 20
-152.2131612703538
 30
0.0
 10
224.8167021512407
 20
-152.1581609682885
 30
0.0
 10
224.8167021512407
 20
-152.1581609682885
 30
0.0
 10
224.8167021512407
 20
-146.1581613075482
 30
0.0
 10
224.8167021512407
 20
-146.1581613075482
 30
0.0
 10
224.8167021512407
 20
-146.1031610054817
 30
0.0
 10
224.7717039848398
 20
-146.0581552096872
 30
0.0
 10
224.7167036827746
 20
-146.0581552096872
 30
0.0
 10
224.7167036827746
 20
-146.0581552096872
 30
0.0
 10
221.8167023208706
 20
-146.0581552096872
 30
0.0
 10
221.8167023208706
 20
-146.0581552096872
 30
0.0
 10
221.7167038524044
 20
-146.0581552096872
 30
0.0
 10
221.8167023208706
 20
-146.1581613075482
 30
0.0
 10
221.8167023208706
 20
-146.0581552096872
 30
0.0
 10
221.8167023208706
 20
-146.0581552096872
 30
0.0
 10
221.8167023208706
 20
-140.2581601152741
 30
0.0
 10
221.8167023208706
 20
-140.2581601152741
 30
0.0
 10
221.8167023208706
 20
-140.1581616468079
 30
0.0
 10
221.7167038524044
 20
-140.2581601152741
 30
0.0
 10
221.8167023208706
 20
-140.2581601152741
 30
0.0
 10
221.8167023208706
 20
-140.2581601152741
 30
0.0
 10
224.7167036827746
 20
-140.2581601152741
 30
0.0
 10
224.7167036827746
 20
-140.2581601152741
 30
0.0
 10
224.7717039848398
 20
-140.2581601152741
 30
0.0
 10
224.8167021512407
 20
-140.2131619488731
 30
0.0
 10
224.8167021512407
 20
-140.1581616468079
 30
0.0
 10
224.8167021512407
 20
-140.1581616468079
 30
0.0
 10
224.8167021512407
 20
-129.1581622687839
 30
0.0
 10
224.8167021512407
 20
-129.1581622687839
 30
0.0
 10
224.8167021512407
 20
-129.1581622687839
 30
0.0
 10
164.6167057458817
 20
-129.1581622687839
 30
0.0
 10
164.6167057458817
 20
-129.1581622687839
 30
0.0
  0
ENDBLK
  5
A4
330
A1
100
AcDbEntity
  8
0
100
AcDbBlockEnd
  0
BLOCK
  5
AF
330
AD
100
AcDbEntity
  8
0
100
AcDbBlockBegin
  2
block 17
 70
     0
 10
0.0
 20
0.0
 30
0.0
  3
block 17
  1

  0
INSERT
  5
B2
330
AD
100
AcDbEntity
  8
Layer 1
100
AcDbBlockReference
  2
block 18
 10
0.0
 20
0.0
 30
0.0
  0
POLYLINE
  5
B6
330
AD
100
AcDbEntity
  8
Layer 1
370
     0
100
AcDb2dPolyline
 66
     1
 10
0.0
 20
0.0
 30
0.0
  0
VERTEX
  5
B7
330
B6
100
AcDbEntity
  8
Layer 1
370
     0
100
AcDbVertex
100
AcDb2dVertex
 10
202.7167039465615
 20
-182.1524548205241
 30
0.0
  0
VERTEX
  5
B8
330
B6
100
AcDbEntity
  8
Layer 1
370
     0
100
AcDbVertex
100
AcDb2dVertex
 10
202.7167039465615
 20
-198.1524548165237
 30
0.0
  0
VERTEX
  5
B9
330
B6
100
AcDbEntity
  8
Layer 1
370
     0
100
AcDbVertex
100
AcDb2dVertex
 10
186.7167039505619
 20
-198.1524548165237
 30
0.0
  0
VERTEX
  5
BA
330
B6
100
AcDbEntity
  8
Layer 1
370
     0
100
AcDbVertex
100
AcDb2dVertex
 10
186.7167039505619
 20
-182.1524548205241
 30
0.0
  0
VERTEX
  5
BB
330
B6
100
AcDbEntity
  8
Layer 1
370
     0
100
AcDbVertex
100
AcDb2dVertex
 10
202.7167039465615
 20
-182.1524548205241
 30
0.0
  0
SEQEND
  5
BC
330
B6
100
AcDbEntity
  8
Layer 1
370
     0
  0
ENDBLK
  5
B0
330
AD
100
AcDbEntity
  8
0
100
AcDbBlockEnd
  0
BLOCK
  5
B3
330
B1
100
AcDbEntity
  8
0
100
AcDbBlockBegin
  2
block 18
 70
     0
 10
0.0
 20
0.0
 30
0.0
  3
block 18
  1

  0
SPLINE
  5
B5
330
B1
100
AcDbEntity
  8
Layer 1
 62
   178
420
        1
370
    20
100
AcDbSpline
210
0.0
220
0.0
230
1.0
 70
    11
 71
     3
 72
   149
 73
   145
 74
     0
 42
0.0000000001
 43
0.0000000001
 12
1.0
 22
0.0
 32
0.0
 13
1.0
 23
0.0
 33
0.0
 40
0.0
 40
0.0
 40
0.0
 40
0.0
 40
1.0
 40
1.0
 40
1.0
 40
2.0
 40
2.0
 40
2.0
 40
3.0
 40
3.0
 40
3.0
 40
4.0
 40
4.0
 40
4.0
 40
5.0
 40
5.0
 40
5.0
 40
6.0
 40
6.0
 40
6.0
 40
7.0
 40
7.0
 40
7.0
 40
8.0
 40
8.0
 40
8.0
 40
9.0
 40
9.0
 40
9.0
 40
10.0
 40
10.0
 40
10.0
 40
11.0
 40
11.0
 40
11.0
 40
12.0
 40
12.0
 40
12.0
 40
13.0
 40
13.0
 40
13.0
 40
14.0
 40
14.0
 40
14.0
 40
15.0
 40
15.0
 40
15.0
 40
16.0
 40
16.0
 40
16.0
 40
17.0
 40
17.0
 40
17.0
 40
18.0
 40
18.0
 40
18.0
 40
19.0
 40
19.0
 40
19.0
 40
20.0
 40
20.0
 40
20.0
 40
21.0
 40
21.0
 40
21.0
 40
22.0
 40
22.0
 40
22.0
 40
23.0
 40
23.0
 40
23.0
 40
24.0
 40
24.0
 40
24.0
 40
25.0
 40
25.0
 40
25.0
 40
26.0
 40
26.0
 40
26.0
 40
27.0
 40
27.0
 40
27.0
 40
28.0
 40
28.0
 40
28.0
 40
29.0
 40
29.0
 40
29.0
 40
30.0
 40
30.0
 40
30.0
 40
31.0
 40
31.0
 40
31.0
 40
32.0
 40
32.0
 40
32.0
 40
33.0
 40
33.0
 40
33.0
 40
34.0
 40
34.0
 40
34.0
 40
35.0
 40
35.0
 40
35.0
 40
36.0
 40
36.0
 40
36.0
 40
37.0
 40
37.0
 40
37.0
 40
38.0
 40
38.0
 40
38.0
 40
39.0
 40
39.0
 40
39.0
 40
40.0
 40
40.0
 40
40.0
 40
41.0
 40
41.0
 40
41.0
 40
42.0
 40
42.0
 40
42.0
 40
43.0
 40
43.0
 40
43.0
 40
44.0
 40
44.0
 40
44.0
 40
45.0
 40
45.0
 40
45.0
 40
46.0
 40
46.0
 40
46.0
 40
47.0
 40
47.0
 40
47.0
 40
48.0
 40
48.0
 40
48.0
 40
48.0
 10
164.6186329349815
 20
-176.111943578095
 30
0.0
 10
164.6186329349815
 20
-176.111943578095
 30
0.0
 10
164.6147814178176
 20
-179.5290370332177
 30
0.0
 10
164.6147814178176
 20
-179.5290370332177
 30
0.0
 10
164.6147814548385
 20
-179.5840297058895
 30
0.0
 10
164.6597796515225
 20
-179.6290125832089
 30
0.0
 10
164.7147799535884
 20
-179.6290125461823
 30
0.0
 10
164.7147799535884
 20
-179.6290125461823
 30
0.0
 10
167.6147813154911
 20
-179.6290105938867
 30
0.0
 10
167.6147813154911
 20
-179.6290105938867
 30
0.0
 10
167.7147797839579
 20
-179.6290105265674
 30
0.0
 10
167.6147812481865
 20
-179.5290350136022
 30
0.0
 10
167.6147813154911
 20
-179.6290105938867
 30
0.0
 10
167.6147813154911
 20
-179.6290105938867
 30
0.0
 10
167.6147852200924
 20
-185.4290285764809
 30
0.0
 10
167.6147852200924
 20
-185.4290285764809
 30
0.0
 10
167.6147852874169
 20
-185.5290346743412
 30
0.0
 10
167.7147836885592
 20
-185.4290285091609
 30
0.0
 10
167.6147852200924
 20
-185.4290285764809
 30
0.0
 10
167.6147852200924
 20
-185.4290285764809
 30
0.0
 10
164.7147838581897
 20
-185.4290305287765
 30
0.0
 10
164.7147838581897
 20
-185.4290305287765
 30
0.0
 10
164.6597835561245
 20
-185.4290305658025
 30
0.0
 10
164.6147854193482
 20
-185.4730369412638
 30
0.0
 10
164.6147854570474
 20
-185.5290366939568
 30
0.0
 10
164.6147854570474
 20
-185.5290366939568
 30
0.0
 10
164.6147894962778
 20
-191.5290363546958
 30
0.0
 10
164.6147894962778
 20
-191.5290363546958
 30
0.0
 10
164.6147895332993
 20
-191.5840290273676
 30
0.0
 10
164.6597877299834
 20
-191.629011904687
 30
0.0
 10
164.7147880320493
 20
-191.629011867661
 30
0.0
 10
164.7147880320493
 20
-191.629011867661
 30
0.0
 10
167.6147893939519
 20
-191.6290099153648
 30
0.0
 10
167.6147893939519
 20
-191.6290099153648
 30
0.0
 10
167.7147878624188
 20
-191.6290098480455
 30
0.0
 10
167.6147893266473
 20
-191.5290343350803
 30
0.0
 10
167.6147893939519
 20
-191.6290099153648
 30
0.0
 10
167.6147893939519
 20
-191.6290099153648
 30
0.0
 10
167.6147932985533
 20
-197.4290278979584
 30
0.0
 10
167.6147932985533
 20
-197.4290278979584
 30
0.0
 10
167.6147933658777
 20
-197.5290339958194
 30
0.0
 10
167.7147917670201
 20
-197.429027830639
 30
0.0
 10
167.6147932985533
 20
-197.4290278979584
 30
0.0
 10
167.6147932985533
 20
-197.4290278979584
 30
0.0
 10
164.7147919366506
 20
-197.4290298502539
 30
0.0
 10
164.7147919366506
 20
-197.4290298502539
 30
0.0
 10
164.6597916345853
 20
-197.4290298872806
 30
0.0
 10
164.6147934978097
 20
-197.4730362627413
 30
0.0
 10
164.6147935355082
 20
-197.5290360154349
 30
0.0
 10
164.6147935355082
 20
-197.5290360154349
 30
0.0
 10
164.6147980217481
 20
-204.1930371034716
 30
0.0
 10
164.6147980217481
 20
-204.1930371034716
 30
0.0
 10
164.6147980217481
 20
-204.1930371034716
 30
0.0
 10
164.6148000413637
 20
-207.1930369338418
 30
0.0
 10
164.6148000413637
 20
-207.1930369338418
 30
0.0
 10
164.6148000790622
 20
-207.2490366865347
 30
0.0
 10
164.6597982750686
 20
-207.293012483833
 30
0.0
 10
164.7147985771345
 20
-207.293012446807
 30
0.0
 10
164.7147985771345
 20
-207.293012446807
 30
0.0
 10
167.7147984075034
 20
-207.2930104271914
 30
0.0
 10
167.7147984075034
 20
-207.2930104271914
 30
0.0
 10
167.7147984075034
 20
-207.2930104271914
 30
0.0
 10
221.7147953541549
 20
-207.2929740741182
 30
0.0
 10
221.7147953541549
 20
-207.2929740741182
 30
0.0
 10
221.7147953541549
 20
-207.2929740741182
 30
0.0
 10
224.7147951845238
 20
-207.2929720545027
 30
0.0
 10
224.7147951845238
 20
-207.2929720545027
 30
0.0
 10
224.7697954865904
 20
-207.2929720174766
 30
0.0
 10
224.8147936233859
 20
-207.2489961595917
 30
0.0
 10
224.8147935856874
 20
-207.1929964068987
 30
0.0
 10
224.8147935856874
 20
-207.1929964068987
 30
0.0
 10
224.8147915660718
 20
-204.1929965765286
 30
0.0
 10
224.8147915660718
 20
-204.1929965765286
 30
0.0
 10
224.8147915660718
 20
-204.1929965765286
 30
0.0
 10
224.8147870798319
 20
-197.5289954884919
 30
0.0
 10
224.8147870798319
 20
-197.5289954884919
 30
0.0
 10
224.8147870421321
 20
-197.4729957357989
 30
0.0
 10
224.7697888461065
 20
-197.4289894209242
 30
0.0
 10
224.7147885440412
 20
-197.4289894579503
 30
0.0
 10
224.7147885440412
 20
-197.4289894579503
 30
0.0
 10
221.8147871821385
 20
-197.4289914102464
 30
0.0
 10
221.8147871821385
 20
-197.4289914102464
 30
0.0
 10
221.714788713671
 20
-197.4289914775651
 30
0.0
 10
221.814787249463
 20
-197.5289975081068
 30
0.0
 10
221.8147871821385
 20
-197.4289914102464
 30
0.0
 10
221.8147871821385
 20
-197.4289914102464
 30
0.0
 10
221.8147832775372
 20
-191.6289734276522
 30
0.0
 10
221.8147832775372
 20
-191.6289734276522
 30
0.0
 10
221.814783210232
 20
-191.5289978473677
 30
0.0
 10
221.7147848090697
 20
-191.6289734949722
 30
0.0
 10
221.8147832775372
 20
-191.6289734276522
 30
0.0
 10
221.8147832775372
 20
-191.6289734276522
 30
0.0
 10
224.7147846394386
 20
-191.6289714753567
 30
0.0
 10
224.7147846394386
 20
-191.6289714753567
 30
0.0
 10
224.7697849415051
 20
-191.6289714383307
 30
0.0
 10
224.814783077623
 20
-191.5839885004239
 30
0.0
 10
224.8147830406021
 20
-191.5289958277528
 30
0.0
 10
224.8147830406021
 20
-191.5289958277528
 30
0.0
 10
224.8147790013711
 20
-185.5289961670131
 30
0.0
 10
224.8147790013711
 20
-185.5289961670131
 30
0.0
 10
224.8147789636725
 20
-185.4729964143208
 30
0.0
 10
224.7697807676456
 20
-185.4289900994461
 30
0.0
 10
224.7147804655804
 20
-185.4289901364721
 30
0.0
 10
224.7147804655804
 20
-185.4289901364721
 30
0.0
 10
221.8147791036777
 20
-185.4289920887677
 30
0.0
 10
221.8147791036777
 20
-185.4289920887677
 30
0.0
 10
221.7147806352102
 20
-185.4289921560877
 30
0.0
 10
221.8147791710022
 20
-185.5289981866293
 30
0.0
 10
221.8147791036777
 20
-185.4289920887677
 30
0.0
 10
221.8147791036777
 20
-185.4289920887677
 30
0.0
 10
221.8147751990763
 20
-179.6289741061741
 30
0.0
 10
221.8147751990763
 20
-179.6289741061741
 30
0.0
 10
221.8147751317711
 20
-179.5289985258896
 30
0.0
 10
221.7147767306088
 20
-179.6289741734941
 30
0.0
 10
221.8147751990763
 20
-179.6289741061741
 30
0.0
 10
221.8147751990763
 20
-179.6289741061741
 30
0.0
 10
224.714776560979
 20
-179.6289721538786
 30
0.0
 10
224.714776560979
 20
-179.6289721538786
 30
0.0
 10
224.7697768630443
 20
-179.6289721168525
 30
0.0
 10
224.8147749991622
 20
-179.5839891789471
 30
0.0
 10
224.8147749621413
 20
-179.5289965062747
 30
0.0
 10
224.8147749621413
 20
-179.5289965062747
 30
0.0
 10
224.8186264793058
 20
-176.111903051152
 30
0.0
 10
224.8186264793058
 20
-176.111903051152
 30
0.0
 10
224.8186264793058
 20
-176.111903051152
 30
0.0
 10
224.8186244596903
 20
-173.1119032207831
 30
0.0
 10
224.8186244596903
 20
-173.1119032207831
 30
0.0
 10
224.8186244219918
 20
-173.0559034680902
 30
0.0
 10
224.7736262259648
 20
-173.0118971532148
 30
0.0
 10
224.7186259238996
 20
-173.0118971902415
 30
0.0
 10
224.7186259238996
 20
-173.0118971902415
 30
0.0
 10
221.7186260935294
 20
-173.0118992098564
 30
0.0
 10
221.7186260935294
 20
-173.0118992098564
 30
0.0
 10
221.7186260935294
 20
-173.0118992098564
 30
0.0
 10
167.7186291468785
 20
-173.0119355629303
 30
0.0
 10
167.7186291468785
 20
-173.0119355629303
 30
0.0
 10
167.7186291468785
 20
-173.0119355629303
 30
0.0
 10
164.718629316509
 20
-173.0119375825446
 30
0.0
 10
164.718629316509
 20
-173.0119375825446
 30
0.0
 10
164.6636290144431
 20
-173.0119376195719
 30
0.0
 10
164.6186308776674
 20
-173.0559439950325
 30
0.0
 10
164.6186309153666
 20
-173.1119437477261
 30
0.0
 10
164.6186309153666
 20
-173.1119437477261
 30
0.0
 10
164.6186329349815
 20
-176.111943578095
 30
0.0
 10
164.6186329349815
 20
-176.111943578095
 30
0.0
  0
ENDBLK
  5
B4
330
B1
100
AcDbEntity
  8
0
100
AcDbBlockEnd
  0
BLOCK
  5
BF
330
BD
100
AcDbEntity
  8
0
100
AcDbBlockBegin
  2
block 19
 70
     0
 10
0.0
 20
0.0
 30
0.0
  3
block 19
  1

  0
INSERT
  5
C2
330
BD
100
AcDbEntity
  8
Layer 1
100
AcDbBlockReference
  2
block 20
 10
0.0
 20
0.0
 30
0.0
  0
MTEXT
  5
C6
330
BD
100
AcDbEntity
  8
Layer 1
 62
   250
420
  1842203
100
AcDbMText
 10
173.3878527101863
 20
-96.59478761589308
 30
0.0
 40
4.246033332271825
 41
0.0
 46
0.0
 71
     7
 72
     1
  1
\fFFF Forward|b0|i0|c0|p34;\W1;STACKER
 73
     1
 44
1.0
  0
ENDBLK
  5
C0
330
BD
100
AcDbEntity
  8
0
100
AcDbBlockEnd
  0
BLOCK
  5
C3
330
C1
100
AcDbEntity
  8
0
100
AcDbBlockBegin
  2
block 20
 70
     0
 10
0.0
 20
0.0
 30
0.0
  3
block 20
  1

  0
SPLINE
  5
C5
330
C1
100
AcDbEntity
  8
Layer 1
 62
   178
420
        1
370
    20
100
AcDbSpline
210
0.0
220
0.0
230
1.0
 70
    11
 71
     3
 72
   185
 73
   181
 74
     0
 42
0.0000000001
 43
0.0000000001
 12
1.0
 22
0.0
 32
0.0
 13
1.0
 23
0.0
 33
0.0
 40
0.0
 40
0.0
 40
0.0
 40
0.0
 40
1.0
 40
1.0
 40
1.0
 40
2.0
 40
2.0
 40
2.0
 40
3.0
 40
3.0
 40
3.0
 40
4.0
 40
4.0
 40
4.0
 40
5.0
 40
5.0
 40
5.0
 40
6.0
 40
6.0
 40
6.0
 40
7.0
 40
7.0
 40
7.0
 40
8.0
 40
8.0
 40
8.0
 40
9.0
 40
9.0
 40
9.0
 40
10.0
 40
10.0
 40
10.0
 40
11.0
 40
11.0
 40
11.0
 40
12.0
 40
12.0
 40
12.0
 40
13.0
 40
13.0
 40
13.0
 40
14.0
 40
14.0
 40
14.0
 40
15.0
 40
15.0
 40
15.0
 40
16.0
 40
16.0
 40
16.0
 40
17.0
 40
17.0
 40
17.0
 40
18.0
 40
18.0
 40
18.0
 40
19.0
 40
19.0
 40
19.0
 40
20.0
 40
20.0
 40
20.0
 40
21.0
 40
21.0
 40
21.0
 40
22.0
 40
22.0
 40
22.0
 40
23.0
 40
23.0
 40
23.0
 40
24.0
 40
24.0
 40
24.0
 40
25.0
 40
25.0
 40
25.0
 40
26.0
 40
26.0
 40
26.0
 40
27.0
 40
27.0
 40
27.0
 40
28.0
 40
28.0
 40
28.0
 40
29.0
 40
29.0
 40
29.0
 40
30.0
 40
30.0
 40
30.0
 40
31.0
 40
31.0
 40
31.0
 40
32.0
 40
32.0
 40
32.0
 40
33.0
 40
33.0
 40
33.0
 40
34.0
 40
34.0
 40
34.0
 40
35.0
 40
35.0
 40
35.0
 40
36.0
 40
36.0
 40
36.0
 40
37.0
 40
37.0
 40
37.0
 40
38.0
 40
38.0
 40
38.0
 40
39.0
 40
39.0
 40
39.0
 40
40.0
 40
40.0
 40
40.0
 40
41.0
 40
41.0
 40
41.0
 40
42.0
 40
42.0
 40
42.0
 40
43.0
 40
43.0
 40
43.0
 40
44.0
 40
44.0
 40
44.0
 40
45.0
 40
45.0
 40
45.0
 40
46.0
 40
46.0
 40
46.0
 40
47.0
 40
47.0
 40
47.0
 40
48.0
 40
48.0
 40
48.0
 40
49.0
 40
49.0
 40
49.0
 40
50.0
 40
50.0
 40
50.0
 40
51.0
 40
51.0
 40
51.0
 40
52.0
 40
52.0
 40
52.0
 40
53.0
 40
53.0
 40
53.0
 40
54.0
 40
54.0
 40
54.0
 40
55.0
 40
55.0
 40
55.0
 40
56.0
 40
56.0
 40
56.0
 40
57.0
 40
57.0
 40
57.0
 40
58.0
 40
58.0
 40
58.0
 40
59.0
 40
59.0
 40
59.0
 40
60.0
 40
60.0
 40
60.0
 40
60.0
 10
164.6167071763931
 20
-83.67847381252344
 30
0.0
 10
164.6167071763931
 20
-83.67847381252344
 30
0.0
 10
164.6167071763931
 20
-88.7144690111702
 30
0.0
 10
164.6167071763931
 20
-88.7144690111702
 30
0.0
 10
164.6167071763931
 20
-88.76947694263018
 30
0.0
 10
164.6617053427941
 20
-88.81447510903115
 30
0.0
 10
164.71670564486
 20
-88.81447510903115
 30
0.0
 10
164.71670564486
 20
-88.81447510903115
 30
0.0
 10
167.6167070067633
 20
-88.81447510903115
 30
0.0
 10
167.6167070067633
 20
-88.81447510903115
 30
0.0
 10
167.7167054752302
 20
-88.81447510903115
 30
0.0
 10
167.6167070067633
 20
-88.7144690111702
 30
0.0
 10
167.6167070067633
 20
-88.81447510903115
 30
0.0
 10
167.6167070067633
 20
-88.81447510903115
 30
0.0
 10
167.6167070067633
 20
-94.61447783283778
 30
0.0
 10
167.6167070067633
 20
-94.61447783283778
 30
0.0
 10
167.6167070067633
 20
-94.71446867191054
 30
0.0
 10
167.7167054752302
 20
-94.61447783283778
 30
0.0
 10
167.6167070067633
 20
-94.61447783283778
 30
0.0
 10
167.6167070067633
 20
-94.61447783283778
 30
0.0
 10
164.71670564486
 20
-94.61447783283778
 30
0.0
 10
164.71670564486
 20
-94.61447783283778
 30
0.0
 10
164.6617053427941
 20
-94.61447783283778
 30
0.0
 10
164.6167071763931
 20
-94.65947599923875
 30
0.0
 10
164.6167071763931
 20
-94.71446867191054
 30
0.0
 10
164.6167071763931
 20
-94.71446867191054
 30
0.0
 10
164.6167071763931
 20
-99.75047912934549
 30
0.0
 10
164.6167071763931
 20
-99.75047912934549
 30
0.0
 10
164.6167071763931
 20
-99.80547180201728
 30
0.0
 10
164.6617053427941
 20
-99.85046996841825
 30
0.0
 10
164.71670564486
 20
-99.85046996841825
 30
0.0
 10
164.71670564486
 20
-99.85046996841825
 30
0.0
 10
167.7167054752302
 20
-99.85046996841825
 30
0.0
 10
167.7167054752302
 20
-99.85046996841825
 30
0.0
 10
167.7167054752302
 20
-99.85046996841825
 30
0.0
 10
221.7167005145452
 20
-99.85046996841825
 30
0.0
 10
221.7167005145452
 20
-99.85046996841825
 30
0.0
 10
221.7167005145452
 20
-99.85046996841825
 30
0.0
 10
224.7167003449154
 20
-99.85046996841825
 30
0.0
 10
224.7167003449154
 20
-99.85046996841825
 30
0.0
 10
224.7717006469806
 20
-99.85046996841825
 30
0.0
 10
224.8167007207306
 20
-99.80547180201728
 30
0.0
 10
224.8167007207306
 20
-99.75047912934549
 30
0.0
 10
224.8167007207306
 20
-99.75047912934549
 30
0.0
 10
224.8167007207306
 20
-94.71446867191054
 30
0.0
 10
224.8167007207306
 20
-94.71446867191054
 30
0.0
 10
224.8167007207306
 20
-94.65947599923875
 30
0.0
 10
224.7717006469806
 20
-94.61447783283778
 30
0.0
 10
224.7167003449154
 20
-94.61447783283778
 30
0.0
 10
224.7167003449154
 20
-94.61447783283778
 30
0.0
 10
221.8167008903604
 20
-94.61447783283778
 30
0.0
 10
221.8167008903604
 20
-94.61447783283778
 30
0.0
 10
221.7167005145452
 20
-94.61447783283778
 30
0.0
 10
221.8167008903604
 20
-94.71446867191054
 30
0.0
 10
221.8167008903604
 20
-94.61447783283778
 30
0.0
 10
221.8167008903604
 20
-94.61447783283778
 30
0.0
 10
221.8167008903604
 20
-88.81447510903115
 30
0.0
 10
221.8167008903604
 20
-88.81447510903115
 30
0.0
 10
221.8167008903604
 20
-88.7144690111702
 30
0.0
 10
221.7167005145452
 20
-88.81447510903115
 30
0.0
 10
221.8167008903604
 20
-88.81447510903115
 30
0.0
 10
221.8167008903604
 20
-88.81447510903115
 30
0.0
 10
224.7167003449154
 20
-88.81447510903115
 30
0.0
 10
224.7167003449154
 20
-88.81447510903115
 30
0.0
 10
224.7717006469806
 20
-88.81447510903115
 30
0.0
 10
224.8167007207306
 20
-88.76947694263018
 30
0.0
 10
224.8167007207306
 20
-88.7144690111702
 30
0.0
 10
224.8167007207306
 20
-88.7144690111702
 30
0.0
 10
224.8167007207306
 20
-83.67847381252344
 30
0.0
 10
224.8167007207306
 20
-83.67847381252344
 30
0.0
 10
224.8167007207306
 20
-83.62348113985165
 30
0.0
 10
224.7717006469806
 20
-83.57846771466248
 30
0.0
 10
224.7167003449154
 20
-83.57846771466248
 30
0.0
 10
224.7167003449154
 20
-83.57846771466248
 30
0.0
 10
221.7167005145452
 20
-83.57846771466248
 30
0.0
 10
221.7167005145452
 20
-83.57846771466248
 30
0.0
 10
221.7167005145452
 20
-83.57846771466248
 30
0.0
 10
215.7167008538049
 20
-83.57846771466248
 30
0.0
 10
215.7167008538049
 20
-83.57846771466248
 30
0.0
 10
215.6617005517383
 20
-83.57846771466248
 30
0.0
 10
215.6167004779884
 20
-83.62348113985165
 30
0.0
 10
215.6167004779884
 20
-83.67847381252344
 30
0.0
 10
215.6167004779884
 20
-83.67847381252344
 30
0.0
 10
215.6167004779884
 20
-86.57846754503265
 30
0.0
 10
215.6167004779884
 20
-86.57846754503265
 30
0.0
 10
215.6167004779884
 20
-86.67847364289361
 30
0.0
 10
215.7167008538049
 20
-86.57846754503265
 30
0.0
 10
215.6167004779884
 20
-86.57846754503265
 30
0.0
 10
215.6167004779884
 20
-86.57846754503265
 30
0.0
 10
209.8167015688794
 20
-86.57846754503265
 30
0.0
 10
209.8167015688794
 20
-86.57846754503265
 30
0.0
 10
209.7167011930642
 20
-86.57846754503265
 30
0.0
 10
209.8167015688794
 20
-86.67847364289361
 30
0.0
 10
209.8167015688794
 20
-86.57846754503265
 30
0.0
 10
209.8167015688794
 20
-86.57846754503265
 30
0.0
 10
209.8167015688794
 20
-83.67847381252344
 30
0.0
 10
209.8167015688794
 20
-83.67847381252344
 30
0.0
 10
209.8167015688794
 20
-83.62348113985165
 30
0.0
 10
209.7717014951301
 20
-83.57846771466248
 30
0.0
 10
209.7167011930642
 20
-83.57846771466248
 30
0.0
 10
209.7167011930642
 20
-83.57846771466248
 30
0.0
 10
203.7167015323239
 20
-83.57846771466248
 30
0.0
 10
203.7167015323239
 20
-83.57846771466248
 30
0.0
 10
203.661701230258
 20
-83.57846771466248
 30
0.0
 10
203.616701156508
 20
-83.62348113985165
 30
0.0
 10
203.616701156508
 20
-83.67847381252344
 30
0.0
 10
203.616701156508
 20
-83.67847381252344
 30
0.0
 10
203.616701156508
 20
-86.57846754503265
 30
0.0
 10
203.616701156508
 20
-86.57846754503265
 30
0.0
 10
203.616701156508
 20
-86.67847364289361
 30
0.0
 10
203.7167015323239
 20
-86.57846754503265
 30
0.0
 10
203.616701156508
 20
-86.57846754503265
 30
0.0
 10
203.616701156508
 20
-86.57846754503265
 30
0.0
 10
197.8167022473987
 20
-86.57846754503265
 30
0.0
 10
197.8167022473987
 20
-86.57846754503265
 30
0.0
 10
197.7167037789319
 20
-86.57846754503265
 30
0.0
 10
197.8167022473987
 20
-86.67847364289361
 30
0.0
 10
197.8167022473987
 20
-86.57846754503265
 30
0.0
 10
197.8167022473987
 20
-86.57846754503265
 30
0.0
 10
197.8167022473987
 20
-83.67847381252344
 30
0.0
 10
197.8167022473987
 20
-83.67847381252344
 30
0.0
 10
197.8167022473987
 20
-83.62348113985165
 30
0.0
 10
197.7717040809978
 20
-83.57846771466248
 30
0.0
 10
197.7167037789319
 20
-83.57846771466248
 30
0.0
 10
197.7167037789319
 20
-83.57846771466248
 30
0.0
 10
191.7167041181915
 20
-83.57846771466248
 30
0.0
 10
191.7167041181915
 20
-83.57846771466248
 30
0.0
 10
191.6617038161257
 20
-83.57846771466248
 30
0.0
 10
191.6167018350273
 20
-83.62348113985165
 30
0.0
 10
191.6167018350273
 20
-83.67847381252344
 30
0.0
 10
191.6167018350273
 20
-83.67847381252344
 30
0.0
 10
191.6167018350273
 20
-86.57846754503265
 30
0.0
 10
191.6167018350273
 20
-86.57846754503265
 30
0.0
 10
191.6167018350273
 20
-86.67847364289361
 30
0.0
 10
191.7167041181915
 20
-86.57846754503265
 30
0.0
 10
191.6167018350273
 20
-86.57846754503265
 30
0.0
 10
191.6167018350273
 20
-86.57846754503265
 30
0.0
 10
185.816702925918
 20
-86.57846754503265
 30
0.0
 10
185.816702925918
 20
-86.57846754503265
 30
0.0
 10
185.7167044574512
 20
-86.57846754503265
 30
0.0
 10
185.816702925918
 20
-86.67847364289361
 30
0.0
 10
185.816702925918
 20
-86.57846754503265
 30
0.0
 10
185.816702925918
 20
-86.57846754503265
 30
0.0
 10
185.816702925918
 20
-83.67847381252344
 30
0.0
 10
185.816702925918
 20
-83.67847381252344
 30
0.0
 10
185.816702925918
 20
-83.62348113985165
 30
0.0
 10
185.7717047595171
 20
-83.57846771466248
 30
0.0
 10
185.7167044574512
 20
-83.57846771466248
 30
0.0
 10
185.7167044574512
 20
-83.57846771466248
 30
0.0
 10
179.7167047967108
 20
-83.57846771466248
 30
0.0
 10
179.7167047967108
 20
-83.57846771466248
 30
0.0
 10
179.661704494645
 20
-83.57846771466248
 30
0.0
 10
179.6167025135473
 20
-83.62348113985165
 30
0.0
 10
179.6167025135473
 20
-83.67847381252344
 30
0.0
 10
179.6167025135473
 20
-83.67847381252344
 30
0.0
 10
179.6167025135473
 20
-86.57846754503265
 30
0.0
 10
179.6167025135473
 20
-86.57846754503265
 30
0.0
 10
179.6167025135473
 20
-86.67847364289361
 30
0.0
 10
179.7167047967108
 20
-86.57846754503265
 30
0.0
 10
179.6167025135473
 20
-86.57846754503265
 30
0.0
 10
179.6167025135473
 20
-86.57846754503265
 30
0.0
 10
173.8167036044374
 20
-86.57846754503265
 30
0.0
 10
173.8167036044374
 20
-86.57846754503265
 30
0.0
 10
173.7167051359705
 20
-86.57846754503265
 30
0.0
 10
173.8167036044374
 20
-86.67847364289361
 30
0.0
 10
173.8167036044374
 20
-86.57846754503265
 30
0.0
 10
173.8167036044374
 20
-86.57846754503265
 30
0.0
 10
173.8167036044374
 20
-83.67847381252344
 30
0.0
 10
173.8167036044374
 20
-83.67847381252344
 30
0.0
 10
173.8167036044374
 20
-83.62348113985165
 30
0.0
 10
173.7717054380364
 20
-83.57846771466248
 30
0.0
 10
173.7167051359705
 20
-83.57846771466248
 30
0.0
 10
173.7167051359705
 20
-83.57846771466248
 30
0.0
 10
167.7167054752302
 20
-83.57846771466248
 30
0.0
 10
167.7167054752302
 20
-83.57846771466248
 30
0.0
 10
167.7167054752302
 20
-83.57846771466248
 30
0.0
 10
164.71670564486
 20
-83.57846771466248
 30
0.0
 10
164.71670564486
 20
-83.57846771466248
 30
0.0
 10
164.6617053427941
 20
-83.57846771466248
 30
0.0
 10
164.6167071763931
 20
-83.62348113985165
 30
0.0
 10
164.6167071763931
 20
-83.67847381252344
 30
0.0
  0
ENDBLK
  5
C4
330
C1
100
AcDbEntity
  8
0
100
AcDbBlockEnd
  0
ENDSEC
  0
SECTION
  2
ENTITIES
  0
INSERT
  5
42
330
1F
100
AcDbEntity
  8
Layer 1
100
AcDbBlockReference
  2
block 2
 10
0.0
 20
0.0
 30
0.0
  0
INSERT
  5
47
330
1F
100
AcDbEntity
  8
Layer 1
100
AcDbBlockReference
  2
block 3
 10
0.0
 20
0.0
 30
0.0
  0
INSERT
  5
50
330
1F
100
AcDbEntity
  8
Layer 1
100
AcDbBlockReference
  2
block 4
 10
0.0
 20
0.0
 30
0.0
  0
INSERT
  5
55
330
1F
100
AcDbEntity
  8
Layer 1
100
AcDbBlockReference
  2
block 5
 10
0.0
 20
0.0
 30
0.0
  0
INSERT
  5
71
330
1F
100
AcDbEntity
  8
Layer 1
100
AcDbBlockReference
  2
block 9
 10
0.0
 20
0.0
 30
0.0
  0
INSERT
  5
7D
330
1F
100
AcDbEntity
  8
Layer 1
100
AcDbBlockReference
  2
block 10
 10
0.0
 20
0.0
 30
0.0
  0
INSERT
  5
82
330
1F
100
AcDbEntity
  8
Layer 1
100
AcDbBlockReference
  2
block 11
 10
0.0
 20
0.0
 30
0.0
  0
INSERT
  5
9E
330
1F
100
AcDbEntity
  8
Layer 1
100
AcDbBlockReference
  2
block 15
 10
0.0
 20
0.0
 30
0.0
  0
INSERT
  5
AE
330
1F
100
AcDbEntity
  8
Layer 1
100
AcDbBlockReference
  2
block 17
 10
0.0
 20
0.0
 30
0.0
  0
INSERT
  5
BE
330
1F
100
AcDbEntity
  8
Layer 1
100
AcDbBlockReference
  2
block 19
 10
0.0
 20
0.0
 30
0.0
  0
ENDSEC
  0
SECTION
  2
OBJECTS
  0
DICTIONARY
  5
C
330
0
100
AcDbDictionary
281
     1
  3
ACAD_GROUP
350
D
  3
ACAD_LAYOUT
350
1A
  3
ACAD_MATERIAL
350
3B
  3
ACAD_MLEADERSTYLE
350
C8
  3
ACAD_MLINESTYLE
350
17
  3
ACAD_PLOTSETTINGS
350
19
  3
ACAD_PLOTSTYLENAME
350
E
  3
ACAD_TABLESTYLE
350
C7
  3
ACAD_VISUALSTYLE
350
2A
  0
SUN
  5
3F
330
29
100
AcDbSun
 90
        1
290
     0
 63
     7
421
 16777215
 40
1.0
291
     1
 91
  2455826
 92
 54000000
292
     0
 70
     2
 71
   256
280
     1
  0
DICTIONARY
  5
D
102
{ACAD_REACTORS
330
C
102
}
330
C
100
AcDbDictionary
281
     1
  0
DICTIONARY
  5
1A
102
{ACAD_REACTORS
330
C
102
}
330
C
100
AcDbDictionary
281
     1
  3
Layout1
350
1E
  3
Layout2
350
26
  3
Model
350
22
  0
DICTIONARY
  5
3B
102
{ACAD_REACTORS
330
C
102
}
330
C
100
AcDbDictionary
281
     1
  3
ByBlock
350
3D
  3
ByLayer
350
3C
  3
Global
350
3E
  0
DICTIONARY
  5
C8
102
{ACAD_REACTORS
330
C
102
}
330
C
100
AcDbDictionary
281
     1
  0
DICTIONARY
  5
17
102
{ACAD_REACTORS
330
C
102
}
330
C
100
AcDbDictionary
281
     1
  3
Standard
350
18
  0
DICTIONARY
  5
19
102
{ACAD_REACTORS
330
C
102
}
330
C
100
AcDbDictionary
281
     1
  0
ACDBDICTIONARYWDFLT
  5
E
102
{ACAD_REACTORS
330
C
102
}
330
C
100
AcDbDictionary
281
     1
  3
Normal
350
F
100
AcDbDictionaryWithDefault
340
F
  0
DICTIONARY
  5
C7
102
{ACAD_REACTORS
330
C
102
}
330
C
100
AcDbDictionary
281
     1
  0
DICTIONARY
  5
2A
102
{ACAD_REACTORS
330
C
102
}
330
C
100
AcDbDictionary
281
     1
  3
2dWireframe
350
2F
  3
3D Hidden
350
31
  3
3dWireframe
350
30
  3
Basic
350
32
  3
Brighten
350
36
  3
ColorChange
350
3A
  3
Conceptual
350
34
  3
Dim
350
35
  3
Facepattern
350
39
  3
Flat
350
2B
  3
FlatWithEdges
350
2C
  3
Gouraud
350
2D
  3
GouraudWithEdges
350
2E
  3
Linepattern
350
38
  3
Realistic
350
33
  3
Thicken
350
37
  0
LAYOUT
  5
1E
102
{ACAD_REACTORS
330
1A
102
}
330
1A
100
AcDbPlotSettings
  1

  2
none_device
  4

  6

 40
0.0
 41
0.0
 42
0.0
 43
0.0
 44
0.0
 45
0.0
 46
0.0
 47
0.0
 48
0.0
 49
0.0
140
0.0
141
0.0
142
1.0
143
1.0
 70
   688
 72
     0
 73
     0
 74
     5
  7

 75
    16
 76
     0
 77
     2
 78
   300
147
1.0
148
0.0
149
0.0
100
AcDbLayout
  1
Layout1
 70
     1
 71
     1
 10
0.0
 20
0.0
 11
12.0
 21
9.0
 12
0.0
 22
0.0
 32
0.0
 14
1.000000000000000E+20
 24
1.000000000000000E+20
 34
1.000000000000000E+20
 15
-1.000000000000000E+20
 25
-1.000000000000000E+20
 35
-1.000000000000000E+20
146
0.0
 13
0.0
 23
0.0
 33
0.0
 16
1.0
 26
0.0
 36
0.0
 17
0.0
 27
1.0
 37
0.0
 76
     0
330
1B
  0
LAYOUT
  5
26
102
{ACAD_REACTORS
330
1A
102
}
330
1A
100
AcDbPlotSettings
  1

  2
none_device
  4

  6

 40
0.0
 41
0.0
 42
0.0
 43
0.0
 44
0.0
 45
0.0
 46
0.0
 47
0.0
 48
0.0
 49
0.0
140
0.0
141
0.0
142
1.0
143
1.0
 70
   688
 72
     0
 73
     0
 74
     5
  7

 75
    16
 76
     0
 77
     2
 78
   300
147
1.0
148
0.0
149
0.0
100
AcDbLayout
  1
Layout2
 70
     1
 71
     2
 10
0.0
 20
0.0
 11
0.0
 21
0.0
 12
0.0
 22
0.0
 32
0.0
 14
0.0
 24
0.0
 34
0.0
 15
0.0
 25
0.0
 35
0.0
146
0.0
 13
0.0
 23
0.0
 33
0.0
 16
1.0
 26
0.0
 36
0.0
 17
0.0
 27
1.0
 37
0.0
 76
     0
330
23
  0
LAYOUT
  5
22
102
{ACAD_REACTORS
330
1A
102
}
330
1A
100
AcDbPlotSettings
  1

  2
none_device
  4

  6

 40
0.0
 41
0.0
 42
0.0
 43
0.0
 44
0.0
 45
0.0
 46
0.0
 47
0.0
 48
0.0
 49
0.0
140
0.0
141
0.0
142
1.0
143
1.0
 70
  1712
 72
     0
 73
     0
 74
     0
  7

 75
     0
 76
     0
 77
     2
 78
   300
147
1.0
148
0.0
149
0.0
100
AcDbLayout
  1
Model
 70
     1
 71
     0
 10
0.0
 20
0.0
 11
12.0
 21
9.0
 12
0.0
 22
0.0
 32
0.0
 14
1.000000000000000E+20
 24
1.000000000000000E+20
 34
1.000000000000000E+20
 15
-1.000000000000000E+20
 25
-1.000000000000000E+20
 35
-1.000000000000000E+20
146
0.0
 13
0.0
 23
0.0
 33
0.0
 16
1.0
 26
0.0
 36
0.0
 17
0.0
 27
1.0
 37
0.0
 76
     0
330
1F
331
29
  0
MATERIAL
  5
3D
102
{ACAD_REACTORS
330
3B
102
}
330
3B
100
AcDbMaterial
  1
ByBlock
 72
     1
 94
      127
  0
MATERIAL
  5
3C
102
{ACAD_REACTORS
330
3B
102
}
330
3B
100
AcDbMaterial
  1
ByLayer
 72
     1
 94
      127
  0
MATERIAL
  5
3E
102
{ACAD_REACTORS
330
3B
102
}
330
3B
100
AcDbMaterial
  1
Global
 72
     1
 94
      127
  0
MLINESTYLE
  5
18
102
{ACAD_REACTORS
330
17
102
}
330
17
100
AcDbMlineStyle
  2
Standard
 70
     0
  3

 62
   256
 51
90.0
 52
90.0
 71
     2
 49
0.5
 62
   256
  6
BYLAYER
 49
-0.5
 62
   256
  6
BYLAYER
  0
ACDBPLACEHOLDER
  5
F
102
{ACAD_REACTORS
330
E
102
}
330
E
  0
VISUALSTYLE
  5
2F
102
{ACAD_REACTORS
330
2A
102
}
330
2A
100
AcDbVisualStyle
  2
2dWireframe
 70
     4
177
     2
291
     0
 71
     0
176
     1
 72
     2
176
     1
 73
     0
176
     1
 90
        0
176
     1
 40
-0.6
176
     1
 41
-30.0
176
     1
 62
     5
 63
     7
421
 16777215
176
     1
 74
     1
176
     1
 91
        4
176
     1
 64
     7
176
     1
 65
   257
176
     1
 75
     1
176
     1
175
     1
176
     1
 42
1.0
176
     1
 92
        0
176
     1
 66
   257
176
     1
 43
1.0
176
     1
 76
     1
176
     1
 77
     6
176
     1
 78
     2
176
     1
 67
     7
176
     1
 79
     5
176
     1
170
     0
176
     1
171
     0
176
     1
290
     0
176
     1
 93
        1
176
     1
 44
0.0
176
     1
173
     0
176
     1
  0
VISUALSTYLE
  5
31
102
{ACAD_REACTORS
330
2A
102
}
330
2A
100
AcDbVisualStyle
  2
3D Hidden
 70
     6
177
     2
291
     0
 71
     1
176
     1
 72
     2
176
     1
 73
     2
176
     1
 90
        0
176
     1
 40
-0.6
176
     1
 41
-30.0
176
     1
 62
     5
 63
     7
421
 16777215
176
     1
 74
     2
176
     1
 91
        2
176
     1
 64
     7
176
     1
 65
   257
176
     1
 75
     2
176
     1
175
     1
176
     1
 42
40.0
176
     1
 92
        0
176
     1
 66
   257
176
     1
 43
1.0
176
     1
 76
     1
176
     1
 77
     6
176
     1
 78
     2
176
     1
 67
     7
176
     1
 79
     3
176
     1
170
     0
176
     1
171
     0
176
     1
290
     0
176
     1
 93
        1
176
     1
 44
0.0
176
     1
173
     0
176
     1
  0
VISUALSTYLE
  5
30
102
{ACAD_REACTORS
330
2A
102
}
330
2A
100
AcDbVisualStyle
  2
3dWireframe
 70
     5
177
     2
291
     0
 71
     0
176
     1
 72
     2
176
     1
 73
     0
176
     1
 90
        0
176
     1
 40
-0.6
176
     1
 41
-30.0
176
     1
 62
     5
 63
     7
421
 16777215
176
     1
 74
     1
176
     1
 91
        4
176
     1
 64
     7
176
     1
 65
   257
176
     1
 75
     1
176
     1
175
     1
176
     1
 42
1.0
176
     1
 92
        0
176
     1
 66
   257
176
     1
 43
1.0
176
     1
 76
     1
176
     1
 77
     6
176
     1
 78
     2
176
     1
 67
     7
176
     1
 79
     5
176
     1
170
     0
176
     1
171
     0
176
     1
290
     0
176
     1
 93
        1
176
     1
 44
0.0
176
     1
173
     0
176
     1
  0
VISUALSTYLE
  5
32
102
{ACAD_REACTORS
330
2A
102
}
330
2A
100
AcDbVisualStyle
  2
Basic
 70
     7
177
     2
291
     1
 71
     1
176
     1
 72
     0
176
     1
 73
     1
176
     1
 90
        0
176
     1
 40
-0.6
176
     1
 41
-30.0
176
     1
 62
     5
 63
     7
421
 16777215
176
     1
 74
     0
176
     1
 91
        4
176
     1
 64
     7
176
     1
 65
   257
176
     1
 75
     1
176
     1
175
     1
176
     1
 42
1.0
176
     1
 92
        8
176
     1
 66
     7
176
     1
 43
1.0
176
     1
 76
     1
176
     1
 77
     6
176
     1
 78
     2
176
     1
 67
     7
176
     1
 79
     5
176
     1
170
     0
176
     1
171
     0
176
     1
290
     0
176
     1
 93
        1
176
     1
 44
0.0
176
     1
173
     0
176
     1
  0
VISUALSTYLE
  5
36
102
{ACAD_REACTORS
330
2A
102
}
330
2A
100
AcDbVisualStyle
  2
Brighten
 70
    12
177
     2
291
     1
 71
     2
176
     1
 72
     2
176
     1
 73
     0
176
     1
 90
        0
176
     1
 40
-0.6
176
     1
 41
-30.0
176
     1
 62
     5
 63
     7
421
 16777215
176
     1
 74
     1
176
     1
 91
        4
176
     1
 64
     7
176
     1
 65
   257
176
     1
 75
     1
176
     1
175
     1
176
     1
 42
1.0
176
     1
 92
        8
176
     1
 66
     7
176
     1
 43
1.0
176
     1
 76
     1
176
     1
 77
     6
176
     1
 78
     2
176
     1
 67
     7
176
     1
 79
     5
176
     1
170
     0
176
     1
171
     0
176
     1
290
     0
176
     1
 93
        1
176
     1
 44
50.0
176
     1
173
     0
176
     1
  0
VISUALSTYLE
  5
3A
102
{ACAD_REACTORS
330
2A
102
}
330
2A
100
AcDbVisualStyle
  2
ColorChange
 70
    16
177
     2
291
     1
 71
     2
176
     1
 72
     2
176
     1
 73
     3
176
     1
 90
        0
176
     1
 40
-0.6
176
     1
 41
-30.0
176
     1
 62
     5
 63
     8
421
  8421504
176
     1
 74
     1
176
     1
 91
        4
176
     1
 64
     7
176
     1
 65
   257
176
     1
 75
     1
176
     1
175
     1
176
     1
 42
1.0
176
     1
 92
        8
176
     1
 66
     8
424
  8421504
176
     1
 43
1.0
176
     1
 76
     1
176
     1
 77
     6
176
     1
 78
     2
176
     1
 67
     7
176
     1
 79
     5
176
     1
170
     0
176
     1
171
     0
176
     1
290
     0
176
     1
 93
        1
176
     1
 44
0.0
176
     1
173
     0
176
     1
  0
VISUALSTYLE
  5
34
102
{ACAD_REACTORS
330
2A
102
}
330
2A
100
AcDbVisualStyle
  2
Conceptual
 70
     9
177
     2
291
     0
 71
     3
176
     1
 72
     2
176
     1
 73
     0
176
     1
 90
        0
176
     1
 40
-0.6
176
     1
 41
-30.0
176
     1
 62
     5
 63
     7
421
 16777215
176
     1
 74
     2
176
     1
 91
        2
176
     1
 64
     7
176
     1
 65
   257
176
     1
 75
     1
176
     1
175
     1
176
     1
 42
40.0
176
     1
 92
        8
176
     1
 66
     7
176
     1
 43
1.0
176
     1
 76
     1
176
     1
 77
     6
176
     1
 78
     2
176
     1
 67
     7
176
     1
 79
     3
176
     1
170
     0
176
     1
171
     0
176
     1
290
     0
176
     1
 93
        1
176
     1
 44
0.0
176
     1
173
     0
176
     1
  0
VISUALSTYLE
  5
35
102
{ACAD_REACTORS
330
2A
102
}
330
2A
100
AcDbVisualStyle
  2
Dim
 70
    11
177
     2
291
     1
 71
     2
176
     1
 72
     2
176
     1
 73
     0
176
     1
 90
        0
176
     1
 40
-0.6
176
     1
 41
-30.0
176
     1
 62
     5
 63
     7
421
 16777215
176
     1
 74
     1
176
     1
 91
        4
176
     1
 64
     7
176
     1
 65
   257
176
     1
 75
     1
176
     1
175
     1
176
     1
 42
1.0
176
     1
 92
        8
176
     1
 66
     7
176
     1
 43
1.0
176
     1
 76
     1
176
     1
 77
     6
176
     1
 78
     2
176
     1
 67
     7
176
     1
 79
     5
176
     1
170
     0
176
     1
171
     0
176
     1
290
     0
176
     1
 93
        1
176
     1
 44
-50.0
176
     1
173
     0
176
     1
  0
VISUALSTYLE
  5
39
102
{ACAD_REACTORS
330
2A
102
}
330
2A
100
AcDbVisualStyle
  2
Facepattern
 70
    15
177
     2
291
     1
 71
     2
176
     1
 72
     2
176
     1
 73
     0
176
     1
 90
        0
176
     1
 40
-0.6
176
     1
 41
-30.0
176
     1
 62
     5
 63
     7
421
 16777215
176
     1
 74
     1
176
     1
 91
        4
176
     1
 64
     7
176
     1
 65
   257
176
     1
 75
     1
176
     1
175
     1
176
     1
 42
1.0
176
     1
 92
        8
176
     1
 66
     7
176
     1
 43
1.0
176
     1
 76
     1
176
     1
 77
     6
176
     1
 78
     2
176
     1
 67
     7
176
     1
 79
     5
176
     1
170
     0
176
     1
171
     0
176
     1
290
     0
176
     1
 93
        1
176
     1
 44
0.0
176
     1
173
     0
176
     1
  0
VISUALSTYLE
  5
2B
102
{ACAD_REACTORS
330
2A
102
}
330
2A
100
AcDbVisualStyle
  2
Flat
 70
     0
177
     2
291
     1
 71
     2
176
     1
 72
     1
176
     1
 73
     1
176
     1
 90
        2
176
     1
 40
-0.6
176
     1
 41
30.0
176
     1
 62
     5
 63
     7
421
 16777215
176
     1
 74
     0
176
     1
 91
        4
176
     1
 64
     7
176
     1
 65
   257
176
     1
 75
     1
176
     1
175
     1
176
     1
 42
1.0
176
     1
 92
        8
176
     1
 66
     7
176
     1
 43
1.0
176
     1
 76
     1
176
     1
 77
     6
176
     1
 78
     2
176
     1
 67
     7
176
     1
 79
     5
176
     1
170
     0
176
     1
171
     0
176
     1
290
     0
176
     1
 93
       13
176
     1
 44
0.0
176
     1
173
     0
176
     1
  0
VISUALSTYLE
  5
2C
102
{ACAD_REACTORS
330
2A
102
}
330
2A
100
AcDbVisualStyle
  2
FlatWithEdges
 70
     1
177
     2
291
     1
 71
     2
176
     1
 72
     1
176
     1
 73
     1
176
     1
 90
        2
176
     1
 40
-0.6
176
     1
 41
30.0
176
     1
 62
     5
 63
     7
421
 16777215
176
     1
 74
     1
176
     1
 91
        4
176
     1
 64
     7
176
     1
 65
   257
176
     1
 75
     1
176
     1
175
     1
176
     1
 42
1.0
176
     1
 92
        0
176
     1
 66
   257
176
     1
 43
1.0
176
     1
 76
     1
176
     1
 77
     6
176
     1
 78
     2
176
     1
 67
     7
176
     1
 79
     5
176
     1
170
     0
176
     1
171
     0
176
     1
290
     0
176
     1
 93
       13
176
     1
 44
0.0
176
     1
173
     0
176
     1
  0
VISUALSTYLE
  5
2D
102
{ACAD_REACTORS
330
2A
102
}
330
2A
100
AcDbVisualStyle
  2
Gouraud
 70
     2
177
     2
291
     1
 71
     2
176
     1
 72
     2
176
     1
 73
     1
176
     1
 90
        2
176
     1
 40
-0.6
176
     1
 41
30.0
176
     1
 62
     5
 63
     7
421
 16777215
176
     1
 74
     0
176
     1
 91
        4
176
     1
 64
     7
176
     1
 65
   257
176
     1
 75
     1
176
     1
175
     1
176
     1
 42
1.0
176
     1
 92
        0
176
     1
 66
     7
176
     1
 43
1.0
176
     1
 76
     1
176
     1
 77
     6
176
     1
 78
     2
176
     1
 67
     7
176
     1
 79
     5
176
     1
170
     0
176
     1
171
     0
176
     1
290
     0
176
     1
 93
       13
176
     1
 44
0.0
176
     1
173
     0
176
     1
  0
VISUALSTYLE
  5
2E
102
{ACAD_REACTORS
330
2A
102
}
330
2A
100
AcDbVisualStyle
  2
GouraudWithEdges
 70
     3
177
     2
291
     1
 71
     2
176
     1
 72
     2
176
     1
 73
     1
176
     1
 90
        2
176
     1
 40
-0.6
176
     1
 41
30.0
176
     1
 62
     5
 63
     7
421
 16777215
176
     1
 74
     1
176
     1
 91
        4
176
     1
 64
     7
176
     1
 65
   257
176
     1
 75
     1
176
     1
175
     1
176
     1
 42
1.0
176
     1
 92
        0
176
     1
 66
   257
176
     1
 43
1.0
176
     1
 76
     1
176
     1
 77
     6
176
     1
 78
     2
176
     1
 67
     7
176
     1
 79
     5
176
     1
170
     0
176
     1
171
     0
176
     1
290
     0
176
     1
 93
       13
176
     1
 44
0.0
176
     1
173
     0
176
     1
  0
VISUALSTYLE
  5
38
102
{ACAD_REACTORS
330
2A
102
}
330
2A
100
AcDbVisualStyle
  2
Linepattern
 70
    14
177
     2
291
     1
 71
     2
176
     1
 72
     2
176
     1
 73
     0
176
     1
 90
        0
176
     1
 40
-0.6
176
     1
 41
-30.0
176
     1
 62
     5
 63
     7
421
 16777215
176
     1
 74
     1
176
     1
 91
        4
176
     1
 64
     7
176
     1
 65
   257
176
     1
 75
     7
176
     1
175
     7
176
     1
 42
1.0
176
     1
 92
        8
176
     1
 66
     7
176
     1
 43
1.0
176
     1
 76
     1
176
     1
 77
     6
176
     1
 78
     2
176
     1
 67
     7
176
     1
 79
     5
176
     1
170
     0
176
     1
171
     0
176
     1
290
     0
176
     1
 93
        1
176
     1
 44
0.0
176
     1
173
     0
176
     1
  0
VISUALSTYLE
  5
33
102
{ACAD_REACTORS
330
2A
102
}
330
2A
100
AcDbVisualStyle
  2
Realistic
 70
     8
177
     2
291
     0
 71
     2
176
     1
 72
     2
176
     1
 73
     0
176
     1
 90
        0
176
     1
 40
-0.6
176
     1
 41
-30.0
176
     1
 62
     5
 63
     7
421
 16777215
176
     1
 74
     1
176
     1
 91
        0
176
     1
 64
     7
176
     1
 65
   257
176
     1
 75
     1
176
     1
175
     1
176
     1
 42
1.0
176
     1
 92
        8
176
     1
 66
     8
424
  7895160
176
     1
 43
1.0
176
     1
 76
     1
176
     1
 77
     6
176
     1
 78
     2
176
     1
 67
     7
176
     1
 79
     5
176
     1
170
     0
176
     1
171
     0
176
     1
290
     0
176
     1
 93
       13
176
     1
 44
0.0
176
     1
173
     0
176
     1
  0
VISUALSTYLE
  5
37
102
{ACAD_REACTORS
330
2A
102
}
330
2A
100
AcDbVisualStyle
  2
Thicken
 70
    13
177
     2
291
     1
 71
     2
176
     1
 72
     2
176
     1
 73
     0
176
     1
 90
        0
176
     1
 40
-0.6
176
     1
 41
-30.0
176
     1
 62
     5
 63
     7
421
 16777215
176
     1
 74
     1
176
     1
 91
        4
176
     1
 64
     7
176
     1
 65
   257
176
     1
 75
     1
176
     1
175
     1
176
     1
 42
1.0
176
     1
 92
       12
176
     1
 66
     7
176
     1
 43
1.0
176
     1
 76
     1
176
     1
 77
     6
176
     1
 78
     2
176
     1
 67
     7
176
     1
 79
     5
176
     1
170
     0
176
     1
171
     0
176
     1
290
     0
176
     1
 93
        1
176
     1
 44
0.0
176
     1
173
     0
176
     1
  0
ENDSEC
  0
EOF
