0
SECTION
2
HEADER
9
$INSUNITS
70
4
9
$ACADVER
1
AC1014
9
$HANDSEED
5
FFFF
0
ENDSEC
0
SECTION
2
TABLES
0
TABLE
2
VPORT
5
8
100
AcDbSymbolTable
0
ENDTAB
0
TABLE
2
LTYPE
5
5
100
AcDbSymbolTable
0
LTYPE
5
14
100
AcDbSymbolTableRecord
100
AcDbLinetypeTableRecord
2
BYBLOCK
70
0
0
LTYPE
5
15
100
AcDbSymbolTableRecord
100
AcDbLinetypeTableRecord
2
BYLAYER
70
0
0
LTYPE
5
16
100
AcDbSymbolTableRecord
100
AcDbLinetypeTableRecord
2
DASHED
70
0
3
Dashed __ __ __ __ __ __ __ __ __ __ __ __ __ _
72
65
73
2
40
0.75
49
0.5
74
0
49
-0.25
74
0
0
ENDTAB
0
TABLE
2
LAYER
5
2
100
AcDbSymbolTable
70
2
0
LAYER
5
50
100
AcDbSymbolTableRecord
100
AcDbLayerTableRecord
2
0
70
0
62
7
6
CONTINUOUS
0
ENDTAB
0
TABLE
2
STYLE
5
3
100
AcDbSymbolTable
70
1
0
STYLE
5
11
100
AcDbSymbolTableRecord
100
AcDbTextStyleTableRecord
2
STANDARD
70
0
0
ENDTAB
0
TABLE
2
VIEW
5
6
100
AcDbSymbolTable
70
0
0
ENDTAB
0
TABLE
2
UCS
5
7
100
AcDbSymbolTable
70
0
0
ENDTAB
0
TABLE
2
APPID
5
9
100
AcDbSymbolTable
70
2
0
APPID
5
12
100
AcDbSymbolTableRecord
100
AcDbRegAppTableRecord
2
ACAD
70
0
0
ENDTAB
0
TABLE
2
DIMSTYLE
5
A
100
AcDbSymbolTable
70
1
0
ENDTAB
0
TABLE
2
BLOCK_RECORD
5
1
100
AcDbSymbolTable
70
1
0
BLOCK_RECORD
5
1F
100
AcDbSymbolTableRecord
100
AcDbBlockTableRecord
2
*MODEL_SPACE
0
BLOCK_RECORD
5
1B
100
AcDbSymbolTableRecord
100
AcDbBlockTableRecord
2
*PAPER_SPACE
0
ENDTAB
0
ENDSEC
0
SECTION
2
BLOCKS
0
BLOCK
5
20
100
AcDbEntity
100
AcDbBlockBegin
2
*MODEL_SPACE
0
ENDBLK
5
21
100
AcDbEntity
100
AcDbBlockEnd
0
BLOCK
5
1C
100
AcDbEntity
100
AcDbBlockBegin
2
*PAPER_SPACE
0
ENDBLK
5
1D
100
AcDbEntity
100
AcDbBlockEnd
0
ENDSEC
0
SECTION
2
ENTITIES
0
CIRCLE
5
100
100
AcDbEntity
8
0
100
AcDbCircle
10
-540
20
20
30
0
40
2.0250000000000012
210
0
220
0
230
1
0
ARC
5
101
100
AcDbEntity
8
0
100
AcDbCircle
10
-217.98199780784893
20
117.39752653574486
30
0
40
30.000000000001098
210
0
220
0
230
1
100
AcDbArc
50
280
51
335.04106994578029
0
ARC
5
102
100
AcDbEntity
8
0
100
AcDbCircle
10
-540
20
20
30
0
40
10.000000000000007
210
0
220
0
230
1
100
AcDbArc
50
99.999999999999858
51
180
0
ARC
5
103
100
AcDbEntity
8
0
100
AcDbCircle
10
-533.2260814158285
20
284.17721043191568
30
0
40
9.9999999997373585
210
0
220
0
230
1
100
AcDbArc
50
189.96465466580935
51
260.05829775050165
0
LINE
5
104
100
AcDbEntity
8
0
100
AcDbLine
10
-545
20
5.5511151231257778e-16
30
0
11
-212.7725524778408
21
3.9759862069388419e-14
31
0
0
CIRCLE
5
105
100
AcDbEntity
8
0
100
AcDbCircle
10
-41.999999999999957
20
5
30
0
40
2.025000000000019
210
0
220
0
230
1
0
CIRCLE
5
106
100
AcDbEntity
8
0
100
AcDbCircle
10
-533.22608141548596
20
284.17721043178153
30
0
40
2.0250000000000012
210
0
220
0
230
1
0
ARC
5
107
100
AcDbEntity
8
0
100
AcDbCircle
10
-218.01807835048433
20
188.31836790184315
30
0
40
30.000000000032252
210
0
220
-0
230
1
100
AcDbArc
50
25.017227801287014
51
80.058297747039418
0
LINE
5
108
100
AcDbEntity
8
0
100
AcDbLine
10
-550
20
20
30
0
11
-550
21
4.9999999999999938
31
0
0
ARC
5
109
100
AcDbEntity
8
0
100
AcDbCircle
10
-535.23371862629074
20
307.1622834198551
30
0
40
11.999999999557204
210
0
220
0
230
1
100
AcDbArc
50
90.000024008171025
51
189.96465466494953
0
ARC
5
110
100
AcDbEntity
8
0
100
AcDbCircle
10
-294.0864826381063
20
152.81923870727775
30
0
40
113.94397122153546
210
0
220
0
230
1
100
AcDbArc
50
-24.958930054219621
51
25.017227801287088
0
ARC
5
111
100
AcDbEntity
8
0
100
AcDbCircle
10
-545
20
4.9999999999999947
30
0
40
5
210
0
220
0
230
1
100
AcDbArc
50
180
51
270
0
CIRCLE
5
112
100
AcDbEntity
8
0
100
AcDbCircle
10
-535.23371862541558
20
307.16228341937455
30
0
40
2.0250000000000026
210
0
220
0
230
1
0
LINE
5
113
100
AcDbEntity
8
0
100
AcDbLine
10
-543.07522829425943
20
282.4468041900638
30
0
11
-547.05269488069257
21
305.08579592976565
31
0
0
ARC
5
114
100
AcDbEntity
8
0
100
AcDbCircle
10
-41.999999999999957
20
5
30
0
40
4.9999999999999396
210
-0
220
0
230
1
100
AcDbArc
50
-90
51
73.732987941946988
0
LINE
5
115
100
AcDbEntity
8
0
100
AcDbLine
10
-541.73648177666928
20
29.848077530122083
30
0
11
-212.7725524778408
21
87.853293945377544
31
0
0
LINE
5
116
100
AcDbEntity
8
0
100
AcDbLine
10
-534.95254199767942
20
274.32737115096768
30
0
11
-212.83869660317765
21
217.86788574419344
31
0
0
LINE
5
117
100
AcDbEntity
8
0
100
AcDbLine
10
-41.999999999999957
20
5.995809787970672e-14
30
0
11
0
21
0
31
0
0
LINE
5
118
100
AcDbEntity
8
0
100
AcDbLine
10
0
20
1.75
30
0
11
0
21
22.5
31
0
0
LINE
5
119
100
AcDbEntity
8
0
100
AcDbLine
10
-496.78648177666935
20
7.6939753129675958
30
0
11
-496.78648177666935
21
37.773975312967593
31
0
0
LINE
5
120
100
AcDbEntity
8
0
100
AcDbLine
10
-496.78648177666935
20
7.6939753129675958
30
0
11
-486.68648177666932
21
7.6939753129675701
31
0
0
LWPOLYLINE
5
121
100
AcDbEntity
8
0
100
AcDbPolyline
90
4
70
1
43
0.0
10
-486.68648177666932
20
7.6939753129675701
10
-476.73648177666934
20
7.6939753129675452
10
-476.73648177666934
20
15.693975312967545
10
-486.68648177666932
20
15.693975312967545
0
CIRCLE
5
122
100
AcDbEntity
8
0
100
AcDbCircle
10
-148.83351982002264
20
152.86769806728353
30
0
40
2.0250000000000052
210
0
220
0
230
1
0
LINE
5
123
100
AcDbEntity
8
0
100
AcDbLine
10
-486.68648177666932
20
29.848077530122083
30
0
11
-486.68648177666932
21
39.554877818123096
31
0
0
LINE
5
124
100
AcDbEntity
8
0
100
AcDbLine
10
-486.68648177666932
20
15.693975312967545
30
0
11
-486.68648177666932
21
29.848077530122083
31
0
0
LINE
5
125
100
AcDbEntity
8
0
100
AcDbLine
10
-446.78648177666935
20
16.51032434839086
30
0
11
-446.78648177666935
21
46.590324348390851
31
0
0
LINE
5
126
100
AcDbEntity
8
0
100
AcDbLine
10
-446.78648177666935
20
16.51032434839086
30
0
11
-436.68648177666932
21
16.510324348390832
31
0
0
LWPOLYLINE
5
127
100
AcDbEntity
8
0
100
AcDbPolyline
90
4
70
1
43
0.0
10
-436.68648177666932
20
16.510324348390832
10
-426.73648177666934
20
16.510324348390807
10
-426.73648177666934
20
24.51032434839081
10
-436.68648177666932
20
24.51032434839081
0
LINE
5
128
100
AcDbEntity
8
0
100
AcDbLine
10
-436.68648177666932
20
24.51032434839081
30
0
11
-436.68648177666932
21
38.664426565545341
31
0
0
LINE
5
129
100
AcDbEntity
8
0
100
AcDbLine
10
-436.68648177666932
20
38.664426565545341
30
0
11
-436.68648177666932
21
48.371226853546361
31
0
0
LINE
5
130
100
AcDbEntity
8
0
100
AcDbLine
10
-396.78648177666935
20
25.326673383814121
30
0
11
-386.68648177666932
21
25.326673383814096
31
0
0
LWPOLYLINE
5
131
100
AcDbEntity
8
0
100
AcDbPolyline
90
4
70
1
43
0.0
10
-376.73648177666934
20
25.326673383814075
10
-376.73648177666934
20
33.326673383814068
10
-386.68648177666932
20
33.326673383814068
10
-386.68648177666932
20
25.326673383814096
0
LINE
5
132
100
AcDbEntity
8
0
100
AcDbLine
10
-396.78648177666935
20
25.326673383814121
30
0
11
-396.78648177666935
21
55.406673383814116
31
0
0
LINE
5
133
100
AcDbEntity
8
0
100
AcDbLine
10
-386.68648177666932
20
47.480775600968606
30
0
11
-386.68648177666932
21
57.187575888969626
31
0
0
LINE
5
134
100
AcDbEntity
8
0
100
AcDbLine
10
-386.68648177666932
20
33.326673383814068
30
0
11
-386.68648177666932
21
47.480775600968606
31
0
0
LINE
5
135
100
AcDbEntity
8
0
100
AcDbLine
10
-346.78648177666935
20
34.143022419237376
30
0
11
-346.78648177666935
21
64.223022419237367
31
0
0
LINE
5
136
100
AcDbEntity
8
0
100
AcDbLine
10
-346.78648177666935
20
34.143022419237376
30
0
11
-336.68648177666932
21
34.143022419237347
31
0
0
LWPOLYLINE
5
137
100
AcDbEntity
8
0
100
AcDbPolyline
90
4
70
1
43
0.0
10
-336.68648177666932
20
34.143022419237347
10
-326.73648177666934
20
34.143022419237326
10
-326.73648177666934
20
42.143022419237326
10
-336.68648177666932
20
42.143022419237326
0
LINE
5
138
100
AcDbEntity
8
0
100
AcDbLine
10
-336.68648177666932
20
42.143022419237326
30
0
11
-336.68648177666932
21
56.297124636391864
31
0
0
LINE
5
139
100
AcDbEntity
8
0
100
AcDbLine
10
-336.68648177666932
20
56.297124636391864
30
0
11
-336.68648177666932
21
66.003924924392877
31
0
0
LINE
5
140
100
AcDbEntity
8
0
100
AcDbLine
10
-296.78648177666935
20
42.959371454660641
30
0
11
-296.78648177666935
21
73.039371454660639
31
0
0
LINE
5
141
100
AcDbEntity
8
0
100
AcDbLine
10
-286.68648177666927
20
65.113473671815129
30
0
11
-286.68648177666927
21
74.820273959816149
31
0
0
LINE
5
142
100
AcDbEntity
8
0
100
AcDbLine
10
-286.68648177666927
20
50.959371454660598
30
0
11
-286.68648177666927
21
65.113473671815129
31
0
0
LWPOLYLINE
5
143
100
AcDbEntity
8
0
100
AcDbPolyline
90
4
70
1
43
0.0
10
-276.73648177666928
20
50.959371454660598
10
-286.68648177666927
20
50.959371454660598
10
-286.68648177666927
20
42.959371454660626
10
-276.73648177666928
20
42.959371454660598
0
LINE
5
144
100
AcDbEntity
8
0
100
AcDbLine
10
-296.78648177666935
20
42.959371454660641
30
0
11
-286.68648177666927
21
42.959371454660626
31
0
0
LINE
5
145
100
AcDbEntity
8
0
100
AcDbLine
10
-246.81338973753046
20
51.770975890588247
30
0
11
-246.81338973753046
21
81.850975890588245
31
0
0
LINE
5
146
100
AcDbEntity
8
0
100
AcDbLine
10
-246.81338973753046
20
51.770975890588247
30
0
11
-236.71338973753041
21
51.770975890588232
31
0
0
LWPOLYLINE
5
147
100
AcDbEntity
8
0
100
AcDbPolyline
90
4
70
1
43
0.0
10
-236.71338973753041
20
51.770975890588232
10
-226.76338973753045
20
51.770975890588204
10
-226.76338973753045
20
59.770975890588204
10
-236.71338973753041
20
59.770975890588204
0
LINE
5
148
100
AcDbEntity
8
0
100
AcDbLine
10
-236.71338973753041
20
59.770975890588204
30
0
11
-236.71338973753041
21
73.925078107742735
31
0
0
LINE
5
149
100
AcDbEntity
8
0
100
AcDbLine
10
-236.71338973753041
20
73.925078107742735
30
0
11
-236.71338973753041
21
83.631878395743769
31
0
0
LINE
5
150
100
AcDbEntity
8
0
100
AcDbLine
10
-496.93403998615878
20
297.7381822721934
30
0
11
-496.90343396344804
21
267.65819784281956
31
0
0
LINE
5
151
100
AcDbEntity
8
0
100
AcDbLine
10
-486.81150369319766
20
275.59436814621648
30
0
11
-486.80162714565563
21
265.88757288284842
31
0
0
LINE
5
152
100
AcDbEntity
8
0
100
AcDbLine
10
-486.82590531467065
20
289.74846303663452
30
0
11
-486.81150369319766
21
275.59436814621648
31
0
0
LINE
5
153
100
AcDbEntity
8
0
100
AcDbLine
10
-496.93403998615878
20
297.7381822721934
30
0
11
-486.83404521432777
21
297.74845889551051
31
0
0
LWPOLYLINE
5
154
100
AcDbEntity
8
0
100
AcDbPolyline
90
4
70
1
43
0.0
10
-476.87591046519356
20
289.75858703683303
10
-486.82590531467065
20
289.74846303663452
10
-486.83404521432777
20
297.74845889551051
10
-476.88405036485062
20
297.75858289570908
0
LINE
5
155
100
AcDbEntity
8
0
100
AcDbLine
10
-446.92509534362227
20
288.97271217332639
30
0
11
-446.89448932091153
21
258.89272774395249
31
0
0
LINE
5
156
100
AcDbEntity
8
0
100
AcDbLine
10
-436.80255905066122
20
266.82889804734941
30
0
11
-436.79268250311918
21
257.12210278398135
31
0
0
LINE
5
157
100
AcDbEntity
8
0
100
AcDbLine
10
-436.81696067213414
20
280.98299293776745
30
0
11
-436.80255905066122
21
266.82889804734941
31
0
0
LWPOLYLINE
5
158
100
AcDbEntity
8
0
100
AcDbPolyline
90
4
70
1
43
0.0
10
-426.86696582265711
20
280.99311693796597
10
-436.81696067213414
20
280.98299293776745
10
-436.82510057179127
20
288.98298879664355
10
-426.87510572231423
20
288.99311279684207
0
LINE
5
159
100
AcDbEntity
8
0
100
AcDbLine
10
-446.92509534362227
20
288.97271217332639
30
0
11
-436.82510057179127
21
288.98298879664355
31
0
0
LINE
5
160
100
AcDbEntity
8
0
100
AcDbLine
10
-396.91615070108583
20
280.20724207445932
30
0
11
-396.88554467837514
21
250.12725764508545
31
0
0
LINE
5
161
100
AcDbEntity
8
0
100
AcDbLine
10
-386.79361440812471
20
258.0634279484824
30
0
11
-386.78373786058273
21
248.35663268511428
31
0
0
LINE
5
162
100
AcDbEntity
8
0
100
AcDbLine
10
-386.80801602959775
20
272.21752283890049
30
0
11
-386.79361440812471
21
258.0634279484824
31
0
0
LINE
5
163
100
AcDbEntity
8
0
100
AcDbLine
10
-396.91615070108583
20
280.20724207445932
30
0
11
-386.81615592925482
21
280.21751869777643
31
0
0
LWPOLYLINE
5
164
100
AcDbEntity
8
0
100
AcDbPolyline
90
4
70
1
43
0.0
10
-386.81615592925482
20
280.21751869777643
10
-376.86616107977778
20
280.227642697975
10
-376.85802118012066
20
272.22764683909895
10
-386.80801602959775
20
272.21752283890049
0
LINE
5
165
100
AcDbEntity
8
0
100
AcDbLine
10
-346.90720605854938
20
271.4417719755923
30
0
11
-346.87660003583863
21
241.36178754621841
31
0
0
LINE
5
166
100
AcDbEntity
8
0
100
AcDbLine
10
-336.78466976558821
20
249.29795784961539
30
0
11
-336.77479321804628
21
239.59116258624729
31
0
0
LINE
5
167
100
AcDbEntity
8
0
100
AcDbLine
10
-336.7990713870613
20
263.45205274003342
30
0
11
-336.78466976558821
21
249.29795784961539
31
0
0
LWPOLYLINE
5
168
100
AcDbEntity
8
0
100
AcDbPolyline
90
4
70
1
43
0.0
10
-326.84907653758421
20
263.46217674023194
10
-336.7990713870613
20
263.45205274003342
10
-336.80721128671837
20
271.45204859890941
10
-326.85721643724128
20
271.46217259910793
0
LINE
5
169
100
AcDbEntity
8
0
100
AcDbLine
10
-346.90720605854938
20
271.4417719755923
30
0
11
-336.80721128671837
21
271.45204859890941
31
0
0
LINE
5
170
100
AcDbEntity
8
0
100
AcDbLine
10
-296.89826141601287
20
262.67630187672523
30
0
11
-286.79826664418187
21
262.68657850004234
31
0
0
LWPOLYLINE
5
171
100
AcDbEntity
8
0
100
AcDbPolyline
90
4
70
1
43
0.0
10
-286.79826664418187
20
262.68657850004234
10
-276.84827179470483
20
262.69670250024092
10
-276.8401318950477
20
254.69670664136487
10
-286.79012674452474
20
254.6865826411663
0
LINE
5
172
100
AcDbEntity
8
0
100
AcDbLine
10
-286.79012674452474
20
254.6865826411663
30
0
11
-286.7757251230517
21
240.53248775074826
31
0
0
LINE
5
173
100
AcDbEntity
8
0
100
AcDbLine
10
-296.89826141601287
20
262.67630187672523
30
0
11
-296.86765539330219
21
232.59631744735134
31
0
0
LINE
5
174
100
AcDbEntity
8
0
100
AcDbLine
10
-286.7757251230517
20
240.53248775074826
30
0
11
-286.76584857550972
21
230.82569248738022
31
0
0
LINE
5
175
100
AcDbEntity
8
0
100
AcDbLine
10
-246.91622954797938
20
253.91554899638518
30
0
11
-246.88562352526867
21
223.83556456701132
31
0
0
LINE
5
176
100
AcDbEntity
8
0
100
AcDbLine
10
-236.79369325501824
20
231.77173487040824
30
0
11
-236.78381670747623
21
222.06493960704017
31
0
0
LINE
5
177
100
AcDbEntity
8
0
100
AcDbLine
10
-236.80809487649125
20
245.92582976082633
30
0
11
-236.79369325501824
21
231.77173487040824
31
0
0
LWPOLYLINE
5
178
100
AcDbEntity
8
0
100
AcDbPolyline
90
4
70
1
43
0.0
10
-226.85810002701419
20
245.93595376102485
10
-236.80809487649125
20
245.92582976082633
10
-236.81623477614835
20
253.92582561970229
10
-226.86623992667131
20
253.93594961990087
0
LINE
5
179
100
AcDbEntity
8
0
100
AcDbLine
10
-246.91622954797938
20
253.91554899638518
30
0
11
-236.81623477614835
21
253.92582561970229
31
0
0
LINE
5
180
100
AcDbEntity
8
0
100
AcDbLine
10
-212.83869660317765
20
233.0965606214566
30
0
11
-212.83869749821116
21
283.79351846502936
31
0
0
LINE
5
181
100
AcDbEntity
8
0
100
AcDbLine
10
-212.7725524778408
20
72.621894767091362
30
0
11
-212.7725524778408
21
15.000000000000039
31
0
0
SPLINE
5
182
100
AcDbEntity
8
0
100
AcDbSpline
70
4
71
5
72
22
73
16
74
0
42
0.000000001
43
0.0000000001
44
0.0000000001
40
0
40
0
40
0
40
0
40
0
40
0
40
0.066666666666666666
40
0.13333333333333333
40
0.20000000000000001
40
0.26666666666666666
40
0.33333333333333331
40
0.39999999999999997
40
0.46666666666666662
40
0.53333333333333333
40
0.59999999999999998
40
0.66666666666666663
40
0.7332297760001647
40
0.7332297760001647
40
0.7332297760001647
40
0.7332297760001647
40
0.7332297760001647
40
0.7332297760001647
41
1
41
1
41
1
41
1
41
1
41
1
41
1
41
1
41
1
41
1
41
1
41
1
41
1
41
1
41
1
41
1
10
-40.599429718684164
20
9.7998336311892089
30
0
10
-48.76006313206841
20
12.181070464322287
30
0
10
-62.426232051397292
20
17.354691854570344
30
0
10
-74.963057842792409
20
26.349508803316514
30
0
10
-77.920429056348311
20
41.173624210024855
30
0
10
-69.599274479458202
20
65.821092978603886
30
0
10
-59.847149194307853
20
96.926542215708494
30
0
10
-54.673357725906904
20
132.72915684940762
30
0
10
-57.261779397459961
20
170.39401543296441
30
0
10
-68.790232759326372
20
206.72178014364511
30
0
10
-89.482769547812438
20
238.90475935347777
30
0
10
-119.58904964761763
20
265.39352058660478
30
0
10
-151.58136872180125
20
281.70356364493387
30
0
10
-180.2928085269626
20
291.33819261353648
30
0
10
-201.62228959202417
20
296.71565859765747
30
0
10
-212.83869660318823
20
299.15724243887888
30
0
0
SPLINE
5
183
100
AcDbEntity
8
0
100
AcDbSpline
70
4
71
5
72
16
73
10
74
0
42
0.000000001
43
0.0000000001
44
0.0000000001
40
0.73322977600116468
40
0.73322977600116468
40
0.73322977600116468
40
0.73322977600116468
40
0.73322977600116468
40
0.73322977600116468
40
0.73333333333333328
40
0.79999999999999993
40
0.86666666666666659
40
0.93333333333333324
40
1
40
1
40
1
40
1
40
1
40
1
41
1
41
1
41
1
41
1
41
1
41
1
41
1
41
1
41
1
41
1
10
-212.83869660403076
20
299.15724243906232
30
0
10
-212.85614682831007
20
299.16104099822513
30
0
10
-224.10832816540528
20
301.60983951404046
30
0
10
-247.72129648630045
20
306.01089630146964
30
0
10
-286.581461260617
20
311.22794068337652
30
0
10
-345.59512514923631
20
315.83912774222313
30
0
10
-414.77336360627868
20
318.16143714722614
30
0
10
-472.64503075439745
20
318.98031193499008
30
0
10
-513.92158212971049
20
319.16228341941127
30
0
10
-535.23372365455032
20
319.16228341941127
30
0
0
LINE
5
184
100
AcDbEntity
8
0
100
AcDbLine
10
-212.7725524778408
20
3.9759862069388419e-14
30
0
11
-41.999999999999957
21
5.995809787970672e-14
31
0
0
LINE
5
185
100
AcDbEntity
8
0
100
AcDbLine
10
-212.7725524778408
20
15.000000000000039
30
0
11
-80.794205624355797
21
15.000000000000055
31
0
0
LINE
5
186
100
AcDbEntity
8
0
100
AcDbLine
10
-165.35799994499482
20
145.36769806728353
30
0
11
-148.83351982002264
21
145.36769806728353
31
0
0
LINE
5
187
100
AcDbEntity
8
0
100
AcDbLine
10
-165.3636467632293
20
160.36769806728353
30
0
11
-148.83351982002264
21
160.36769806728353
31
0
0
ARC
5
188
100
AcDbEntity
8
0
100
AcDbCircle
10
-217.98199780784893
20
117.39752653574486
30
0
40
45.000000000001101
210
0
220
0
230
1
100
AcDbArc
50
280
51
335.04106994578029
0
ARC
5
189
100
AcDbEntity
8
0
100
AcDbCircle
10
-218.01807835048433
20
188.31836790184315
30
0
40
45.00000000002629
210
0
220
-0
230
1
100
AcDbArc
50
25.017227801287046
51
80.058297747039418
0
LINE
5
190
100
AcDbEntity
8
0
100
AcDbLine
10
-210.16782981283683
20
73.081177650194419
30
0
11
-212.7725524778408
21
72.621894767091362
31
0
0
LINE
5
191
100
AcDbEntity
8
0
100
AcDbLine
10
-210.24900572951751
20
232.64264466540743
30
0
11
-212.83869660317765
21
233.0965606214566
31
0
0
SPLINE
5
192
100
AcDbEntity
8
0
100
AcDbSpline
70
0
71
3
72
38
73
34
74
0
42
0.000000001
43
0.0000000001
44
0.0000000001
40
0.070879342909326085
40
0.070879342909326085
40
0.070879342909326085
40
0.070879342909326085
40
0.092299905184374351
40
0.092299905184374351
40
0.092299905184374351
40
0.11720677141901242
40
0.11720677141901242
40
0.11720677141901242
40
0.14893458551552508
40
0.14893458551552508
40
0.14893458551552508
40
0.19046375207589955
40
0.19046375207589955
40
0.19046375207589955
40
0.24419701101216817
40
0.24419701101216817
40
0.24419701101216817
40
0.31218557343163222
40
0.31218557343163222
40
0.31218557343163222
40
0.39375630253479327
40
0.39375630253479327
40
0.39375630253479327
40
0.47862467090113614
40
0.47862467090113614
40
0.47862467090113614
40
0.56158918685013381
40
0.56158918685013381
40
0.56158918685013381
40
0.66752641991999595
40
0.66752641991999595
40
0.66752641991999595
40
0.72928945169350579
40
0.72928945169350579
40
0.72928945169350579
40
0.72928945169350579
10
-80.794205624355797
20
15.000000000000075
30
0
10
-83.277372091079371
20
17.844422246881575
30
0
10
-85.325686132845988
20
21.035714497631794
30
0
10
-86.807157162027551
20
24.394476536081442
30
0
10
-88.529745032528879
20
28.299893944432696
30
0
10
-89.466555665690407
20
32.379045933897437
30
0
10
-89.817208232936281
20
36.284567152420934
30
0
10
-90.263889857241537
20
41.259647116474056
30
0
10
-89.829697287406191
20
45.955221789169542
30
0
10
-89.059191186695173
20
50.457791160233455
30
0
10
-88.050660435258095
20
56.351293712655007
30
0
10
-86.455657091573926
20
61.988106708634618
30
0
10
-84.757902804702283
20
67.744848194295557
30
0
10
-82.561232891425519
20
75.193311683888624
30
0
10
-80.16507956202986
20
82.848672320421628
30
0
10
-78.078184427857337
20
90.910575987713173
30
0
10
-75.437641067908729
20
101.11128317641102
30
0
10
-73.292508877292079
20
111.93540380425759
30
0
10
-72.245606171852998
20
123.12296715802847
30
0
10
-70.989562302946453
20
136.54548511074873
30
0
10
-71.319129924411556
20
150.47134443937784
30
0
10
-73.646374650728106
20
164.0896386679625
30
0
10
-76.067702311804609
20
178.25847623776144
30
0
10
-80.618455837300615
20
192.04791414324467
30
0
10
-87.357808255120915
20
204.68363773128956
30
0
10
-93.945976755552536
20
217.03590408596142
30
0
10
-102.59209136871476
20
228.29375144690133
30
0
10
-113.5762258873238
20
238.29970867646131
30
0
10
-127.60184642229976
20
251.07629648620161
30
0
10
-145.51267526409714
20
261.85394203505922
30
0
10
-168.20398020015304
20
270.58069959687157
30
0
10
-181.43335902321323
20
275.66853310876331
30
0
10
-196.27842272910559
20
280.05769631087344
30
0
10
-212.83869761474037
20
283.7934473045637
30
0
0
ARC
5
193
100
AcDbEntity
8
0
100
AcDbCircle
10
-294.0864826381063
20
152.81923870727775
30
0
40
128.94397122153555
210
0
220
0
230
1
100
AcDbArc
50
335.04106994578029
51
356.68708961927194
0
ARC
5
194
100
AcDbEntity
8
0
100
AcDbCircle
10
-294.0864826381063
20
152.81923870727775
30
0
40
128.94397122153555
210
0
220
-0
230
1
100
AcDbArc
50
3.3560488923583898
51
25.017227801287103
0
ARC
5
195
100
AcDbEntity
8
0
100
AcDbCircle
10
-148.83351982002264
20
152.86769806728353
30
0
40
7.4999999999999822
210
0
220
0
230
1
100
AcDbArc
50
-90
51
90
0
ENDSEC
0
SECTION
2
OBJECTS
0
DICTIONARY
5
C
100
AcDbDictionary
3
ACAD_GROUP
350
D
3
ACAD_MLINESTYLE
350
17
0
DICTIONARY
5
D
100
AcDbDictionary
0
DICTIONARY
5
1A
330
C
100
AcDbDictionary
0
DICTIONARY
5
17
100
AcDbDictionary
0
ENDSEC
0
EOF
