0
SECTION
2
HEADER
9
$INSUNITS
70
4
9
$ACADVER
1
AC1014
9
$HANDSEED
5
FFFF
0
ENDSEC
0
SECTION
2
TABLES
0
TABLE
2
VPORT
5
8
100
AcDbSymbolTable
0
ENDTAB
0
TABLE
2
LTYPE
5
5
100
AcDbSymbolTable
0
LTYPE
5
14
100
AcDbSymbolTableRecord
100
AcDbLinetypeTableRecord
2
BYBLOCK
70
0
0
LTYPE
5
15
100
AcDbSymbolTableRecord
100
AcDbLinetypeTableRecord
2
BYLAYER
70
0
0
ENDTAB
0
TABLE
2
LAYER
5
2
100
AcDbSymbolTable
70
2
0
LAYER
5
50
100
AcDbSymbolTableRecord
100
AcDbLayerTableRecord
2
0
70
0
6
CONTINUOUS
0
ENDTAB
0
TABLE
2
STYLE
5
3
100
AcDbSymbolTable
70
1
0
STYLE
5
11
100
AcDbSymbolTableRecord
100
AcDbTextStyleTableRecord
2
STANDARD
70
0
0
ENDTAB
0
TABLE
2
VIEW
5
6
100
AcDbSymbolTable
70
0
0
ENDTAB
0
TABLE
2
UCS
5
7
100
AcDbSymbolTable
70
0
0
ENDTAB
0
TABLE
2
APPID
5
9
100
AcDbSymbolTable
70
2
0
APPID
5
12
100
AcDbSymbolTableRecord
100
AcDbRegAppTableRecord
2
ACAD
70
0
0
ENDTAB
0
TABLE
2
DIMSTYLE
5
A
100
AcDbSymbolTable
70
1
0
ENDTAB
0
TABLE
2
BLOCK_RECORD
5
1
100
AcDbSymbolTable
70
1
0
BLOCK_RECORD
5
1F
100
AcDbSymbolTableRecord
100
AcDbBlockTableRecord
2
*MODEL_SPACE
0
BLOCK_RECORD
5
1B
100
AcDbSymbolTableRecord
100
AcDbBlockTableRecord
2
*PAPER_SPACE
0
ENDTAB
0
ENDSEC
0
SECTION
2
BLOCKS
0
BLOCK
5
20
100
AcDbEntity
100
AcDbBlockBegin
2
*MODEL_SPACE
0
ENDBLK
5
21
100
AcDbEntity
100
AcDbBlockEnd
0
BLOCK
5
1C
100
AcDbEntity
100
AcDbBlockBegin
2
*PAPER_SPACE
0
ENDBLK
5
1D
100
AcDbEntity
100
AcDbBlockEnd
0
ENDSEC
0
SECTION
2
ENTITIES
0
LWPOLYLINE
5
100
100
AcDbEntity
8
0
100
AcDbPolyline
90
3
70
1
43
0.0
10
8.1668492492863027
20
16.743675150028384
10
0.0099999232359504475
20
16.743675150028373
10
4.0896166818217203
20
0.0099976230369858143
0
LWPOLYLINE
5
101
100
AcDbEntity
8
0
100
AcDbPolyline
90
4
70
1
43
0.0
10
5.4644636434101468
20
11.382561326905831
10
2.7144636436464027
20
11.382527928495021
10
2.7144302452355964
20
14.132527928292191
10
5.4644302449993409
20
14.132561326703005
0
LWPOLYLINE
5
102
100
AcDbEntity
8
0
100
AcDbPolyline
90
3
70
1
43
0.0
10
21.340510775807303
20
17.478977403266455
10
13.186849365780116
20
17.478977403266427
10
17.263680070793722
20
0.010001112311526228
0
LWPOLYLINE
5
103
100
AcDbEntity
8
0
100
AcDbPolyline
90
4
70
1
43
0.0
10
18.639558604923863
20
11.882223916292851
10
15.889558605157337
20
11.882259747984802
10
15.889594436849293
20
14.632259747751402
10
18.63959443661582
20
14.632223916059441
0
LWPOLYLINE
5
104
100
AcDbEntity
8
0
100
AcDbPolyline
90
3
70
1
43
0.0
10
33.329558004295883
20
16.309644148326807
10
26.360510911881462
20
0.0099994377320644645
10
40.298605096710311
20
0.0099994377320644645
0
LWPOLYLINE
5
105
100
AcDbEntity
8
0
100
AcDbPolyline
90
4
70
1
43
0.0
10
31.955417462458712
20
6.796231849901293
10
34.705417462296808
20
6.7962021956570862
10
34.705387808052606
20
4.0462021958169991
10
31.95538780821451
20
4.0462318500611971
0
LWPOLYLINE
5
106
100
AcDbEntity
8
0
100
AcDbPolyline
90
3
70
1
43
0.0
10
45.31860506966774
20
17.322099773984789
10
52.283285149490915
20
0.0099979875118894057
10
59.247965229314062
20
17.322099773984789
0
LWPOLYLINE
5
107
100
AcDbEntity
8
0
100
AcDbPolyline
90
4
70
1
43
0.0
10
53.657577368208599
20
10.205317922341361
10
50.90757736837034
20
10.205288101091448
10
50.907547547120416
20
12.955288100929749
10
53.657547546958675
20
12.955317922179681
0
LWPOLYLINE
5
108
100
AcDbEntity
8
0
100
AcDbPolyline
90
3
70
1
43
0.0
10
73.389241492914095
20
16.220769198262019
10
64.267965134321116
20
0.0099994633711375513
10
82.510517851507046
20
0.0099994633711375513
0
LWPOLYLINE
5
109
100
AcDbEntity
8
0
100
AcDbPolyline
90
4
70
1
43
0.0
10
74.764813005590383
20
4.0372919304167443
10
72.014813005825829
20
4.037326056145325
10
72.014847131554404
20
6.7873260559335957
10
74.764847131318959
20
6.7872919302050061
0
LWPOLYLINE
5
110
100
AcDbEntity
8
0
100
AcDbPolyline
90
3
70
1
43
0.0
10
96.645855799341049
20
0.0099994971668415644
10
105.76119354752905
20
17.190649089207497
10
87.530518051153052
20
17.19064908920749
0
LWPOLYLINE
5
111
100
AcDbEntity
8
0
100
AcDbPolyline
90
4
70
1
43
0.0
10
95.270377541795483
20
13.53217599224906
10
98.020377541559469
20
13.532209594205709
10
98.020411143516114
20
10.782209594410981
10
95.270411143752156
20
10.78217599245435
0
LWPOLYLINE
5
112
100
AcDbEntity
8
0
100
AcDbPolyline
90
3
70
1
43
0.0
10
110.78119312064328
20
0.010001029734416633
10
131.96719531269443
20
0.010001029734425515
10
121.37419421666884
20
16.296278424213739
0
LWPOLYLINE
5
113
100
AcDbEntity
8
0
100
AcDbPolyline
90
4
70
1
43
0.0
10
119.99871941219602
20
4.7661587729993826
10
119.99869107888699
20
7.5161587728534229
10
122.74869107872382
20
7.5161871061624641
10
122.74871941203286
20
4.7661871063084149
0
LWPOLYLINE
5
114
100
AcDbEntity
8
0
100
AcDbPolyline
90
3
70
1
43
0.0
10
158.16273796835051
20
16.999193843480924
10
136.98719542602427
20
16.999193843480924
10
147.57496669718736
20
0.0099981066242271766
0
LWPOLYLINE
5
115
100
AcDbEntity
8
0
100
AcDbPolyline
90
4
70
1
43
0.0
10
148.94961092951667
20
9.9567921013491478
10
146.19961092967992
20
9.9567638357069832
10
146.19958266403773
20
12.706763835561734
10
148.94958266387451
20
12.706792101203908
0
LWPOLYLINE
5
116
100
AcDbEntity
8
0
100
AcDbPolyline
90
3
70
1
43
0.0
10
185.91859180020307
20
0.010001538096817697
10
174.55066489823562
20
16.479477619298947
10
163.18273799626812
20
0.010001538096808815
0
LWPOLYLINE
5
117
100
AcDbEntity
8
0
100
AcDbPolyline
90
4
70
1
43
0.0
10
173.17548256623741
20
4.1349038963662998
10
173.17545466640405
20
6.8849038962247633
10
175.92545466626248
20
6.884931796058158
10
175.92548256609589
20
4.1349317961996945
0
LWPOLYLINE
5
118
100
AcDbEntity
8
0
100
AcDbPolyline
90
3
70
1
43
0.0
10
213.67010362233378
20
16.745433858890589
10
190.93859217968188
20
16.745433858890589
10
202.30434790100787
20
0.0099989317736204342
0
LWPOLYLINE
5
119
100
AcDbEntity
8
0
100
AcDbPolyline
90
4
70
1
43
0.0
10
200.92927552378771
20
9.782825716967519
10
200.92924762045436
20
12.532825716825965
10
203.67924762031279
20
12.532853620159333
10
203.67927552364617
20
9.7828536203008873
0
LWPOLYLINE
5
120
100
AcDbEntity
8
0
100
AcDbPolyline
90
3
70
1
43
0.0
10
230.07183353867265
20
16.734449644389649
10
218.69010404608588
20
0.01000176258333596
10
241.45356303125939
20
0.01000176258333596
0
LWPOLYLINE
5
121
100
AcDbEntity
8
0
100
AcDbPolyline
90
4
70
1
43
0.0
10
231.44699871447713
20
6.9691659808060358
10
231.44697541426439
20
4.2191659809047444
10
228.6969754143631
20
4.2191892811175169
10
228.69699871457587
20
6.9691892810188083
0
LWPOLYLINE
5
122
100
AcDbEntity
8
0
100
AcDbPolyline
90
3
70
1
43
0.0
10
257.85812324967105
20
0.0099991070067595444
10
269.24268365229841
20
16.390660402249729
10
246.47356284704381
20
16.390660402249736
0
LWPOLYLINE
5
123
100
AcDbEntity
8
0
100
AcDbPolyline
90
4
70
1
43
0.0
10
259.23307124687142
20
9.5451676678080553
10
256.48307124695845
20
9.5451457896528105
10
256.48304936880328
20
12.29514578956579
10
259.23304936871625
20
12.295167667721007
0
LWPOLYLINE
5
124
100
AcDbEntity
8
0
100
AcDbPolyline
90
3
70
1
43
0.0
10
274.2626835908103
20
0.010001136598924987
10
294.92233653579541
20
0.010001136598916105
10
284.59251006330283
20
17.086408144244917
0
LWPOLYLINE
5
125
100
AcDbEntity
8
0
100
AcDbPolyline
90
4
70
1
43
0.0
10
285.96740083024281
20
4.3299236038277789
10
283.21740083029152
20
4.3299399639607961
10
283.21741719042456
20
7.0799399639121452
10
285.9674171903759
20
7.0799236037791102
0
LWPOLYLINE
5
126
100
AcDbEntity
8
0
100
AcDbPolyline
90
3
70
1
43
0.0
10
310.27950553696854
20
0.0099998302027515251
10
320.61691142688755
20
16.063259875307626
10
299.94233768131147
20
16.063259875307626
0
LWPOLYLINE
5
127
100
AcDbEntity
8
0
100
AcDbPolyline
90
4
70
1
43
0.0
10
311.65446271556277
20
9.330755027713856
10
308.90446271556993
20
9.3307647572349239
10
308.90447244487495
20
12.080764757217697
10
311.6544724450838
20
12.080755027696647
0
LWPOLYLINE
5
128
100
AcDbEntity
8
0
100
AcDbPolyline
90
3
70
1
43
0.0
10
333.56064999907318
20
17.432020117546049
10
325.63691174607186
20
0.010001142193809542
10
341.48461872612631
20
0.010001142193813983
0
LWPOLYLINE
5
129
100
AcDbEntity
8
0
100
AcDbPolyline
90
4
70
1
43
0.0
10
334.9357181855521
20
7.1750621280229465
10
334.93572808602778
20
4.4250621280407598
10
332.18572808604563
20
4.4250522275650672
10
332.1857181855699
20
7.175052227547245
0
LWPOLYLINE
5
130
100
AcDbEntity
8
0
100
AcDbPolyline
90
3
70
1
43
0.0
10
362.36593542116384
20
16.09864075623285
10
346.50461900819442
20
16.09864075623285
10
354.43536438809849
20
0.010000589078975608
0
LWPOLYLINE
5
131
100
AcDbEntity
8
0
100
AcDbPolyline
90
4
70
1
43
0.0
10
355.8102945979403
20
12.121679134287465
10
355.81029293059203
20
9.371679134287966
10
353.06029293059254
20
9.3716808016362698
10
353.06029459794081
20
12.121680801635755
0
LWPOLYLINE
5
132
100
AcDbEntity
8
0
100
AcDbPolyline
90
3
70
1
43
0.0
10
376.14772070478568
20
0.010000439337325417
10
371.76691942468756
20
17.61804543786408
10
367.38593555681348
20
0.010000439337320977
0
LWPOLYLINE
5
133
100
AcDbEntity
8
0
100
AcDbPolyline
90
4
70
1
43
0.0
10
370.39196025017537
20
2.9150154510047166
10
370.39196677429226
20
5.6650154509969797
10
373.14196677428458
20
5.6650089268800619
10
373.14196025016764
20
2.9150089268878077
0
LWPOLYLINE
5
134
100
AcDbEntity
8
0
100
AcDbPolyline
90
3
70
1
43
0.0
10
381.16772080895936
20
16.670226955605543
10
385.55081275634598
20
0.010000012174716591
10
389.93396372122731
20
16.670226955605564
0
LWPOLYLINE
5
135
100
AcDbEntity
8
0
100
AcDbPolyline
90
4
70
1
43
0.0
10
384.1759236120065
20
11.322185747350805
10
384.17594327180092
20
14.072185747280525
10
386.9259432717306
20
14.07216608748611
10
386.92592361193618
20
11.322166087556393
0
LWPOLYLINE
5
136
100
AcDbEntity
8
0
100
AcDbPolyline
90
101
70
1
43
0.0
10
434.5604918286694
20
55.012186272829318
42
0.41421356237306262
10
433.88001180878109
20
55.576275753791926
10
431.51532975716407
20
55.355133729832964
10
431.1580029381617
20
59.176046192916345
10
430.80942118203905
20
62.909715984879313
10
433.17413762698436
20
63.130489930364675
42
0.41421356237310786
10
433.73833302157914
20
63.810882138372769
10
433.55241812011769
20
65.802222302537231
42
0.41421356237311341
10
432.87202591210962
20
66.366417697131951
10
430.50730946716436
20
66.145643751646602
10
429.86006160142847
20
73.078335327622355
10
428.50832310663304
20
77.846905801479778
10
425.49846784384727
20
84.647696267114611
10
427.67027499543212
20
85.60888235540601
42
0.41421356237309842
10
427.98885948577254
20
86.433354260636648
10
427.17943962194806
20
88.262244493550156
42
0.4142135623730942
10
426.35496771671745
20
88.580828983890498
10
424.18316056513265
20
87.619642895599057
10
422.85317997648372
20
90.62474397756651
10
421.22573679626788
20
93.897549326787967
10
423.35232493275527
20
94.95502173671224
42
0.41421356237309132
10
423.63367117658765
20
95.792932406820569
10
422.74316809454615
20
97.583743469125736
42
0.4142135623730876
10
421.90525742443782
20
97.865089712958138
10
419.77866928795044
20
96.807617303033851
10
416.98429999401344
20
102.42712333806759
10
411.35851299262987
20
109.48839371080412
10
408.15544534671096
20
112.85964535740307
10
409.87722245028186
20
114.49552695630288
42
0.41421356237307755
10
409.89982653045848
20
115.37912135168989
10
408.52224202612177
20
116.82903891259171
42
0.41421356237312495
10
407.63864763073479
20
116.85164299276832
10
405.91687052716384
20
115.2157613938685
10
404.19768851594824
20
117.02521277823078
10
402.14169943024172
20
117.96436614167219
10
403.12849666484198
20
120.12465691325488
42
0.41421356237306611
10
402.81968257616234
20
120.95283796751357
10
401.0004903474611
20
121.78382511243998
42
0.4142135623730957
10
400.17230929320249
20
121.47501102376039
10
399.18551205860228
20
119.31472025217771
10
396.27950619038108
20
120.64215199989177
10
394.95396375467374
20
117.74028220253662
10
404.15683438525764
20
102.18100020839563
42
0.26513071078293154
10
404.95299526943518
20
101.72690661789292
10
408.12171202864113
20
101.72690661789292
10
408.12171202996609
20
98.976906617762069
10
405.81165214506063
20
98.976906617762026
42
0.56213780005091973
10
404.99018489600257
20
97.626681314275856
10
416.6619589739704
20
75.078681313222177
42
0.28029678299494043
10
417.48342622302852
20
74.578906616708423
10
420.62171204557438
20
74.578906616708437
10
420.62171204613719
20
71.828906616577541
10
417.90912805978792
20
71.828906616577541
42
0.45315660039816458
10
416.99206662318545
20
70.782979690309773
10
419.28108503503722
20
53.423979689482614
42
0.37631415599117168
10
420.19814647163975
20
52.619906615750402
10
423.12171204975817
20
52.619906615750374
10
423.12171205012021
20
49.869906615619499
10
419.98323286515006
20
49.869906615619477
42
0.28020164133603409
10
419.16191570952537
20
49.370421750340512
10
402.49085762689327
20
17.192421748866803
42
0.56225389456054287
10
403.3121747825179
20
15.841906614145781
10
405.6217120526224
20
15.841906614145756
10
405.62171205283289
20
13.091906614014848
10
402.3589879295244
20
13.091906614014889
42
0.21587106624347868
10
401.66378844778433
20
12.777089111787783
10
394.96044423866419
20
5.139765135576492
10
395.56455759005735
20
2.0113182622259647
10
399.89955341763078
20
2.8484201737140173
10
400.34985492775024
20
0.51649960260016226
42
0.41421356237308599
10
401.08201863333795
20
0.021336691812132436
10
403.04574121953914
20
0.40053796349162896
42
0.41421356237310702
10
403.54090413032725
20
1.1327016690793905
10
403.09060262020773
20
3.4646222401932376
10
405.29805899016219
20
3.8908893048722391
10
407.42355022127856
20
5.3090993301114286
10
408.74174547877305
20
3.3335016324212177
42
0.41421356237310536
10
409.60853309855855
20
3.1605009902644419
10
411.27219431766611
20
4.2705601544703509
42
0.41421356237310503
10
411.44519495982286
20
5.137347774255856
10
410.12699970232836
20
7.1129454719460563
10
414.42280686501823
20
9.9792742976929976
10
420.62584330740486
20
15.360866896076399
10
423.8957578117342
20
21.014777166158531
10
425.95168142938019
20
19.825742650929769
42
0.41421356237307944
10
426.80561778013674
20
20.053871362092217
10
427.80691000348725
20
21.78517546116257
42
0.41421356237311885
10
427.57878129232483
20
22.639111811919115
10
425.52285767467879
20
23.828146327147831
10
427.33519061434259
20
26.961796398673201
10
428.59956718753801
20
30.711798362750507
10
430.85008837734199
20
29.952997088210832
42
0.41421356237311546
10
431.64201534164306
20
30.345554960648855
10
432.28100588862378
20
32.240730699431218
42
0.41421356237311158
10
431.88844801618581
20
33.032657663732195
10
429.63792682638177
20
33.791458938271823
10
431.88961618929289
20
40.469722133285842
10
432.47956358755749
20
45.044536080983313
10
431.81794515837123
20
52.11925302762026
10
434.18262720998803
20
52.340395051579229
42
0.41421356237308521
10
434.74671669095073
20
53.020875071467664
0
LWPOLYLINE
5
137
100
AcDbEntity
8
0
100
AcDbPolyline
90
86
70
1
43
0.0
10
467.53910095006466
20
62.680125204623486
10
469.83222270055762
20
63.29836272970261
42
0.41421356237310925
10
470.27298170724549
20
64.064509907484791
10
469.75236063349462
20
65.995559802636762
42
0.41421356237308815
10
468.98621345571252
20
66.436318809324604
10
466.69309170521956
20
65.818081284245494
10
465.67323017357751
20
69.60087764621035
10
464.50227966644832
20
73.823137404596096
10
466.79090000445933
20
74.457835717530955
42
0.41421356237307566
10
467.22614264263723
20
75.227130099358831
10
466.69165985279733
20
77.154389331368122
42
0.41421356237311469
10
465.92236547096945
20
77.589631969546076
10
463.63374513295844
20
76.954933656611203
10
462.02860464557574
20
82.742812858310117
10
459.38751838786868
20
88.118265875602845
10
456.20262879958261
20
93.071753441075145
10
458.20033508301196
20
94.356196746615325
42
0.41421356237311807
10
458.388035866667
20
95.219920322660002
10
457.30639939884361
20
96.90219929817944
42
0.41421356237306955
10
456.442675822799
20
97.089900081834472
10
454.44496953936971
20
95.805456776294236
10
452.28193737026146
20
99.169640260959554
10
449.93131003267251
20
101.98671912358563
10
451.75486051848998
20
103.50832637438162
42
0.41421356237309503
10
451.8343192645483
20
104.38863104191154
10
450.5529657901937
20
105.92425250365244
42
0.41421356237310786
10
449.67266112266384
20
106.0037112497107
10
447.84911063684638
20
104.48210399891468
10
444.28555534024167
20
108.75280065139265
10
441.84171873946212
20
106.7136141740081
10
441.76070713048159
20
97.008504452196917
42
0.41666049619549866
10
442.68567490624349
20
96.075783454710276
10
445.50396918823645
20
96.075783454710262
10
445.50396918947263
20
93.325783454588148
10
443.19390930481376
20
93.325783454588162
42
0.56213780003746294
10
442.37244205573825
20
91.975558151135459
10
454.04421613250003
20
69.427558150152478
42
0.28029678300596883
10
454.86568338157548
20
68.927783453605102
10
458.00396920512583
20
68.92778345360513
10
458.00396920512583
20
66.177783453483016
10
455.29138521825388
20
66.177783453483016
42
0.45315660039404437
10
454.37432378164971
20
65.131856527227768
10
456.66334219325313
20
47.772856526455996
42
0.37631415599507662
10
457.5804036298573
20
46.968783452711229
10
460.50396920793889
20
46.968783452711229
10
460.5039692082766
20
44.218783452589143
10
457.36549002332561
20
44.218783452589136
42
0.28020164133456105
10
456.54417286770325
20
43.719298587314597
10
439.87311478490284
20
11.54129858593957
42
0.56225389456231611
10
440.69443194052519
20
10.190783451214095
10
443.00396921061116
20
10.190783451214095
10
443.00396921080761
20
7.4407834510919937
10
441.22677888516739
20
7.4407834510919848
42
0.65675282244240618
10
440.55226282404482
20
5.8828118219586765
10
443.72356031494172
20
2.5033695314145108
10
445.59598036107172
20
0.010000078399938772
10
450.32257466189725
20
3.5594820487069887
10
451.74874088494516
20
1.6603572754924789
42
0.4142135623730972
10
452.62381746290907
20
1.535894499132856
10
454.22308042982655
20
2.7368765816995664
42
0.41421356237306239
10
454.34754320618617
20
3.6119531596634094
10
452.92137698313815
20
5.5110779328778889
10
455.81582803410703
20
7.6846941066958987
10
458.25294399790181
20
10.929138816666516
10
460.15188083875239
20
9.5027223717036637
42
0.41421356237307105
10
461.02697380870325
20
9.6270698443056997
10
462.22816660446148
20
11.226174552390379
42
0.4142135623730917
10
462.1038191318595
20
12.101267522341313
10
460.20488229100891
20
13.527683967304164
10
464.06010244043944
20
18.659999706648819
10
466.39616569665344
20
23.455367268042934
10
467.49349618090747
20
30.294269948028006
10
469.83850129865408
20
29.918004087575568
42
0.4142135623730841
10
470.55462524028542
20
30.436093365810919
10
470.87148070171907
20
32.410834517597571
42
0.41421356237307466
10
470.35339142348369
20
33.126958459228945
10
468.00838630573708
20
33.503224319681344
10
468.59854140595104
20
37.181253276658673
10
468.92825680063373
20
41.005813900277587
10
471.29447999731713
20
40.801821784063264
42
0.41421356237309775
10
471.97085244807965
20
41.370829963134092
10
472.1426352827865
20
43.363438970867435
42
0.41421356237308155
10
471.57362710371564
20
44.039811421630013
10
469.2074039070323
20
44.243803537844315
10
469.81726837966215
20
51.317976249762445
10
469.37793195128847
20
55.859666734640712
0
CIRCLE
5
138
100
AcDbEntity
8
0
100
AcDbCircle
10
499.69891383575725
20
22.543968867887454
30
0
40
14.874999999999996
210
0
220
-0
230
1
0
LWPOLYLINE
5
139
100
AcDbEntity
8
0
100
AcDbPolyline
90
144
70
1
43
0.0
10
512.7452124335606
20
4.0592530762677104
42
0.019934692068519427
10
514.17596185278796
20
5.1570282021870195
42
0.44114769571434015
10
514.2179824780452
20
6.0792748282221414
10
512.07273456121413
20
8.2244969263457222
10
514.01726650787236
20
10.169052276315746
10
516.16263019565429
20
8.0237144086347421
42
0.44112324763810407
10
517.08484357665532
20
8.0657068159505805
42
0.01993550403261991
10
518.1827609639688
20
9.4964395867971838
42
0.44114812695772704
10
517.98465253476581
20
10.398137288845247
10
515.35727568125128
20
11.915022196615546
10
516.73225404487175
20
14.296604548812436
10
519.35977769019314
20
12.779634892531062
42
0.44112281640600337
10
520.23969774262218
20
13.058884709511016
42
0.019934692068520124
10
520.92987552316322
20
14.724960565813516
42
0.4411476957143588
10
520.50514313910139
20
15.544659885143028
10
517.57469289664823
20
16.329852760462252
10
518.28642928593968
20
18.986153065930374
10
521.21703767375595
20
18.20091781670882
42
0.44112324763811844
10
521.99470168575488
20
18.698390998710948
42
0.019935504032619213
10
522.23015964900162
20
20.486400617947645
42
0.44114812695780342
10
521.60774386558398
20
21.16823951985392
10
518.57392631124003
20
21.168211957842956
10
518.57390132769081
20
23.918211957860368
10
521.60788838172402
20
23.91823952141122
42
0.44112281640603579
10
522.23029659193696
20
24.600036983132529
42
0.019934692068520124
10
521.9949701548619
20
26.387989889592973
42
0.44114769571435702
10
521.21729146078962
20
26.885504131566194
10
518.28685066863932
20
26.1002759872366
10
517.57508230982944
20
28.756567726498098
10
520.50568124683286
20
29.541838246633361
42
0.44112324763812388
10
520.93042144583183
20
30.361494665948165
42
0.019935504032618168
10
520.24032921390858
20
32.027685400041463
42
0.44114812695779682
10
519.3603818827994
20
32.306967318671951
10
516.7330325912958
20
30.790034672098315
10
515.35801095489876
20
33.171592040745985
10
517.98550703666933
20
34.688609438497878
42
0.44112281640599998
10
518.18362962737706
20
35.590267465690715
42
0.019934692068521168
10
517.08585450145767
20
37.021016884918204
42
0.44114769571432438
10
516.1636078754226
20
37.063037510175391
10
514.01838577729905
20
34.917789593344281
10
512.07383042732897
20
36.862321540002569
10
514.21916829501004
20
39.007685227784435
42
0.44112324763815214
10
514.17717588769415
20
39.929898608785535
42
0.019935504032618866
10
512.74644311684756
20
41.027815996098937
42
0.44114812695774891
10
511.84474541479949
20
40.829707566895991
10
510.32786050702919
20
38.202330713381485
10
507.94627815483233
20
39.577309077001892
10
509.46324781111366
20
42.204832722323246
42
0.44112281640600093
10
509.18399799413373
20
43.084752774752261
42
0.019934692068520124
10
507.51792213783119
20
43.774930555293395
42
0.44114769571434354
10
506.69822281850173
20
43.350198171231504
10
505.91302994318249
20
40.419747928778321
10
503.25672963771439
20
41.131484318069802
10
504.04196488693594
20
44.062092705886073
42
0.44112324763808908
10
503.54449170493382
20
44.839756717885038
42
0.019935504032618866
10
501.75648208569714
20
45.075214681131769
42
0.44114812695782318
10
501.07464318379078
20
44.452798897714167
10
501.07467074580177
20
41.418981343370227
10
498.32467074578437
20
41.41895635982101
10
498.3246431822335
20
44.452943413854271
42
0.44112281640602569
10
497.64284572051218
20
45.075351624067167
42
0.019934692068519427
10
495.85489281405171
20
44.840025186992101
42
0.44114769571434981
10
495.35737857207857
20
44.062346492919815
10
496.14260671640812
20
41.131905700769487
10
493.48631497714666
20
40.420137341959645
10
492.70104445701133
20
43.350736278963076
42
0.44112324763813576
10
491.88138803769652
20
43.775476477962044
42
0.019935504032618168
10
490.21519730360325
20
43.085384246038707
42
0.44114812695779437
10
489.93591538497276
20
42.205436914929535
10
491.45284803154641
20
39.578087623425986
10
489.07129066289878
20
38.203065987028985
10
487.55427326514683
20
40.83056206879948
42
0.44112281640600209
10
486.65261523795402
20
41.028684659507192
42
0.019934692068520124
10
485.22186581872654
20
39.930909533587851
42
0.44114769571430251
10
485.1798451934693
20
39.008662907552761
10
487.32509311030043
20
36.863440809429179
10
485.38056116364214
20
34.918885459459162
10
483.23519747586028
20
37.064223327140162
42
0.44112324763812111
10
482.31298409485919
20
37.022230919824324
42
0.019935504032619213
10
481.21506670754576
20
35.591498148977713
42
0.44114812695777655
10
481.41317513674869
20
34.689800446929652
10
484.04055199026322
20
33.172915539159355
10
482.66557362664287
20
30.791333186962468
10
480.03804998132148
20
32.308302843243844
42
0.44112281640600237
10
479.15812992889244
20
32.029053026263888
42
0.019934692068520124
10
478.46795214835134
20
30.362977169961329
42
0.44114769571433288
10
478.89268453241323
20
29.543277850631874
10
481.82313477486639
20
28.758084975312649
10
481.11139838557494
20
26.101784669844527
10
478.18078999775867
20
26.887019919066081
42
0.44112324763811767
10
477.40312598575969
20
26.389546737063956
42
0.019935504032619213
10
477.16766802251294
20
24.601537117827196
42
0.44114812695777172
10
477.79008380593052
20
23.919698215920988
10
480.82390136027448
20
23.919725777931944
10
480.8239263438237
20
21.16972577791454
10
477.78993928979048
20
21.169698214363688
42
0.44112281640603579
10
477.16753107957754
20
20.487900752642378
42
0.019934692068520124
10
477.4028575166526
20
18.699947846181935
42
0.4411476957143578
10
478.18053621072494
20
18.202433604208711
10
481.11097700287525
20
18.987661748538301
10
481.82274536168507
20
16.33137000927681
10
478.8921464246817
20
15.546099489141545
42
0.44112324763812388
10
478.46740622568268
20
14.726443069826743
42
0.019935504032618168
10
479.15749845760604
20
13.060252335733447
42
0.44114812695779521
10
480.03744578871522
20
12.780970417102953
10
482.66479508021871
20
14.297903063676586
10
484.03981671661575
20
11.916345695028912
10
481.41232063484523
20
10.39932829727702
42
0.44112281640600359
10
481.21419804413756
20
9.4976702700841713
42
0.019934692068518729
10
482.31197317005683
20
8.0669208508567909
42
0.44114769571437951
10
483.23421979609191
20
8.0249002255995183
10
485.37944189421552
20
10.170148142430612
10
487.32399724418553
20
8.2256161957723322
10
485.17865937650458
20
6.0802525079904584
42
0.44112324763810207
10
485.22065178382041
20
5.1580391269893617
42
0.019935504032618866
10
486.65138455466706
20
4.0601217396759637
42
0.44114812695775074
10
487.55308225671507
20
4.2582301688789093
10
489.06996716448538
20
6.8856070223934189
10
491.45154951668223
20
5.5106286587730136
10
489.9345798604009
20
2.8831050134516656
42
0.44112281640600237
10
490.21382967738083
20
2.0031849610226438
42
0.019934692068520471
10
491.87990553368337
20
1.3130071804814847
42
0.44114769571433632
10
492.69960485301283
20
1.7377395645434035
10
493.48479772833207
20
4.6681898069965744
10
496.14109803380018
20
3.9564534177051081
10
495.35586278457862
20
1.0258450298888366
42
0.44112324763808874
10
495.85333596658074
20
0.24818101788987246
42
0.019935504032618866
10
497.64134558581748
20
0.012723054643131171
42
0.44114812695781841
10
498.32318448772378
20
0.63513883806074034
10
498.32315692571279
20
3.6689563924046809
10
501.07315692573019
20
3.6689813759538992
10
501.07318448928106
20
0.63499432192063221
42
0.44112281640598971
10
501.75498195100232
20
0.012586111707744152
42
0.019934692068520124
10
503.5429348574628
20
0.24791254878282043
42
0.44114769571435242
10
504.04044909943599
20
1.0255912428550973
10
503.25522095510644
20
3.9560320350054168
10
505.91151269436796
20
4.6678003938152628
10
506.69678321450317
20
1.7372014568118299
42
0.44112324763813432
10
507.51643963381804
20
1.3124612578128581
42
0.019935504032617821
10
509.18263036791126
20
2.0025534897361652
42
0.44114812695783606
10
509.4619122865418
20
2.8825008208453773
10
507.94497963996821
20
5.5098501123489214
10
510.32653700861579
20
6.8848717487459226
10
511.84355440636773
20
4.2573756669754221
42
0.44112281640600148
0
CIRCLE
5
140
100
AcDbEntity
8
0
100
AcDbCircle
10
562.31988391458867
20
35.077001210943848
30
0
40
27.375
210
0
220
-0
230
1
0
LWPOLYLINE
5
141
100
AcDbEntity
8
0
100
AcDbPolyline
90
144
70
1
43
0.0
10
531.65821275356598
20
41.869745812297893
10
528.69569603510706
20
42.663530667146894
42
0.43130065761514647
10
527.92187352297708
20
42.186326502319048
42
0.036464829382204342
10
527.25397619629632
20
37.113601538009988
42
0.43131207800670174
10
527.8779304102884
20
36.452363098052352
10
530.94487142537344
20
36.452390960987479
10
530.94489640892266
20
33.702390960970078
10
527.87787702556545
20
33.702363097322973
42
0.43130045966447078
10
527.25393340634503
20
33.041137769203928
42
0.036463627974131906
10
527.92169001763364
20
27.968563856117189
42
0.43131188005386562
10
528.69552306078299
20
27.491345838571789
10
531.65795710717146
20
28.28514675588621
10
532.36972546598122
20
25.628855016624716
10
529.40721830123528
20
24.835034506833846
42
0.43130065761514985
10
528.97567043012441
20
24.034852321236233
42
0.036464829382204342
10
530.93361686025355
20
19.30779497239261
42
0.43131207800666382
10
531.80459628034782
20
19.047122792426578
10
534.4606311798525
20
20.580617429978787
10
535.83565281624942
20
18.199060061331117
10
533.17955004818623
20
16.665526239026246
42
0.43130045966446895
10
532.96981168747175
20
15.780916497639286
42
0.036463627974131906
10
536.08439283293615
20
11.721816931976278
42
0.43131188005385029
10
536.99316091536389
20
11.695450527212916
10
539.16180359791508
20
13.864119310348823
10
541.10635894788504
20
11.919587363690543
10
538.9376627392171
20
9.7508650537935271
42
0.43130065761517078
10
538.9640224126847
20
8.8421130178547855
42
0.036464829382204911
10
543.02318243484751
20
5.7273344836749063
42
0.43131207800665727
10
543.90780882880563
20
5.9370754638115741
10
545.44125520633861
20
8.5931382262513054
10
547.82283755853541
20
7.2181598626309107
10
546.28935199748298
20
4.5620292309206611
42
0.43130045966450442
10
546.55001811964962
20
3.6910655420871219
42
0.036463627974131906
10
551.27687429660136
20
1.7330727744647323
42
0.43131188005383081
10
552.07707374451388
20
2.1646228393470857
10
552.87083900776645
20
5.1270664392126397
10
555.52713931323456
20
4.4153300499211845
10
554.73335445838552
20
1.4528133314622949
42
0.43130065761515579
10
555.21055862321339
20
0.67899081933236349
42
0.036464829382205105
10
560.28328358752253
20
0.011093492651505985
42
0.43131207800665461
10
560.94452202748005
20
0.63504770664355448
10
560.94449416454506
20
3.7019887217286884
10
563.69449416456246
20
3.7020137052779178
10
563.69452202820958
20
0.63499432192062777
42
0.43130045966447028
10
564.35574735632849
20
0.011050702700283743
42
0.036463627974131906
10
569.42832126941528
20
0.67880731398894945
42
0.43131188005382864
10
569.90553928696067
20
1.4526403571381685
10
569.11173836964633
20
4.4150744035266376
10
571.76803010890774
20
5.1268427623364943
10
572.5618506186986
20
2.1643355975904788
42
0.43130065761513919
10
573.36203280429618
20
1.7327877264795699
42
0.036464829382204911
10
578.08909015313986
20
3.6907341566088148
42
0.43131207800669291
10
578.3497623331059
20
4.5617135767030614
10
576.81626769555362
20
7.2177484762076638
10
579.19782506420131
20
8.5927701126046685
10
580.73135888650631
20
5.9366673445415197
42
0.43130045966447905
10
581.61596862789327
20
5.7269289838270199
42
0.03646362797413133
10
585.67506819355617
20
8.84151012929137
42
0.43131188005382615
10
585.70143459831957
20
9.7502782117191487
10
583.53276581518367
20
11.918920894270268
10
585.4772977618419
20
13.863476244240305
10
587.64602007173892
20
11.694780035572286
42
0.43130065761514225
10
588.55477210767765
20
11.721139709039949
42
0.036464829382204911
10
591.66955064185754
20
15.780299731202748
42
0.4313120780066752
10
591.4598096617209
20
16.664926125160811
10
588.80374689928112
20
18.198372502693736
10
590.17872526290159
20
20.57995485489063
10
592.83485589461179
20
19.046469293838221
42
0.43130045966449476
10
593.70581958344542
20
19.30713541600484
42
0.036463627974131906
10
595.66381235106769
20
24.033991592956532
42
0.43131188005383386
10
595.23226228618546
20
24.834191040869101
10
592.26981868631981
20
25.627956304121653
10
592.98155507561125
20
28.284256609589782
10
595.94407179407017
20
27.490471754740788
42
0.4313006576151428
10
596.71789430620015
20
27.967675919568627
42
0.036464829382204911
10
597.38579163288091
20
33.040400883877766
42
0.43131207800667015
10
596.76183741888894
20
33.70163932383533
10
593.6948964038038
20
33.701611460900203
10
593.69487142025457
20
36.451611460917611
10
596.76189080361178
20
36.451639324564709
42
0.43130045966446867
10
597.3858344228322
20
37.112864652683754
42
0.036463627974131524
10
596.71807781154359
20
42.185438565770497
42
0.43131188005386445
10
595.94424476839424
20
42.662656583315908
10
592.98181072200589
20
41.86885566600148
10
592.27004236319601
20
44.52514740526297
10
595.23254952794196
20
45.318967915053832
42
0.43130065761515385
10
595.66409739905293
20
46.11915010065146
42
0.036464829382204723
10
593.70615096892368
20
50.846207449495076
42
0.43131207800665794
10
592.83517154882941
20
51.106879629461105
10
590.17913664932485
20
49.573384991908888
10
588.80411501292781
20
51.954942360556558
10
591.460217780991
20
53.488476182861433
42
0.43130045966446734
10
591.66995614170548
20
54.3730859242484
42
0.0364636279741321
10
588.55537499624108
20
58.432185489911426
42
0.4313118800538141
10
587.64660691381334
20
58.458551894674784
10
585.47796423126226
20
56.289883111538863
10
583.53340888129219
20
58.234415058197143
10
585.70210508996024
20
60.40313736809415
42
0.43130065761517367
10
585.67574541649253
20
61.311889404032897
42
0.036464829382204147
10
581.61658539432983
20
64.426667938212759
42
0.43131207800668758
10
580.73195900037172
20
64.216926958076101
10
579.19851262283873
20
61.560864195636384
10
576.81693027064182
20
62.935842559256784
10
578.35041583169425
20
65.591973190967025
42
0.4313004596645072
10
578.08974970952761
20
66.462936879800566
42
0.03646362797413133
10
573.36289353257598
20
68.420929647422938
42
0.43131188005383414
10
572.56269408466335
20
67.989379582540607
10
571.76892882141078
20
65.026935982675056
10
569.11262851594267
20
65.738672371966501
10
569.90641337079171
20
68.701189090425402
42
0.43130065761515418
10
569.42920920596384
20
69.475011602555341
42
0.036464829382205105
10
564.3564842416547
20
70.142908929236185
42
0.43131207800665239
10
563.69524580169718
20
69.518954715244135
10
563.69527366463228
20
66.452013700159
10
560.94527366461489
20
66.451988716609776
10
560.94524580096777
20
69.519008099967067
42
0.43130045966447228
10
560.28402047284874
20
70.142951719187408
42
0.036463627974131906
10
555.21144655976195
20
69.475195107898756
42
0.43131188005382387
10
554.73422854221656
20
68.701362064749532
10
555.52802945953101
20
65.738928018361065
10
552.87173772026949
20
65.027159659551188
10
552.07791721047863
20
67.989666824297217
42
0.43130065761513442
10
551.27773502488105
20
68.421214695408125
42
0.036464829382204342
10
546.55067767603748
20
66.463268265278913
42
0.43131207800672883
10
546.29000549607133
20
65.592288845184626
10
547.8235001336235
20
62.936253945680029
10
545.44194276497592
20
61.561232309283014
10
543.90840894267103
20
64.217335077346164
42
0.43130045966445391
10
543.02379920128408
20
64.42707343806066
42
0.036463627974131906
10
538.96469963562106
20
61.312492292596303
42
0.43131188005381915
10
538.93833323085767
20
60.403724210168548
10
541.10700201399357
20
58.235081527617425
10
539.16247006733533
20
56.290526177647365
10
536.99374775743831
20
58.459222386315403
42
0.43130065761513464
10
536.08499572149958
20
58.432862712847736
42
0.036464829382205105
10
532.97021718731969
20
54.373702690684915
42
0.43131207800666593
10
533.17995816745633
20
53.489076296726871
10
535.83602092989611
20
51.955629919193946
10
534.46104256627575
20
49.574047566997059
10
531.80491193456544
20
51.107533128049468
42
0.43130045966449265
10
530.93394824573193
20
50.846867005882842
42
0.036463627974131524
10
528.97595547810954
20
46.120010828931171
42
0.43131188005384985
10
529.40750554299188
20
45.319811381018567
10
532.36994914285742
20
44.526046117766029
0
LWPOLYLINE
5
142
100
AcDbEntity
8
0
100
AcDbPolyline
90
144
70
1
43
0.0
10
673.05448498323801
20
30.141805673135032
10
676.02072428493125
20
29.346985116191739
42
0.43014716774693873
10
676.7940555480003
20
29.821798833606039
42
0.038427881392889086
10
677.5477988210763
20
35.54726615031808
42
0.43013976395734321
10
676.92371811979592
20
36.206047670354955
10
673.85278629140714
20
36.206075569546286
10
673.85281127495637
20
38.956075569563694
10
676.92369225458708
20
38.956047670834323
42
0.43014729607868291
10
677.54778406694072
20
39.614833718320632
42
0.038429200369016203
10
676.79395838043524
20
45.34048951906329
42
0.43013989228815608
10
676.02063599724499
20
45.81529752492942
10
673.05433968726584
20
45.020499955962244
10
672.34260329797451
20
47.676800261430365
10
675.30885216541628
20
48.471585118514007
42
0.43014716774698275
10
675.74116982606756
20
49.269451491394598
42
0.038427881392888726
10
673.53119699012711
20
54.604723272742746
42
0.43013976395735104
10
672.66133648878827
20
54.863204453998279
10
670.00181756251766
20
53.327762701212286
10
668.62683919889719
20
55.70934505340918
10
671.28631408862066
20
57.244761382216176
42
0.43014729607867641
10
671.49740042866961
20
58.127332741174925
42
0.038429200369016571
10
667.98174033375915
20
62.708983274691015
42
0.43013989228813126
10
667.07461950166828
20
62.733517878096222
10
664.90313032655808
20
60.562054837514992
10
662.95859837989974
20
62.506610187485023
10
665.13005282450933
20
64.678038497983565
42
0.43014716774695261
10
665.10551771469773
20
65.585169876049122
42
0.038427881392889086
10
660.52398920642554
20
69.10066435682063
42
0.43013976395730091
10
659.64142732388973
20
68.88958537551872
10
658.10593724828686
20
66.230094348439437
10
655.72437987963917
20
67.605115984836445
10
657.25984453046294
20
70.264562975830401
42
0.4301472960787886
10
657.00136498385791
20
71.134435363365753
42
0.038429200369015662
10
651.66588876383628
20
73.344431069198009
42
0.43013989228813548
10
650.86803177724096
20
72.91211824297325
10
650.07319850784313
20
69.945831498895757
10
647.41690676858161
20
70.657599857705605
10
648.21172732552486
20
73.623839159398869
42
0.43014716774697248
10
647.73691360811063
20
74.397170422467852
42
0.038427881392889267
10
642.01144629139844
20
75.150913695543863
42
0.43013976395729303
10
641.35266477136167
20
74.526832994263572
10
641.35263687217036
20
71.455901165874693
10
638.60263687215297
20
71.455926149423931
10
638.60266477088226
20
74.526807129054646
42
0.43014729607871677
10
637.94387872339598
20
75.150898941408371
42
0.038429200369016571
10
632.21822292265324
20
74.397073254902764
42
0.43013989228816929
10
631.74341491678717
20
73.623750871712588
10
632.53821248575434
20
70.657454561733545
10
629.88191218028624
20
69.945718172442085
10
629.08712732320259
20
72.911967039883919
42
0.43014716774696465
10
628.28926095032205
20
73.344284700535184
42
0.038427881392888726
10
622.95398916897386
20
71.134311864594665
42
0.43013976395732612
10
622.69550798771832
20
70.264451363255858
10
624.23094974050423
20
67.604932436985237
10
621.84936738830743
20
66.229954073364837
10
620.31395105950037
20
68.889428963088179
42
0.43014729607870428
10
619.4313797005417
20
69.100515303137215
42
0.038429200369016391
10
614.84972916702554
20
65.58485520822677
42
0.43013989228816413
10
614.82519456362047
20
64.677734376135888
10
616.99665760420157
20
62.506245201025592
10
615.05210225423161
20
60.561713254367326
10
612.88067394373297
20
62.733167698976956
42
0.43014716774695999
10
611.97354256566746
20
62.708632589165312
42
0.038427881392888906
10
608.45804808489595
20
58.127104080893197
42
0.43013976395731701
10
608.66912706619792
20
57.244542198357351
10
611.3286180932771
20
55.709052122754493
10
609.95359645688018
20
53.32749475410683
10
607.29414946588622
20
54.86295940493055
42
0.43014729607871643
10
606.42427707835077
20
54.604479858325526
42
0.038429200369016391
10
604.2142813725186
20
49.269003638303829
42
0.43013989228813493
10
604.6465941987434
20
48.471146651708487
10
607.61288094282088
20
47.676313382310653
10
606.901112584011
20
45.020021643049176
10
603.93487328231777
20
45.814842199992469
42
0.43014716774695472
10
603.16154201924883
20
45.34002848257817
42
0.038427881392889086
10
602.40779874617272
20
39.614561165866121
42
0.4301397639573098
10
603.03187944745309
20
38.955779645829246
10
606.10281127584199
20
38.955751746637915
10
606.10278629229265
20
36.205751746620507
10
603.03190531266193
20
36.205779645349878
42
0.43014729607871444
10
602.40781350030818
20
35.546993597863576
42
0.038429200369016023
10
603.16163918681377
20
29.821337797120879
42
0.43013989228814264
10
603.93496157000402
20
29.346529791254767
10
606.90125787998306
20
30.14132736022195
10
607.61299426927451
20
27.485027054753829
10
604.64674540183273
20
26.69024219767018
42
0.4301471677469717
10
604.21442774118145
20
25.892375824789596
42
0.038427881392888906
10
606.4244005771219
20
20.55710404344142
42
0.43013976395730874
10
607.29426107846075
20
20.298622862185915
10
609.95378000473136
20
21.834064614971904
10
611.32875836835171
20
19.452482262775014
10
608.66928347862847
20
17.917065933968026
42
0.43014729607872271
10
608.45819713857941
20
17.034494575009273
42
0.038429200369016023
10
611.97385723348975
20
12.452844041493179
42
0.43013989228814908
10
612.88097806558073
20
12.428309438087988
10
615.05246724069104
20
14.599772478669205
10
616.99699918734927
20
12.655217128699174
10
614.82554474273968
20
10.483788818200646
42
0.43014716774698342
10
614.85007985255129
20
9.5766574401350635
42
0.038427881392888906
10
619.43160836082347
20
6.0611629593635774
42
0.43013976395731529
10
620.31417024335929
20
6.2722419406654817
10
621.84966031896215
20
8.9317329677447699
10
624.23121768760984
20
7.5567113313477563
10
622.69575303678607
20
4.8972643403537974
42
0.43014729607871077
10
622.9542325833911
20
4.0273919528184488
42
0.038429200369016203
10
628.28970880341274
20
1.8173962469861893
42
0.43013989228814831
10
629.08756579000817
20
2.2497090732109593
10
629.882399059406
20
5.2159958172884524
10
632.5386907986674
20
4.5042274584786002
10
631.74387024172415
20
1.5379881567853237
42
0.43014716774696327
10
632.21868395913839
20
0.76465689371635115
42
0.038427881392888726
10
637.94415127585046
20
0.010913620640335964
42
0.43013976395732456
10
638.60293279588734
20
0.63499432192063221
10
638.60296069507865
20
3.7059261503095087
10
641.35296069509604
20
3.7059011667602793
10
641.35293279636676
20
0.63502018712955799
42
0.43014729607868502
10
642.01171884385303
20
0.010928374775831529
42
0.038429200369016203
10
647.73737464459577
20
0.76475406128143852
42
0.43013989228812677
10
648.21218265046184
20
1.53807644447161
10
647.41738508149467
20
4.5043727544506673
10
650.07368538696278
20
5.216109143742127
10
650.86847024404642
20
2.249860276300284
42
0.43014716774698264
10
651.66633661692697
20
1.8175426156490149
42
0.038427881392888906
10
657.00160839827515
20
4.0275154515895206
42
0.4301397639573325
10
657.2600895795307
20
4.8973759529283445
10
655.72464782674479
20
7.5568948791989632
10
658.10623017894159
20
8.931873242819357
10
659.64164650774865
20
6.272398353096027
42
0.43014729607870539
10
660.52421786670732
20
6.0613120130469866
42
0.038429200369016203
10
665.10586840022347
20
9.5769721079574452
42
0.43013989228815125
10
665.13040300362854
20
10.484092940048289
10
662.95893996304744
20
12.655582115158595
10
664.9034953130174
20
14.600114061816868
10
667.07492362351604
20
12.428659617207241
42
0.43014716774697936
10
667.98205500158156
20
12.453194727018872
42
0.038427881392888177
10
671.49754948235295
20
17.03472323529094
42
0.43013976395735676
10
671.2864705010511
20
17.917285117826836
10
668.6269794739718
20
19.452775193429694
10
670.00200111036884
20
21.834332562077357
10
672.66144810136279
20
20.298867911253634
42
0.43014729607871915
10
673.53132048889825
20
20.557347457858668
42
0.038429200369016203
10
675.74131619473042
20
25.892823677880369
42
0.4301398922881039
10
675.30900336850561
20
26.690680664475707
10
672.34271662442825
20
27.485513933873548
0
CIRCLE
5
143
100
AcDbEntity
8
0
100
AcDbCircle
10
639.97779878362451
20
37.580913658092101
30
0
40
29.875
210
0
220
-0
230
1
0
LWPOLYLINE
5
144
100
AcDbEntity
8
0
100
AcDbPolyline
90
144
70
1
43
0.0
10
687.90274323628569
20
7.2885816337754701
10
690.03971467801784
20
9.4255787949149372
10
691.98427002798792
20
7.481046848256665
10
689.84728082434583
20
5.3440319249934998
42
0.44463531640197418
10
689.89494133973892
20
4.4171544788520904
42
0.014079099586864803
10
690.79392484830987
20
3.727341828823536
42
0.44463914341453542
10
691.70155870449798
20
3.9212078666789374
10
693.21261079614487
20
6.5384817743498136
10
695.59419314834167
20
5.1635034107294198
10
694.08312805417972
20
2.5462069815691857
42
0.44463525006791899
10
694.36906069429699
20
1.6632485012063158
42
0.014077676454379457
10
695.41584295523637
20
1.2296585153548079
42
0.44463907708005479
10
696.24237488048664
20
1.6518291703161037
10
697.02454785561872
20
4.571008720544194
10
699.68084816108683
20
3.8592723312527388
10
698.89866868475133
20
0.94006851761934573
42
0.4446353164020222
10
699.40338262490991
20
0.16119936076263386
42
0.014079099586865788
10
700.52683150592998
20
0.013295836271502992
42
0.44463914341450533
10
701.21593246379598
20
0.63500567807938113
10
701.21590500776836
20
3.6571574166079301
10
703.96590500778575
20
3.6571824001571551
10
703.96593246404962
20
0.63500465618911983
42
0.44463525006791083
10
704.65503663434379
20
0.013306501766536805
42
0.014077676454379457
10
705.77837165747394
20
0.1611976896623335
42
0.44463907708000111
10
706.28308397429873
20
0.94007416421623136
10
705.50087586580287
20
3.8592443004878652
10
708.15716760506439
20
4.57101265929772
10
708.93938221505562
20
1.6518182596990205
42
0.4446353164019487
10
709.76591188730549
20
1.2296547537162628
42
0.014079099586866775
10
710.81279892036775
20
1.6632909847077082
42
0.44463914341446459
10
711.09872293474791
20
2.5462579804291208
10
709.58762328786622
20
5.16350443207231
10
711.9691806565138
20
6.5385260684693192
10
713.48029330631994
20
3.9212570955730319
42
0.44463525006790799
10
714.38792410085966
20
3.7274027855041769
42
0.014077676454381429
10
715.28681517390339
20
4.4171478227829741
42
0.4446390770799733
10
715.33447062459959
20
5.3440307945690986
10
713.19747346346003
20
7.4810022363012552
10
715.14200541011849
20
9.4255575862712853
10
717.2790203333816
20
7.2885683826292098
42
0.44463531640198672
10
718.20589777952296
20
7.3362288980223838
42
0.014079099586864803
10
718.89571042955151
20
8.2352124065933019
42
0.44463914341456579
10
718.70184439169611
20
9.1428462627814291
10
716.08457048402533
20
10.65389835442824
10
717.45954884764558
20
13.035480706625135
10
720.07684527680578
20
11.524415612463191
42
0.44463525006791077
10
720.95980375716874
20
11.810348252580312
42
0.014077676454380444
10
721.39339374302028
20
12.85713051351982
42
0.44463907708000561
10
720.97122308805888
20
13.683662438769984
10
718.05204353783085
20
14.465835413902148
10
718.76377992712241
20
17.12213571937027
10
721.68298374075573
20
16.339956243034742
42
0.44463531640199244
10
722.4618528976124
20
16.84467018319339
42
0.014079099586865788
10
722.6097564221036
20
17.968119064213415
42
0.4446391434144763
10
721.98804658029576
20
18.657220022079414
10
718.96589484176718
20
18.657192566051719
10
718.96586985821784
20
21.407192566069124
10
721.98804760218593
20
21.407220022333071
42
0.44463525006791166
10
722.6097457566085
20
22.09632419262709
42
0.014077676454382416
10
722.46185456871274
20
23.219659215757421
42
0.4446390770799501
10
721.6829780941589
20
23.724371532582225
10
718.76380795788714
20
22.942163424086285
10
718.05203959907726
20
25.598455163347772
10
720.97123399867598
20
26.380669773339093
42
0.44463531640203896
10
721.39339750465876
20
27.207199445588977
42
0.014079099586864803
10
720.95976127366737
20
28.25408647865105
42
0.44463914341451577
10
720.07679427794596
20
28.540010493031275
10
717.45954782630281
20
27.028910846149536
10
716.08452618990566
20
29.410468214797199
10
718.701795162802
20
30.921580864603293
42
0.44463525006787963
10
718.8956494728709
20
31.829211659142995
42
0.014077676454380444
10
718.20590443559217
20
32.728102732186713
42
0.44463907707999245
10
717.27902146380598
20
32.775758182882974
10
715.14205002207382
20
30.638761021743505
10
713.19749467210374
20
32.583292968401778
10
715.33448387574583
20
34.720307891664945
42
0.44463531640197484
10
715.28682336035274
20
35.647185337806363
42
0.014079099586865788
10
714.38783985178179
20
36.336997987834941
42
0.44463914341452798
10
713.48020599559368
20
36.143131949979512
10
711.96915390394679
20
33.525858042308634
10
709.58757155174999
20
34.900836405929027
10
711.09863664591194
20
37.518132835089261
42
0.44463525006791665
10
710.81270400579467
20
38.401091315452128
42
0.014077676454381429
10
709.76592174485518
20
38.834681301303668
42
0.44463907707998696
10
708.93938981960503
20
38.412510646342341
10
708.15721684447294
20
35.493331096114254
10
705.50091653900483
20
36.205067485405714
10
706.28309601534033
20
39.124271299039101
42
0.4446353164020222
10
705.77838207518175
20
39.903140455895816
42
0.014079099586865788
10
704.65493319416169
20
40.05104398038695
42
0.44463914341450428
10
703.96583223629568
20
39.429334138579073
10
703.96585969232331
20
36.407182400050523
10
701.21585969230591
20
36.407157416501299
10
701.21583223604205
20
39.429335160469336
42
0.44463525006790722
10
700.52672806574788
20
40.051033314891917
42
0.014077676454380444
10
699.40339304261772
20
39.903142126996102
42
0.44463907707999806
10
698.89868072579293
20
39.124265652442226
10
699.68088883428879
20
36.205095516170587
10
697.02459709502727
20
35.493327157360724
10
696.24238248503605
20
38.412521556959433
42
0.4446353164019477
10
695.41585281278617
20
38.834685062942185
42
0.014079099586864803
10
694.36896577972402
20
38.401048831950774
42
0.44463914341453498
10
694.08304176534375
20
37.518081836229328
10
695.59414141222544
20
34.900835384586138
10
693.21258404357775
20
33.525813748189137
10
691.70147139377173
20
36.14308272108542
42
0.44463525006790644
10
690.793840599232
20
36.336937031154271
42
0.014077676454381429
10
689.89494952618827
20
35.647191993875495
42
0.44463907707998207
10
689.84729407549207
20
34.720309022089346
10
691.98429123663163
20
32.583337580357195
10
690.03975928997318
20
30.638782230387164
10
687.90274436671007
20
32.775771434029231
42
0.44463531640198189
10
686.97586692056871
20
32.728110918636062
42
0.014079099586864803
10
686.28605427054015
20
31.829127410065112
42
0.44463914341455646
10
686.47992030839555
20
30.921493553877006
10
689.09719421606633
20
29.410441462230203
10
687.72221585244608
20
27.028859110033313
10
685.10491942328588
20
28.539924204195259
42
0.44463525006791133
10
684.22196094292292
20
28.253991564078138
42
0.014077676454380444
10
683.78837095707138
20
27.207209303138626
42
0.44463907708000389
10
684.21054161203278
20
26.380677377888464
10
687.12972116226081
20
25.598504402756298
10
686.41798477296925
20
22.942204097288172
10
683.49878095933593
20
23.724383573623701
42
0.44463531640199133
10
682.71991180247926
20
23.219669633465053
42
0.014079099586864803
10
682.57200827798806
20
22.096220752445145
42
0.44463914341452926
10
683.1937181197959
20
21.407119794579032
10
686.21586985832448
20
21.407147250606727
10
686.21589484187382
20
18.657147250589322
10
683.19371709790573
20
18.657119794325375
42
0.44463525006791271
10
682.57201894348316
20
17.968015624031356
42
0.014077676454382416
10
682.71991013137892
20
16.844680600901029
42
0.44463907707995198
10
683.49878660593276
20
16.339968284076225
10
686.41795674220452
20
17.122176392572165
10
687.1297251010144
20
14.465884653310674
10
684.21053070141568
20
13.683670043319356
42
0.44463531640203968
10
683.7883671954329
20
12.857140371069471
42
0.014079099586865788
10
684.22200342642429
20
11.810253338007364
42
0.44463914341450261
10
685.1049704221457
20
11.524329323627164
10
687.72221687378885
20
13.035428970508907
10
689.097238510186
20
10.653871601861242
10
686.47996953728966
20
9.1427589520551518
42
0.44463525006788185
10
686.28611522722076
20
8.2351281575154385
42
0.014077676454380444
10
686.97586026449949
20
7.336237084471728
42
0.44463907707999406
0
CIRCLE
5
145
100
AcDbEntity
8
0
100
AcDbCircle
10
702.59088235004583
20
20.032169908329223
30
0
40
12.374999999999998
210
0
220
-0
230
1
0
ENDSEC
0
SECTION
2
OBJECTS
0
DICTIONARY
5
C
100
AcDbDictionary
3
ACAD_GROUP
350
D
3
ACAD_MLINESTYLE
350
17
0
DICTIONARY
5
D
100
AcDbDictionary
0
DICTIONARY
5
1A
330
C
100
AcDbDictionary
0
DICTIONARY
5
17
100
AcDbDictionary
0
ENDSEC
0
EOF
