  0
SECTION
  2
HEADER
  9
$ACADVER
  1
AC1015
  9
$ACADMAINTVER
 70
     6
  9
$DWGCODEPAGE
  3
ANSI_1257
  9
$INSBASE
 10
0.0
 20
0.0
 30
0.0
  9
$EXTMIN
 10
6433.612680091925
 20
-9.764890358990499
 30
0.0
  9
$EXTMAX
 10
6810.069444204999
 20
383.8394088471329
 30
0.0
  9
$LIMMIN
 10
0.0
 20
0.0
  9
$LIMMAX
 10
12.0
 20
9.0
  9
$ORTHOMODE
 70
     0
  9
$REGENMODE
 70
     1
  9
$FILLMODE
 70
     1
  9
$QTEXTMODE
 70
     0
  9
$MIRRTEXT
 70
     0
  9
$LTSCALE
 40
1.0
  9
$ATTMODE
 70
     1
  9
$TEXTSIZE
 40
0.2
  9
$TRACEWID
 40
0.05
  9
$TEXTSTYLE
  7
Standard
  9
$CLAYER
  8
Cut
  9
$CELTYPE
  6
ByLayer
  9
$CECOLOR
 62
   256
  9
$CELTSCALE
 40
1.0
  9
$DISPSILH
 70
     0
  9
$DIMSCALE
 40
1.0
  9
$DIMASZ
 40
0.18
  9
$DIMEXO
 40
0.0625
  9
$DIMDLI
 40
0.38
  9
$DIMRND
 40
0.0
  9
$DIMDLE
 40
0.0
  9
$DIMEXE
 40
0.18
  9
$DIMTP
 40
0.0
  9
$DIMTM
 40
0.0
  9
$DIMTXT
 40
0.18
  9
$DIMCEN
 40
0.09
  9
$DIMTSZ
 40
0.0
  9
$DIMTOL
 70
     0
  9
$DIMLIM
 70
     0
  9
$DIMTIH
 70
     1
  9
$DIMTOH
 70
     1
  9
$DIMSE1
 70
     0
  9
$DIMSE2
 70
     0
  9
$DIMTAD
 70
     0
  9
$DIMZIN
 70
     0
  9
$DIMBLK
  1

  9
$DIMASO
 70
     1
  9
$DIMSHO
 70
     1
  9
$DIMPOST
  1

  9
$DIMAPOST
  1

  9
$DIMALT
 70
     0
  9
$DIMALTD
 70
     2
  9
$DIMALTF
 40
25.4
  9
$DIMLFAC
 40
1.0
  9
$DIMTOFL
 70
     0
  9
$DIMTVP
 40
0.0
  9
$DIMTIX
 70
     0
  9
$DIMSOXD
 70
     0
  9
$DIMSAH
 70
     0
  9
$DIMBLK1
  1

  9
$DIMBLK2
  1

  9
$DIMSTYLE
  2
Standard
  9
$DIMCLRD
 70
     0
  9
$DIMCLRE
 70
     0
  9
$DIMCLRT
 70
     0
  9
$DIMTFAC
 40
1.0
  9
$DIMGAP
 40
0.09
  9
$DIMJUST
 70
     0
  9
$DIMSD1
 70
     0
  9
$DIMSD2
 70
     0
  9
$DIMTOLJ
 70
     1
  9
$DIMTZIN
 70
     0
  9
$DIMALTZ
 70
     0
  9
$DIMALTTZ
 70
     0
  9
$DIMUPT
 70
     0
  9
$DIMDEC
 70
     4
  9
$DIMTDEC
 70
     4
  9
$DIMALTU
 70
     2
  9
$DIMALTTD
 70
     2
  9
$DIMTXSTY
  7
Standard
  9
$DIMAUNIT
 70
     0
  9
$DIMADEC
 70
     0
  9
$DIMALTRND
 40
0.0
  9
$DIMAZIN
 70
     0
  9
$DIMDSEP
 70
    46
  9
$DIMATFIT
 70
     3
  9
$DIMFRAC
 70
     0
  9
$DIMLDRBLK
  1

  9
$DIMLUNIT
 70
     2
  9
$DIMLWD
 70
    -2
  9
$DIMLWE
 70
    -2
  9
$DIMTMOVE
 70
     0
  9
$LUNITS
 70
     2
  9
$LUPREC
 70
     4
  9
$SKETCHINC
 40
0.1
  9
$FILLETRAD
 40
120.0
  9
$AUNITS
 70
     0
  9
$AUPREC
 70
     0
  9
$MENU
  1
.
  9
$ELEVATION
 40
0.0
  9
$PELEVATION
 40
0.0
  9
$THICKNESS
 40
0.0
  9
$LIMCHECK
 70
     0
  9
$CHAMFERA
 40
0.0
  9
$CHAMFERB
 40
0.0
  9
$CHAMFERC
 40
0.0
  9
$CHAMFERD
 40
0.0
  9
$SKPOLY
 70
     0
  9
$TDCREATE
 40
2457448.816264572
  9
$TDUCREATE
 40
2457448.691264572
  9
$TDUPDATE
 40
2457881.826070463
  9
$TDUUPDATE
 40
2457881.701070463
  9
$TDINDWG
 40
2.2271507986
  9
$TDUSRTIMER
 40
2457881.524106898
  9
$USRTIMER
 70
     1
  9
$ANGBASE
 50
0.0
  9
$ANGDIR
 70
     0
  9
$PDMODE
 70
     0
  9
$PDSIZE
 40
0.0
  9
$PLINEWID
 40
0.0
  9
$SPLFRAME
 70
     0
  9
$SPLINETYPE
 70
     6
  9
$SPLINESEGS
 70
     8
  9
$HANDSEED
  5
A63C
  9
$SURFTAB1
 70
     6
  9
$SURFTAB2
 70
     6
  9
$SURFTYPE
 70
     6
  9
$SURFU
 70
     6
  9
$SURFV
 70
     6
  9
$UCSBASE
  2

  9
$UCSNAME
  2

  9
$UCSORG
 10
0.0
 20
0.0
 30
0.0
  9
$UCSXDIR
 10
1.0
 20
0.0
 30
0.0
  9
$UCSYDIR
 10
0.0
 20
1.0
 30
0.0
  9
$UCSORTHOREF
  2

  9
$UCSORTHOVIEW
 70
     0
  9
$UCSORGTOP
 10
0.0
 20
0.0
 30
0.0
  9
$UCSORGBOTTOM
 10
0.0
 20
0.0
 30
0.0
  9
$UCSORGLEFT
 10
0.0
 20
0.0
 30
0.0
  9
$UCSORGRIGHT
 10
0.0
 20
0.0
 30
0.0
  9
$UCSORGFRONT
 10
0.0
 20
0.0
 30
0.0
  9
$UCSORGBACK
 10
0.0
 20
0.0
 30
0.0
  9
$PUCSBASE
  2

  9
$PUCSNAME
  2

  9
$PUCSORG
 10
0.0
 20
0.0
 30
0.0
  9
$PUCSXDIR
 10
1.0
 20
0.0
 30
0.0
  9
$PUCSYDIR
 10
0.0
 20
1.0
 30
0.0
  9
$PUCSORTHOREF
  2

  9
$PUCSORTHOVIEW
 70
     0
  9
$PUCSORGTOP
 10
0.0
 20
0.0
 30
0.0
  9
$PUCSORGBOTTOM
 10
0.0
 20
0.0
 30
0.0
  9
$PUCSORGLEFT
 10
0.0
 20
0.0
 30
0.0
  9
$PUCSORGRIGHT
 10
0.0
 20
0.0
 30
0.0
  9
$PUCSORGFRONT
 10
0.0
 20
0.0
 30
0.0
  9
$PUCSORGBACK
 10
0.0
 20
0.0
 30
0.0
  9
$USERI1
 70
     0
  9
$USERI2
 70
     0
  9
$USERI3
 70
     0
  9
$USERI4
 70
     0
  9
$USERI5
 70
     0
  9
$USERR1
 40
0.0
  9
$USERR2
 40
0.0
  9
$USERR3
 40
0.0
  9
$USERR4
 40
0.0
  9
$USERR5
 40
0.0
  9
$WORLDVIEW
 70
     1
  9
$SHADEDGE
 70
     3
  9
$SHADEDIF
 70
    70
  9
$TILEMODE
 70
     1
  9
$MAXACTVP
 70
    64
  9
$PINSBASE
 10
0.0
 20
0.0
 30
0.0
  9
$PLIMCHECK
 70
     0
  9
$PEXTMIN
 10
1.000000000000000E+20
 20
1.000000000000000E+20
 30
1.000000000000000E+20
  9
$PEXTMAX
 10
-1.000000000000000E+20
 20
-1.000000000000000E+20
 30
-1.000000000000000E+20
  9
$PLIMMIN
 10
0.0
 20
0.0
  9
$PLIMMAX
 10
0.0
 20
0.0
  9
$UNITMODE
 70
     0
  9
$VISRETAIN
 70
     1
  9
$PLINEGEN
 70
     0
  9
$PSLTSCALE
 70
     1
  9
$TREEDEPTH
 70
  3020
  9
$CMLSTYLE
  2
Standard
  9
$CMLJUST
 70
     0
  9
$CMLSCALE
 40
1.0
  9
$PROXYGRAPHICS
 70
     1
  9
$MEASUREMENT
 70
     1
  9
$CELWEIGHT
370
    -1
  9
$ENDCAPS
280
     0
  9
$JOINSTYLE
280
     0
  9
$LWDISPLAY
290
     0
  9
$INSUNITS
 70
     4
  9
$HYPERLINKBASE
  1

  9
$STYLESHEET
  1

  9
$XEDIT
290
     1
  9
$CEPSNTYPE
380
     0
  9
$PSTYLEMODE
290
     1
  9
$FINGERPRINTGUID
  2
{227837CF-DC10-40F9-8C2D-3F09AC137859}
  9
$VERSIONGUID
  2
{FAC11183-057B-4AE0-8FEF-224ED5377AB9}
  9
$EXTNAMES
290
     1
  9
$PSVPSCALE
 40
0.0
  9
$OLESTARTUP
290
     0
  0
ENDSEC
  0
SECTION
  2
CLASSES
  0
CLASS
  1
ACDBDICTIONARYWDFLT
  2
AcDbDictionaryWithDefault
  3
ObjectDBX Classes
 90
        0
280
     0
281
     0
  0
CLASS
  1
MATERIAL
  2
AcDbMaterial
  3
ObjectDBX Classes
 90
     1153
280
     0
281
     0
  0
CLASS
  1
VISUALSTYLE
  2
AcDbVisualStyle
  3
ObjectDBX Classes
 90
     4095
280
     0
281
     0
  0
CLASS
  1
SCALE
  2
AcDbScale
  3
ObjectDBX Classes
 90
     1153
280
     0
281
     0
  0
CLASS
  1
TABLESTYLE
  2
AcDbTableStyle
  3
ObjectDBX Classes
 90
     4095
280
     0
281
     0
  0
CLASS
  1
MLEADERSTYLE
  2
AcDbMLeaderStyle
  3
ACDB_MLEADERSTYLE_CLASS
 90
     4095
280
     0
281
     0
  0
CLASS
  1
ACDBSECTIONVIEWSTYLE
  2
AcDbSectionViewStyle
  3
ObjectDBX Classes
 90
     1025
280
     0
281
     0
  0
CLASS
  1
ACDBDETAILVIEWSTYLE
  2
AcDbDetailViewStyle
  3
ObjectDBX Classes
 90
     1025
280
     0
281
     0
  0
CLASS
  1
RASTERVARIABLES
  2
AcDbRasterVariables
  3
ISM
 90
        0
280
     0
281
     0
  0
CLASS
  1
DICTIONARYVAR
  2
AcDbDictionaryVar
  3
ObjectDBX Classes
 90
        0
280
     0
281
     0
  0
CLASS
  1
CELLSTYLEMAP
  2
AcDbCellStyleMap
  3
ObjectDBX Classes
 90
     1152
280
     0
281
     0
  0
CLASS
  1
SORTENTSTABLE
  2
AcDbSortentsTable
  3
ObjectDBX Classes
 90
        0
280
     0
281
     0
  0
CLASS
  1
SUN
  2
AcDbSun
  3
SCENEOE
 90
     1153
280
     0
281
     0
  0
CLASS
  1
DIMASSOC
  2
AcDbDimAssoc
  3
"AcDbDimAssoc|Product Desc:     AcDim ARX App For Dimension|Company:          Autodesk, Inc.|WEB Address:      www.autodesk.com"
 90
        0
280
     0
281
     0
  0
CLASS
  1
ACDB_MTEXTOBJECTCONTEXTDATA_CLASS
  2
AcDbMTextObjectContextData
  3
ObjectDBX Classes
 90
     1153
280
     0
281
     0
  0
CLASS
  1
ACDBPLACEHOLDER
  2
AcDbPlaceHolder
  3
ObjectDBX Classes
 90
        0
280
     0
281
     0
  0
CLASS
  1
LAYOUT
  2
AcDbLayout
  3
ObjectDBX Classes
 90
        0
280
     0
281
     0
  0
ENDSEC
  0
SECTION
  2
TABLES
  0
TABLE
  2
VPORT
  5
8
330
0
100
AcDbSymbolTable
 70
     1
  0
VPORT
  5
57
330
8
100
AcDbSymbolTableRecord
100
AcDbViewportTableRecord
  2
*Active
 70
     0
 10
0.0
 20
0.0
 11
1.0
 21
1.0
 12
6682.416678902717
 22
173.7689496255786
 13
0.0
 23
0.0
 14
1.0
 24
1.0
 15
0.0
 25
0.0
 16
0.0
 26
0.0
 36
1.0
 17
0.0
 27
0.0
 37
0.0
 40
627.306851859759
 41
2.011042944785276
 42
50.0
 43
0.0
 44
0.0
 50
0.0
 51
0.0
 71
    16
 72
  1000
 73
     1
 74
     1
 75
     0
 76
     0
 77
     0
 78
     0
281
     0
 65
     1
110
0.0
120
0.0
130
0.0
111
1.0
121
0.0
131
0.0
112
0.0
122
1.0
132
0.0
 79
     0
146
0.0
  0
ENDTAB
  0
TABLE
  2
LTYPE
  5
5
330
0
100
AcDbSymbolTable
 70
     2
  0
LTYPE
  5
5B
330
5
100
AcDbSymbolTableRecord
100
AcDbLinetypeTableRecord
  2
ByBlock
 70
     0
  3

 72
    65
 73
     0
 40
0.0
  0
LTYPE
  5
5C
330
5
100
AcDbSymbolTableRecord
100
AcDbLinetypeTableRecord
  2
ByLayer
 70
     0
  3

 72
    65
 73
     0
 40
0.0
  0
LTYPE
  5
5D
330
5
100
AcDbSymbolTableRecord
100
AcDbLinetypeTableRecord
  2
Continuous
 70
     0
  3
Solid line
 72
    65
 73
     0
 40
0.0
  0
ENDTAB
  0
TABLE
  2
LAYER
  5
2
102
{ACAD_XDICTIONARY
360
18A
102
}
330
0
100
AcDbSymbolTable
 70
     8
  0
LAYER
  5
54
330
2
100
AcDbSymbolTableRecord
100
AcDbLayerTableRecord
  2
0
 70
     0
 62
     7
  6
Continuous
370
    -3
390
F
  0
LAYER
  5
88
330
2
100
AcDbSymbolTableRecord
100
AcDbLayerTableRecord
  2
Cut
 70
     0
 62
     6
  6
Continuous
370
    18
390
F
  0
LAYER
  5
96
330
2
100
AcDbSymbolTableRecord
100
AcDbLayerTableRecord
  2
Reference
 70
     0
 62
    -8
  6
Continuous
370
    18
390
F
  0
LAYER
  5
9D
330
2
100
AcDbSymbolTableRecord
100
AcDbLayerTableRecord
  2
Equipment
 70
     0
 62
     4
  6
Continuous
370
     9
390
F
  0
ENDTAB
  0
TABLE
  2
STYLE
  5
3
330
0
100
AcDbSymbolTable
 70
     3
  0
STYLE
  5
55
330
3
100
AcDbSymbolTableRecord
100
AcDbTextStyleTableRecord
  2
Standard
 70
     0
 40
0.0
 41
1.0
 50
0.0
 71
     0
 42
0.2
  3
txt
  4

  0
ENDTAB
  0
TABLE
  2
VIEW
  5
6
330
0
100
AcDbSymbolTable
 70
     0
  0
ENDTAB
  0
TABLE
  2
UCS
  5
7
330
0
100
AcDbSymbolTable
 70
     0
  0
ENDTAB
  0
TABLE
  2
APPID
  5
9
330
0
100
AcDbSymbolTable
 70
     4
  0
APPID
  5
56
330
9
100
AcDbSymbolTableRecord
100
AcDbRegAppTableRecord
  2
ACAD
 70
     0
  0
APPID
  5
5E
330
9
100
AcDbSymbolTableRecord
100
AcDbRegAppTableRecord
  2
AcadAnnotative
 70
     0
  0
APPID
  5
78
330
9
100
AcDbSymbolTableRecord
100
AcDbRegAppTableRecord
  2
REVIT
 70
     0
  0
APPID
  5
5DF0
330
9
100
AcDbSymbolTableRecord
100
AcDbRegAppTableRecord
  2
AcAecLayerStandard
 70
     0
  0
ENDTAB
  0
TABLE
  2
DIMSTYLE
  5
A
330
0
100
AcDbSymbolTable
 70
     3
100
AcDbDimStyleTable
  0
DIMSTYLE
105
58
330
A
100
AcDbSymbolTableRecord
100
AcDbDimStyleTableRecord
  2
Standard
 70
     0
178
     0
340
55
  0
ENDTAB
  0
TABLE
  2
BLOCK_RECORD
  5
1
330
0
100
AcDbSymbolTable
 70
   140
  0
BLOCK_RECORD
  5
70
102
{ACAD_XDICTIONARY
360
B5
102
}
330
1
100
AcDbSymbolTableRecord
100
AcDbBlockTableRecord
  2
*Model_Space
340
73
  0
BLOCK_RECORD
  5
6C
330
1
100
AcDbSymbolTableRecord
100
AcDbBlockTableRecord
  2
*Paper_Space
340
6F
  0
BLOCK_RECORD
  5
74
330
1
100
AcDbSymbolTableRecord
100
AcDbBlockTableRecord
  2
*Paper_Space0
340
77
  0
BLOCK_RECORD
  5
2285
330
1
100
AcDbSymbolTableRecord
100
AcDbBlockTableRecord
  2
T-slot 3mm-20
340
0
102
{BLKREFS
331
251D
331
251E
331
251F
331
2522
331
25E7
331
26B4
331
26B5
331
26B6
331
2721
331
2722
331
27A1
331
283A
331
283B
331
283E
331
28E5
331
28E6
331
28E7
331
28E8
331
290C
331
294C
331
294D
331
294E
331
2972
331
2973
331
2997
331
2998
331
4DF0
331
4DF1
331
4DF2
331
4DF3
331
53A1
331
53A6
331
53A7
331
53A8
331
5428
331
5429
331
542A
331
542C
331
542D
331
542E
331
54C8
331
54C9
331
54CA
331
54CB
331
554C
331
554D
331
55CA
331
55CB
331
55D0
331
55D1
331
5649
331
564A
331
564F
331
5650
331
0
331
9C10
331
9C18
331
9C20
331
9C28
331
0
331
0
331
0
331
0
331
9D52
331
9D61
331
0
331
0
331
0
331
0
102
}
  0
BLOCK_RECORD
  5
31EA
330
1
100
AcDbSymbolTableRecord
100
AcDbBlockTableRecord
  2
laikiklis2
340
0
102
{BLKREFS
331
97CC
331
0
331
A28B
331
0
331
0
331
0
331
A497
331
0
331
0
102
}
  0
BLOCK_RECORD
  5
98F7
330
1
100
AcDbSymbolTableRecord
100
AcDbBlockTableRecord
  2
M4 front
340
0
102
{BLKREFS
331
9901
102
}
  0
BLOCK_RECORD
  5
9906
330
1
100
AcDbSymbolTableRecord
100
AcDbBlockTableRecord
  2
M4 bolt front
340
0
102
{BLKREFS
331
990D
331
990E
102
}
  0
BLOCK_RECORD
  5
993B
330
1
100
AcDbSymbolTableRecord
100
AcDbBlockTableRecord
  2
Ratukas
340
0
102
{BLKREFS
331
9945
331
0
331
A3D5
102
}
  0
BLOCK_RECORD
  5
9958
330
1
100
AcDbSymbolTableRecord
100
AcDbBlockTableRecord
  2
Ratukas front
340
0
102
{BLKREFS
331
9960
331
99B1
102
}
  0
BLOCK_RECORD
  5
9982
330
1
100
AcDbSymbolTableRecord
100
AcDbBlockTableRecord
  2
svirkstas
340
0
102
{BLKREFS
331
9990
102
}
  0
BLOCK_RECORD
  5
9A9D
330
1
100
AcDbSymbolTableRecord
100
AcDbBlockTableRecord
  2
base
340
0
102
{BLKREFS
331
9AB1
331
0
331
A3D4
331
0
102
}
  0
BLOCK_RECORD
  5
9AB3
330
1
100
AcDbSymbolTableRecord
100
AcDbBlockTableRecord
  2
legs
340
0
102
{BLKREFS
331
9AB7
331
0
331
0
331
A3CD
331
A3D3
102
}
  0
BLOCK_RECORD
  5
9C0B
330
1
100
AcDbSymbolTableRecord
100
AcDbBlockTableRecord
  2
sirholder
340
0
102
{BLKREFS
331
9C2F
331
0
331
A3F0
102
}
  0
BLOCK_RECORD
  5
9E05
330
1
100
AcDbSymbolTableRecord
100
AcDbBlockTableRecord
  2
sirholder2
340
0
102
{BLKREFS
331
9E31
331
0
331
A3F1
102
}
  0
BLOCK_RECORD
  5
A1B9
330
1
100
AcDbSymbolTableRecord
100
AcDbBlockTableRecord
  2
laserpointer
340
0
102
{BLKREFS
331
A1C0
102
}
  0
BLOCK_RECORD
  5
A2E1
330
1
100
AcDbSymbolTableRecord
100
AcDbBlockTableRecord
  2
holder2
340
0
102
{BLKREFS
331
A2FC
331
0
331
0
331
A419
331
A58B
331
0
102
}
  0
BLOCK_RECORD
  5
A38B
330
1
100
AcDbSymbolTableRecord
100
AcDbBlockTableRecord
  2
holder3
340
0
102
{BLKREFS
331
A3AA
331
A3CB
331
0
331
0
331
A495
331
A496
331
A5BD
331
A5E2
331
A5E3
331
A5E4
331
A5E5
331
0
331
0
331
0
331
0
331
0
331
0
331
A5F0
331
A5F1
102
}
  0
ENDTAB
  0
ENDSEC
  0
SECTION
  2
BLOCKS
  0
BLOCK
  5
71
330
70
100
AcDbEntity
  8
0
100
AcDbBlockBegin
  2
*Model_Space
 70
     0
 10
0.0
 20
0.0
 30
0.0
  3
*Model_Space
  1
*Model_Space
  0
ENDBLK
  5
72
330
70
100
AcDbEntity
  8
0
100
AcDbBlockEnd
  0
BLOCK
  5
6D
330
6C
100
AcDbEntity
 67
     1
  8
0
100
AcDbBlockBegin
  2
*Paper_Space
 70
     0
 10
0.0
 20
0.0
 30
0.0
  3
*Paper_Space
  1
*Paper_Space
  0
ENDBLK
  5
6E
330
6C
100
AcDbEntity
 67
     1
  8
0
100
AcDbBlockEnd
  0
BLOCK
  5
75
330
74
100
AcDbEntity
  8
0
100
AcDbBlockBegin
  2
*Paper_Space0
 70
     0
 10
0.0
 20
0.0
 30
0.0
  3
*Paper_Space0
  1
*Paper_Space0
  0
ENDBLK
  5
76
330
74
100
AcDbEntity
  8
0
100
AcDbBlockEnd
  0
BLOCK
  5
2292
330
2285
100
AcDbEntity
  8
0
100
AcDbBlockBegin
  2
T-slot 3mm-20
 70
     0
 10
0.0
 20
0.0
 30
0.0
  3
T-slot 3mm-20
  1
T-slot 3mm-20
  0
LINE
  5
2286
330
2285
100
AcDbEntity
  8
Cut
100
AcDbLine
 10
2752.633853643836
 20
291.6299808061129
 30
0.0
 11
2752.633853643836
 21
294.4899778061121
 31
0.0
  0
LINE
  5
2287
330
2285
100
AcDbEntity
  8
Cut
100
AcDbLine
 10
2755.433853643835
 20
294.4899778061122
 30
0.0
 11
2755.433853643835
 21
291.6299808061129
 31
0.0
  0
LINE
  5
2289
330
2285
100
AcDbEntity
  8
Cut
100
AcDbLine
 10
2756.583853643836
 20
294.4899778061121
 30
0.0
 11
2756.583853643836
 21
296.6299778061122
 31
0.0
  0
LINE
  5
228C
330
2285
100
AcDbEntity
  8
Cut
100
AcDbLine
 10
2751.483853643836
 20
294.4899778061119
 30
0.0
 11
2751.483853643836
 21
296.6299778061119
 31
0.0
  0
LINE
  5
228D
330
2285
100
AcDbEntity
  8
Cut
100
AcDbLine
 10
2751.483853643836
 20
296.6299778061119
 30
0.0
 11
2752.633853643836
 21
296.6299778061116
 31
0.0
  0
LINE
  5
2291
330
2285
100
AcDbEntity
  8
Cut
100
AcDbLine
 10
2755.433853643835
 20
291.6299808061128
 30
0.0
 11
2752.633853643836
 21
291.6299808061128
 31
0.0
  0
LINE
  5
2311
330
2285
100
AcDbEntity
  8
Cut
100
AcDbLine
 10
2751.483853643836
 20
294.4899778061119
 30
0.0
 11
2752.633853643836
 21
294.4899778061121
 31
0.0
  0
LINE
  5
23C8
330
2285
100
AcDbEntity
  8
Cut
100
AcDbLine
 10
2756.583853643836
 20
294.4899778061121
 30
0.0
 11
2755.433853643835
 21
294.4899778061123
 31
0.0
  0
LINE
  5
25F4
330
2285
100
AcDbEntity
  8
Reference
100
AcDbLine
 10
2754.033853643836
 20
291.6299808061128
 30
0.0
 11
2756.083853643836
 21
291.6299808061128
 31
0.0
  0
LINE
  5
27AD
330
2285
100
AcDbEntity
  8
Reference
100
AcDbLine
 10
2754.033853643836
 20
291.6299808061128
 30
0.0
 11
2751.983853643836
 21
291.6299808061127
 31
0.0
  0
LINE
  5
482F
330
2285
100
AcDbEntity
  8
Reference
100
AcDbLine
 10
2755.583853524856
 20
297.7299834332046
 30
0.0
 11
2752.483853762817
 21
297.7299834332046
 31
0.0
  0
LINE
  5
9411
330
2285
100
AcDbEntity
  8
Cut
100
AcDbLine
 10
2752.633853643836
 20
299.489977806112
 30
0.0
 11
2755.433853643835
 21
299.4899778061121
 31
0.0
  0
LINE
  5
9412
330
2285
100
AcDbEntity
  8
Cut
100
AcDbLine
 10
2752.633853643836
 20
296.6299778061116
 30
0.0
 11
2752.633853643836
 21
299.4899778061121
 31
0.0
  0
LINE
  5
9413
330
2285
100
AcDbEntity
  8
Cut
100
AcDbLine
 10
2755.433853643835
 20
299.4899778061122
 30
0.0
 11
2755.433853643835
 21
296.6299778061118
 31
0.0
  0
LINE
  5
9414
330
2285
100
AcDbEntity
  8
Cut
100
AcDbLine
 10
2755.433853643835
 20
296.6299778061119
 30
0.0
 11
2756.583853643836
 21
296.6299778061122
 31
0.0
  0
ENDBLK
  5
2293
330
2285
100
AcDbEntity
  8
0
100
AcDbBlockEnd
  0
BLOCK
  5
3204
330
31EA
100
AcDbEntity
  8
0
100
AcDbBlockBegin
  2
laikiklis2
 70
     0
 10
0.0
 20
0.0
 30
0.0
  3
laikiklis2
  1
laikiklis2
  0
ARC
  5
987F
330
31EA
100
AcDbEntity
  8
Cut
100
AcDbCircle
 10
6439.594440110957
 20
338.1376168635274
 30
0.0
 40
1.0
100
AcDbArc
 50
0.0
 51
90.0
  0
LINE
  5
9880
330
31EA
100
AcDbEntity
  8
Cut
100
AcDbLine
 10
6436.876505227914
 20
339.1376168635274
 30
0.0
 11
6439.594440110957
 21
339.1376168635274
 31
0.0
  0
LINE
  5
9881
330
31EA
100
AcDbEntity
  8
Cut
100
AcDbLine
 10
6440.594440110958
 20
337.0099947916328
 30
0.0
 11
6440.594440110957
 21
338.1376168635273
 31
0.0
  0
ARC
  5
9882
330
31EA
100
AcDbEntity
  8
Cut
100
AcDbCircle
 10
6436.876505227914
 20
338.1376168635274
 30
0.0
 40
1.0
100
AcDbArc
 50
90.0
 51
180.0
  0
LINE
  5
9883
330
31EA
100
AcDbEntity
  8
Cut
100
AcDbLine
 10
6435.876505227915
 20
337.0099947916374
 30
0.0
 11
6435.876505227914
 21
338.1376168635273
 31
0.0
  0
LINE
  5
A27D
330
31EA
100
AcDbEntity
  8
Cut
100
AcDbLine
 10
6429.198971420506
 20
321.8030015370432
 30
0.0
 11
6429.198971420506
 21
343.003001537043
 31
0.0
  0
LINE
  5
A27E
330
31EA
100
AcDbEntity
  8
Cut
100
AcDbLine
 10
6433.735472669438
 20
321.8030015370432
 30
0.0
 11
6433.735472669438
 21
324.8030015370432
 31
0.0
  0
LINE
  5
A27F
330
31EA
100
AcDbEntity
  8
Cut
100
AcDbLine
 10
6432.198971420506
 20
346.003001537043
 30
0.0
 11
6438.235472669435
 21
346.003001537043
 31
0.0
  0
LINE
  5
A280
330
31EA
100
AcDbEntity
  8
Cut
100
AcDbLine
 10
6433.735472669438
 20
324.8030015370432
 30
0.0
 11
6438.235472669435
 21
324.8030015370432
 31
0.0
  0
ARC
  5
A281
330
31EA
100
AcDbEntity
  8
Cut
100
AcDbCircle
 10
6431.735472669438
 20
321.8030015370432
 30
0.0
 40
2.000000000000001
100
AcDbArc
 50
270.0
 51
0.0
  0
ARC
  5
A282
330
31EA
100
AcDbEntity
  8
Cut
100
AcDbCircle
 10
6431.198971420506
 20
321.8030015370432
 30
0.0
 40
1.999999999999999
100
AcDbArc
 50
180.0
 51
270.0
  0
ARC
  5
A283
330
31EA
100
AcDbEntity
  8
Cut
100
AcDbCircle
 10
6444.735472669432
 20
321.8030015370432
 30
0.0
 40
2.000000000000001
100
AcDbArc
 50
180.0
 51
270.0
  0
LINE
  5
A284
330
31EA
100
AcDbEntity
  8
Cut
100
AcDbLine
 10
6447.271973918364
 20
321.8030015370432
 30
0.0
 11
6447.271973918363
 21
343.003001537043
 31
0.0
  0
LINE
  5
A285
330
31EA
100
AcDbEntity
  8
Cut
100
AcDbLine
 10
6442.735472669432
 20
321.8030015370432
 30
0.0
 11
6442.735472669432
 21
324.8030015370432
 31
0.0
  0
LINE
  5
A286
330
31EA
100
AcDbEntity
  8
Cut
100
AcDbLine
 10
6442.735472669432
 20
324.8030015370432
 30
0.0
 11
6438.235472669435
 21
324.8030015370432
 31
0.0
  0
LINE
  5
A287
330
31EA
100
AcDbEntity
  8
Cut
100
AcDbLine
 10
6444.735472669432
 20
319.8030015370432
 30
0.0
 11
6445.271973918364
 21
319.8030015370432
 31
0.0
  0
LINE
  5
A288
330
31EA
100
AcDbEntity
  8
Cut
100
AcDbLine
 10
6447.271973918363
 20
321.003001537043
 30
0.0
 11
6447.271973918363
 21
321.003001537043
 31
0.0
  0
LINE
  5
A289
330
31EA
100
AcDbEntity
  8
Cut
100
AcDbLine
 10
6444.271973918363
 20
346.003001537043
 30
0.0
 11
6438.235472669435
 21
346.003001537043
 31
0.0
  0
ARC
  5
A28A
330
31EA
100
AcDbEntity
  8
Cut
100
AcDbCircle
 10
6445.271973918364
 20
321.8030015370432
 30
0.0
 40
1.999999999999999
100
AcDbArc
 50
270.0
 51
0.0
  0
ARC
  5
A2C6
330
31EA
100
AcDbEntity
  8
Cut
100
AcDbCircle
 10
6444.271973918363
 20
343.003001537043
 30
0.0
 40
3.000000000000001
100
AcDbArc
 50
0.0
 51
90.0
  0
ARC
  5
A2C7
330
31EA
100
AcDbEntity
  8
Cut
100
AcDbCircle
 10
6432.198971420506
 20
343.003001537043
 30
0.0
 40
3.000000000000001
100
AcDbArc
 50
90.0
 51
180.0
  0
LINE
  5
A3EF
330
31EA
100
AcDbEntity
  8
Cut
100
AcDbLine
 10
6431.735472669438
 20
319.8030015370432
 30
0.0
 11
6431.198971420506
 21
319.8030015370432
 31
0.0
  0
ARC
  5
A492
330
31EA
100
AcDbEntity
  8
Cut
100
AcDbCircle
 10
6432.876505227915
 20
337.009994791636
 30
0.0
 40
3.0
100
AcDbArc
 50
311.7368362513965
 51
0.0000000000260551
  0
ARC
  5
A493
330
31EA
100
AcDbEntity
  8
Cut
100
AcDbCircle
 10
6443.594440110958
 20
337.0099947916341
 30
0.0
 40
3.0
100
AcDbArc
 50
180.0000000000261
 51
228.2631637485812
  0
ARC
  5
A494
330
31EA
100
AcDbEntity
  8
Cut
100
AcDbCircle
 10
6438.235472669436
 20
331.0030015370431
 30
0.0
 40
5.05
100
AcDbArc
 50
131.7368362514049
 51
48.26316374859251
  0
CIRCLE
  5
A4C4
330
31EA
100
AcDbEntity
  8
Cut
100
AcDbCircle
 10
6432.198971420506
 20
343.003001537043
 30
0.0
 40
1.5
  0
CIRCLE
  5
A4C5
330
31EA
100
AcDbEntity
  8
Cut
100
AcDbCircle
 10
6444.271973918363
 20
343.003001537043
 30
0.0
 40
1.5
  0
ENDBLK
  5
3205
330
31EA
100
AcDbEntity
  8
0
100
AcDbBlockEnd
  0
BLOCK
  5
98FF
330
98F7
100
AcDbEntity
  8
0
100
AcDbBlockBegin
  2
M4 front
 70
     0
 10
0.0
 20
0.0
 30
0.0
  3
M4 front
  1
M4 front
  0
LINE
  5
98F8
330
98F7
100
AcDbEntity
  8
Equipment
100
AcDbLine
 10
6591.050819288025
 20
283.8761405932137
 30
0.0
 11
6595.050819288025
 21
283.8761405932137
 31
0.0
  0
LINE
  5
98F9
330
98F7
100
AcDbEntity
  8
Equipment
100
AcDbLine
 10
6595.050819288025
 20
283.8761405932137
 30
0.0
 11
6595.050819288025
 21
271.8761405932137
 31
0.0
  0
LINE
  5
98FA
330
98F7
100
AcDbEntity
  8
Equipment
100
AcDbLine
 10
6589.550819288025
 20
267.8761405932137
 30
0.0
 11
6596.550819288025
 21
267.8761405932137
 31
0.0
  0
LINE
  5
98FB
330
98F7
100
AcDbEntity
  8
Equipment
100
AcDbLine
 10
6596.550819288025
 20
271.8761405932137
 30
0.0
 11
6596.550819288025
 21
267.8761405932137
 31
0.0
  0
LINE
  5
98FC
330
98F7
100
AcDbEntity
  8
Equipment
100
AcDbLine
 10
6589.550819288025
 20
271.8761405932137
 30
0.0
 11
6589.550819288025
 21
267.8761405932137
 31
0.0
  0
LINE
  5
98FD
330
98F7
100
AcDbEntity
  8
Equipment
100
AcDbLine
 10
6591.050819288025
 20
283.8761405932137
 30
0.0
 11
6591.050819288025
 21
271.8761405932137
 31
0.0
  0
LINE
  5
98FE
330
98F7
100
AcDbEntity
  8
Equipment
100
AcDbLine
 10
6589.550819288025
 20
271.8761405932137
 30
0.0
 11
6596.550819288025
 21
271.8761405932137
 31
0.0
  0
ENDBLK
  5
9900
330
98F7
100
AcDbEntity
  8
0
100
AcDbBlockEnd
  0
BLOCK
  5
990B
330
9906
100
AcDbEntity
  8
0
100
AcDbBlockBegin
  2
M4 bolt front
 70
     0
 10
0.0
 20
0.0
 30
0.0
  3
M4 bolt front
  1
M4 bolt front
  0
LINE
  5
9907
330
9906
100
AcDbEntity
  8
Equipment
100
AcDbLine
 10
6589.550819288025
 20
271.8761405932137
 30
0.0
 11
6596.550819288025
 21
271.8761405932137
 31
0.0
  0
LINE
  5
9908
330
9906
100
AcDbEntity
  8
Equipment
100
AcDbLine
 10
6596.550819288025
 20
271.8761405932137
 30
0.0
 11
6596.550819288025
 21
274.8761405932137
 31
0.0
  0
LINE
  5
9909
330
9906
100
AcDbEntity
  8
Equipment
100
AcDbLine
 10
6596.550819288025
 20
274.8761405932137
 30
0.0
 11
6589.550819288025
 21
274.8761405932137
 31
0.0
  0
LINE
  5
990A
330
9906
100
AcDbEntity
  8
Equipment
100
AcDbLine
 10
6589.550819288025
 20
274.8761405932137
 30
0.0
 11
6589.550819288025
 21
271.8761405932137
 31
0.0
  0
ENDBLK
  5
990C
330
9906
100
AcDbEntity
  8
0
100
AcDbBlockEnd
  0
BLOCK
  5
993C
330
993B
100
AcDbEntity
  8
0
100
AcDbBlockBegin
  2
Ratukas
 70
     0
 10
0.0
 20
0.0
 30
0.0
  3
Ratukas
  1
Ratukas
  0
LWPOLYLINE
  5
993D
330
993B
100
AcDbEntity
  8
Cut
 62
     6
100
AcDbPolyline
 90
        2
 70
     1
 43
0.0
 10
34.24939400000039
 20
132.727825
 10
34.24939400000039
 20
132.727822
  0
SPLINE
  5
993E
330
993B
100
AcDbEntity
  8
Cut
 62
     6
100
AcDbSpline
210
0.0
220
0.0
230
1.0
 70
  1064
 71
     3
 72
    55
 73
    51
 74
    49
 42
0.000000001
 43
0.0000000001
 44
0.0000000001
 40
0.0
 40
0.0
 40
0.0
 40
0.0
 40
2.064958518227097
 40
3.454784908077314
 40
5.303177682133573
 40
7.151570428921418
 40
8.541396743515516
 40
10.6063550777065
 40
12.67131241848411
 40
14.0611359494531
 40
15.90952983980309
 40
17.75792190881083
 40
19.14774781221201
 40
21.21270474512474
 40
23.27766467666507
 40
24.66749014171622
 40
26.51588201184892
 40
28.36427475863681
 40
29.75410030773
 40
31.81905864192113
 40
33.88401598269891
 40
35.27383951366728
 40
37.12223434561179
 40
38.97062561983631
 40
40.36044953070174
 40
42.42540796586075
 40
44.49036575221501
 40
45.88019121726632
 40
47.72858399132258
 40
49.57697673811042
 40
50.96680228720398
 40
53.0317596408936
 40
55.09671691035254
 40
56.48654044132153
 40
58.33493459976808
 40
60.1833266687758
 40
61.57315257217702
 40
63.63811100733572
 40
65.70306879368988
 40
67.09289425874104
 40
68.9412870327979
 40
70.7896797795858
 40
72.17950468524447
 40
74.24446203893389
 40
76.30941930839302
 40
77.69924376231671
 40
79.54763731591778
 40
81.39602938492496
 40
82.78585429205867
 40
84.85081218793131
 40
84.85081218793131
 40
84.85081218793131
 40
84.85081218793131
 10
34.24939400000039
 20
132.727822
 30
0.0
 10
33.69188332371561
 20
132.2857617564512
 30
0.0
 10
32.75913845086735
 20
131.5461715688553
 30
0.0
 10
32.46762264165807
 20
129.6155420059544
 30
0.0
 10
30.65860649678129
 20
129.0321295808629
 30
0.0
 10
28.76187880096402
 20
129.0461703026473
 30
0.0
 10
27.88907743812263
 20
130.7638356882912
 30
0.0
 10
26.15342086367781
 20
131.613808017035
 30
0.0
 10
24.22103104755747
 20
131.6549567000792
 30
0.0
 10
22.65792876492693
 20
130.5296158936868
 30
0.0
 10
20.96372610878763
 20
131.3859592657996
 30
0.0
 10
19.63315698056176
 20
132.7399218501278
 30
0.0
 10
20.23041688511726
 20
134.5710311123535
 30
0.0
 10
19.60419205454176
 20
136.399566837837
 30
0.0
 10
18.26686800863927
 20
137.7950093061433
 30
0.0
 10
16.36585384053246
 20
138.104562763031
 30
0.0
 10
15.77338773086514
 20
139.9080640069724
 30
0.0
 10
15.7899316165411
 20
141.8063152758522
 30
0.0
 10
17.50704460768051
 20
142.6787819165262
 30
0.0
 10
18.35721169772583
 20
144.4145564429191
 30
0.0
 10
18.39830570000344
 20
146.3469131216139
 30
0.0
 10
17.27297526919561
 20
147.9100220161051
 30
0.0
 10
18.12931520972118
 20
149.6042227033344
 30
0.0
 10
19.48327756279716
 20
150.934793041785
 30
0.0
 10
21.31438637598207
 20
150.3375325943186
 30
0.0
 10
23.14292044331825
 20
150.9637602003967
 30
0.0
 10
24.5383636571542
 20
152.3010824444951
 30
0.0
 10
24.84791675667942
 20
154.2020966350252
 30
0.0
 10
26.65141876240641
 20
154.7945620071359
 30
0.0
 10
28.54967032251061
 20
154.7780185849412
 30
0.0
 10
29.42213654017416
 20
153.0609051734826
 30
0.0
 10
31.15791202256418
 20
152.210741578943
 30
0.0
 10
33.09026818606325
 20
152.1696439064346
 30
0.0
 10
34.65337661319914
 20
153.2949743235524
 30
0.0
 10
36.34757862277822
 20
152.4386372642128
 30
0.0
 10
37.67814815034166
 20
151.0846729021913
 30
0.0
 10
37.0808876126799
 20
149.2535633604153
 30
0.0
 10
37.70711513463554
 20
147.4250285152317
 30
0.0
 10
39.04443742012223
 20
146.0295854052169
 30
0.0
 10
40.94545173338838
 20
145.7200320828877
 30
0.0
 10
41.53791647494724
 20
143.9165310672354
 30
0.0
 10
41.5213753533653
 20
142.0182761711264
 30
0.0
 10
39.80425496463141
 20
141.1458215363386
 30
0.0
 10
38.95412501892496
 20
139.409991235347
 30
0.0
 10
38.91290884615161
 20
137.4778296158996
 30
0.0
 10
40.03857500248778
 20
135.9141695365631
 30
0.0
 10
39.18071198994443
 20
134.2224710148311
 30
0.0
 10
37.8322622415519
 20
132.8828485479128
 30
0.0
 10
35.9831166277286
 20
133.5097230090568
 30
0.0
 10
34.89798682794022
 20
133.0203362891439
 30
0.0
 10
34.24939400000039
 20
132.727825
 30
0.0
 11
34.24939400000039
 21
132.727822
 31
0.0
 11
32.84224499999982
 21
131.216536
 31
0.0
 11
32.31347699999969
 21
129.931226
 31
0.0
 11
30.64267000000018
 21
129.140682
 31
0.0
 11
28.8106630000002
 21
129.386255
 31
0.0
 11
27.91640000000007
 21
130.450168
 31
0.0
 11
26.11662100000012
 21
131.462516
 31
0.0
 11
24.05297700000028
 21
131.38888
 31
0.0
 11
22.77023199999985
 21
130.853927
 31
0.0
 11
21.02979500000038
 21
131.476373
 31
0.0
 11
19.90801800000008
 21
132.945444
 31
0.0
 11
20.02797999999984
 21
134.330083
 31
0.0
 11
19.47117999999955
 21
136.318555
 31
0.0
 11
17.95989300000019
 21
137.725705
 31
0.0
 11
16.67458400000032
 21
138.254473
 31
0.0
 11
15.88403999999991
 21
139.925279
 31
0.0
 11
16.12961300000006
 21
141.757286
 31
0.0
 11
17.19352499999968
 21
142.651549
 31
0.0
 11
18.20587299999988
 21
144.451328
 31
0.0
 11
18.1322369999998
 21
146.514972
 31
0.0
 11
17.5972840000004
 21
147.797717
 31
0.0
 11
18.2197299999998
 21
149.538155
 31
0.0
 11
19.6887999999999
 21
150.659932
 31
0.0
 11
21.07343700000001
 21
150.53997
 31
0.0
 11
23.06191000000035
 21
151.096772
 31
0.0
 11
24.46905900000002
 21
152.608057
 31
0.0
 11
24.99782700000014
 21
153.893366
 31
0.0
 11
26.66863399999966
 21
154.68391
 31
0.0
 11
28.50064099999963
 21
154.438337
 31
0.0
 11
29.39490399999977
 21
153.374425
 31
0.0
 11
31.19468299999971
 21
152.362079
 31
0.0
 11
33.25832699999955
 21
152.435713
 31
0.0
 11
34.54107199999999
 21
152.970666
 31
0.0
 11
36.2815099999998
 21
152.348222
 31
0.0
 11
37.40328700000009
 21
150.879151
 31
0.0
 11
37.28332500000033
 21
149.494512
 31
0.0
 11
37.84012700000039
 21
147.506039
 31
0.0
 11
39.35141199999998
 21
146.09889
 31
0.0
 11
40.63672099999985
 21
145.570122
 31
0.0
 11
41.42726500000026
 21
143.899315
 31
0.0
 11
41.18169200000011
 21
142.067308
 31
0.0
 11
40.11777999999958
 21
141.173046
 31
0.0
 11
39.10543400000006
 21
139.373267
 31
0.0
 11
39.17906800000037
 21
137.309623
 31
0.0
 11
39.71402099999978
 21
136.026877
 31
0.0
 11
39.0915759999998
 21
134.28644
 31
0.0
 11
37.62250500000027
 21
133.164663
 31
0.0
 11
36.23786699999982
 21
133.284625
 31
0.0
 11
34.24939400000039
 21
132.727825
 31
0.0
  0
LWPOLYLINE
  5
A046
330
993B
100
AcDbEntity
  8
Cut
 62
     6
100
AcDbPolyline
 90
        6
 70
     1
 43
0.0
 10
30.5320361432332
 20
138.6622905
 10
26.77925979097745
 20
138.6622905
 10
24.90287068913585
 20
141.9122899959082
 10
26.77925982438956
 20
145.1622905
 10
30.53203610982018
 20
145.1622905
 10
32.40842429476197
 20
141.9122899959082
  0
ENDBLK
  5
9940
330
993B
100
AcDbEntity
  8
0
100
AcDbBlockEnd
  0
BLOCK
  5
995E
330
9958
100
AcDbEntity
  8
0
100
AcDbBlockBegin
  2
Ratukas front
 70
     0
 10
0.0
 20
0.0
 30
0.0
  3
Ratukas front
  1
Ratukas front
  0
LINE
  5
9959
330
9958
100
AcDbEntity
  8
Equipment
100
AcDbLine
 10
6594.902212761203
 20
294.5296850693845
 30
0.0
 11
6604.455659315518
 21
294.5296850693845
 31
0.0
  0
LINE
  5
995A
330
9958
100
AcDbEntity
  8
Equipment
100
AcDbLine
 10
6604.455659315518
 20
294.5296850693845
 30
0.0
 11
6604.455659315518
 21
297.5296850693845
 31
0.0
  0
LINE
  5
995B
330
9958
100
AcDbEntity
  8
Equipment
100
AcDbLine
 10
6604.455659315518
 20
297.5296850693845
 30
0.0
 11
6578.348766206888
 21
297.5296850693845
 31
0.0
  0
LINE
  5
995C
330
9958
100
AcDbEntity
  8
Equipment
100
AcDbLine
 10
6578.348766206888
 20
297.5296850693845
 30
0.0
 11
6578.348766206888
 21
294.5296850693845
 31
0.0
  0
LINE
  5
995D
330
9958
100
AcDbEntity
  8
Equipment
100
AcDbLine
 10
6578.348766206888
 20
294.5296850693845
 30
0.0
 11
6587.902212761203
 21
294.5296850693845
 31
0.0
  0
LINE
  5
9969
330
9958
100
AcDbEntity
  8
Equipment
100
AcDbLine
 10
6587.902212761203
 20
294.5296850693845
 30
0.0
 11
6594.902212761203
 21
294.5296850693845
 31
0.0
  0
LINE
  5
996A
330
9958
100
AcDbEntity
  8
Equipment
100
AcDbLine
 10
6594.902212761203
 20
297.5296850693845
 30
0.0
 11
6594.902212761203
 21
294.5296850693845
 31
0.0
  0
LINE
  5
996B
330
9958
100
AcDbEntity
  8
Equipment
100
AcDbLine
 10
6587.902212761203
 20
297.5296850693845
 30
0.0
 11
6587.902212761203
 21
294.5296850693845
 31
0.0
  0
ENDBLK
  5
995F
330
9958
100
AcDbEntity
  8
0
100
AcDbBlockEnd
  0
BLOCK
  5
998E
330
9982
100
AcDbEntity
  8
0
100
AcDbBlockBegin
  2
svirkstas
 70
     0
 10
0.0
 20
0.0
 30
0.0
  3
svirkstas
  1
svirkstas
  0
LINE
  5
9983
330
9982
100
AcDbEntity
  8
Equipment
100
AcDbLine
 10
6504.15494505743
 20
393.9308249241021
 30
0.0
 11
6504.15494505743
 21
453.9308249241021
 31
0.0
  0
LINE
  5
9984
330
9982
100
AcDbEntity
  8
Equipment
100
AcDbLine
 10
6504.15494505743
 20
453.9308249241021
 30
0.0
 11
6497.15494505743
 21
453.9308249241021
 31
0.0
  0
LINE
  5
9985
330
9982
100
AcDbEntity
  8
Equipment
100
AcDbLine
 10
6497.15494505743
 20
455.9308249241021
 30
0.0
 11
6511.15494505743
 21
455.9308249241021
 31
0.0
  0
LINE
  5
9986
330
9982
100
AcDbEntity
  8
Equipment
100
AcDbLine
 10
6504.15494505743
 20
393.9308249241021
 30
0.0
 11
6511.15494505743
 21
393.9308249241021
 31
0.0
  0
LINE
  5
9987
330
9982
100
AcDbEntity
  8
Equipment
100
AcDbLine
 10
6509.65494505743
 20
383.9308249241021
 30
0.0
 11
6509.65494505743
 21
393.9308249241021
 31
0.0
  0
LINE
  5
9988
330
9982
100
AcDbEntity
  8
Equipment
100
AcDbLine
 10
6518.15494505743
 20
393.9308249241021
 30
0.0
 11
6518.15494505743
 21
453.9308249241021
 31
0.0
  0
LINE
  5
9989
330
9982
100
AcDbEntity
  8
Equipment
100
AcDbLine
 10
6518.15494505743
 20
453.9308249241021
 30
0.0
 11
6525.15494505743
 21
453.9308249241021
 31
0.0
  0
LINE
  5
998A
330
9982
100
AcDbEntity
  8
Equipment
100
AcDbLine
 10
6525.15494505743
 20
455.9308249241021
 30
0.0
 11
6511.15494505743
 21
455.9308249241021
 31
0.0
  0
LINE
  5
998B
330
9982
100
AcDbEntity
  8
Equipment
100
AcDbLine
 10
6518.15494505743
 20
393.9308249241021
 30
0.0
 11
6511.15494505743
 21
393.9308249241021
 31
0.0
  0
LINE
  5
998C
330
9982
100
AcDbEntity
  8
Equipment
100
AcDbLine
 10
6512.65494505743
 20
383.9308249241021
 30
0.0
 11
6512.65494505743
 21
393.9308249241021
 31
0.0
  0
LINE
  5
998D
330
9982
100
AcDbEntity
  8
Reference
100
AcDbLine
 10
6511.15494505743
 20
455.9308249241021
 30
0.0
 11
6511.15494505743
 21
327.6744922551668
 31
0.0
  0
LINE
  5
99A5
330
9982
100
AcDbEntity
  8
Equipment
100
AcDbLine
 10
6525.15494505743
 20
455.9308249241021
 30
0.0
 11
6525.15494505743
 21
453.9308249241021
 31
0.0
  0
LINE
  5
99A6
330
9982
100
AcDbEntity
  8
Reference
100
AcDbLine
 10
6511.15494505743
 20
398.9308249241021
 30
0.0
 11
6527.439187453336
 21
398.9308249241021
 31
0.0
  0
LINE
  5
99A7
330
9982
100
AcDbEntity
  8
Equipment
100
AcDbLine
 10
6505.95291459547
 20
393.9308249241021
 30
0.0
 11
6505.95291459547
 21
385.790639793387
 31
0.0
  0
LINE
  5
99A8
330
9982
100
AcDbEntity
  8
Equipment
100
AcDbLine
 10
6505.95291459547
 20
385.790639793387
 30
0.0
 11
6511.15494505743
 21
385.790639793387
 31
0.0
  0
LINE
  5
99A9
330
9982
100
AcDbEntity
  8
Equipment
100
AcDbLine
 10
6497.15494505743
 20
455.9308249241021
 30
0.0
 11
6497.15494505743
 21
453.9308249241021
 31
0.0
  0
LINE
  5
99AA
330
9982
100
AcDbEntity
  8
Equipment
100
AcDbLine
 10
6509.65494505743
 20
383.9308249241021
 30
0.0
 11
6512.65494505743
 21
383.9308249241021
 31
0.0
  0
LINE
  5
99AB
330
9982
100
AcDbEntity
  8
Equipment
100
AcDbLine
 10
6516.35697551939
 20
385.790639793387
 30
0.0
 11
6511.15494505743
 21
385.790639793387
 31
0.0
  0
LINE
  5
99AC
330
9982
100
AcDbEntity
  8
Equipment
100
AcDbLine
 10
6516.35697551939
 20
393.9308249241021
 30
0.0
 11
6516.35697551939
 21
385.790639793387
 31
0.0
  0
LINE
  5
99AD
330
9982
100
AcDbEntity
  8
Reference
100
AcDbLine
 10
6511.15494505743
 20
398.9308249241021
 30
0.0
 11
6494.870702661525
 21
398.9308249241021
 31
0.0
  0
ENDBLK
  5
998F
330
9982
100
AcDbEntity
  8
0
100
AcDbBlockEnd
  0
BLOCK
  5
9AAF
330
9A9D
100
AcDbEntity
  8
0
100
AcDbBlockBegin
  2
base
 70
     0
 10
0.0
 20
0.0
 30
0.0
  3
base
  1
base
  0
CIRCLE
  5
9A9E
330
9A9D
100
AcDbEntity
  8
Cut
100
AcDbCircle
 10
6667.964380982403
 20
243.9115829781633
 30
0.0
 40
2.0
  0
LINE
  5
9A9F
330
9A9D
100
AcDbEntity
  8
Cut
100
AcDbLine
 10
6719.104283516391
 20
250.300317462075
 30
0.0
 11
6719.104283516391
 21
248.6615829781633
 31
0.0
  0
LINE
  5
9AA1
330
9A9D
100
AcDbEntity
  8
Cut
100
AcDbLine
 10
6677.030007233226
 20
255.0418489648437
 30
0.0
 11
6664.22613029205
 21
251.6439299121711
 31
0.0
  0
LINE
  5
9AA2
330
9A9D
100
AcDbEntity
  8
Cut
100
AcDbLine
 10
6719.104283516391
 20
225.4958272354831
 30
0.0
 11
6719.104283516391
 21
239.1615829781633
 31
0.0
  0
LINE
  5
9AA3
330
9A9D
100
AcDbEntity
  8
Cut
100
AcDbLine
 10
6707.138141596321
 20
218.5481860336176
 30
0.0
 11
6700.290003611308
 21
222.4575253831355
 31
0.0
  0
CIRCLE
  5
9AA6
330
9A9D
100
AcDbEntity
  8
Cut
100
AcDbCircle
 10
6686.104283516391
 20
279.7833951148548
 30
0.0
 40
2.0
  0
CIRCLE
  5
9AA7
330
9A9D
100
AcDbEntity
  8
Cut
100
AcDbCircle
 10
6711.104283516391
 20
225.4958272354831
 30
0.0
 40
2.0
  0
ARC
  5
9AA9
330
9A9D
100
AcDbEntity
  8
Cut
100
AcDbCircle
 10
6711.104283516391
 20
225.4958272354831
 30
0.0
 40
7.999999999999999
100
AcDbArc
 50
240.2796112686066
 51
0.0
  0
LINE
  5
9AAC
330
9A9D
100
AcDbEntity
  8
Cut
100
AcDbLine
 10
6696.242984135779
 20
248.6615829781633
 30
0.0
 11
6696.242984135779
 21
239.1615829781633
 31
0.0
  0
LINE
  5
9AAD
330
9A9D
100
AcDbEntity
  8
Cut
100
AcDbLine
 10
6696.242984135779
 20
248.6615829781633
 30
0.0
 11
6719.104283516391
 21
248.6615829781633
 31
0.0
  0
LINE
  5
9AAE
330
9A9D
100
AcDbEntity
  8
Cut
100
AcDbLine
 10
6696.242984135779
 20
239.1615829781633
 30
0.0
 11
6719.104283516391
 21
239.1615829781633
 31
0.0
  0
CIRCLE
  5
9DD7
330
9A9D
100
AcDbEntity
  8
Cut
100
AcDbCircle
 10
6687.934637593973
 20
254.4480842270913
 30
0.0
 40
1.5
  0
CIRCLE
  5
9DD8
330
9A9D
100
AcDbEntity
  8
Cut
100
AcDbCircle
 10
6702.934637593973
 20
233.3750817292354
 30
0.0
 40
1.5
  0
CIRCLE
  5
9DD9
330
9A9D
100
AcDbEntity
  8
Cut
100
AcDbCircle
 10
6702.934637593973
 20
254.4480842270913
 30
0.0
 40
1.5
  0
CIRCLE
  5
9DDA
330
9A9D
100
AcDbEntity
  8
Cut
100
AcDbCircle
 10
6687.934637593973
 20
233.3750817292354
 30
0.0
 40
1.5
  0
CIRCLE
  5
9EEE
330
9A9D
100
AcDbEntity
  8
Cut
100
AcDbCircle
 10
6687.934637593973
 20
243.9115829781633
 30
0.0
 40
1.5
  0
LWPOLYLINE
  5
9EEF
330
9A9D
100
AcDbEntity
  8
Cut
100
AcDbPolyline
 90
        4
 70
     1
 43
0.0
 10
6693.334637593973
 20
234.875081729233
 10
6693.334637593973
 20
231.875081729233
 10
6696.334637593973
 20
231.875081729233
 10
6696.334637593973
 20
234.875081729233
  0
LWPOLYLINE
  5
9EF0
330
9A9D
100
AcDbEntity
  8
Cut
100
AcDbPolyline
 90
        4
 70
     1
 43
0.0
 10
6706.334637593973
 20
234.8750817292354
 10
6706.334637593973
 20
231.8750817292354
 10
6708.057012746984
 20
231.8750817292354
 10
6708.057012746984
 20
234.8750817292354
  0
LWPOLYLINE
  5
9EF1
330
9A9D
100
AcDbEntity
  8
Cut
100
AcDbPolyline
 90
        4
 70
     1
 43
0.0
 10
6682.994518250882
 20
234.8750817292342
 10
6682.994518250882
 20
231.8750817292342
 10
6684.994518250882
 20
231.8750817292342
 10
6684.994518250882
 20
234.8750817292342
  0
LWPOLYLINE
  5
9EF2
330
9A9D
100
AcDbEntity
  8
Cut
100
AcDbPolyline
 90
        4
 70
     1
 43
0.0
 10
6706.334637593973
 20
252.9480842270905
 10
6706.334637593973
 20
255.9480842270905
 10
6708.057012746984
 20
255.9480842270905
 10
6708.057012746984
 20
252.9480842270905
  0
LWPOLYLINE
  5
9EF3
330
9A9D
100
AcDbEntity
  8
Cut
100
AcDbPolyline
 90
        4
 70
     1
 43
0.0
 10
6682.994518250882
 20
252.9480842270917
 10
6682.994518250882
 20
255.9480842270917
 10
6684.994518250882
 20
255.9480842270917
 10
6684.994518250882
 20
252.9480842270917
  0
LWPOLYLINE
  5
9EF4
330
9A9D
100
AcDbEntity
  8
Cut
100
AcDbPolyline
 90
        4
 70
     1
 43
0.0
 10
6693.334637593973
 20
252.9480842270929
 10
6693.334637593973
 20
255.9480842270929
 10
6696.334637593973
 20
255.9480842270929
 10
6696.334637593973
 20
252.9480842270929
  0
LINE
  5
9F40
330
9A9D
100
AcDbEntity
  8
Cut
100
AcDbLine
 10
6671.578265495411
 20
234.2281113652709
 30
0.0
 11
6664.22613029205
 21
236.1792360441552
 31
0.0
  0
ARC
  5
9F41
330
9A9D
100
AcDbEntity
  8
Cut
100
AcDbCircle
 10
6671.899942119032
 20
274.3727162998636
 30
0.0
 40
20.00000000000003
100
AcDbArc
 50
284.8626783853356
 51
318.9384689131069
  0
ARC
  5
A158
330
9A9D
100
AcDbEntity
  8
Cut
100
AcDbCircle
 10
6682.456006381867
 20
265.176548224034
 30
0.0
 40
6.0
100
AcDbArc
 50
318.9384689131095
 51
54.39395467973406
  0
ARC
  5
A159
330
9A9D
100
AcDbEntity
  8
Cut
100
AcDbCircle
 10
6686.104283516391
 20
279.7833951148548
 30
0.0
 40
8.0
100
AcDbArc
 50
90.0
 51
234.3939546797361
  0
LINE
  5
A15A
330
9A9D
100
AcDbEntity
  8
Cut
100
AcDbLine
 10
6711.104283516391
 20
287.7833951148548
 30
0.0
 11
6686.104283516391
 21
287.7833951148548
 31
0.0
  0
LINE
  5
A15B
330
9A9D
100
AcDbEntity
  8
Cut
100
AcDbLine
 10
6685.949258928561
 20
270.0547842417989
 30
0.0
 11
6681.446613454133
 21
273.2790804245017
 31
0.0
  0
CIRCLE
  5
A15C
330
9A9D
100
AcDbEntity
  8
Cut
100
AcDbCircle
 10
6686.104283516391
 20
279.7833951148548
 30
0.0
 40
2.0
  0
ARC
  5
A15D
330
9A9D
100
AcDbEntity
  8
Cut
100
AcDbCircle
 10
6711.104283516391
 20
279.7833951148548
 30
0.0
 40
8.000000000000004
100
AcDbArc
 50
0.0
 51
90.0
  0
LINE
  5
A15E
330
9A9D
100
AcDbEntity
  8
Cut
100
AcDbLine
 10
6719.104283516391
 20
279.7833951148548
 30
0.0
 11
6719.104283516391
 21
248.6615829781633
 31
0.0
  0
CIRCLE
  5
A15F
330
9A9D
100
AcDbEntity
  8
Cut
100
AcDbCircle
 10
6711.104283516391
 20
279.7833951148548
 30
0.0
 40
2.0
  0
ARC
  5
A1B3
330
9A9D
100
AcDbEntity
  8
Cut
100
AcDbCircle
 10
6666.278156337728
 20
243.9115829781632
 30
0.0
 40
8.000000000000004
100
AcDbArc
 50
104.8626783853344
 51
255.1373216146656
  0
ARC
  5
A55C
330
9A9D
100
AcDbEntity
  8
Cut
100
AcDbCircle
 10
6640.797874810251
 20
118.2429073551512
 30
0.0
 40
120.0000000000005
100
AcDbArc
 50
60.279611268605
 51
75.1373216146631
  0
ENDBLK
  5
9AB0
330
9A9D
100
AcDbEntity
  8
0
100
AcDbBlockEnd
  0
BLOCK
  5
9AB5
330
9AB3
100
AcDbEntity
  8
0
100
AcDbBlockBegin
  2
legs
 70
     0
 10
0.0
 20
0.0
 30
0.0
  3
legs
  1
legs
  0
LINE
  5
9C88
330
9AB3
100
AcDbEntity
  8
Cut
100
AcDbLine
 10
6670.887542433983
 20
311.6075993133513
 30
0.0
 11
6675.577226289226
 21
311.091035817292
 31
0.0
  0
LINE
  5
9C89
330
9AB3
100
AcDbEntity
  8
Cut
100
AcDbLine
 10
6627.883712951865
 20
324.3394088471329
 30
0.0
 11
6627.883712951865
 21
327.3394088471329
 31
0.0
  0
LINE
  5
9C8A
330
9AB3
100
AcDbEntity
  8
Cut
100
AcDbLine
 10
6648.674339932065
 20
327.3394088471329
 30
0.0
 11
6646.074339932065
 21
327.3394088471329
 31
0.0
  0
LINE
  5
9C8B
330
9AB3
100
AcDbEntity
  8
Cut
100
AcDbLine
 10
6644.72968260554
 20
344.0333947876213
 30
0.0
 11
6655.09356981327
 21
322.7360051938421
 31
0.0
  0
ARC
  5
9C8C
330
9AB3
100
AcDbEntity
  8
Cut
100
AcDbCircle
 10
6678.974868183062
 20
296.8702591543145
 30
0.0
 40
4.0
100
AcDbArc
 50
0.1644480218947639
 51
84.89345825128174
  0
LINE
  5
9C8D
330
9AB3
100
AcDbEntity
  8
Cut
100
AcDbLine
 10
6637.703608677719
 20
324.3394088471329
 30
0.0
 11
6637.703608677719
 21
327.3394088471329
 31
0.0
  0
LINE
  5
9C8E
330
9AB3
100
AcDbEntity
  8
Cut
100
AcDbLine
 10
6619.512981697519
 20
324.3394088471329
 30
0.0
 11
6619.512981697519
 21
327.3394088471329
 31
0.0
  0
LINE
  5
9C8F
330
9AB3
100
AcDbEntity
  8
Cut
100
AcDbLine
 10
6648.674339932065
 20
324.3394088471329
 30
0.0
 11
6646.074339932065
 21
324.3394088471329
 31
0.0
  0
ARC
  5
9C90
330
9AB3
100
AcDbEntity
  8
Cut
100
AcDbCircle
 10
6638.275507788544
 20
312.982742303904
 30
0.0
 40
10.00000000000001
100
AcDbArc
 50
34.51309473734491
 51
90.0
  0
ARC
  5
9C91
330
9AB3
100
AcDbEntity
  8
Cut
100
AcDbCircle
 10
6674.128671540891
 20
331.4388152495081
 30
0.0
 40
29.99999999999998
100
AcDbArc
 50
214.5130947373474
 51
264.8934582512826
  0
ARC
  5
9C93
330
9AB3
100
AcDbEntity
  8
Cut
100
AcDbCircle
 10
6641.132941246286
 20
342.2831229245581
 30
0.0
 40
4.0
100
AcDbArc
 50
25.94881044786764
 51
113.89616523459
  0
LINE
  5
9C94
330
9AB3
100
AcDbEntity
  8
Cut
100
AcDbLine
 10
6616.912981697519
 20
335.9272757018892
 30
0.0
 11
6639.51261966424
 21
345.9402472006469
 31
0.0
  0
LINE
  5
9C95
330
9AB3
100
AcDbEntity
  8
Cut
100
AcDbLine
 10
6616.912981697519
 20
322.982742303904
 30
0.0
 11
6616.912981697519
 21
324.3394088471329
 31
0.0
  0
ARC
  5
9C96
330
9AB3
100
AcDbEntity
  8
Cut
100
AcDbCircle
 10
6673.077276609541
 20
331.4873645091577
 30
0.0
 40
19.99999999999999
100
AcDbArc
 50
205.9488104478681
 51
263.7142725652776
  0
LINE
  5
9C97
330
9AB3
100
AcDbEntity
  8
Cut
100
AcDbLine
 10
6638.275507788544
 20
322.982742303904
 30
0.0
 11
6616.912981697519
 21
322.982742303904
 31
0.0
  0
LINE
  5
9C98
330
9AB3
100
AcDbEntity
  8
Cut
100
AcDbLine
 10
6682.994518250882
 20
290.0296850693845
 30
0.0
 11
6682.974851707444
 21
296.8817397762738
 31
0.0
  0
LINE
  5
9C99
330
9AB3
100
AcDbEntity
  8
Cut
100
AcDbLine
 10
6649.408770029077
 20
314.440978056318
 30
0.0
 11
6646.515474959148
 21
318.6486880349673
 31
0.0
  0
LINE
  5
9C9A
330
9AB3
100
AcDbEntity
  8
Cut
100
AcDbLine
 10
6679.330900260379
 20
300.8543827919444
 30
0.0
 11
6671.458430961016
 21
301.5578879672835
 31
0.0
  0
LINE
  5
9C9B
330
9AB3
100
AcDbEntity
  8
Cut
100
AcDbLine
 10
6637.703608677719
 20
327.3394088471329
 30
0.0
 11
6627.883712951865
 21
327.3394088471329
 31
0.0
  0
LINE
  5
9C9C
330
9AB3
100
AcDbEntity
  8
Cut
100
AcDbLine
 10
6619.512981697519
 20
327.3394088471329
 30
0.0
 11
6616.912981697519
 21
327.3394088471329
 31
0.0
  0
LINE
  5
9C9D
330
9AB3
100
AcDbEntity
  8
Cut
100
AcDbLine
 10
6619.512981697519
 20
324.3394088471329
 30
0.0
 11
6616.912981697519
 21
324.3394088471329
 31
0.0
  0
LINE
  5
9C9E
330
9AB3
100
AcDbEntity
  8
Cut
100
AcDbLine
 10
6637.703608677719
 20
324.3394088471329
 30
0.0
 11
6627.883712951865
 21
324.3394088471329
 31
0.0
  0
LINE
  5
9C9F
330
9AB3
100
AcDbEntity
  8
Cut
100
AcDbLine
 10
6646.074339932065
 20
324.3394088471329
 30
0.0
 11
6646.074339932065
 21
327.3394088471329
 31
0.0
  0
LINE
  5
9CA0
330
9AB3
100
AcDbEntity
  8
Cut
100
AcDbLine
 10
6648.674339932065
 20
324.3394088471329
 30
0.0
 11
6648.674339932065
 21
327.3394088471329
 31
0.0
  0
LINE
  5
9CA1
330
9AB3
100
AcDbEntity
  8
Cut
100
AcDbLine
 10
6616.912981697519
 20
332.3394088471329
 30
0.0
 11
6616.912981697519
 21
335.9272757018892
 31
0.0
  0
ARC
  5
9CCA
330
9AB3
100
AcDbEntity
  8
Cut
100
AcDbCircle
 10
6705.406937523897
 20
309.7558831498044
 30
0.0
 40
6.000000000000001
100
AcDbArc
 50
344.4150609510654
 51
103.8801245306989
  0
LINE
  5
9CCB
330
9AB3
100
AcDbEntity
  8
Cut
100
AcDbLine
 10
6703.967589760618
 20
315.580681688496
 30
0.0
 11
6689.552346395534
 21
312.0185759509613
 31
0.0
  0
ARC
  5
9CCC
330
9AB3
100
AcDbEntity
  8
Cut
100
AcDbCircle
 10
6723.057012746984
 20
294.871782571546
 30
0.0
 40
15.00000000000012
100
AcDbArc
 50
164.4150609510663
 51
180.0
  0
LINE
  5
9CCD
330
9AB3
100
AcDbEntity
  8
Cut
100
AcDbLine
 10
6708.057012746984
 20
290.0296850693845
 30
0.0
 11
6708.057012746984
 21
294.871782571546
 31
0.0
  0
LINE
  5
9CCE
330
9AB3
100
AcDbEntity
  8
Cut
100
AcDbLine
 10
6708.608514407362
 20
298.9017820417632
 30
0.0
 11
6711.186336859746
 21
308.1438833617176
 31
0.0
  0
ARC
  5
9CCF
330
9AB3
100
AcDbEntity
  8
Cut
100
AcDbCircle
 10
6679.95669464034
 20
350.8505662089048
 30
0.0
 40
39.99999999999984
100
AcDbArc
 50
263.7142725652762
 51
283.8801245306983
  0
INSERT
  5
9D52
330
9AB3
100
AcDbEntity
  8
Cut
100
AcDbBlockReference
  2
T-slot 3mm-20
 10
9456.968491237809
 20
-1.600295736727048
 30
0.0
 41
-1.0
  0
LINE
  5
9D53
330
9AB3
100
AcDbEntity
  8
Cut
100
AcDbLine
 10
6682.994518250882
 20
287.0296850693845
 30
0.0
 11
6684.994518250882
 21
287.0296850693845
 31
0.0
  0
LINE
  5
9D54
330
9AB3
100
AcDbEntity
  8
Cut
100
AcDbLine
 10
6696.334637593973
 20
287.0296850693834
 30
0.0
 11
6696.334637593973
 21
290.0296850693845
 31
0.0
  0
LINE
  5
9D55
330
9AB3
100
AcDbEntity
  8
Cut
100
AcDbLine
 10
6693.334637593973
 20
287.0296850693834
 30
0.0
 11
6696.334637593973
 21
287.0296850693834
 31
0.0
  0
LINE
  5
9D56
330
9AB3
100
AcDbEntity
  8
Cut
100
AcDbLine
 10
6706.334637593973
 20
287.0296850693858
 30
0.0
 11
6708.057012746984
 21
287.0296850693858
 31
0.0
  0
LINE
  5
9D57
330
9AB3
100
AcDbEntity
  8
Cut
100
AcDbLine
 10
6682.994518250882
 20
290.0296850693845
 30
0.0
 11
6682.994518250882
 21
287.0296850693845
 31
0.0
  0
LINE
  5
9D58
330
9AB3
100
AcDbEntity
  8
Cut
100
AcDbLine
 10
6684.994518250882
 20
290.0296850693845
 30
0.0
 11
6686.534637593973
 21
290.0296850693858
 31
0.0
  0
LINE
  5
9D59
330
9AB3
100
AcDbEntity
  8
Cut
100
AcDbLine
 10
6706.334637593973
 20
290.0296850693858
 30
0.0
 11
6706.334637593973
 21
287.0296850693858
 31
0.0
  0
LINE
  5
9D5A
330
9AB3
100
AcDbEntity
  8
Cut
100
AcDbLine
 10
6696.334637593973
 20
290.0296850693845
 30
0.0
 11
6701.534637593973
 21
290.0296850693858
 31
0.0
  0
LINE
  5
9D5B
330
9AB3
100
AcDbEntity
  8
Cut
100
AcDbLine
 10
6708.057012746984
 20
287.0296850693858
 30
0.0
 11
6708.057012746984
 21
290.0296850693845
 31
0.0
  0
LINE
  5
9D5C
330
9AB3
100
AcDbEntity
  8
Cut
100
AcDbLine
 10
6689.334637593973
 20
290.0296850693858
 30
0.0
 11
6693.334637593973
 21
290.0296850693834
 31
0.0
  0
LINE
  5
9D5D
330
9AB3
100
AcDbEntity
  8
Cut
100
AcDbLine
 10
6682.994518250882
 20
287.0296850693845
 30
0.0
 11
6682.994518250882
 21
287.0296850693845
 31
0.0
  0
LINE
  5
9D5E
330
9AB3
100
AcDbEntity
  8
Cut
100
AcDbLine
 10
6693.334637593973
 20
290.0296850693834
 30
0.0
 11
6693.334637593973
 21
287.0296850693834
 31
0.0
  0
LINE
  5
9D5F
330
9AB3
100
AcDbEntity
  8
Cut
100
AcDbLine
 10
6684.994518250882
 20
287.0296850693845
 30
0.0
 11
6684.994518250882
 21
290.0296850693845
 31
0.0
  0
LINE
  5
9D60
330
9AB3
100
AcDbEntity
  8
Cut
100
AcDbLine
 10
6704.334637593973
 20
290.0296850693858
 30
0.0
 11
6706.334637593973
 21
290.0296850693858
 31
0.0
  0
INSERT
  5
9D61
330
9AB3
100
AcDbEntity
  8
Cut
100
AcDbBlockReference
  2
T-slot 3mm-20
 10
9441.968491237809
 20
-1.600295736727048
 30
0.0
 41
-1.0
  0
CIRCLE
  5
9DAF
330
9AB3
100
AcDbEntity
  8
Cut
100
AcDbCircle
 10
6622.912981697519
 20
325.8394088471329
 30
0.0
 40
1.5
  0
CIRCLE
  5
9DB0
330
9AB3
100
AcDbEntity
  8
Cut
100
AcDbCircle
 10
6642.674339932066
 20
325.8394088471329
 30
0.0
 40
1.5
  0
LINE
  5
9DB1
330
9AB3
100
AcDbEntity
  8
Cut
100
AcDbLine
 10
6646.074339932065
 20
329.3394088471329
 30
0.0
 11
6646.074339932065
 21
332.3394088471329
 31
0.0
  0
LINE
  5
9DB2
330
9AB3
100
AcDbEntity
  8
Cut
100
AcDbLine
 10
6619.512981697519
 20
329.3394088471329
 30
0.0
 11
6619.512981697519
 21
332.3394088471329
 31
0.0
  0
LINE
  5
9DB3
330
9AB3
100
AcDbEntity
  8
Cut
100
AcDbLine
 10
6616.912981697519
 20
329.3394088471329
 30
0.0
 11
6616.912981697519
 21
327.3394088471329
 31
0.0
  0
LINE
  5
9DB4
330
9AB3
100
AcDbEntity
  8
Cut
100
AcDbLine
 10
6648.674339932065
 20
332.3394088471329
 30
0.0
 11
6646.074339932065
 21
332.3394088471329
 31
0.0
  0
LINE
  5
9DB5
330
9AB3
100
AcDbEntity
  8
Cut
100
AcDbLine
 10
6648.674339932065
 20
329.3394088471329
 30
0.0
 11
6646.074339932065
 21
329.3394088471329
 31
0.0
  0
LINE
  5
9DB6
330
9AB3
100
AcDbEntity
  8
Cut
100
AcDbLine
 10
6648.674339932065
 20
329.3394088471329
 30
0.0
 11
6648.674339932065
 21
332.3394088471329
 31
0.0
  0
LINE
  5
9DB7
330
9AB3
100
AcDbEntity
  8
Cut
100
AcDbLine
 10
6637.703608677719
 20
329.3394088471329
 30
0.0
 11
6637.703608677719
 21
332.3394088471329
 31
0.0
  0
LINE
  5
9DB8
330
9AB3
100
AcDbEntity
  8
Cut
100
AcDbLine
 10
6637.703608677719
 20
329.3394088471329
 30
0.0
 11
6627.883712951865
 21
329.3394088471329
 31
0.0
  0
LINE
  5
9DB9
330
9AB3
100
AcDbEntity
  8
Cut
100
AcDbLine
 10
6619.512981697519
 20
329.3394088471329
 30
0.0
 11
6616.912981697519
 21
329.3394088471329
 31
0.0
  0
LINE
  5
9DBA
330
9AB3
100
AcDbEntity
  8
Cut
100
AcDbLine
 10
6637.703608677719
 20
332.3394088471329
 30
0.0
 11
6627.883712951865
 21
332.3394088471329
 31
0.0
  0
LINE
  5
9DBB
330
9AB3
100
AcDbEntity
  8
Cut
100
AcDbLine
 10
6627.883712951865
 20
329.3394088471329
 30
0.0
 11
6627.883712951865
 21
332.3394088471329
 31
0.0
  0
LINE
  5
9DBC
330
9AB3
100
AcDbEntity
  8
Cut
100
AcDbLine
 10
6619.512981697519
 20
332.3394088471329
 30
0.0
 11
6616.912981697519
 21
332.3394088471329
 31
0.0
  0
CIRCLE
  5
A205
330
9AB3
100
AcDbEntity
  8
Cut
100
AcDbCircle
 10
6705.406937523897
 20
309.7558831498044
 30
0.0
 40
3.5
  0
ENDBLK
  5
9AB6
330
9AB3
100
AcDbEntity
  8
0
100
AcDbBlockEnd
  0
BLOCK
  5
9C2D
330
9C0B
100
AcDbEntity
  8
0
100
AcDbBlockBegin
  2
sirholder
 70
     0
 10
0.0
 20
0.0
 30
0.0
  3
sirholder
  1
sirholder
  0
CIRCLE
  5
9C0C
330
9C0B
100
AcDbEntity
  8
Cut
100
AcDbCircle
 10
6632.793660814792
 20
243.9115829781633
 30
0.0
 40
6.75
  0
LINE
  5
9C0D
330
9C0B
100
AcDbEntity
  8
Cut
100
AcDbLine
 10
6622.912981697519
 20
252.9480842270926
 30
0.0
 11
6627.883712951865
 21
252.9480842270926
 31
0.0
  0
LINE
  5
9C0F
330
9C0B
100
AcDbEntity
  8
Cut
100
AcDbLine
 10
6622.912981697519
 20
252.9480842270926
 30
0.0
 11
6625.912981697519
 21
252.9480842270926
 31
0.0
  0
INSERT
  5
9C10
330
9C0B
100
AcDbEntity
  8
Cut
100
AcDbBlockReference
  2
T-slot 3mm-20
 10
9376.946835341354
 20
544.5780650332038
 30
0.0
 50
180.0
  0
LINE
  5
9C11
330
9C0B
100
AcDbEntity
  8
Cut
100
AcDbLine
 10
6621.512981697519
 20
252.9480842270925
 30
0.0
 11
6619.512981697519
 21
252.9480842270925
 31
0.0
  0
LINE
  5
9C12
330
9C0B
100
AcDbEntity
  8
Cut
100
AcDbLine
 10
6619.512981697519
 20
252.9480842270925
 30
0.0
 11
6619.512981697519
 21
255.9480842270925
 31
0.0
  0
LINE
  5
9C13
330
9C0B
100
AcDbEntity
  8
Cut
100
AcDbLine
 10
6619.512981697519
 20
255.9480842270925
 30
0.0
 11
6616.912981697519
 21
255.9480842270925
 31
0.0
  0
LINE
  5
9C15
330
9C0B
100
AcDbEntity
  8
Cut
100
AcDbLine
 10
6642.674339932065
 20
252.9480842270926
 30
0.0
 11
6637.703608677719
 21
252.9480842270926
 31
0.0
  0
LINE
  5
9C17
330
9C0B
100
AcDbEntity
  8
Cut
100
AcDbLine
 10
6642.674339932065
 20
252.9480842270926
 30
0.0
 11
6639.674339932065
 21
252.9480842270926
 31
0.0
  0
INSERT
  5
9C18
330
9C0B
100
AcDbEntity
  8
Cut
100
AcDbBlockReference
  2
T-slot 3mm-20
 10
3888.64048628823
 20
544.5780650332038
 30
0.0
 41
-1.0
 50
180.0
  0
LINE
  5
9C19
330
9C0B
100
AcDbEntity
  8
Cut
100
AcDbLine
 10
6644.074339932065
 20
252.9480842270925
 30
0.0
 11
6646.074339932065
 21
252.9480842270925
 31
0.0
  0
LINE
  5
9C1A
330
9C0B
100
AcDbEntity
  8
Cut
100
AcDbLine
 10
6646.074339932065
 20
252.9480842270925
 30
0.0
 11
6646.074339932065
 21
255.9480842270925
 31
0.0
  0
LINE
  5
9C1B
330
9C0B
100
AcDbEntity
  8
Cut
100
AcDbLine
 10
6646.074339932065
 20
255.9480842270925
 30
0.0
 11
6648.674339932065
 21
255.9480842270925
 31
0.0
  0
LINE
  5
9C1C
330
9C0B
100
AcDbEntity
  8
Cut
100
AcDbLine
 10
6648.674339932065
 20
255.9480842270925
 30
0.0
 11
6648.674339932065
 21
231.8750817292342
 31
0.0
  0
LINE
  5
9C1D
330
9C0B
100
AcDbEntity
  8
Cut
100
AcDbLine
 10
6642.674339932065
 20
234.8750817292341
 30
0.0
 11
6637.703608677719
 21
234.8750817292341
 31
0.0
  0
LINE
  5
9C1F
330
9C0B
100
AcDbEntity
  8
Cut
100
AcDbLine
 10
6642.674339932065
 20
234.8750817292341
 30
0.0
 11
6639.674339932065
 21
234.8750817292341
 31
0.0
  0
INSERT
  5
9C20
330
9C0B
100
AcDbEntity
  8
Cut
100
AcDbBlockReference
  2
T-slot 3mm-20
 10
3888.64048628823
 20
-56.75489907687711
 30
0.0
 50
360.0
  0
LINE
  5
9C21
330
9C0B
100
AcDbEntity
  8
Cut
100
AcDbLine
 10
6644.074339932065
 20
234.8750817292342
 30
0.0
 11
6646.074339932065
 21
234.8750817292342
 31
0.0
  0
LINE
  5
9C22
330
9C0B
100
AcDbEntity
  8
Cut
100
AcDbLine
 10
6646.074339932065
 20
234.8750817292342
 30
0.0
 11
6646.074339932065
 21
231.8750817292342
 31
0.0
  0
LINE
  5
9C23
330
9C0B
100
AcDbEntity
  8
Cut
100
AcDbLine
 10
6646.074339932065
 20
231.8750817292342
 30
0.0
 11
6648.674339932065
 21
231.8750817292342
 31
0.0
  0
LINE
  5
9C25
330
9C0B
100
AcDbEntity
  8
Cut
100
AcDbLine
 10
6622.912981697519
 20
234.8750817292341
 30
0.0
 11
6627.883712951865
 21
234.8750817292341
 31
0.0
  0
LINE
  5
9C27
330
9C0B
100
AcDbEntity
  8
Cut
100
AcDbLine
 10
6622.912981697519
 20
234.8750817292341
 30
0.0
 11
6625.912981697519
 21
234.8750817292341
 31
0.0
  0
INSERT
  5
9C28
330
9C0B
100
AcDbEntity
  8
Cut
100
AcDbBlockReference
  2
T-slot 3mm-20
 10
9376.946835341354
 20
-56.75489907687711
 30
0.0
 41
-1.0
  0
LINE
  5
9C29
330
9C0B
100
AcDbEntity
  8
Cut
100
AcDbLine
 10
6621.512981697519
 20
234.8750817292342
 30
0.0
 11
6619.512981697519
 21
234.8750817292342
 31
0.0
  0
LINE
  5
9C2A
330
9C0B
100
AcDbEntity
  8
Cut
100
AcDbLine
 10
6619.512981697519
 20
234.8750817292342
 30
0.0
 11
6619.512981697519
 21
231.8750817292342
 31
0.0
  0
LINE
  5
9C2B
330
9C0B
100
AcDbEntity
  8
Cut
100
AcDbLine
 10
6619.512981697519
 20
231.8750817292342
 30
0.0
 11
6616.912981697519
 21
231.8750817292342
 31
0.0
  0
LINE
  5
9C2C
330
9C0B
100
AcDbEntity
  8
Cut
100
AcDbLine
 10
6616.912981697519
 20
231.8750817292342
 30
0.0
 11
6616.912981697519
 21
255.9480842270925
 31
0.0
  0
LINE
  5
9C60
330
9C0B
100
AcDbEntity
  8
Cut
100
AcDbLine
 10
6637.703608677719
 20
252.9480842270926
 30
0.0
 11
6637.703608677719
 21
255.9480842270925
 31
0.0
  0
LINE
  5
9C61
330
9C0B
100
AcDbEntity
  8
Cut
100
AcDbLine
 10
6637.703608677719
 20
255.9480842270925
 30
0.0
 11
6632.793660814792
 21
255.9480842270925
 31
0.0
  0
LINE
  5
9C62
330
9C0B
100
AcDbEntity
  8
Cut
100
AcDbLine
 10
6627.883712951865
 20
255.9480842270925
 30
0.0
 11
6632.793660814792
 21
255.9480842270925
 31
0.0
  0
LINE
  5
9C63
330
9C0B
100
AcDbEntity
  8
Cut
100
AcDbLine
 10
6627.883712951865
 20
231.8750817292342
 30
0.0
 11
6632.793660814792
 21
231.8750817292342
 31
0.0
  0
LINE
  5
9C64
330
9C0B
100
AcDbEntity
  8
Cut
100
AcDbLine
 10
6637.703608677719
 20
231.8750817292342
 30
0.0
 11
6632.793660814792
 21
231.8750817292342
 31
0.0
  0
LINE
  5
9C65
330
9C0B
100
AcDbEntity
  8
Cut
100
AcDbLine
 10
6627.883712951865
 20
234.8750817292341
 30
0.0
 11
6627.883712951865
 21
231.8750817292342
 31
0.0
  0
LINE
  5
9C66
330
9C0B
100
AcDbEntity
  8
Cut
100
AcDbLine
 10
6637.703608677719
 20
234.8750817292341
 30
0.0
 11
6637.703608677719
 21
231.8750817292342
 31
0.0
  0
LINE
  5
9C67
330
9C0B
100
AcDbEntity
  8
Cut
100
AcDbLine
 10
6627.883712951865
 20
252.9480842270926
 30
0.0
 11
6627.883712951865
 21
255.9480842270925
 31
0.0
  0
ENDBLK
  5
9C2E
330
9C0B
100
AcDbEntity
  8
0
100
AcDbBlockEnd
  0
BLOCK
  5
9E2F
330
9E05
100
AcDbEntity
  8
0
100
AcDbBlockBegin
  2
sirholder2
 70
     0
 10
0.0
 20
0.0
 30
0.0
  3
sirholder2
  1
sirholder2
  0
CIRCLE
  5
9E06
330
9E05
100
AcDbEntity
  8
Cut
100
AcDbCircle
 10
6632.793660814792
 20
202.1043240606431
 30
0.0
 40
6.75
  0
LINE
  5
9E07
330
9E05
100
AcDbEntity
  8
Cut
100
AcDbLine
 10
6619.512981697519
 20
211.1408253095722
 30
0.0
 11
6627.883712951865
 21
211.1408253095723
 31
0.0
  0
LINE
  5
9E09
330
9E05
100
AcDbEntity
  8
Cut
100
AcDbLine
 10
6619.512981697519
 20
211.1408253095722
 30
0.0
 11
6625.912981697519
 21
211.1408253095723
 31
0.0
  0
LINE
  5
9E0C
330
9E05
100
AcDbEntity
  8
Cut
100
AcDbLine
 10
6619.512981697519
 20
211.1408253095722
 30
0.0
 11
6619.512981697519
 21
214.1408253095722
 31
0.0
  0
LINE
  5
9E0D
330
9E05
100
AcDbEntity
  8
Cut
100
AcDbLine
 10
6619.512981697519
 20
214.1408253095722
 30
0.0
 11
6616.912981697519
 21
214.1408253095722
 31
0.0
  0
LINE
  5
9E0E
330
9E05
100
AcDbEntity
  8
Cut
100
AcDbLine
 10
6616.912981697519
 20
214.1408253095722
 30
0.0
 11
6616.912981697519
 21
190.0678228117139
 31
0.0
  0
LINE
  5
9E0F
330
9E05
100
AcDbEntity
  8
Cut
100
AcDbLine
 10
6646.074339932065
 20
211.1408253095722
 30
0.0
 11
6637.703608677719
 21
211.1408253095723
 31
0.0
  0
LINE
  5
9E11
330
9E05
100
AcDbEntity
  8
Cut
100
AcDbLine
 10
6646.074339932065
 20
211.1408253095722
 30
0.0
 11
6639.674339932065
 21
211.1408253095723
 31
0.0
  0
LINE
  5
9E14
330
9E05
100
AcDbEntity
  8
Cut
100
AcDbLine
 10
6646.074339932065
 20
211.1408253095722
 30
0.0
 11
6646.074339932065
 21
214.1408253095722
 31
0.0
  0
LINE
  5
9E15
330
9E05
100
AcDbEntity
  8
Cut
100
AcDbLine
 10
6646.074339932065
 20
214.1408253095722
 30
0.0
 11
6648.674339932065
 21
214.1408253095722
 31
0.0
  0
LINE
  5
9E16
330
9E05
100
AcDbEntity
  8
Cut
100
AcDbLine
 10
6648.674339932065
 20
214.1408253095722
 30
0.0
 11
6648.674339932065
 21
190.0678228117139
 31
0.0
  0
LINE
  5
9E17
330
9E05
100
AcDbEntity
  8
Cut
100
AcDbLine
 10
6646.074339932065
 20
193.0678228117139
 30
0.0
 11
6637.703608677719
 21
193.0678228117138
 31
0.0
  0
LINE
  5
9E19
330
9E05
100
AcDbEntity
  8
Cut
100
AcDbLine
 10
6646.074339932065
 20
193.0678228117139
 30
0.0
 11
6639.674339932065
 21
193.0678228117138
 31
0.0
  0
LINE
  5
9E1C
330
9E05
100
AcDbEntity
  8
Cut
100
AcDbLine
 10
6646.074339932065
 20
193.0678228117139
 30
0.0
 11
6646.074339932065
 21
190.0678228117139
 31
0.0
  0
LINE
  5
9E1D
330
9E05
100
AcDbEntity
  8
Cut
100
AcDbLine
 10
6646.074339932065
 20
190.0678228117139
 30
0.0
 11
6648.674339932065
 21
190.0678228117139
 31
0.0
  0
LINE
  5
9E1F
330
9E05
100
AcDbEntity
  8
Cut
100
AcDbLine
 10
6619.512981697519
 20
193.0678228117139
 30
0.0
 11
6627.883712951865
 21
193.0678228117138
 31
0.0
  0
LINE
  5
9E21
330
9E05
100
AcDbEntity
  8
Cut
100
AcDbLine
 10
6619.512981697519
 20
193.0678228117139
 30
0.0
 11
6625.912981697519
 21
193.0678228117138
 31
0.0
  0
LINE
  5
9E24
330
9E05
100
AcDbEntity
  8
Cut
100
AcDbLine
 10
6619.512981697519
 20
193.0678228117139
 30
0.0
 11
6619.512981697519
 21
190.0678228117139
 31
0.0
  0
LINE
  5
9E25
330
9E05
100
AcDbEntity
  8
Cut
100
AcDbLine
 10
6619.512981697519
 20
190.0678228117139
 30
0.0
 11
6616.912981697519
 21
190.0678228117139
 31
0.0
  0
LINE
  5
9E27
330
9E05
100
AcDbEntity
  8
Cut
100
AcDbLine
 10
6637.703608677719
 20
211.1408253095723
 30
0.0
 11
6637.703608677719
 21
214.1408253095722
 31
0.0
  0
LINE
  5
9E28
330
9E05
100
AcDbEntity
  8
Cut
100
AcDbLine
 10
6637.703608677719
 20
214.1408253095722
 30
0.0
 11
6632.793660814792
 21
214.1408253095722
 31
0.0
  0
LINE
  5
9E29
330
9E05
100
AcDbEntity
  8
Cut
100
AcDbLine
 10
6627.883712951865
 20
214.1408253095722
 30
0.0
 11
6632.793660814792
 21
214.1408253095722
 31
0.0
  0
LINE
  5
9E2A
330
9E05
100
AcDbEntity
  8
Cut
100
AcDbLine
 10
6627.883712951865
 20
190.0678228117139
 30
0.0
 11
6632.793660814792
 21
190.0678228117139
 31
0.0
  0
LINE
  5
9E2B
330
9E05
100
AcDbEntity
  8
Cut
100
AcDbLine
 10
6637.703608677719
 20
190.0678228117139
 30
0.0
 11
6632.793660814792
 21
190.0678228117139
 31
0.0
  0
LINE
  5
9E2C
330
9E05
100
AcDbEntity
  8
Cut
100
AcDbLine
 10
6627.883712951865
 20
193.0678228117138
 30
0.0
 11
6627.883712951865
 21
190.0678228117139
 31
0.0
  0
LINE
  5
9E2D
330
9E05
100
AcDbEntity
  8
Cut
100
AcDbLine
 10
6637.703608677719
 20
193.0678228117138
 30
0.0
 11
6637.703608677719
 21
190.0678228117139
 31
0.0
  0
LINE
  5
9E2E
330
9E05
100
AcDbEntity
  8
Cut
100
AcDbLine
 10
6627.883712951865
 20
211.1408253095723
 30
0.0
 11
6627.883712951865
 21
214.1408253095722
 31
0.0
  0
ENDBLK
  5
9E30
330
9E05
100
AcDbEntity
  8
0
100
AcDbBlockEnd
  0
BLOCK
  5
A1BE
330
A1B9
100
AcDbEntity
  8
0
100
AcDbBlockBegin
  2
laserpointer
 70
     0
 10
0.0
 20
0.0
 30
0.0
  3
laserpointer
  1
laserpointer
  0
LINE
  5
A1BA
330
A1B9
100
AcDbEntity
  8
Equipment
100
AcDbLine
 10
6713.225009903577
 20
362.5774102630009
 30
0.0
 11
6658.225009903577
 21
362.5774102630009
 31
0.0
  0
LINE
  5
A1BB
330
A1B9
100
AcDbEntity
  8
Equipment
100
AcDbLine
 10
6658.225009903577
 20
372.9774102630005
 30
0.0
 11
6658.225009903577
 21
362.5774102630009
 31
0.0
  0
LINE
  5
A1BC
330
A1B9
100
AcDbEntity
  8
Equipment
100
AcDbLine
 10
6658.225009903577
 20
372.9774102630005
 30
0.0
 11
6713.225009903577
 21
372.9774102630005
 31
0.0
  0
LINE
  5
A1BD
330
A1B9
100
AcDbEntity
  8
Equipment
100
AcDbLine
 10
6713.225009903577
 20
372.9774102630005
 30
0.0
 11
6713.225009903577
 21
362.5774102630009
 31
0.0
  0
LINE
  5
A1C6
330
A1B9
100
AcDbEntity
  8
Equipment
100
AcDbLine
 10
6658.225009903577
 20
369.9774102630005
 30
0.0
 11
6604.59310338674
 21
369.9774102630005
 31
0.0
  0
ENDBLK
  5
A1BF
330
A1B9
100
AcDbEntity
  8
0
100
AcDbBlockEnd
  0
BLOCK
  5
A2FA
330
A2E1
100
AcDbEntity
  8
0
100
AcDbBlockBegin
  2
holder2
 70
     0
 10
0.0
 20
0.0
 30
0.0
  3
holder2
  1
holder2
  0
ARC
  5
A2E2
330
A2E1
100
AcDbEntity
  8
Cut
100
AcDbCircle
 10
6744.064790339035
 20
314.6904984762889
 30
0.0
 40
1.0
100
AcDbArc
 50
0.0
 51
90.0
  0
LINE
  5
A2E3
330
A2E1
100
AcDbEntity
  8
Cut
100
AcDbLine
 10
6741.346855455992
 20
315.6904984762889
 30
0.0
 11
6744.064790339035
 21
315.6904984762889
 31
0.0
  0
LINE
  5
A2E4
330
A2E1
100
AcDbEntity
  8
Cut
100
AcDbLine
 10
6745.064790339036
 20
313.5628764043943
 30
0.0
 11
6745.064790339035
 21
314.6904984762888
 31
0.0
  0
ARC
  5
A2E5
330
A2E1
100
AcDbEntity
  8
Cut
100
AcDbCircle
 10
6741.346855455992
 20
314.6904984762889
 30
0.0
 40
1.0
100
AcDbArc
 50
90.0
 51
180.0
  0
LINE
  5
A2E6
330
A2E1
100
AcDbEntity
  8
Cut
100
AcDbLine
 10
6740.346855455993
 20
313.5628764043981
 30
0.0
 11
6740.346855455992
 21
314.6904984762888
 31
0.0
  0
LINE
  5
A2E7
330
A2E1
100
AcDbEntity
  8
Cut
100
AcDbLine
 10
6733.669321648581
 20
304.355883149804
 30
0.0
 11
6733.669321648582
 21
306.3436054896356
 31
0.0
  0
LINE
  5
A2E9
330
A2E1
100
AcDbEntity
  8
Cut
100
AcDbLine
 10
6736.669321648582
 20
322.5558831498038
 30
0.0
 11
6742.705822897513
 21
322.5558831498038
 31
0.0
  0
LINE
  5
A2EA
330
A2E1
100
AcDbEntity
  8
Cut
100
AcDbLine
 10
6736.669321648581
 20
301.355883149804
 30
0.0
 11
6742.705822897513
 21
301.355883149804
 31
0.0
  0
LINE
  5
A2EE
330
A2E1
100
AcDbEntity
  8
Cut
100
AcDbLine
 10
6751.742324146445
 20
304.3558831498049
 30
0.0
 11
6751.742324146444
 21
306.3436054896356
 31
0.0
  0
LINE
  5
A2F0
330
A2E1
100
AcDbEntity
  8
Cut
100
AcDbLine
 10
6748.742324146445
 20
301.355883149804
 30
0.0
 11
6742.705822897513
 21
301.355883149804
 31
0.0
  0
LINE
  5
A2F2
330
A2E1
100
AcDbEntity
  8
Cut
100
AcDbLine
 10
6750.242324146444
 20
297.5558831498045
 30
0.0
 11
6750.242324146444
 21
297.5558831498045
 31
0.0
  0
LINE
  5
A2F3
330
A2E1
100
AcDbEntity
  8
Cut
100
AcDbLine
 10
6748.742324146444
 20
322.5558831498038
 30
0.0
 11
6742.705822897513
 21
322.5558831498038
 31
0.0
  0
ARC
  5
A2F8
330
A2E1
100
AcDbEntity
  8
Cut
100
AcDbCircle
 10
6748.742324146444
 20
319.5558831498038
 30
0.0
 40
3.000000000000001
100
AcDbArc
 50
0.0
 51
90.0
  0
ARC
  5
A2F9
330
A2E1
100
AcDbEntity
  8
Cut
100
AcDbCircle
 10
6736.669321648582
 20
319.5558831498038
 30
0.0
 40
3.000000000000001
100
AcDbArc
 50
90.0
 51
180.0
  0
LINE
  5
A31E
330
A2E1
100
AcDbEntity
  8
Cut
100
AcDbLine
 10
6733.669321648582
 20
313.1681608099725
 30
0.0
 11
6733.669321648582
 21
319.5558831498038
 31
0.0
  0
LINE
  5
A31F
330
A2E1
100
AcDbEntity
  8
Cut
100
AcDbLine
 10
6730.669321648582
 20
306.3436054896356
 30
0.0
 11
6730.669321648582
 21
313.1681608099725
 31
0.0
  0
LINE
  5
A320
330
A2E1
100
AcDbEntity
  8
Cut
100
AcDbLine
 10
6733.669321648582
 20
313.1681608099725
 30
0.0
 11
6730.669321648582
 21
313.1681608099725
 31
0.0
  0
LINE
  5
A321
330
A2E1
100
AcDbEntity
  8
Cut
100
AcDbLine
 10
6733.669321648582
 20
306.3436054896356
 30
0.0
 11
6730.669321648582
 21
306.3436054896356
 31
0.0
  0
LINE
  5
A348
330
A2E1
100
AcDbEntity
  8
Cut
100
AcDbLine
 10
6754.742324146444
 20
306.3436054896356
 30
0.0
 11
6754.742324146444
 21
313.1681608099725
 31
0.0
  0
LINE
  5
A349
330
A2E1
100
AcDbEntity
  8
Cut
100
AcDbLine
 10
6751.742324146444
 20
313.1681608099725
 30
0.0
 11
6754.742324146444
 21
313.1681608099725
 31
0.0
  0
ARC
  5
A34A
330
A2E1
100
AcDbEntity
  8
Cut
100
AcDbCircle
 10
6736.669321648581
 20
304.355883149804
 30
0.0
 40
3.000000000000001
100
AcDbArc
 50
180.0
 51
270.0
  0
ARC
  5
A34B
330
A2E1
100
AcDbEntity
  8
Cut
100
AcDbCircle
 10
6748.742324146445
 20
304.355883149804
 30
0.0
 40
3.0
100
AcDbArc
 50
270.0
 51
0.0000000000173701
  0
LINE
  5
A34C
330
A2E1
100
AcDbEntity
  8
Cut
100
AcDbLine
 10
6751.742324146444
 20
306.3436054896356
 30
0.0
 11
6754.742324146444
 21
306.3436054896356
 31
0.0
  0
LINE
  5
A34D
330
A2E1
100
AcDbEntity
  8
Cut
100
AcDbLine
 10
6751.742324146444
 20
313.1681608099725
 30
0.0
 11
6751.742324146444
 21
319.5558831498038
 31
0.0
  0
CIRCLE
  5
A36B
330
A2E1
100
AcDbEntity
  8
Cut
100
AcDbCircle
 10
6736.669321648582
 20
319.5558831498038
 30
0.0
 40
1.5
  0
CIRCLE
  5
A36C
330
A2E1
100
AcDbEntity
  8
Cut
100
AcDbCircle
 10
6748.742324146444
 20
319.5558831498038
 30
0.0
 40
1.5
  0
ARC
  5
A43C
330
A2E1
100
AcDbEntity
  8
Cut
100
AcDbCircle
 10
6742.705822897514
 20
307.5558831498046
 30
0.0
 40
5.05
100
AcDbArc
 50
131.7368362513951
 51
48.26316374859251
  0
ARC
  5
A43D
330
A2E1
100
AcDbEntity
  8
Cut
100
AcDbCircle
 10
6748.064790339036
 20
313.5628764043956
 30
0.0
 40
3.0
100
AcDbArc
 50
180.0000000000261
 51
228.2631637485819
  0
ARC
  5
A43E
330
A2E1
100
AcDbEntity
  8
Cut
100
AcDbCircle
 10
6737.346855455993
 20
313.5628764043968
 30
0.0
 40
3.0
100
AcDbArc
 50
311.7368362514001
 51
0.0000000000260551
  0
ENDBLK
  5
A2FB
330
A2E1
100
AcDbEntity
  8
0
100
AcDbBlockEnd
  0
BLOCK
  5
A3A8
330
A38B
100
AcDbEntity
  8
0
100
AcDbBlockBegin
  2
holder3
 70
     0
 10
0.0
 20
0.0
 30
0.0
  3
holder3
  1
holder3
  0
ARC
  5
A38C
330
A38B
100
AcDbEntity
  8
Cut
100
AcDbCircle
 10
6761.628708846601
 20
314.6904984762889
 30
0.0
 40
1.0
100
AcDbArc
 50
0.0
 51
90.0
  0
LINE
  5
A38D
330
A38B
100
AcDbEntity
  8
Cut
100
AcDbLine
 10
6758.910773963557
 20
315.6904984762889
 30
0.0
 11
6761.628708846601
 21
315.6904984762889
 31
0.0
  0
LINE
  5
A38E
330
A38B
100
AcDbEntity
  8
Cut
100
AcDbLine
 10
6762.628708846601
 20
313.5628764043943
 30
0.0
 11
6762.628708846601
 21
314.6904984762888
 31
0.0
  0
ARC
  5
A38F
330
A38B
100
AcDbEntity
  8
Cut
100
AcDbCircle
 10
6758.910773963557
 20
314.6904984762889
 30
0.0
 40
1.0
100
AcDbArc
 50
90.0
 51
180.0
  0
LINE
  5
A390
330
A38B
100
AcDbEntity
  8
Cut
100
AcDbLine
 10
6757.910773963557
 20
313.5628764043981
 30
0.0
 11
6757.910773963557
 21
314.6904984762888
 31
0.0
  0
LINE
  5
A391
330
A38B
100
AcDbEntity
  8
Cut
100
AcDbLine
 10
6751.233240156149
 20
304.355883149804
 30
0.0
 11
6751.233240156149
 21
306.5936054896356
 31
0.0
  0
LINE
  5
A392
330
A38B
100
AcDbEntity
  8
Cut
100
AcDbLine
 10
6754.23324015615
 20
322.5558831498038
 30
0.0
 11
6760.269741405078
 21
322.5558831498038
 31
0.0
  0
LINE
  5
A393
330
A38B
100
AcDbEntity
  8
Cut
100
AcDbLine
 10
6754.233240156149
 20
301.355883149804
 30
0.0
 11
6760.269741405078
 21
301.355883149804
 31
0.0
  0
LINE
  5
A394
330
A38B
100
AcDbEntity
  8
Cut
100
AcDbLine
 10
6769.306242654007
 20
304.3558831498049
 30
0.0
 11
6769.306242654007
 21
306.5936054896356
 31
0.0
  0
LINE
  5
A395
330
A38B
100
AcDbEntity
  8
Cut
100
AcDbLine
 10
6766.306242654007
 20
301.355883149804
 30
0.0
 11
6760.269741405078
 21
301.355883149804
 31
0.0
  0
LINE
  5
A396
330
A38B
100
AcDbEntity
  8
Cut
100
AcDbLine
 10
6766.306242654006
 20
322.5558831498038
 30
0.0
 11
6760.269741405078
 21
322.5558831498038
 31
0.0
  0
ARC
  5
A39A
330
A38B
100
AcDbEntity
  8
Cut
100
AcDbCircle
 10
6766.306242654006
 20
319.5558831498038
 30
0.0
 40
3.000000000000001
100
AcDbArc
 50
0.0
 51
90.0
  0
ARC
  5
A39B
330
A38B
100
AcDbEntity
  8
Cut
100
AcDbCircle
 10
6754.23324015615
 20
319.5558831498038
 30
0.0
 40
3.000000000000001
100
AcDbArc
 50
90.0
 51
180.0
  0
LINE
  5
A39C
330
A38B
100
AcDbEntity
  8
Cut
100
AcDbLine
 10
6751.233240156149
 20
306.5936054896356
 30
0.0
 11
6751.23324015615
 21
319.5558831498038
 31
0.0
  0
ARC
  5
A3A2
330
A38B
100
AcDbEntity
  8
Cut
100
AcDbCircle
 10
6754.233240156149
 20
304.355883149804
 30
0.0
 40
3.000000000000001
100
AcDbArc
 50
180.0
 51
270.0
  0
ARC
  5
A3A3
330
A38B
100
AcDbEntity
  8
Cut
100
AcDbCircle
 10
6766.306242654007
 20
304.355883149804
 30
0.0
 40
3.0
100
AcDbArc
 50
270.0
 51
0.0000000000173701
  0
LINE
  5
A3A5
330
A38B
100
AcDbEntity
  8
Cut
100
AcDbLine
 10
6769.306242654007
 20
306.5936054896356
 30
0.0
 11
6769.306242654006
 21
319.5558831498038
 31
0.0
  0
CIRCLE
  5
A3A6
330
A38B
100
AcDbEntity
  8
Cut
100
AcDbCircle
 10
6754.23324015615
 20
319.5558831498038
 30
0.0
 40
1.5
  0
CIRCLE
  5
A3A7
330
A38B
100
AcDbEntity
  8
Cut
100
AcDbCircle
 10
6766.306242654006
 20
319.5558831498038
 30
0.0
 40
1.5
  0
ARC
  5
A471
330
A38B
100
AcDbEntity
  8
Cut
100
AcDbCircle
 10
6765.628708846601
 20
313.5628764043956
 30
0.0
 40
3.0
100
AcDbArc
 50
180.0000000000261
 51
228.2631637485819
  0
ARC
  5
A472
330
A38B
100
AcDbEntity
  8
Cut
100
AcDbCircle
 10
6760.269741405079
 20
307.5558831498046
 30
0.0
 40
5.05
100
AcDbArc
 50
131.7368362514062
 51
48.26316374859594
  0
ARC
  5
A473
330
A38B
100
AcDbEntity
  8
Cut
100
AcDbCircle
 10
6754.910773963557
 20
313.5628764043968
 30
0.0
 40
3.0
100
AcDbArc
 50
311.7368362514001
 51
0.0000000000260551
  0
ENDBLK
  5
A3A9
330
A38B
100
AcDbEntity
  8
0
100
AcDbBlockEnd
  0
ENDSEC
  0
SECTION
  2
ENTITIES
  0
INSERT
  5
97CC
330
70
100
AcDbEntity
  8
Cut
100
AcDbBlockReference
  2
laikiklis2
 10
6890.730833650895
 20
-6219.076835267976
 30
0.0
 50
90.0
  0
INSERT
  5
9901
330
70
100
AcDbEntity
  8
Equipment
100
AcDbBlockReference
  2
M4 front
 10
72.91356220608304
 20
15.15354447617085
 30
0.0
  0
INSERT
  5
990D
330
70
100
AcDbEntity
  8
Equipment
100
AcDbBlockReference
  2
M4 bolt front
 10
72.91356220608304
 20
18.15354447617085
 30
0.0
  0
INSERT
  5
990E
330
70
100
AcDbEntity
  8
Equipment
100
AcDbBlockReference
  2
M4 bolt front
 10
72.91356220608304
 20
24.15354447617085
 30
0.0
  0
INSERT
  5
9945
330
70
100
AcDbEntity
  8
Cut
  6
ByBlock
100
AcDbBlockReference
  2
Ratukas
 10
6637.308733508728
 20
77.24634742382528
 30
0.0
  0
LINE
  5
994D
330
70
100
AcDbEntity
  8
Reference
100
AcDbLine
 10
6665.964381494108
 20
370.6975570042841
 30
0.0
 11
6665.964381494108
 21
206.8765971926306
 31
0.0
  0
LINE
  5
994E
330
70
100
AcDbEntity
  8
Reference
100
AcDbLine
 10
6652.910934939793
 20
236.7865238674394
 30
0.0
 11
6652.910934939793
 21
297.6331354778161
 31
0.0
  0
LINE
  5
994F
330
70
100
AcDbEntity
  8
Reference
100
AcDbLine
 10
6679.017828048423
 20
236.7865238674394
 30
0.0
 11
6679.017828048423
 21
297.6331354778161
 31
0.0
  0
LINE
  5
9954
330
70
100
AcDbEntity
  8
Reference
100
AcDbLine
 10
6652.910934939793
 20
297.5296850693845
 30
0.0
 11
6652.910934939793
 21
297.5296850693845
 31
0.0
  0
LINE
  5
9955
330
70
100
AcDbEntity
  8
Reference
100
AcDbLine
 10
6652.910934939793
 20
297.5296850693845
 30
0.0
 11
6652.910934939793
 21
297.5296850693845
 31
0.0
  0
INSERT
  5
9960
330
70
100
AcDbEntity
  8
Reference
100
AcDbBlockReference
  2
Ratukas front
 10
74.56216873290487
 20
1.5
 30
0.0
  0
LINE
  5
996D
330
70
100
AcDbEntity
  8
Reference
100
AcDbLine
 10
6682.964381494108
 20
300.5296850693845
 30
0.0
 11
6636.101620922522
 21
300.5296850693845
 31
0.0
  0
INSERT
  5
9990
330
70
100
AcDbEntity
  8
Equipment
100
AcDbBlockReference
  2
svirkstas
 10
121.6387157573618
 20
-72.09141607696921
 30
0.0
  0
INSERT
  5
99B1
330
70
100
AcDbEntity
  8
Reference
100
AcDbBlockReference
  2
Ratukas front
 10
74.56216873290487
 20
-1.5
 30
0.0
  0
LINE
  5
99B4
330
70
100
AcDbEntity
  8
Cut
100
AcDbLine
 10
6652.910934939793
 20
290.0296850693845
 30
0.0
 11
6713.07810156197
 21
290.0296850693845
 31
0.0
  0
LINE
  5
99B5
330
70
100
AcDbEntity
  8
Cut
100
AcDbLine
 10
6713.07810156197
 20
290.0296850693845
 30
0.0
 11
6713.07810156197
 21
287.0296850693845
 31
0.0
  0
LINE
  5
99B6
330
70
100
AcDbEntity
  8
Cut
100
AcDbLine
 10
6713.07810156197
 20
287.0296850693845
 30
0.0
 11
6652.910934939793
 21
287.0296850693845
 31
0.0
  0
LINE
  5
99B7
330
70
100
AcDbEntity
  8
Cut
100
AcDbLine
 10
6652.910934939793
 20
287.0296850693845
 30
0.0
 11
6652.910934939793
 21
290.0296850693845
 31
0.0
  0
LINE
  5
9A81
330
70
100
AcDbEntity
  8
Cut
100
AcDbLine
 10
6670.005832930138
 20
219.1586374014582
 30
0.0
 11
6661.922929034667
 21
219.1586374014582
 31
0.0
  0
INSERT
  5
9AB1
330
70
100
AcDbEntity
  8
Cut
100
AcDbBlockReference
  2
base
 10
0.0
 20
-24.75294557670509
 30
0.0
  0
INSERT
  5
9AB7
330
70
100
AcDbEntity
  8
Cut
100
AcDbBlockReference
  2
legs
 10
0.0
 20
0.0
 30
0.0
  0
INSERT
  5
9C2F
330
70
100
AcDbEntity
  8
Cut
100
AcDbBlockReference
  2
sirholder
 10
-2.67824097342509
 20
-24.75294557670509
 30
0.0
  0
LINE
  5
9C31
330
70
100
AcDbEntity
  8
Reference
100
AcDbLine
 10
6648.674339932065
 20
255.4480842270925
 30
0.0
 11
6648.674339932065
 21
349.4646519045538
 31
0.0
  0
LINE
  5
9C68
330
70
100
AcDbEntity
  8
Reference
100
AcDbLine
 10
6616.912981697519
 20
255.4480842270925
 30
0.0
 11
6616.912981697519
 21
349.4646519045538
 31
0.0
  0
LINE
  5
9DBD
330
70
100
AcDbEntity
  8
Reference
100
AcDbLine
 10
6687.934637593973
 20
290.0296850693857
 30
0.0
 11
6687.934637593973
 21
204.8986359697878
 31
0.0
  0
LINE
  5
9DBE
330
70
100
AcDbEntity
  8
Reference
100
AcDbLine
 10
6702.934637593973
 20
290.0296850693857
 30
0.0
 11
6702.934637593973
 21
204.8986359697878
 31
0.0
  0
LINE
  5
9DC0
330
70
100
AcDbEntity
  8
Reference
100
AcDbLine
 10
6644.724339932066
 20
235.375081729235
 30
0.0
 11
6753.477001862315
 21
235.375081729235
 31
0.0
  0
LINE
  5
9DC1
330
70
100
AcDbEntity
  8
Reference
100
AcDbLine
 10
6646.074339932065
 20
252.4480842270925
 30
0.0
 11
6753.477001862315
 21
252.4480842270925
 31
0.0
  0
INSERT
  5
9E31
330
70
100
AcDbEntity
  8
Reference
100
AcDbBlockReference
  2
sirholder2
 10
-34.43959920797079
 20
17.05431334081518
 30
0.0
  0
LINE
  5
9ECE
330
70
100
AcDbEntity
  8
Reference
100
AcDbLine
 10
6699.242984135779
 20
290.0296850693845
 30
0.0
 11
6699.242984135779
 21
214.7629176457717
 31
0.0
  0
INSERT
  5
A1C0
330
70
100
AcDbEntity
  8
Equipment
100
AcDbBlockReference
  2
laserpointer
 10
-3.786953391703719
 20
-60.22152711319609
 30
0.0
  0
LINE
  5
A247
330
70
100
AcDbEntity
  8
Reference
100
AcDbLine
 10
6696.242984135779
 20
219.1586374014582
 30
0.0
 11
6433.612680091925
 21
219.1586374014583
 31
0.0
  0
LINE
  5
A248
330
70
100
AcDbEntity
  8
Reference
100
AcDbLine
 10
6695.334637593973
 20
228.1951386503866
 30
0.0
 11
6487.260150398884
 21
228.1951386503867
 31
0.0
  0
INSERT
  5
A28B
330
70
100
AcDbEntity
  8
Cut
100
AcDbBlockReference
  2
laikiklis2
 10
110.1856390307094
 20
-23.44711838723691
 30
0.0
 50
360.0
  0
INSERT
  5
A2FC
330
70
100
AcDbEntity
  8
Cut
100
AcDbBlockReference
  2
holder2
 10
35.82676869224088
 20
0.0
 30
0.0
  0
LINE
  5
A378
330
70
100
AcDbEntity
  8
Cut
100
AcDbLine
 10
6763.979493120651
 20
297.5558831498045
 30
0.0
 11
6763.979493120651
 21
297.5558831498045
 31
0.0
  0
INSERT
  5
A3AA
330
70
100
AcDbEntity
  8
Cut
100
AcDbBlockReference
  2
holder3
 10
-3.826749533358452
 20
0.0
 30
0.0
  0
INSERT
  5
A3CB
330
70
100
AcDbEntity
  8
Cut
100
AcDbBlockReference
  2
holder3
 10
40.76320155099165
 20
0.0
 30
0.0
  0
INSERT
  5
A3CD
330
70
100
AcDbEntity
  8
Cut
100
AcDbBlockReference
  2
legs
 10
-70.50556989040251
 20
-274.9834931584873
 30
0.0
  0
LINE
  5
A3CF
330
70
100
AcDbEntity
  8
Cut
100
AcDbLine
 10
6625.061273140857
 20
43.79453976421041
 30
0.0
 11
6625.061273140857
 21
43.79453976421041
 31
0.0
  0
INSERT
  5
A3D3
330
70
100
AcDbEntity
  8
Cut
100
AcDbBlockReference
  2
legs
 10
13353.5909823021
 20
-274.9834931584873
 30
0.0
 41
-1.0
  0
INSERT
  5
A3D4
330
70
100
AcDbEntity
  8
Cut
100
AcDbBlockReference
  2
base
 10
57.67430024413898
 20
-213.0306765257461
 30
0.0
  0
INSERT
  5
A3D5
330
70
100
AcDbEntity
  8
Cut
  6
ByBlock
100
AcDbBlockReference
  2
Ratukas
 10
6676.254745121576
 20
-120.3214549887143
 30
0.0
  0
INSERT
  5
A3F0
330
70
100
AcDbEntity
  8
Cut
100
AcDbBlockReference
  2
sirholder
 10
-73.080117630725
 20
-213.5047838226492
 30
0.0
  0
INSERT
  5
A3F1
330
70
100
AcDbEntity
  8
Reference
100
AcDbBlockReference
  2
sirholder2
 10
-106.1286845768036
 20
-171.6975249051289
 30
0.0
  0
INSERT
  5
A419
330
70
100
AcDbEntity
  8
Cut
100
AcDbBlockReference
  2
holder2
 10
-149.3166098830989
 20
-243.9685421572518
 30
0.0
  0
INSERT
  5
A495
330
70
100
AcDbEntity
  8
Cut
100
AcDbBlockReference
  2
holder3
 10
-145.3003744907837
 20
-244.6343980284323
 30
0.0
  0
INSERT
  5
A496
330
70
100
AcDbEntity
  8
Cut
100
AcDbBlockReference
  2
holder3
 10
-126.5612811671708
 20
-244.6343980284323
 30
0.0
  0
INSERT
  5
A497
330
70
100
AcDbEntity
  8
Cut
100
AcDbBlockReference
  2
laikiklis2
 10
252.2744040657581
 20
-268.0815164156692
 30
0.0
 50
360.0
  0
LINE
  5
A525
330
70
100
AcDbEntity
  8
Reference
100
AcDbLine
 10
6692.734637593973
 20
210.1221361525291
 30
0.0
 11
6484.660150398885
 21
210.1221361525291
 31
0.0
  0
INSERT
  5
A58B
330
70
100
AcDbEntity
  8
Cut
100
AcDbBlockReference
  2
holder2
 10
6842.782727840098
 20
-6523.547185496054
 30
0.0
 50
90.0
  0
INSERT
  5
A5BD
330
70
100
AcDbEntity
  8
Cut
100
AcDbBlockReference
  2
holder3
 10
6819.783583210794
 20
-6541.111104003619
 30
0.0
 50
90.0
  0
INSERT
  5
A5E2
330
70
100
AcDbEntity
  8
Cut
100
AcDbBlockReference
  2
holder3
 10
-107.3656399861884
 20
-244.6343980284323
 30
0.0
  0
INSERT
  5
A5E3
330
70
100
AcDbEntity
  8
Cut
100
AcDbBlockReference
  2
holder3
 10
-88.62654666257549
 20
-244.6343980284323
 30
0.0
  0
INSERT
  5
A5E4
330
70
100
AcDbEntity
  8
Cut
100
AcDbBlockReference
  2
holder3
 10
-107.3656399861884
 20
-244.6343980284323
 30
0.0
  0
INSERT
  5
A5E5
330
70
100
AcDbEntity
  8
Cut
100
AcDbBlockReference
  2
holder3
 10
-88.62654666257549
 20
-244.6343980284323
 30
0.0
  0
LINE
  5
A5EF
330
70
100
AcDbEntity
  8
Cut
100
AcDbLine
 10
6555.029089762174
 20
297.5558831498045
 30
0.0
 11
6555.029089762174
 21
297.5558831498045
 31
0.0
  0
INSERT
  5
A5F0
330
70
100
AcDbEntity
  8
Cut
100
AcDbBlockReference
  2
holder3
 10
-231.9498959682733
 20
0.0
 30
0.0
  0
INSERT
  5
A5F1
330
70
100
AcDbEntity
  8
Cut
100
AcDbBlockReference
  2
holder3
 10
-192.312361909092
 20
0.0
 30
0.0
  0
LWPOLYLINE
  5
A5F2
330
70
100
AcDbEntity
  8
Cut
100
AcDbPolyline
 90
        4
 70
     1
 43
0.0
 10
6493.835095136828
 20
104.4794738411874
 10
6493.835095136828
 20
-9.764890358990499
 10
6788.331678408397
 20
-9.764890358990499
 10
6788.331678408397
 20
104.4794738411874
  0
ENDSEC
  0
SECTION
  2
OBJECTS
  0
DICTIONARY
  5
C
330
0
100
AcDbDictionary
281
     1
  3
ACAD_CIP_PREVIOUS_PRODUCT_INFO
350
79
  3
ACAD_DETAILVIEWSTYLE
350
6A
  3
ACAD_GROUP
350
D
  3
ACAD_IMAGE_VARS
350
7A
  3
ACAD_LAYOUT
350
62
  3
ACAD_MLINESTYLE
350
5F
  3
ACAD_PLOTSETTINGS
350
61
  3
ACAD_PLOTSTYLENAME
350
E
  3
ACAD_SCALELIST
350
42
  3
ACAD_SECTIONVIEWSTYLE
350
68
  3
AcDbVariableDictionary
350
7B
  3
APPDATA
350
C1
  3
DimOffsetDictionary
350
664F
  3
DWGPROPS
350
A63B
  3
REVIT_DICTIONARY
350
B0
  0
DICTIONARY
  5
18A
330
2
100
AcDbDictionary
280
     1
281
     1
  3
ACAD_LAYERSTATES
360
18B
  3
ACLYDICTIONARY
360
A639
  0
DICTIONARY
  5
B5
330
70
100
AcDbDictionary
280
     1
281
     1
  3
ACAD_SORTENTS
360
B6
  0
XRECORD
  5
79
102
{ACAD_REACTORS
330
C
102
}
330
C
100
AcDbXrecord
280
     1
300
RVT
300
2016
300
RVT2016
  0
DICTIONARY
  5
6A
102
{ACAD_REACTORS
330
C
102
}
330
C
100
AcDbDictionary
281
     1
  3
Imperial24
350
6B
  3
Metric50
350
BF
  0
DICTIONARY
  5
D
102
{ACAD_REACTORS
330
C
102
}
330
C
100
AcDbDictionary
281
     1
  0
RASTERVARIABLES
  5
7A
102
{ACAD_REACTORS
330
C
102
}
330
C
100
AcDbRasterVariables
 90
        0
 70
     0
 71
     1
 72
     1
  0
DICTIONARY
  5
62
102
{ACAD_REACTORS
330
C
102
}
330
C
100
AcDbDictionary
281
     1
  3
Layout1
350
6F
  3
Layout2
350
77
  3
Model
350
73
  0
DICTIONARY
  5
5F
102
{ACAD_REACTORS
330
C
102
}
330
C
100
AcDbDictionary
281
     1
  3
Standard
350
60
  0
DICTIONARY
  5
61
102
{ACAD_REACTORS
330
C
102
}
330
C
100
AcDbDictionary
281
     1
  0
ACDBDICTIONARYWDFLT
  5
E
102
{ACAD_REACTORS
330
C
102
}
330
C
100
AcDbDictionary
281
     1
  3
Normal
350
F
100
AcDbDictionaryWithDefault
340
F
  0
DICTIONARY
  5
42
102
{ACAD_REACTORS
330
C
102
}
330
C
100
AcDbDictionary
281
     1
  3
A0
350
43
  3
A1
350
44
  3
A2
350
45
  3
A3
350
46
  3
A4
350
47
  3
A5
350
48
  3
A6
350
49
  3
A7
350
4A
  3
A8
350
4B
  3
A9
350
4C
  3
B0
350
4D
  3
B1
350
4E
  3
B2
350
4F
  3
B3
350
50
  3
B4
350
51
  3
B5
350
52
  3
B6
350
53
  0
DICTIONARY
  5
68
102
{ACAD_REACTORS
330
C
102
}
330
C
100
AcDbDictionary
281
     1
  3
Imperial24
350
69
  3
Metric50
350
C0
  0
DICTIONARY
  5
7B
102
{ACAD_REACTORS
330
C
102
}
330
C
100
AcDbDictionary
281
     1
  3
HPTRANSPARENCY
350
664E
  0
DICTIONARY
  5
C1
102
{ACAD_REACTORS
330
C
102
}
330
C
100
AcDbDictionary
281
     1
  0
DICTIONARY
  5
664F
102
{ACAD_REACTORS
330
C
102
}
330
C
100
AcDbDictionary
281
     1
  3
DIMRAILANGLE
350
6652
  3
DIMRAILFIRSTOFFSET
350
6650
  3
DIMRAILOFFSET
350
6651
  3
DIMRAILSENABLED
350
6653
  0
XRECORD
  5
A63B
102
{ACAD_REACTORS
330
C
102
}
330
C
100
AcDbXrecord
280
     1
  1
DWGPROPS COOKIE
  2

  3

  4

  6

  7

  8
Justas
  9

300
=
301
=
302
=
303
=
304
=
305
=
306
=
307
=
308
=
309
=
 40
0.0
 41
2457448.691264572
 42
2457881.701070463
  1

 90
        0
  0
DICTIONARY
  5
B0
102
{ACAD_REACTORS
330
C
102
}
330
C
100
AcDbDictionary
281
     1
  3
DRAWING_TOOL
350
B4
  3
REVIT_CATEGORY_MAPPING
350
B2
  3
REVIT_SUB_CATEGORY_MAPPING
350
B3
  3
REVIT_TYPE_MAPPING
350
B1
  0
DICTIONARY
  5
18B
102
{ACAD_REACTORS
330
18A
102
}
330
18A
100
AcDbDictionary
281
     1
  0
DICTIONARY
  5
A639
102
{ACAD_REACTORS
330
18A
102
}
330
18A
100
AcDbDictionary
281
     1
1001
ACAD
1000
<All
  0
SORTENTSTABLE
  5
B6
102
{ACAD_REACTORS
330
B5
102
}
330
B5
100
AcDbSortentsTable
330
70
  0
ACDBDETAILVIEWSTYLE
  5
6B
102
{ACAD_REACTORS
330
6A
102
}
102
{ACAD_XDICTIONARY
360
BC
102
}
330
6A
100
AcDbModelDocViewStyle
 70
     0
  3
Imperial24
290
     0
100
AcDbDetailViewStyle
 70
     0
 71
     0
 90
        3
 71
     1
340
55
 40
0.24
340
0
 40
0.24
300

 40
0.36
280
     3
 71
     2
340
5D
 90
       25
 71
     3
340
55
 40
0.24
 90
        1
 40
0.75
 90
        1
300
%<\AcVar ViewType \f "%tc1">% %<\AcVar ViewDetailId>%\PSCALE %<\AcVar ViewScale \f "%sn">%
 71
     4
340
5D
 90
       25
340
5D
 90
       25
280
     0
  0
ACDBDETAILVIEWSTYLE
  5
BF
102
{ACAD_REACTORS
330
6A
102
}
330
6A
100
AcDbModelDocViewStyle
 70
     0
  3
Metric50
290
     0
100
AcDbDetailViewStyle
 70
     0
 71
     0
 90
        3
 71
     1
340
55
 40
5.0
340
0
 40
5.0
300

 40
0.36
280
     1
 71
     2
340
5D
 90
       25
 71
     3
340
55
 40
5.0
 90
        0
 40
15.0
 90
        1
300
%<\AcVar ViewDetailId>% (%<\AcVar ViewScale \f "%sn">%)
 71
     4
340
5D
 90
       25
340
5D
 90
       25
280
     0
  0
LAYOUT
  5
6F
102
{ACAD_REACTORS
330
62
102
}
330
62
100
AcDbPlotSettings
  1

  2

  4

  6

 40
0.0
 41
0.0
 42
0.0
 43
0.0
 44
0.0
 45
0.0
 46
0.0
 47
0.0
 48
0.0
 49
0.0
140
0.0
141
0.0
142
1.0
143
1.0
 70
   688
 72
     0
 73
     0
 74
     5
  7

 75
    16
147
1.0
148
0.0
149
0.0
100
AcDbLayout
  1
Layout1
 70
     1
 71
     1
 10
0.0
 20
0.0
 11
12.0
 21
9.0
 12
0.0
 22
0.0
 32
0.0
 14
0.0
 24
0.0
 34
0.0
 15
0.0
 25
0.0
 35
0.0
146
0.0
 13
0.0
 23
0.0
 33
0.0
 16
1.0
 26
0.0
 36
0.0
 17
0.0
 27
1.0
 37
0.0
 76
     0
330
6C
  0
LAYOUT
  5
77
102
{ACAD_REACTORS
330
62
102
}
330
62
100
AcDbPlotSettings
  1

  2

  4

  6

 40
0.0
 41
0.0
 42
0.0
 43
0.0
 44
0.0
 45
0.0
 46
0.0
 47
0.0
 48
0.0
 49
0.0
140
0.0
141
0.0
142
1.0
143
1.0
 70
   688
 72
     0
 73
     0
 74
     5
  7

 75
    16
147
1.0
148
0.0
149
0.0
100
AcDbLayout
  1
Layout2
 70
     1
 71
     2
 10
0.0
 20
0.0
 11
12.0
 21
9.0
 12
0.0
 22
0.0
 32
0.0
 14
0.0
 24
0.0
 34
0.0
 15
0.0
 25
0.0
 35
0.0
146
0.0
 13
0.0
 23
0.0
 33
0.0
 16
1.0
 26
0.0
 36
0.0
 17
0.0
 27
1.0
 37
0.0
 76
     0
330
74
  0
LAYOUT
  5
73
102
{ACAD_REACTORS
330
62
102
}
330
62
100
AcDbPlotSettings
  1

  2

  4

  6

 40
0.0
 41
0.0
 42
0.0
 43
0.0
 44
0.0
 45
0.0
 46
0.0
 47
0.0
 48
0.0
 49
0.0
140
0.0
141
0.0
142
1.0
143
1.0
 70
  1712
 72
     0
 73
     0
 74
     0
  7

 75
     0
147
1.0
148
0.0
149
0.0
100
AcDbLayout
  1
Model
 70
     1
 71
     0
 10
0.0
 20
0.0
 11
12.0
 21
9.0
 12
0.0
 22
0.0
 32
0.0
 14
6433.612680091925
 24
-9.764890358990499
 34
0.0
 15
6810.069444204999
 25
383.8394088471329
 35
0.0
146
0.0
 13
0.0
 23
0.0
 33
0.0
 16
1.0
 26
0.0
 36
0.0
 17
0.0
 27
1.0
 37
0.0
 76
     0
330
70
331
57
  0
MLINESTYLE
  5
60
102
{ACAD_REACTORS
330
5F
102
}
330
5F
100
AcDbMlineStyle
  2
STANDARD
 70
     0
  3

 62
   256
 51
90.0
 52
90.0
 71
     2
 49
0.5
 62
   256
  6
BYLAYER
 49
-0.5
 62
   256
  6
BYLAYER
  0
ACDBPLACEHOLDER
  5
F
102
{ACAD_REACTORS
330
E
102
}
330
E
  0
SCALE
  5
43
102
{ACAD_REACTORS
330
42
102
}
330
42
100
AcDbScale
 70
     0
300
1:1
140
1.0
141
1.0
290
     1
  0
SCALE
  5
44
102
{ACAD_REACTORS
330
42
102
}
330
42
100
AcDbScale
 70
     0
300
1/128" = 1'-0"
140
0.0078125
141
12.0
290
     0
  0
SCALE
  5
45
102
{ACAD_REACTORS
330
42
102
}
330
42
100
AcDbScale
 70
     0
300
1/64" = 1'-0"
140
0.015625
141
12.0
290
     0
  0
SCALE
  5
46
102
{ACAD_REACTORS
330
42
102
}
330
42
100
AcDbScale
 70
     0
300
1/32" = 1'-0"
140
0.03125
141
12.0
290
     0
  0
SCALE
  5
47
102
{ACAD_REACTORS
330
42
102
}
330
42
100
AcDbScale
 70
     0
300
1/16" = 1'-0"
140
0.0625
141
12.0
290
     0
  0
SCALE
  5
48
102
{ACAD_REACTORS
330
42
102
}
330
42
100
AcDbScale
 70
     0
300
3/32" = 1'-0"
140
0.09375
141
12.0
290
     0
  0
SCALE
  5
49
102
{ACAD_REACTORS
330
42
102
}
330
42
100
AcDbScale
 70
     0
300
1/8" = 1'-0"
140
0.125
141
12.0
290
     0
  0
SCALE
  5
4A
102
{ACAD_REACTORS
330
42
102
}
330
42
100
AcDbScale
 70
     0
300
3/16" = 1'-0"
140
0.1875
141
12.0
290
     0
  0
SCALE
  5
4B
102
{ACAD_REACTORS
330
42
102
}
330
42
100
AcDbScale
 70
     0
300
1/4" = 1'-0"
140
0.25
141
12.0
290
     0
  0
SCALE
  5
4C
102
{ACAD_REACTORS
330
42
102
}
330
42
100
AcDbScale
 70
     0
300
3/8" = 1'-0"
140
0.375
141
12.0
290
     0
  0
SCALE
  5
4D
102
{ACAD_REACTORS
330
42
102
}
330
42
100
AcDbScale
 70
     0
300
1/2" = 1'-0"
140
0.5
141
12.0
290
     0
  0
SCALE
  5
4E
102
{ACAD_REACTORS
330
42
102
}
330
42
100
AcDbScale
 70
     0
300
3/4" = 1'-0"
140
0.75
141
12.0
290
     0
  0
SCALE
  5
4F
102
{ACAD_REACTORS
330
42
102
}
330
42
100
AcDbScale
 70
     0
300
1" = 1'-0"
140
1.0
141
12.0
290
     0
  0
SCALE
  5
50
102
{ACAD_REACTORS
330
42
102
}
330
42
100
AcDbScale
 70
     0
300
1-1/2" = 1'-0"
140
1.5
141
12.0
290
     0
  0
SCALE
  5
51
102
{ACAD_REACTORS
330
42
102
}
330
42
100
AcDbScale
 70
     0
300
3" = 1'-0"
140
3.0
141
12.0
290
     0
  0
SCALE
  5
52
102
{ACAD_REACTORS
330
42
102
}
330
42
100
AcDbScale
 70
     0
300
6" = 1'-0"
140
6.0
141
12.0
290
     0
  0
SCALE
  5
53
102
{ACAD_REACTORS
330
42
102
}
330
42
100
AcDbScale
 70
     0
300
1'-0" = 1'-0"
140
12.0
141
12.0
290
     0
  0
ACDBSECTIONVIEWSTYLE
  5
69
102
{ACAD_REACTORS
330
68
102
}
102
{ACAD_XDICTIONARY
360
BA
102
}
330
68
100
AcDbModelDocViewStyle
 70
     0
  3
Imperial24
290
     0
100
AcDbSectionViewStyle
 70
     0
 71
     0
 90
       78
 71
     1
340
55
 40
0.24
340
0
340
0
 40
0.24
300
I, O, Q, S, X, Z
 40
0.48
 90
        3
 40
0.18
 90
        1
 71
     2
340
5D
 90
       25
340
5D
 90
       50
 40
0.24
 40
0.0
 40
0.24
 71
     3
340
55
 40
0.24
 90
        1
 40
0.75
 90
        1
300
%<\AcVar ViewType \f "%tc1">% %<\AcVar ViewSectionStartId>%-%<\AcVar ViewSectionEndId>%\PSCALE %<\AcVar ViewScale \f "%sn">%
 71
     4
300
ANSI31
 40
1.0
 90
        0
290
     0
290
     0
 90
        6
 40
0.0
 40
1.570796326794896
 40
0.2617993877991494
 40
1.308996938995747
 40
-0.2617993877991494
 40
1.832595714594046
  0
ACDBSECTIONVIEWSTYLE
  5
C0
102
{ACAD_REACTORS
330
68
102
}
330
68
100
AcDbModelDocViewStyle
 70
     0
  3
Metric50
290
     0
100
AcDbSectionViewStyle
 70
     0
 71
     0
 90
      102
 71
     1
340
55
 40
5.0
340
0
340
0
 40
5.0
300
I, O, Q, S, X, Z
 40
10.0
 90
        0
 40
2.5
 90
        0
 71
     2
340
5D
 90
       25
340
5D
 90
       50
 40
5.0
 40
2.5
 40
5.0
 71
     3
340
55
 40
5.0
 90
        0
 40
15.0
 90
        1
300
%<\AcVar ViewSectionStartId>%-%<\AcVar ViewSectionEndId>% (%<\AcVar ViewScale \f "%sn">%)
 71
     4
300
ANSI31
 40
1.0
 90
        0
290
     0
290
     0
 90
        6
 40
0.0
 40
1.570796
 40
0.261799
 40
1.308997
 40
-0.261799
 40
1.832596
  0
DICTIONARYVAR
  5
664E
102
{ACAD_REACTORS
330
7B
102
}
330
7B
100
DictionaryVariables
280
     0
  1
ByLayer
  0
DICTIONARYVAR
  5
6652
102
{ACAD_REACTORS
330
664F
102
}
330
664F
100
DictionaryVariables
280
     0
  1
0.261799
  0
DICTIONARYVAR
  5
6650
102
{ACAD_REACTORS
330
664F
102
}
330
664F
100
DictionaryVariables
280
     0
  1
10.000000
  0
DICTIONARYVAR
  5
6651
102
{ACAD_REACTORS
330
664F
102
}
330
664F
100
DictionaryVariables
280
     0
  1
6.000000
  0
DICTIONARYVAR
  5
6653
102
{ACAD_REACTORS
330
664F
102
}
330
664F
100
DictionaryVariables
280
     0
  1
0
  0
XRECORD
  5
B4
102
{ACAD_REACTORS
330
B0
102
}
330
B0
100
AcDbXrecord
280
     1
  1
BUILDING_ID
  1
kompiukas
  1
FLOOR_ID
  1
340503
  0
XRECORD
  5
B2
102
{ACAD_REACTORS
330
B0
102
}
330
B0
100
AcDbXrecord
280
     1
  1
-2000011
  1
Walls
  1
-2000051
  1
Lines
  1
-2000240
  1
Levels
  1
-2006020
  1
Level Heads
  0
XRECORD
  5
B3
102
{ACAD_REACTORS
330
B0
102
}
330
B0
100
AcDbXrecord
280
     1
  1
-2000042
  1
Thin Lines
  0
XRECORD
  5
B1
102
{ACAD_REACTORS
330
B0
102
}
330
B0
100
AcDbXrecord
280
     1
  1
27
  1
Level : 8mm Head
  1
327178
  1
Walls 1 : Walls 1
  0
DICTIONARY
  5
BC
330
6B
100
AcDbDictionary
280
     1
281
     1
  3
ACAD_XREC_ROUNDTRIP
360
BD
  0
DICTIONARY
  5
BA
330
69
100
AcDbDictionary
280
     1
281
     1
  3
ACAD_XREC_ROUNDTRIP
360
BB
  0
XRECORD
  5
BD
102
{ACAD_REACTORS
330
BC
102
}
330
BC
100
AcDbXrecord
280
     1
102
DISPLAYNAME
  1
Imperial24
102
FLAGS
 90
        0
  0
XRECORD
  5
BB
102
{ACAD_REACTORS
330
BA
102
}
330
BA
100
AcDbXrecord
280
     1
102
DISPLAYNAME
  1
Imperial24
102
FLAGS
 90
        0
  0
ENDSEC
  0
EOF
