  0
SECTION
  2
HEADER
  9
$ACADVER
  1
AC1009
  0
ENDSEC
  0
SECTION
  2
TABLES
  0
TABLE
  2
LAYER
  70
2
  0
LAYER
  2
Layer_2
  70
0
  62
1
  6
CONTINUOUS
  0
LAYER
  2
Layer_0
  70
0
  62
7
  6
CONTINUOUS
  0
ENDTAB
  0
ENDSEC
  0
SECTION
  2
ENTITIES
  0
POLYLINE
  5
90
  8
Layer_2
  62
1
  66
1
  10
0
  20
0
  30
0
  0
VERTEX
  5
90
  8
Layer_2
  10
365.39993
  20
190.00467
  0
VERTEX
  5
91
  8
Layer_2
  10
365.39999
  20
168.99899
  0
SEQEND
  0
POLYLINE
  5
93
  8
Layer_2
  62
1
  66
1
  10
0
  20
0
  30
0
  0
VERTEX
  5
93
  8
Layer_2
  10
404
  20
204.0033
  0
VERTEX
  5
94
  8
Layer_2
  10
404
  20
393.99899
  0
SEQEND
  0
POLYLINE
  5
96
  8
Layer_2
  62
1
  66
1
  10
0
  20
0
  30
0
  0
VERTEX
  5
96
  8
Layer_2
  10
316.08902
  20
206.09091
  0
VERTEX
  5
97
  8
Layer_2
  10
316.08902
  20
393.99899
  0
SEQEND
  0
POLYLINE
  5
99
  8
Layer_2
  62
1
  66
1
  10
0
  20
0
  30
0
  0
VERTEX
  5
99
  8
Layer_2
  10
365.39999
  20
203.99905
  0
VERTEX
  5
9a
  8
Layer_2
  10
365.40002
  20
393.99899
  0
SEQEND
  0
POLYLINE
  5
9c
  8
Layer_2
  62
1
  66
1
  10
0
  20
0
  30
0
  0
VERTEX
  5
9c
  8
Layer_2
  10
404.00018
  20
189.99899
  0
VERTEX
  5
9d
  8
Layer_2
  10
404
  20
168.99899
  0
SEQEND
  0
POLYLINE
  5
9f
  8
Layer_0
  62
7
  70
1
  66
1
  10
0
  20
0
  30
0
  0
VERTEX
  5
9f
  8
Layer_0
  10
414.10135
  20
181.82883
  42
0.41421356
  0
VERTEX
  5
a0
  8
Layer_0
  10
411.85135
  20
179.57883
  42
0.41421356
  0
VERTEX
  5
a1
  8
Layer_0
  10
414.10135
  20
177.32883
  42
0.41421356
  0
VERTEX
  5
a2
  8
Layer_0
  10
416.35135
  20
179.57883
  42
0.41421356
  0
SEQEND
  0
POLYLINE
  5
a4
  8
Layer_0
  62
7
  70
1
  66
1
  10
0
  20
0
  30
0
  0
VERTEX
  5
a4
  8
Layer_0
  10
443.60379
  20
181.82883
  42
0.41421356
  0
VERTEX
  5
a5
  8
Layer_0
  10
441.35379
  20
179.57883
  42
0.41421356
  0
VERTEX
  5
a6
  8
Layer_0
  10
443.60379
  20
177.32883
  42
0.41421356
  0
VERTEX
  5
a7
  8
Layer_0
  10
445.85379
  20
179.57883
  42
0.41421356
  0
SEQEND
  0
POLYLINE
  5
a9
  8
Layer_0
  62
7
  70
1
  66
1
  10
0
  20
0
  30
0
  0
VERTEX
  5
a9
  8
Layer_0
  10
324.70001
  20
181.82883
  42
0.41421356
  0
VERTEX
  5
aa
  8
Layer_0
  10
322.45001
  20
179.57883
  42
0.41421356
  0
VERTEX
  5
ab
  8
Layer_0
  10
324.70001
  20
177.32883
  42
0.41421356
  0
VERTEX
  5
ac
  8
Layer_0
  10
326.95001
  20
179.57883
  42
0.41421356
  0
SEQEND
  0
POLYLINE
  5
ae
  8
Layer_0
  62
7
  70
1
  66
1
  10
0
  20
0
  30
0
  0
VERTEX
  5
ae
  8
Layer_0
  10
354.20245
  20
181.82883
  42
0.41421356
  0
VERTEX
  5
af
  8
Layer_0
  10
351.95245
  20
179.57883
  42
0.41421356
  0
VERTEX
  5
b0
  8
Layer_0
  10
354.20245
  20
177.32883
  42
0.41421356
  0
VERTEX
  5
b1
  8
Layer_0
  10
356.45245
  20
179.57883
  42
0.41421356
  0
SEQEND
  0
POLYLINE
  5
b3
  8
Layer_0
  62
7
  70
1
  66
1
  10
0
  20
0
  30
0
  0
VERTEX
  5
b3
  8
Layer_0
  10
414.10135
  20
123.41995
  42
0.41421356
  0
VERTEX
  5
b4
  8
Layer_0
  10
411.85135
  20
121.16995
  42
0.41421356
  0
VERTEX
  5
b5
  8
Layer_0
  10
414.10135
  20
118.91995
  42
0.41421356
  0
VERTEX
  5
b6
  8
Layer_0
  10
416.35135
  20
121.16995
  42
0.41421356
  0
SEQEND
  0
POLYLINE
  5
b8
  8
Layer_0
  62
7
  70
1
  66
1
  10
0
  20
0
  30
0
  0
VERTEX
  5
b8
  8
Layer_0
  10
443.60379
  20
123.41995
  42
0.41421356
  0
VERTEX
  5
b9
  8
Layer_0
  10
441.35379
  20
121.16995
  42
0.41421356
  0
VERTEX
  5
ba
  8
Layer_0
  10
443.60379
  20
118.91995
  42
0.41421356
  0
VERTEX
  5
bb
  8
Layer_0
  10
445.85379
  20
121.16995
  42
0.41421356
  0
SEQEND
  0
POLYLINE
  5
bd
  8
Layer_0
  62
7
  70
1
  66
1
  10
0
  20
0
  30
0
  0
VERTEX
  5
bd
  8
Layer_0
  10
325.89203
  20
123.41995
  42
0.41421356
  0
VERTEX
  5
be
  8
Layer_0
  10
323.64203
  20
121.16995
  42
0.41421356
  0
VERTEX
  5
bf
  8
Layer_0
  10
325.89203
  20
118.91995
  42
0.41421356
  0
VERTEX
  5
c0
  8
Layer_0
  10
328.14203
  20
121.16995
  42
0.41421356
  0
SEQEND
  0
POLYLINE
  5
c2
  8
Layer_0
  62
7
  70
1
  66
1
  10
0
  20
0
  30
0
  0
VERTEX
  5
c2
  8
Layer_0
  10
355.39447
  20
123.41995
  42
0.41421356
  0
VERTEX
  5
c3
  8
Layer_0
  10
353.14447
  20
121.16995
  42
0.41421356
  0
VERTEX
  5
c4
  8
Layer_0
  10
355.39447
  20
118.91995
  42
0.41421356
  0
VERTEX
  5
c5
  8
Layer_0
  10
357.64447
  20
121.16995
  42
0.41421356
  0
SEQEND
  0
POLYLINE
  5
c7
  8
Layer_0
  62
7
  70
1
  66
1
  10
0
  20
0
  30
0
  0
VERTEX
  5
c7
  8
Layer_0
  10
365.39993
  20
190.00467
  0
VERTEX
  5
c8
  8
Layer_0
  10
404.00018
  20
189.99899
  0
VERTEX
  5
c9
  8
Layer_0
  10
404.00009
  20
204.00113
  0
VERTEX
  5
ca
  8
Layer_0
  10
365.39993
  20
203.99902
  0
SEQEND
  0
POLYLINE
  5
cc
  8
Layer_0
  62
7
  70
1
  66
1
  10
0
  20
0
  30
0
  0
VERTEX
  5
cc
  8
Layer_0
  10
316.08902
  20
205.94635
  0
VERTEX
  5
cd
  8
Layer_0
  10
316.40002
  20
193.99899
  0
VERTEX
  5
ce
  8
Layer_0
  10
316.40002
  20
168.99899
  0
VERTEX
  5
cf
  8
Layer_0
  10
316.40002
  20
168.99899
  0
VERTEX
  5
d0
  8
Layer_0
  10
316.40002
  20
108.00143
  0
VERTEX
  5
d1
  8
Layer_0
  10
316.39999
  20
106.00143
  0
VERTEX
  5
d2
  8
Layer_0
  10
365.39999
  20
106.00143
  0
VERTEX
  5
d3
  8
Layer_0
  10
365.39999
  20
108.00143
  0
VERTEX
  5
d4
  8
Layer_0
  10
365.39999
  20
168.99899
  0
VERTEX
  5
d5
  8
Layer_0
  10
404
  20
168.99899
  0
VERTEX
  5
d6
  8
Layer_0
  10
404
  20
108.00336
  0
VERTEX
  5
d7
  8
Layer_0
  10
404
  20
108.00336
  0
VERTEX
  5
d8
  8
Layer_0
  10
404
  20
106.00336
  0
VERTEX
  5
d9
  8
Layer_0
  10
453
  20
106.00336
  0
VERTEX
  5
da
  8
Layer_0
  10
453
  20
108.0033
  0
VERTEX
  5
db
  8
Layer_0
  10
453
  20
108.0033
  0
VERTEX
  5
dc
  8
Layer_0
  10
453
  20
190.78912
  0
VERTEX
  5
dd
  8
Layer_0
  10
453
  20
193.99899
  0
VERTEX
  5
de
  8
Layer_0
  10
453
  20
193.99899
  0
VERTEX
  5
df
  8
Layer_0
  10
453
  20
203.99896
  0
VERTEX
  5
e0
  8
Layer_0
  10
452.9993
  20
393.99899
  0
VERTEX
  5
e1
  8
Layer_0
  10
316.08902
  20
393.99899
  0
VERTEX
  5
e2
  8
Layer_0
  10
273.48901
  20
393.99899
  0
VERTEX
  5
e3
  8
Layer_0
  10
273.48901
  20
205.94635
  0
SEQEND
  0
POLYLINE
  5
e5
  8
Layer_0
  62
7
  70
1
  66
1
  10
0
  20
0
  30
0
  0
VERTEX
  5
e5
  8
Layer_0
  10
284.789
  20
229.00113
  0
VERTEX
  5
e6
  8
Layer_0
  10
304.789
  20
229.00113
  0
VERTEX
  5
e7
  8
Layer_0
  10
304.789
  20
369.00113
  0
VERTEX
  5
e8
  8
Layer_0
  10
284.789
  20
369.00113
  0
SEQEND
  0
POLYLINE
  5
ea
  8
Layer_0
  62
7
  70
1
  66
1
  10
0
  20
0
  30
0
  0
VERTEX
  5
ea
  8
Layer_0
  10
374.70001
  20
228.99899
  0
VERTEX
  5
eb
  8
Layer_0
  10
394.70001
  20
228.99899
  0
VERTEX
  5
ec
  8
Layer_0
  10
394.70001
  20
368.99898
  0
VERTEX
  5
ed
  8
Layer_0
  10
374.70001
  20
368.99898
  0
SEQEND
  0
POLYLINE
  5
ef
  8
Layer_0
  62
7
  66
1
  10
0
  20
0
  30
0
  0
VERTEX
  5
ef
  8
Layer_0
  10
273.48901
  20
205.94635
  0
VERTEX
  5
f0
  8
Layer_0
  10
275.45485
  20
205.95292
  0
VERTEX
  5
f1
  8
Layer_0
  10
277.35926
  20
205.95907
  0
VERTEX
  5
f2
  8
Layer_0
  10
279.20322
  20
205.96482
  0
VERTEX
  5
f3
  8
Layer_0
  10
280.9877
  20
205.97017
  0
VERTEX
  5
f4
  8
Layer_0
  10
282.71367
  20
205.97514
  0
VERTEX
  5
f5
  8
Layer_0
  10
284.38212
  20
205.97974
  0
VERTEX
  5
f6
  8
Layer_0
  10
285.99402
  20
205.98398
  0
VERTEX
  5
f7
  8
Layer_0
  10
287.55034
  20
205.98786
  0
VERTEX
  5
f8
  8
Layer_0
  10
289.05206
  20
205.99139
  0
VERTEX
  5
f9
  8
Layer_0
  10
290.50016
  20
205.99459
  0
VERTEX
  5
fa
  8
Layer_0
  10
291.8956
  20
205.99747
  0
VERTEX
  5
fb
  8
Layer_0
  10
293.23936
  20
206.00003
  0
VERTEX
  5
fc
  8
Layer_0
  10
294.53242
  20
206.00229
  0
VERTEX
  5
fd
  8
Layer_0
  10
295.77575
  20
206.00425
  0
VERTEX
  5
fe
  8
Layer_0
  10
296.97034
  20
206.00593
  0
VERTEX
  5
ff
  8
Layer_0
  10
298.11714
  20
206.00734
  0
VERTEX
  5
100
  8
Layer_0
  10
299.21715
  20
206.00848
  0
VERTEX
  5
101
  8
Layer_0
  10
300.27132
  20
206.00936
  0
VERTEX
  5
102
  8
Layer_0
  10
301.28065
  20
206.01
  0
VERTEX
  5
103
  8
Layer_0
  10
302.2461
  20
206.01041
  0
VERTEX
  5
104
  8
Layer_0
  10
303.16865
  20
206.01059
  0
VERTEX
  5
105
  8
Layer_0
  10
304.04927
  20
206.01055
  0
VERTEX
  5
106
  8
Layer_0
  10
304.88894
  20
206.01031
  0
VERTEX
  5
107
  8
Layer_0
  10
305.68863
  20
206.00988
  0
VERTEX
  5
108
  8
Layer_0
  10
306.44932
  20
206.00926
  0
VERTEX
  5
109
  8
Layer_0
  10
307.17198
  20
206.00846
  0
VERTEX
  5
10a
  8
Layer_0
  10
307.8576
  20
206.0075
  0
VERTEX
  5
10b
  8
Layer_0
  10
308.50713
  20
206.00638
  0
VERTEX
  5
10c
  8
Layer_0
  10
309.12157
  20
206.00512
  0
VERTEX
  5
10d
  8
Layer_0
  10
309.70188
  20
206.00372
  0
VERTEX
  5
10e
  8
Layer_0
  10
310.24904
  20
206.0022
  0
VERTEX
  5
10f
  8
Layer_0
  10
310.76402
  20
206.00056
  0
VERTEX
  5
110
  8
Layer_0
  10
311.2478
  20
205.99882
  0
VERTEX
  5
111
  8
Layer_0
  10
311.70135
  20
205.99697
  0
VERTEX
  5
112
  8
Layer_0
  10
312.12566
  20
205.99505
  0
VERTEX
  5
113
  8
Layer_0
  10
312.52169
  20
205.99304
  0
VERTEX
  5
114
  8
Layer_0
  10
312.89041
  20
205.99097
  0
VERTEX
  5
115
  8
Layer_0
  10
313.23281
  20
205.98885
  0
VERTEX
  5
116
  8
Layer_0
  10
313.54986
  20
205.98668
  0
VERTEX
  5
117
  8
Layer_0
  10
313.84254
  20
205.98447
  0
VERTEX
  5
118
  8
Layer_0
  10
314.35865
  20
205.97998
  0
VERTEX
  5
119
  8
Layer_0
  10
314.78897
  20
205.97547
  0
VERTEX
  5
11a
  8
Layer_0
  10
315.14128
  20
205.97101
  0
VERTEX
  5
11b
  8
Layer_0
  10
315.42339
  20
205.96668
  0
VERTEX
  5
11c
  8
Layer_0
  10
315.6431
  20
205.96256
  0
VERTEX
  5
11d
  8
Layer_0
  10
315.80821
  20
205.95874
  0
VERTEX
  5
11e
  8
Layer_0
  10
315.92651
  20
205.95528
  0
VERTEX
  5
11f
  8
Layer_0
  10
316.00582
  20
205.95228
  0
VERTEX
  5
120
  8
Layer_0
  10
316.07862
  20
205.94794
  0
VERTEX
  5
121
  8
Layer_0
  10
316.08902
  20
205.94635
  0
SEQEND
  0
ENDSEC
  0
EOF
