  0
SECTION
  2
HEADER
  9
$ACADVER
  1
AC1003
  9
$EXTMIN
 10
2.00099046491451
 20
43.2999815314246
  9
$EXTMAX
 10
43.2994904649145
 20
1.90148153142456
  9
$INSBASE
 10
22.6502404649145
 20
22.6007315314246
999
Created with OMAX Layout for Windows. (http://www.omax.com) 4/9/2008
  0
ENDSEC
  0
SECTION
  2
TABLES
  0
TABLE
  2
LAYER
 70
    10
  0
LAYER
  2
0
 70
     0
 62
     7
  6
CONTINUOUS
  0
LAYER
  2
1
 70
     0
 62
     7
  6
CONTINUOUS
  0
LAYER
  2
2
 70
     0
 62
     7
  6
CONTINUOUS
  0
LAYER
  2
3
 70
     0
 62
     7
  6
CONTINUOUS
  0
LAYER
  2
4
 70
     0
 62
     7
  6
CONTINUOUS
  0
LAYER
  2
5
 70
     0
 62
     7
  6
CONTINUOUS
  0
LAYER
  2
6
 70
     0
 62
     7
  6
CONTINUOUS
  0
LAYER
  2
7
 70
     0
 62
     7
  6
CONTINUOUS
  0
LAYER
  2
8
 70
     0
 62
     7
  6
CONTINUOUS
  0
LAYER
  2
9
 70
     0
 62
     7
  6
CONTINUOUS
  0
LAYER
  2
10
 70
     0
 62
     7
  6
CONTINUOUS
  0
LAYER
  2
11
 70
     0
 62
     7
  6
CONTINUOUS
  0
LAYER
  2
12
 70
     0
 62
     7
  6
CONTINUOUS
  0
LAYER
  2
13
 70
     0
 62
     7
  6
CONTINUOUS
  0
LAYER
  2
14
 70
     0
 62
     7
  6
CONTINUOUS
  0
LAYER
  2
15
 70
     0
 62
     7
  6
CONTINUOUS
  0
LAYER
  2
16
 70
     0
 62
     7
  6
CONTINUOUS
  0
LAYER
  2
17
 70
     0
 62
     7
  6
CONTINUOUS
  0
LAYER
  2
18
 70
     0
 62
     7
  6
CONTINUOUS
  0
LAYER
  2
19
 70
     0
 62
     7
  6
CONTINUOUS
  0
LAYER
  2
20
 70
     0
 62
     7
  6
CONTINUOUS
  0
LAYER
  2
21
 70
     0
 62
     7
  6
CONTINUOUS
  0
LAYER
  2
22
 70
     0
 62
     7
  6
CONTINUOUS
  0
LAYER
  2
23
 70
     0
 62
     7
  6
CONTINUOUS
  0
LAYER
  2
24
 70
     0
 62
     7
  6
CONTINUOUS
  0
LAYER
  2
25
 70
     0
 62
     7
  6
CONTINUOUS
  0
LAYER
  2
26
 70
     0
 62
     7
  6
CONTINUOUS
  0
LAYER
  2
27
 70
     0
 62
     7
  6
CONTINUOUS
  0
LAYER
  2
28
 70
     0
 62
     7
  6
CONTINUOUS
  0
LAYER
  2
29
 70
     0
 62
     7
  6
CONTINUOUS
  0
LAYER
  2
30
 70
     0
 62
     7
  6
CONTINUOUS
  0
LAYER
  2
31
 70
     0
 62
     7
  6
CONTINUOUS
  0
ENDTAB
  0
ENDSEC
  0
SECTION
  2
ENTITIES
  0
ARC
  8
2
  6
CONTINUOUS
 62
2
 10
6.79847563329742
 20
40.40261682208
 30
0.0
 40
0.453304291446241
 50
119.719347108208
 51
270.000000039977
  0
ARC
  8
2
  6
CONTINUOUS
 62
2
 10
6.79847563360441
 20
40.4026168219936
 30
0.0
 40
0.453304291359846
 50
270.000000001175
 51
60.2806529329466
  0
LINE
  8
2
  6
CONTINUOUS
 62
2
 10
39.8728961831518
 20
36.8821762282812
 30
0.0
 11
40.1173889086022
 21
36.909723942364
 31
0.0
  0
LINE
  8
2
  6
CONTINUOUS
 62
2
 10
40.1173889086022
 20
36.909723942364
 30
0.0
 11
40.3496217478824
 21
36.9909857274459
 31
0.0
  0
LINE
  8
2
  6
CONTINUOUS
 62
2
 10
40.3496217478824
 20
36.9909857274459
 30
0.0
 11
40.5579495767121
 21
37.1218867782054
 31
0.0
  0
LINE
  8
2
  6
CONTINUOUS
 62
2
 10
40.5579495767121
 20
37.1218867782054
 30
0.0
 11
40.7319259678539
 21
37.2958631693627
 31
0.0
  0
LINE
  8
2
  6
CONTINUOUS
 62
2
 10
40.7319259678539
 20
37.2958631693627
 30
0.0
 11
40.8628270185946
 21
37.5041909982042
 31
0.0
  0
LINE
  8
2
  6
CONTINUOUS
 62
2
 10
40.8628270185946
 20
37.5041909982042
 30
0.0
 11
40.9440888036558
 21
37.7364238374916
 31
0.0
  0
LINE
  8
2
  6
CONTINUOUS
 62
2
 10
40.9440888036558
 20
37.7364238374916
 30
0.0
 11
40.9716365179137
 21
37.9809165630433
 31
0.0
  0
LINE
  8
2
  6
CONTINUOUS
 62
2
 10
40.9716365179137
 20
37.9809165630433
 30
0.0
 11
40.9716365180124
 21
39.7872456737867
 31
0.0
  0
LINE
  8
2
  6
CONTINUOUS
 62
2
 10
40.9716365180124
 20
39.7872456737867
 30
0.0
 11
40.9440888037582
 21
40.0317383992491
 31
0.0
  0
LINE
  8
2
  6
CONTINUOUS
 62
2
 10
40.9440888037582
 20
40.0317383992491
 30
0.0
 11
40.8628270185937
 21
40.2639712385215
 31
0.0
  0
LINE
  8
2
  6
CONTINUOUS
 62
2
 10
40.8628270185937
 20
40.2639712385215
 30
0.0
 11
40.7319259677475
 21
40.4722990673202
 31
0.0
  0
LINE
  8
2
  6
CONTINUOUS
 62
2
 10
40.7319259677475
 20
40.4722990673202
 30
0.0
 11
40.5579495765058
 21
40.6462754584057
 31
0.0
  0
LINE
  8
2
  6
CONTINUOUS
 62
2
 10
40.5579495765058
 20
40.6462754584057
 30
0.0
 11
40.3496217475895
 21
40.7771765090649
 31
0.0
  0
LINE
  8
2
  6
CONTINUOUS
 62
2
 10
40.3496217475895
 20
40.7771765090649
 30
0.0
 11
40.1173889082442
 21
40.8584382940209
 31
0.0
  0
LINE
  8
2
  6
CONTINUOUS
 62
2
 10
40.1173889082442
 20
40.8584382940209
 30
0.0
 11
39.8728961831518
 21
40.8859860081542
 31
0.0
  0
LINE
  8
2
  6
CONTINUOUS
 62
2
 10
39.8728961831518
 20
40.8859860081542
 30
0.0
 11
33.2824950825474
 21
40.8859860081542
 31
0.0
  0
LINE
  8
2
  6
CONTINUOUS
 62
2
 10
33.2824950825474
 20
40.8859860081542
 30
0.0
 11
33.2824950825474
 21
36.8821762282812
 31
0.0
  0
LINE
  8
2
  6
CONTINUOUS
 62
2
 10
33.2824950825474
 20
36.8821762282812
 30
0.0
 11
34.8489340194857
 21
36.8804973526497
 31
0.0
  0
ARC
  8
2
  6
CONTINUOUS
 62
2
 10
35.5855568484
 20
38.6990071043402
 30
0.0
 40
1.96203743824397
 50
229.484658866405
 51
247.948631869801
  0
LINE
  8
2
  6
CONTINUOUS
 62
2
 10
34.3109160358846
 20
37.2074033673708
 30
0.0
 11
34.2985266513489
 21
37.2255193813775
 31
0.0
  0
ARC
  8
2
  6
CONTINUOUS
 62
2
 10
57.5088634394296
 20
53.1211743667861
 30
0.0
 40
28.1316828723643
 50
213.747484146704
 51
214.405387209826
  0
LINE
  8
2
  6
CONTINUOUS
 62
2
 10
34.1175377369665
 20
37.4930758544089
 30
0.0
 11
34.1084533529597
 21
37.5170064163782
 31
0.0
  0
ARC
  8
2
  6
CONTINUOUS
 62
2
 10
37.6634613156191
 20
38.9096005472448
 30
0.0
 40
3.81803614806033
 50
195.578617384141
 51
201.391641182674
  0
LINE
  8
2
  6
CONTINUOUS
 62
2
 10
33.9856888967951
 20
37.8842274135842
 30
0.0
 11
33.9781119836705
 21
37.9503100508864
 31
0.0
  0
ARC
  8
2
  6
CONTINUOUS
 62
2
 10
35.9230045426501
 20
38.2054302654056
 30
0.0
 40
1.96155382027374
 50
159.452911462477
 51
187.473074955478
  0
LINE
  8
2
  6
CONTINUOUS
 62
2
 10
34.0862368223099
 20
38.8938906719264
 30
0.0
 11
34.0946443829263
 21
38.9102443221636
 31
0.0
  0
ARC
  8
2
  6
CONTINUOUS
 62
2
 10
35.7653914998452
 20
38.1011461750401
 30
0.0
 40
1.85635011255185
 50
145.702164942722
 51
154.16033431049
  0
LINE
  8
2
  6
CONTINUOUS
 62
2
 10
34.2318243116271
 20
39.1471898737412
 30
0.0
 11
34.245163017308
 21
39.1620360509297
 31
0.0
  0
ARC
  8
2
  6
CONTINUOUS
 62
2
 10
38.3400086018075
 20
35.463814107955
 30
0.0
 40
5.51766308326226
 50
135.000906157146
 51
137.913521551068
  0
LINE
  8
2
  6
CONTINUOUS
 62
2
 10
34.438369914717
 20
39.3653293848434
 30
0.0
 11
34.464014513314
 21
39.380610664816
 31
0.0
  0
ARC
  8
2
  6
CONTINUOUS
 62
2
 10
35.5585906440639
 20
37.8472227238048
 30
0.0
 40
1.88397863141961
 50
114.070479206916
 51
125.520330636897
  0
LINE
  8
2
  6
CONTINUOUS
 62
2
 10
34.7901909648692
 20
39.5673789424836
 30
0.0
 11
34.8191229953641
 21
39.5767533950197
 31
0.0
  0
LINE
  8
2
  6
CONTINUOUS
 62
2
 10
34.8191229953641
 20
39.5767533950197
 30
0.0
 11
34.8483319084234
 21
39.5841764847214
 31
0.0
  0
LINE
  8
2
  6
CONTINUOUS
 62
2
 10
34.8483319084234
 20
39.5841764847214
 30
0.0
 11
34.8778660486218
 21
39.5894724131349
 31
0.0
  0
LINE
  8
2
  6
CONTINUOUS
 62
2
 10
34.8778660486218
 20
39.5894724131349
 30
0.0
 11
34.8888710314554
 21
39.598108512007
 31
0.0
  0
ARC
  8
2
  6
CONTINUOUS
 62
2
 10
35.1635758843248
 20
38.9225062291575
 30
0.0
 40
0.729315570094024
 50
90.4690574964468
 51
112.127020294653
  0
LINE
  8
2
  6
CONTINUOUS
 62
2
 10
35.1576053378523
 20
39.651797359884
 30
0.0
 11
35.1759455108309
 21
39.6532696714113
 31
0.0
  0
ARC
  8
2
  6
CONTINUOUS
 62
2
 10
35.287366820722
 20
38.3034755517213
 30
0.0
 40
1.3543850537597
 50
58.8691481733368
 51
94.718889794802
  0
LINE
  8
2
  6
CONTINUOUS
 62
2
 10
35.9875762068862
 20
39.4628140223049
 30
0.0
 11
36.0368217480849
 21
39.4275840123624
 31
0.0
  0
ARC
  8
2
  6
CONTINUOUS
 62
2
 10
35.3873804072201
 20
38.5901925562188
 30
0.0
 40
1.05971623845568
 50
28.2271414422235
 51
52.2045307907914
  0
LINE
  8
2
  6
CONTINUOUS
 62
2
 10
36.3210746632158
 20
39.0914046294646
 30
0.0
 11
36.3260585490463
 21
39.0806589493794
 31
0.0
  0
ARC
  8
2
  6
CONTINUOUS
 62
2
 10
35.5172586682321
 20
38.628620807702
 30
0.0
 40
0.926550445866946
 50
18.9040527224278
 51
29.2008186989857
  0
LINE
  8
2
  6
CONTINUOUS
 62
2
 10
36.3938332481838
 20
38.9288086397651
 30
0.0
 11
36.397951327878
 21
38.9098619568072
 31
0.0
  0
ARC
  8
2
  6
CONTINUOUS
 62
2
 10
42.8192974648047
 20
40.2729991696883
 30
0.0
 40
6.56443670632635
 50
191.984956595375
 51
194.363366781367
  0
LINE
  8
2
  6
CONTINUOUS
 62
2
 10
36.4600521306792
 20
38.6445557252395
 30
0.0
 11
36.4623375101468
 21
38.5501343786946
 31
0.0
  0
ARC
  8
2
  6
CONTINUOUS
 62
2
 10
31.1214903396288
 20
38.2707662776654
 30
0.0
 40
5.34814874837103
 50
357.873078129466
 51
2.99428871819467
  0
LINE
  8
2
  6
CONTINUOUS
 62
2
 10
36.4659545637576
 20
38.0722790193594
 30
0.0
 11
36.4644470091806
 21
38.064420830117
 31
0.0
  0
ARC
  8
2
  6
CONTINUOUS
 62
2
 10
35.2890668557249
 20
-115.692088577463
 30
0.0
 40
153.761001894851
 50
89.5620152238337
 51
90.1990809672157
  0
LINE
  8
2
  6
CONTINUOUS
 62
2
 10
34.7548071311286
 20
38.0679851421312
 30
0.0
 11
34.7548071310715
 21
38.0556309051254
 31
0.0
  0
ARC
  8
2
  6
CONTINUOUS
 62
2
 10
35.6977904817958
 20
38.1001208741914
 30
0.0
 40
0.944032286042535
 50
182.701212693282
 51
207.481932729682
  0
LINE
  8
2
  6
CONTINUOUS
 62
2
 10
34.8602862032657
 20
37.6644793466318
 30
0.0
 11
34.9214684603135
 21
37.5871192366973
 31
0.0
  0
ARC
  8
2
  6
CONTINUOUS
 62
2
 10
35.4285109741162
 20
38.0525777800155
 30
0.0
 40
0.688290466555549
 50
222.551534294847
 51
272.729541464716
  0
LINE
  8
2
  6
CONTINUOUS
 62
2
 10
35.4612883764578
 20
37.3650682104479
 30
0.0
 11
35.5479614104275
 21
37.3697224745495
 31
0.0
  0
ARC
  8
2
  6
CONTINUOUS
 62
2
 10
35.2955312986555
 20
39.2966514384348
 30
0.0
 40
1.94339295902539
 50
277.463319151304
 51
296.01808115684
  0
LINE
  8
2
  6
CONTINUOUS
 62
2
 10
36.1480098756068
 20
37.5502103518165
 30
0.0
 11
36.1628209073762
 21
37.5212958770828
 31
0.0
  0
ARC
  8
2
  6
CONTINUOUS
 62
2
 10
69.6189005522408
 20
54.4432488798841
 30
0.0
 40
37.4921559613812
 50
206.830106230839
 51
207.588502341774
  0
LINE
  8
2
  6
CONTINUOUS
 62
2
 10
36.3897327492544
 20
37.0799494885384
 30
0.0
 11
36.353483108756
 21
37.0479893302155
 31
0.0
  0
ARC
  8
2
  6
CONTINUOUS
 62
2
 10
35.7138255443124
 20
37.9906091341893
 30
0.0
 40
1.1391636820903
 50
283.338669460135
 51
304.160639191638
  0
LINE
  8
2
  6
CONTINUOUS
 62
2
 10
35.9766380015773
 20
36.8821762282812
 30
0.0
 11
37.3197544186763
 21
36.8821762277482
 31
0.0
  0
ARC
  8
2
  6
CONTINUOUS
 62
2
 10
38.1532151612734
 20
39.2300112007572
 30
0.0
 40
2.49138232110905
 50
243.308778336402
 51
250.455585704288
  0
LINE
  8
2
  6
CONTINUOUS
 62
2
 10
37.0341307707084
 20
37.0041100356718
 30
0.0
 11
37.0250463342872
 21
37.0090412104197
 31
0.0
  0
ARC
  8
2
  6
CONTINUOUS
 62
2
 10
-15.0871318831523
 20
-58.3096114764438
 30
0.0
 40
108.633902022366
 50
61.3338918300401
 51
61.3828989299558
  0
LINE
  8
2
  6
CONTINUOUS
 62
2
 10
36.9434978779745
 20
37.0535797205041
 30
0.0
 11
36.9454712154958
 21
37.0797077651238
 31
0.0
  0
ARC
  8
2
  6
CONTINUOUS
 62
2
 10
37.9427847548163
 20
36.8307113241059
 30
0.0
 40
1.0279268083631
 50
147.318196704947
 51
165.981706370966
  0
LINE
  8
2
  6
CONTINUOUS
 62
2
 10
37.0775969383516
 20
37.3857640833934
 30
0.0
 11
37.0970446433184
 21
37.4205238343507
 31
0.0
  0
ARC
  8
2
  6
CONTINUOUS
 62
2
 10
34.6671173002797
 20
38.8254436897071
 30
0.0
 40
2.80683927085645
 50
329.964632300667
 51
333.380234944288
  0
LINE
  8
2
  6
CONTINUOUS
 62
2
 10
37.1764308289441
 20
37.5677901971728
 30
0.0
 11
37.1949292208491
 21
37.5665815827519
 31
0.0
  0
ARC
  8
2
  6
CONTINUOUS
 62
2
 10
37.0383904011064
 20
36.9418214054412
 30
0.0
 40
0.644072729775002
 50
53.8790679073109
 51
75.9336563490871
  0
LINE
  8
2
  6
CONTINUOUS
 62
2
 10
37.4180658033649
 20
37.4620869820073
 30
0.0
 11
37.4369113975867
 21
37.4507875364046
 31
0.0
  0
LINE
  8
2
  6
CONTINUOUS
 62
2
 10
37.4369113975867
 20
37.4507875364046
 30
0.0
 11
37.4550274282263
 21
37.440318738495
 31
0.0
  0
LINE
  8
2
  6
CONTINUOUS
 62
2
 10
37.4550274282263
 20
37.440318738495
 30
0.0
 11
37.4722424917915
 21
37.4308739665774
 31
0.0
  0
LINE
  8
2
  6
CONTINUOUS
 62
2
 10
37.4722424917915
 20
37.4308739665774
 30
0.0
 11
37.4884730840165
 21
37.4227564729842
 31
0.0
  0
LINE
  8
2
  6
CONTINUOUS
 62
2
 10
37.4884730840165
 20
37.4227564729842
 30
0.0
 11
37.5375604072123
 21
37.4152806437464
 31
0.0
  0
LINE
  8
2
  6
CONTINUOUS
 62
2
 10
37.5375604072123
 20
37.4152806437464
 30
0.0
 11
37.5889858508187
 21
37.4065434602734
 31
0.0
  0
ARC
  8
2
  6
CONTINUOUS
 62
2
 10
37.9172877687379
 20
38.7993953555044
 30
0.0
 40
1.43102010864903
 50
256.737184562253
 51
274.445413092225
  0
LINE
  8
2
  6
CONTINUOUS
 62
2
 10
38.028205101181
 20
37.372680283487
 30
0.0
 11
38.0796305438092
 21
37.3831842410874
 31
0.0
  0
LINE
  8
2
  6
CONTINUOUS
 62
2
 10
38.0796305438092
 20
37.3831842410874
 30
0.0
 11
38.1287530266957
 21
37.3992610096657
 31
0.0
  0
LINE
  8
2
  6
CONTINUOUS
 62
2
 10
38.1287530266957
 20
37.3992610096657
 30
0.0
 11
38.1750539444026
 21
37.4215302787706
 31
0.0
  0
LINE
  8
2
  6
CONTINUOUS
 62
2
 10
38.1750539444026
 20
37.4215302787706
 30
0.0
 11
38.218159725216
 21
37.4507347968686
 31
0.0
  0
LINE
  8
2
  6
CONTINUOUS
 62
2
 10
38.218159725216
 20
37.4507347968686
 30
0.0
 11
38.2575385788139
 21
37.4875382031217
 31
0.0
  0
LINE
  8
2
  6
CONTINUOUS
 62
2
 10
38.2575385788139
 20
37.4875382031217
 30
0.0
 11
38.2927510090624
 21
37.5326305064603
 31
0.0
  0
LINE
  8
2
  6
CONTINUOUS
 62
2
 10
38.2927510090624
 20
37.5326305064603
 30
0.0
 11
38.2925620257248
 21
37.5561303647402
 31
0.0
  0
LINE
  8
2
  6
CONTINUOUS
 62
2
 10
38.2925620257248
 20
37.5561303647402
 30
0.0
 11
38.2919731009054
 21
37.5774283473893
 31
0.0
  0
LINE
  8
2
  6
CONTINUOUS
 62
2
 10
38.2919731009054
 20
37.5774283473893
 30
0.0
 11
38.2908304109571
 21
37.5967222276677
 31
0.0
  0
LINE
  8
2
  6
CONTINUOUS
 62
2
 10
38.2908304109571
 20
37.5967222276677
 30
0.0
 11
38.2890987961897
 21
37.6142669133332
 31
0.0
  0
LINE
  8
2
  6
CONTINUOUS
 62
2
 10
38.2890987961897
 20
37.6142669133332
 30
0.0
 11
38.2865716934196
 21
37.63027336253
 31
0.0
  0
LINE
  8
2
  6
CONTINUOUS
 62
2
 10
38.2865716934196
 20
37.63027336253
 30
0.0
 11
38.283218337918
 21
37.6450140628611
 31
0.0
  0
LINE
  8
2
  6
CONTINUOUS
 62
2
 10
38.283218337918
 20
37.6450140628611
 30
0.0
 11
38.2788893009989
 21
37.658699972471
 31
0.0
  0
LINE
  8
2
  6
CONTINUOUS
 62
2
 10
38.2788893009989
 20
37.658699972471
 30
0.0
 11
38.27350986832
 21
37.6716079739238
 31
0.0
  0
LINE
  8
2
  6
CONTINUOUS
 62
2
 10
38.27350986832
 20
37.6716079739238
 30
0.0
 11
38.2669174263115
 21
37.6839094707118
 31
0.0
  0
LINE
  8
2
  6
CONTINUOUS
 62
2
 10
38.2669174263115
 20
37.6839094707118
 30
0.0
 11
38.2590460505531
 21
37.695903320206
 31
0.0
  0
LINE
  8
2
  6
CONTINUOUS
 62
2
 10
38.2590460505531
 20
37.695903320206
 30
0.0
 11
38.2497551022824
 21
37.7078048755122
 31
0.0
  0
LINE
  8
2
  6
CONTINUOUS
 62
2
 10
38.2497551022824
 20
37.7078048755122
 30
0.0
 11
38.2389742621177
 21
37.7198822292718
 31
0.0
  0
LINE
  8
2
  6
CONTINUOUS
 62
2
 10
38.2389742621177
 20
37.7198822292718
 30
0.0
 11
38.2265321265669
 21
37.7323067849774
 31
0.0
  0
LINE
  8
2
  6
CONTINUOUS
 62
2
 10
38.2265321265669
 20
37.7323067849774
 30
0.0
 11
38.2123979309005
 21
37.7453730050384
 31
0.0
  0
LINE
  8
2
  6
CONTINUOUS
 62
2
 10
38.2123979309005
 20
37.7453730050384
 30
0.0
 11
38.1964090615491
 21
37.7593006375218
 31
0.0
  0
LINE
  8
2
  6
CONTINUOUS
 62
2
 10
38.1964090615491
 20
37.7593006375218
 30
0.0
 11
38.1784820191396
 21
37.7743533783398
 31
0.0
  0
ARC
  8
2
  6
CONTINUOUS
 62
2
 10
40.9194180314377
 20
44.4705539940111
 30
0.0
 40
7.23545664825853
 50
240.060238929098
 51
247.739387340034
  0
LINE
  8
2
  6
CONTINUOUS
 62
2
 10
37.3082796691155
 20
38.2006646299957
 30
0.0
 11
37.2975867293403
 21
38.2113575698986
 31
0.0
  0
ARC
  8
2
  6
CONTINUOUS
 62
2
 10
38.7906493608397
 20
39.780056263866
 30
0.0
 40
2.16565269931136
 50
220.304769367304
 51
226.415115508206
  0
LINE
  8
2
  6
CONTINUOUS
 62
2
 10
37.1390912374076
 20
38.3791967495105
 30
0.0
 11
37.132652619423
 21
38.3907203376601
 31
0.0
  0
ARC
  8
2
  6
CONTINUOUS
 62
2
 10
37.845304242538
 20
38.8501588225284
 30
0.0
 40
0.847912765151292
 50
195.64788541068
 51
212.809420410703
  0
LINE
  8
2
  6
CONTINUOUS
 62
2
 10
37.0288172624495
 20
38.6214558084415
 30
0.0
 11
37.0278327912307
 21
38.6263869540888
 31
0.0
  0
ARC
  8
2
  6
CONTINUOUS
 62
2
 10
38.3884609692792
 20
38.767243891084
 30
0.0
 40
1.36789974617992
 50
166.609365406865
 51
185.910403213046
  0
LINE
  8
2
  6
CONTINUOUS
 62
2
 10
37.0577492929444
 20
39.084034279299
 30
0.0
 11
37.0739447253364
 21
39.1332798206983
 31
0.0
  0
ARC
  8
2
  6
CONTINUOUS
 62
2
 10
37.813186882434
 20
38.8391974135562
 30
0.0
 40
0.795589988009346
 50
128.984363932574
 51
158.306542519759
  0
LINE
  8
2
  6
CONTINUOUS
 62
2
 10
37.3126746304546
 20
39.4576235729635
 30
0.0
 11
37.3523523407264
 21
39.4797565978568
 31
0.0
  0
ARC
  8
2
  6
CONTINUOUS
 62
2
 10
38.070999909682
 20
38.1629873047605
 30
0.0
 40
1.50011189569549
 50
95.8086326719273
 51
118.624199607489
  0
LINE
  8
2
  6
CONTINUOUS
 62
2
 10
37.9191792952433
 20
39.6553968332206
 30
0.0
 11
37.9865057068454
 21
39.6535465541073
 31
0.0
  0
ARC
  8
2
  6
CONTINUOUS
 62
2
 10
37.9984507889713
 20
37.5141987275087
 30
0.0
 40
2.1393811741153
 50
72.4515655308332
 51
90.3199085586479
  0
LINE
  8
2
  6
CONTINUOUS
 62
2
 10
38.6434996886477
 20
39.5540182600128
 30
0.0
 11
38.7009462274502
 21
39.5323906554873
 31
0.0
  0
ARC
  8
2
  6
CONTINUOUS
 62
2
 10
38.089716098172
 20
38.0146377937598
 30
0.0
 40
1.63620781694116
 50
61.2273435382816
 51
68.0643452927915
  0
LINE
  8
2
  6
CONTINUOUS
 62
2
 10
38.8772808671557
 20
39.4488336502854
 30
0.0
 11
38.8751712858433
 21
39.4240196993355
 31
0.0
  0
ARC
  8
2
  6
CONTINUOUS
 62
2
 10
37.8302655641495
 20
39.7066596166067
 30
0.0
 40
1.08245706153341
 50
326.802530378998
 51
344.86408865316
  0
LINE
  8
2
  6
CONTINUOUS
 62
2
 10
38.7360531794868
 20
39.1139859408246
 30
0.0
 11
38.7154803640102
 21
39.0782724825485
 31
0.0
  0
ARC
  8
2
  6
CONTINUOUS
 62
2
 10
43.2422645625353
 20
36.4020485133269
 30
0.0
 40
5.25870230317826
 50
149.408522325165
 51
151.264875148835
  0
LINE
  8
2
  6
CONTINUOUS
 62
2
 10
38.6311630308135
 20
38.9302282097895
 30
0.0
 11
38.6033736910266
 21
38.9454040143852
 31
0.0
  0
ARC
  8
2
  6
CONTINUOUS
 62
2
 10
37.8963596865168
 20
37.6196766760278
 30
0.0
 40
1.5024718893348
 50
61.9288783616156
 51
78.664856976755
  0
LINE
  8
2
  6
CONTINUOUS
 62
2
 10
38.1916668982643
 20
39.0928417818225
 30
0.0
 11
38.1605198066746
 21
39.0930835047592
 31
0.0
  0
ARC
  8
2
  6
CONTINUOUS
 62
2
 10
38.06741448769
 20
38.0153329089015
 30
0.0
 40
1.08176473749832
 50
85.0625586059751
 51
100.555745525343
  0
LINE
  8
2
  6
CONTINUOUS
 62
2
 10
37.8692437445089
 20
39.0787910904215
 30
0.0
 11
37.8418367655987
 21
39.0705725127175
 31
0.0
  0
LINE
  8
2
  6
CONTINUOUS
 62
2
 10
37.8418367655987
 20
39.0705725127175
 30
0.0
 11
37.8146539297166
 21
39.060156454344
 31
0.0
  0
LINE
  8
2
  6
CONTINUOUS
 62
2
 10
37.8146539297166
 20
39.060156454344
 30
0.0
 11
37.7877303965536
 21
39.047389091654
 31
0.0
  0
LINE
  8
2
  6
CONTINUOUS
 62
2
 10
37.7877303965536
 20
39.047389091654
 30
0.0
 11
37.7610485862642
 21
39.031989147122
 31
0.0
  0
LINE
  8
2
  6
CONTINUOUS
 62
2
 10
37.7610485862642
 20
39.031989147122
 30
0.0
 11
37.7345909190031
 21
39.0137324777196
 31
0.0
  0
LINE
  8
2
  6
CONTINUOUS
 62
2
 10
37.7345909190031
 20
39.0137324777196
 30
0.0
 11
37.710348312257
 21
38.9649747766243
 31
0.0
  0
LINE
  8
2
  6
CONTINUOUS
 62
2
 10
37.710348312257
 20
38.9649747766243
 30
0.0
 11
37.6949835274157
 21
38.9207482806693
 31
0.0
  0
LINE
  8
2
  6
CONTINUOUS
 62
2
 10
37.6949835274157
 20
38.9207482806693
 30
0.0
 11
37.6877670008969
 21
38.8806222836439
 31
0.0
  0
LINE
  8
2
  6
CONTINUOUS
 62
2
 10
37.6877670008969
 20
38.8806222836439
 30
0.0
 11
37.6881493625334
 21
38.844302323138
 31
0.0
  0
LINE
  8
2
  6
CONTINUOUS
 62
2
 10
37.6881493625334
 20
38.844302323138
 30
0.0
 11
37.6954010487429
 21
38.8113752727858
 31
0.0
  0
LINE
  8
2
  6
CONTINUOUS
 62
2
 10
37.6954010487429
 20
38.8113752727858
 30
0.0
 11
37.7089287397445
 21
38.7815422752164
 31
0.0
  0
LINE
  8
2
  6
CONTINUOUS
 62
2
 10
37.7089287397445
 20
38.7815422752164
 30
0.0
 11
37.7280512165306
 21
38.7544297587158
 31
0.0
  0
LINE
  8
2
  6
CONTINUOUS
 62
2
 10
37.7280512165306
 20
38.7544297587158
 30
0.0
 11
37.7521707643593
 21
38.7297037062222
 31
0.0
  0
LINE
  8
2
  6
CONTINUOUS
 62
2
 10
37.7521707643593
 20
38.7297037062222
 30
0.0
 11
37.7805841894163
 21
38.7069334115247
 31
0.0
  0
LINE
  8
2
  6
CONTINUOUS
 62
2
 10
37.7805841894163
 20
38.7069334115247
 30
0.0
 11
37.8126805931182
 21
38.6858419913674
 31
0.0
  0
ARC
  8
2
  6
CONTINUOUS
 62
2
 10
38.663874023634
 20
40.2000754265377
 30
0.0
 40
1.73707603527914
 50
240.658428083434
 51
254.229815397528
  0
LINE
  8
2
  6
CONTINUOUS
 62
2
 10
38.1917723773363
 20
38.5283837121645
 30
0.0
 11
38.2388160422104
 21
38.5104918247135
 31
0.0
  0
ARC
  8
2
  6
CONTINUOUS
 62
2
 10
37.3471033644137
 20
36.3442201793776
 30
0.0
 40
2.34262338866703
 50
52.9483002788975
 51
67.62623193604
  0
LINE
  8
2
  6
CONTINUOUS
 62
2
 10
38.7586169110015
 20
38.2138495140129
 30
0.0
 11
38.777981110127
 21
38.1870138803433
 31
0.0
  0
ARC
  8
2
  6
CONTINUOUS
 62
2
 10
37.9907068970669
 20
37.5661545557358
 30
0.0
 40
1.00263003520819
 50
12.4988228645113
 51
38.2599797478821
  0
LINE
  8
2
  6
CONTINUOUS
 62
2
 10
38.9695750552757
 20
37.7831433027861
 30
0.0
 11
38.9679137542195
 21
37.7591599162531
 31
0.0
  0
ARC
  8
2
  6
CONTINUOUS
 62
2
 10
192.097484585788
 20
27.269938031363
 30
0.0
 40
153.48840099112
 50
176.081417778705
 51
176.21878823802
  0
LINE
  8
2
  6
CONTINUOUS
 62
2
 10
38.9432052872415
 20
37.3919917436109
 30
0.0
 11
38.9350042877539
 21
37.3771455612244
 31
0.0
  0
ARC
  8
2
  6
CONTINUOUS
 62
2
 10
44.4810546390053
 20
34.3730650577476
 30
0.0
 40
6.30739044058515
 50
151.557311824267
 51
153.831896817254
  0
LINE
  8
2
  6
CONTINUOUS
 62
2
 10
38.8201463697481
 20
37.1546638313022
 30
0.0
 11
38.7636007975637
 21
37.0950198114855
 31
0.0
  0
ARC
  8
2
  6
CONTINUOUS
 62
2
 10
38.1379552207725
 20
37.7455993964775
 30
0.0
 40
0.902599681014106
 50
286.942848525221
 51
313.880736918312
  0
LINE
  8
2
  6
CONTINUOUS
 62
2
 10
38.4009887106338
 20
36.8821762282812
 30
0.0
 11
39.8728961831518
 21
36.8821762282812
 31
0.0
  0
LINE
  8
2
  6
CONTINUOUS
 62
2
 10
35.6601691665474
 20
38.9390181354986
 30
0.0
 11
35.6379702172489
 21
38.9647330537506
 31
0.0
  0
LINE
  8
2
  6
CONTINUOUS
 62
2
 10
35.6379702172489
 20
38.9647330537506
 30
0.0
 11
35.6158899314816
 21
38.9876571720951
 31
0.0
  0
LINE
  8
2
  6
CONTINUOUS
 62
2
 10
35.6158899314816
 20
38.9876571720951
 30
0.0
 11
35.5937788809847
 21
39.0079882632495
 31
0.0
  0
LINE
  8
2
  6
CONTINUOUS
 62
2
 10
35.5937788809847
 20
39.0079882632495
 30
0.0
 11
35.5715623514158
 21
39.0259328903968
 31
0.0
  0
LINE
  8
2
  6
CONTINUOUS
 62
2
 10
35.5715623514158
 20
39.0259328903968
 30
0.0
 11
35.5490513594373
 21
39.0416272973385
 31
0.0
  0
LINE
  8
2
  6
CONTINUOUS
 62
2
 10
35.5490513594373
 20
39.0416272973385
 30
0.0
 11
35.5261931655129
 21
39.0553307867937
 31
0.0
  0
LINE
  8
2
  6
CONTINUOUS
 62
2
 10
35.5261931655129
 20
39.0553307867937
 30
0.0
 11
35.5028163661504
 21
39.0671971824091
 31
0.0
  0
LINE
  8
2
  6
CONTINUOUS
 62
2
 10
35.5028163661504
 20
39.0671971824091
 30
0.0
 11
35.478868221814
 21
39.0774418372905
 31
0.0
  0
LINE
  8
2
  6
CONTINUOUS
 62
2
 10
35.478868221814
 20
39.0774418372905
 30
0.0
 11
35.4541421693205
 21
39.0861966002779
 31
0.0
  0
LINE
  8
2
  6
CONTINUOUS
 62
2
 10
35.4541421693205
 20
39.0861966002779
 30
0.0
 11
35.4286382086701
 21
39.0937603287423
 31
0.0
  0
LINE
  8
2
  6
CONTINUOUS
 62
2
 10
35.4286382086701
 20
39.0937603287423
 30
0.0
 11
35.4021453817182
 21
39.1002297118334
 31
0.0
  0
LINE
  8
2
  6
CONTINUOUS
 62
2
 10
35.4021453817182
 20
39.1002297118334
 30
0.0
 11
35.3746197388518
 21
39.1058728421928
 31
0.0
  0
LINE
  8
2
  6
CONTINUOUS
 62
2
 10
35.3746197388518
 20
39.1058728421928
 30
0.0
 11
35.3458591118491
 21
39.1108039888152
 31
0.0
  0
LINE
  8
2
  6
CONTINUOUS
 62
2
 10
35.3458591118491
 20
39.1108039888152
 30
0.0
 11
35.3158415259034
 21
39.1153000342651
 31
0.0
  0
LINE
  8
2
  6
CONTINUOUS
 62
2
 10
35.3158415259034
 20
39.1153000342651
 30
0.0
 11
35.2843999724839
 21
39.1194884324211
 31
0.0
  0
LINE
  8
2
  6
CONTINUOUS
 62
2
 10
35.2843999724839
 20
39.1194884324211
 30
0.0
 11
35.2514377624409
 21
39.1236065111958
 31
0.0
  0
LINE
  8
2
  6
CONTINUOUS
 62
2
 10
35.2514377624409
 20
39.1236065111958
 30
0.0
 11
35.1913806157429
 21
39.1113929136346
 31
0.0
  0
LINE
  8
2
  6
CONTINUOUS
 62
2
 10
35.1913806157429
 20
39.1113929136346
 30
0.0
 11
35.1363381199327
 21
39.0961819524402
 31
0.0
  0
LINE
  8
2
  6
CONTINUOUS
 62
2
 10
35.1363381199327
 20
39.0961819524402
 30
0.0
 11
35.0860553672526
 21
39.0779956024191
 31
0.0
  0
LINE
  8
2
  6
CONTINUOUS
 62
2
 10
35.0860553672526
 20
39.0779956024191
 30
0.0
 11
35.0403257945198
 21
39.0568338635716
 31
0.0
  0
LINE
  8
2
  6
CONTINUOUS
 62
2
 10
35.0403257945198
 20
39.0568338635716
 30
0.0
 11
34.9988329645178
 21
39.0326791560522
 31
0.0
  0
LINE
  8
2
  6
CONTINUOUS
 62
2
 10
34.9988329645178
 20
39.0326791560522
 30
0.0
 11
34.9613878939092
 21
39.0055314798609
 31
0.0
  0
LINE
  8
2
  6
CONTINUOUS
 62
2
 10
34.9613878939092
 20
39.0055314798609
 30
0.0
 11
34.9277180950906
 21
38.9754084148431
 31
0.0
  0
LINE
  8
2
  6
CONTINUOUS
 62
2
 10
34.9277180950906
 20
38.9754084148431
 30
0.0
 11
34.8976257948023
 21
38.9423055660374
 31
0.0
  0
LINE
  8
2
  6
CONTINUOUS
 62
2
 10
34.8976257948023
 20
38.9423055660374
 30
0.0
 11
34.8707725810206
 21
38.9061789838304
 31
0.0
  0
LINE
  8
2
  6
CONTINUOUS
 62
2
 10
34.8707725810206
 20
38.9061789838304
 30
0.0
 11
34.8470134200218
 21
38.867090197681
 31
0.0
  0
LINE
  8
2
  6
CONTINUOUS
 62
2
 10
34.8470134200218
 20
38.867090197681
 30
0.0
 11
34.8260450594731
 21
38.8250084428596
 31
0.0
  0
LINE
  8
2
  6
CONTINUOUS
 62
2
 10
34.8260450594731
 20
38.8250084428596
 30
0.0
 11
34.8076697261145
 21
38.7799512992116
 31
0.0
  0
LINE
  8
2
  6
CONTINUOUS
 62
2
 10
34.8076697261145
 20
38.7799512992116
 30
0.0
 11
34.7915753776909
 21
38.7318836070464
 31
0.0
  0
LINE
  8
2
  6
CONTINUOUS
 62
2
 10
34.7915753776909
 20
38.7318836070464
 30
0.0
 11
34.7775774256324
 21
38.6808581051334
 31
0.0
  0
ARC
  8
2
  6
CONTINUOUS
 62
2
 10
36.2028446182591
 20
38.330682453188
 30
0.0
 40
1.46765444079771
 50
166.196343287437
 51
170.621650026019
  0
ARC
  8
2
  6
CONTINUOUS
 62
2
 10
30.7280831512
 20
37.6692110890973
 30
0.0
 40
0.810315640112215
 50
283.767484289447
 51
301.820811459405
  0
LINE
  8
2
  6
CONTINUOUS
 62
2
 10
31.155333794448
 20
36.9806848917347
 30
0.0
 11
31.1685186790806
 21
36.9874135777532
 31
0.0
  0
ARC
  8
2
  6
CONTINUOUS
 62
2
 10
30.7835382581259
 20
37.799250072118
 30
0.0
 40
0.898492302749913
 50
295.370743273076
 51
317.289336175176
  0
LINE
  8
2
  6
CONTINUOUS
 62
2
 10
31.4437399474391
 20
37.1898059421693
 30
0.0
 11
31.4863754682321
 21
37.2339796993074
 31
0.0
  0
ARC
  8
2
  6
CONTINUOUS
 62
2
 10
30.3478880479145
 20
38.2545145380547
 30
0.0
 40
1.52893589248152
 50
318.127097636752
 51
343.594742124131
  0
LINE
  8
2
  6
CONTINUOUS
 62
2
 10
31.8145779953052
 20
37.8226979548375
 30
0.0
 11
31.8294241756503
 21
37.9127770838059
 31
0.0
  0
ARC
  8
2
  6
CONTINUOUS
 62
2
 10
29.7725353173789
 20
38.248604521663
 30
0.0
 40
2.08412375911286
 50
350.727158135743
 51
26.432746824658
  0
LINE
  8
2
  6
CONTINUOUS
 62
2
 10
31.6387795417433
 20
39.1763460472644
 30
0.0
 11
31.6263374058734
 21
39.1933897081103
 31
0.0
  0
ARC
  8
2
  6
CONTINUOUS
 62
2
 10
30.3956537720819
 20
38.3156494304464
 30
0.0
 40
1.51162502014082
 50
35.4969812736469
 51
47.8816763891504
  0
LINE
  8
2
  6
CONTINUOUS
 62
2
 10
31.4094460641104
 20
39.4369145151339
 30
0.0
 11
31.3969511885151
 21
39.4458758418512
 31
0.0
  0
ARC
  8
2
  6
CONTINUOUS
 62
2
 10
30.6212586679535
 20
38.3348722567647
 30
0.0
 40
1.35500105259382
 50
55.0776077585269
 51
66.5655595708025
  0
LINE
  8
2
  6
CONTINUOUS
 62
2
 10
31.1601418821529
 20
39.5781070431122
 30
0.0
 11
31.1501081854159
 21
39.5803528683564
 31
0.0
  0
LINE
  8
2
  6
CONTINUOUS
 62
2
 10
31.1501081854159
 20
39.5803528683564
 30
0.0
 11
31.1386373363209
 21
39.5829502905077
 31
0.0
  0
LINE
  8
2
  6
CONTINUOUS
 62
2
 10
31.1386373363209
 20
39.5829502905077
 30
0.0
 11
31.1260062174325
 21
39.5858905196436
 31
0.0
  0
LINE
  8
2
  6
CONTINUOUS
 62
2
 10
31.1260062174325
 20
39.5858905196436
 30
0.0
 11
31.1124565516242
 21
39.5891076313437
 31
0.0
  0
LINE
  8
2
  6
CONTINUOUS
 62
2
 10
31.1124565516242
 20
39.5891076313437
 30
0.0
 11
31.0982696164218
 21
39.5926587601058
 31
0.0
  0
LINE
  8
2
  6
CONTINUOUS
 62
2
 10
31.0982696164218
 20
39.5926587601058
 30
0.0
 11
31.0837178994282
 21
39.5964296369347
 31
0.0
  0
LINE
  8
2
  6
CONTINUOUS
 62
2
 10
31.0837178994282
 20
39.5964296369347
 30
0.0
 11
31.0690782832078
 21
39.6004598164825
 31
0.0
  0
LINE
  8
2
  6
CONTINUOUS
 62
2
 10
31.0690782832078
 20
39.6004598164825
 30
0.0
 11
31.0545441460596
 21
39.6046482146387
 31
0.0
  0
LINE
  8
2
  6
CONTINUOUS
 62
2
 10
31.0545441460596
 20
39.6046482146387
 30
0.0
 11
31.0404582949679
 21
39.6090431759777
 31
0.0
  0
LINE
  8
2
  6
CONTINUOUS
 62
2
 10
31.0404582949679
 20
39.6090431759777
 30
0.0
 11
31.0270492679225
 21
39.6135919609636
 31
0.0
  0
LINE
  8
2
  6
CONTINUOUS
 62
2
 10
31.0270492679225
 20
39.6135919609636
 30
0.0
 11
31.0146071323717
 21
39.6182989645578
 31
0.0
  0
LINE
  8
2
  6
CONTINUOUS
 62
2
 10
31.0146071323717
 20
39.6182989645578
 30
0.0
 11
31.0033428464597
 21
39.6230762875333
 31
0.0
  0
LINE
  8
2
  6
CONTINUOUS
 62
2
 10
31.0033428464597
 20
39.6230762875333
 30
0.0
 11
30.993586032287
 21
39.6279371147743
 31
0.0
  0
LINE
  8
2
  6
CONTINUOUS
 62
2
 10
30.993586032287
 20
39.6279371147743
 30
0.0
 11
30.9855564379205
 21
39.6328506815514
 31
0.0
  0
LINE
  8
2
  6
CONTINUOUS
 62
2
 10
30.9855564379205
 20
39.6328506815514
 30
0.0
 11
30.9795353408861
 21
39.6378169878644
 31
0.0
  0
LINE
  8
2
  6
CONTINUOUS
 62
2
 10
30.9795353408861
 20
39.6378169878644
 30
0.0
 11
30.924769727022
 21
39.6429898574739
 31
0.0
  0
ARC
  8
2
  6
CONTINUOUS
 62
2
 10
30.7716237295907
 20
38.488223073923
 30
0.0
 40
1.16487768496169
 50
82.4454771593211
 51
118.852834320244
  0
LINE
  8
2
  6
CONTINUOUS
 62
2
 10
30.2094985596328
 20
39.5084952504629
 30
0.0
 11
30.1981859286417
 21
39.5008304375741
 31
0.0
  0
ARC
  8
2
  6
CONTINUOUS
 62
2
 10
30.7928321544589
 20
38.5731673134767
 30
0.0
 40
1.10189065051337
 50
122.660491468962
 51
131.926400405662
  0
LINE
  8
2
  6
CONTINUOUS
 62
2
 10
30.0565758798406
 20
39.3929780866274
 30
0.0
 11
30.0565582999953
 21
39.3902620005199
 31
0.0
  0
LINE
  8
2
  6
CONTINUOUS
 62
2
 10
30.0565582999953
 20
39.3902620005199
 30
0.0
 11
30.0564879806138
 21
39.3879106962035
 31
0.0
  0
LINE
  8
2
  6
CONTINUOUS
 62
2
 10
30.0564879806138
 20
39.3879106962035
 30
0.0
 11
30.056386896503
 21
39.3859197787169
 31
0.0
  0
LINE
  8
2
  6
CONTINUOUS
 62
2
 10
30.056386896503
 20
39.3859197787169
 30
0.0
 11
30.0561803333201
 21
39.3841881639493
 31
0.0
  0
LINE
  8
2
  6
CONTINUOUS
 62
2
 10
30.0561803333201
 20
39.3841881639493
 30
0.0
 11
30.0558858709104
 21
39.3827729863982
 31
0.0
  0
LINE
  8
2
  6
CONTINUOUS
 62
2
 10
30.0558858709104
 20
39.3827729863982
 30
0.0
 11
30.0554683495831
 21
39.3816127166047
 31
0.0
  0
LINE
  8
2
  6
CONTINUOUS
 62
2
 10
30.0554683495831
 20
39.3816127166047
 30
0.0
 11
30.0549321642998
 21
39.3807117495301
 31
0.0
  0
LINE
  8
2
  6
CONTINUOUS
 62
2
 10
30.0549321642998
 20
39.3807117495301
 30
0.0
 11
30.0542245755242
 21
39.3799690010638
 31
0.0
  0
LINE
  8
2
  6
CONTINUOUS
 62
2
 10
30.0542245755242
 20
39.3799690010638
 30
0.0
 11
30.053341188295
 21
39.3794328157805
 31
0.0
  0
LINE
  8
2
  6
CONTINUOUS
 62
2
 10
30.053341188295
 20
39.3794328157805
 30
0.0
 11
30.0522688177284
 21
39.3790328742986
 31
0.0
  0
LINE
  8
2
  6
CONTINUOUS
 62
2
 10
30.0522688177284
 20
39.3790328742986
 30
0.0
 11
30.051020648708
 21
39.3787735715796
 31
0.0
  0
LINE
  8
2
  6
CONTINUOUS
 62
2
 10
30.051020648708
 20
39.3787735715796
 30
0.0
 11
30.0494824122393
 21
39.3786021680874
 31
0.0
  0
LINE
  8
2
  6
CONTINUOUS
 62
2
 10
30.0494824122393
 20
39.3786021680874
 30
0.0
 11
30.0477332176264
 21
39.378531848706
 31
0.0
  0
LINE
  8
2
  6
CONTINUOUS
 62
2
 10
30.0477332176264
 20
39.378531848706
 30
0.0
 11
30.0457115354104
 21
39.3785142688607
 31
0.0
  0
LINE
  8
2
  6
CONTINUOUS
 62
2
 10
30.0457115354104
 20
39.3785142688607
 30
0.0
 11
30.0434085756688
 21
39.3785142688607
 31
0.0
  0
ARC
  8
2
  6
CONTINUOUS
 62
2
 10
29.8168526476904
 20
38.2534266460178
 30
0.0
 40
1.26156928961406
 50
335.727958117177
 51
15.4064731224021
  0
LINE
  8
2
  6
CONTINUOUS
 62
2
 10
31.0330879448024
 20
38.5885814976255
 30
0.0
 11
31.0052150999633
 21
38.6795264331732
 31
0.0
  0
ARC
  8
2
  6
CONTINUOUS
 62
2
 10
30.0629823555097
 20
38.354812110947
 30
0.0
 40
0.996615239588235
 50
19.0150882184296
 51
34.6492154422319
  0
LINE
  8
2
  6
CONTINUOUS
 62
2
 10
30.882846191427
 20
38.9214382895996
 30
0.0
 11
30.8327040775098
 21
38.9603205125661
 31
0.0
  0
LINE
  8
2
  6
CONTINUOUS
 62
2
 10
30.8327040775098
 20
38.9603205125661
 30
0.0
 11
30.781348954263
 21
38.9930541846194
 31
0.0
  0
LINE
  8
2
  6
CONTINUOUS
 62
2
 10
30.781348954263
 20
38.9930541846194
 30
0.0
 11
30.7289873848697
 21
39.019700835218
 31
0.0
  0
LINE
  8
2
  6
CONTINUOUS
 62
2
 10
30.7289873848697
 20
39.019700835218
 30
0.0
 11
30.6758523022805
 21
39.0404318678543
 31
0.0
  0
LINE
  8
2
  6
CONTINUOUS
 62
2
 10
30.6758523022805
 20
39.0404318678543
 30
0.0
 11
30.6221238999107
 21
39.0552604674123
 31
0.0
  0
LINE
  8
2
  6
CONTINUOUS
 62
2
 10
30.6221238999107
 20
39.0552604674123
 30
0.0
 11
30.5680702704017
 21
39.0644151718815
 31
0.0
  0
LINE
  8
2
  6
CONTINUOUS
 62
2
 10
30.5680702704017
 20
39.0644151718815
 30
0.0
 11
30.51387600213
 21
39.0679091661461
 31
0.0
  0
LINE
  8
2
  6
CONTINUOUS
 62
2
 10
30.51387600213
 20
39.0679091661461
 30
0.0
 11
30.459822372621
 21
39.0659182486595
 31
0.0
  0
LINE
  8
2
  6
CONTINUOUS
 62
2
 10
30.459822372621
 20
39.0659182486595
 30
0.0
 11
30.406028045831
 21
39.0584599992671
 31
0.0
  0
LINE
  8
2
  6
CONTINUOUS
 62
2
 10
30.406028045831
 20
39.0584599992671
 30
0.0
 11
30.3527699043244
 21
39.0457629559586
 31
0.0
  0
LINE
  8
2
  6
CONTINUOUS
 62
2
 10
30.3002545112841
 20
39.0278359086566
 30
0.0
 11
30.2487279845452
 21
39.0048546558148
 31
0.0
  0
LINE
  8
2
  6
CONTINUOUS
 62
2
 10
30.2487279845452
 20
39.0048546558148
 30
0.0
 11
30.1983397527929
 21
38.9768939117757
 31
0.0
  0
LINE
  8
2
  6
CONTINUOUS
 62
2
 10
30.1983397527929
 20
38.9768939117757
 30
0.0
 11
30.149406253244
 21
38.9440723404957
 31
0.0
  0
LINE
  8
2
  6
CONTINUOUS
 62
2
 10
30.149406253244
 20
38.9440723404957
 30
0.0
 11
30.1020637296998
 21
38.9065042109695
 31
0.0
  0
LINE
  8
2
  6
CONTINUOUS
 62
2
 10
30.056593459686
 20
38.8643037921919
 30
0.0
 11
30.1020637296998
 21
38.9065042109695
 31
0.0
  0
ARC
  8
2
  6
CONTINUOUS
 62
2
 10
30.3902445993926
 20
38.370741753468
 30
0.0
 40
0.980152149319229
 50
250.098297081116
 51
279.506980492804
  0
LINE
  8
2
  6
CONTINUOUS
 62
2
 10
30.5521341405864
 20
37.4040515175252
 30
0.0
 11
30.5891968495585
 21
37.4094353451655
 31
0.0
  0
LINE
  8
2
  6
CONTINUOUS
 62
2
 10
30.5891968495585
 20
37.4094353451655
 30
0.0
 11
30.6247872464821
 21
37.4156805852282
 31
0.0
  0
LINE
  8
2
  6
CONTINUOUS
 62
2
 10
30.6247872464821
 20
37.4156805852282
 30
0.0
 11
30.6587031631356
 21
37.4227564729842
 31
0.0
  0
LINE
  8
2
  6
CONTINUOUS
 62
2
 10
30.6587031631356
 20
37.4227564729842
 30
0.0
 11
30.6677348086873
 21
37.4285182672997
 31
0.0
  0
LINE
  8
2
  6
CONTINUOUS
 62
2
 10
30.6677348086873
 20
37.4285182672997
 30
0.0
 11
30.6859035770852
 21
37.4400418547869
 31
0.0
  0
ARC
  8
2
  6
CONTINUOUS
 62
2
 10
32.7986330374109
 20
34.1344002011979
 30
0.0
 40
3.92312280134977
 50
120.489251980489
 51
122.583801259623
  0
LINE
  8
2
  6
CONTINUOUS
 62
2
 10
30.8081318486632
 20
37.5150506611042
 30
0.0
 11
30.8691075422812
 21
37.5809926610352
 31
0.0
  0
LINE
  8
2
  6
CONTINUOUS
 62
2
 10
30.8691075422812
 20
37.5809926610352
 30
0.0
 11
30.9220009019967
 21
37.6545994735416
 31
0.0
  0
LINE
  8
2
  6
CONTINUOUS
 62
2
 10
30.9220009019967
 20
37.6545994735416
 30
0.0
 11
30.9669042219977
 21
37.7348338877473
 31
0.0
  0
LINE
  8
2
  6
CONTINUOUS
 62
2
 10
6.57374914613262
 20
40.7962953541466
 30
0.0
 11
6.57374914613262
 21
40.8859860081542
 31
0.0
  0
LINE
  8
2
  6
CONTINUOUS
 62
2
 10
6.57374914613262
 20
40.8859860081542
 30
0.0
 11
5.0703768343797
 21
40.8859860081542
 31
0.0
  0
LINE
  8
2
  6
CONTINUOUS
 62
2
 10
5.0703768343797
 20
40.8859860081542
 30
0.0
 11
4.73084739857798
 21
40.8322098283972
 31
0.0
  0
LINE
  8
2
  6
CONTINUOUS
 62
2
 10
4.73084739857798
 20
40.8322098283972
 30
0.0
 11
4.42455346962218
 21
40.6761452764647
 31
0.0
  0
LINE
  8
2
  6
CONTINUOUS
 62
2
 10
4.42455346962218
 20
40.6761452764647
 30
0.0
 11
4.1814772313538
 21
40.4330690380654
 31
0.0
  0
LINE
  8
2
  6
CONTINUOUS
 62
2
 10
4.1814772313538
 20
40.4330690380654
 30
0.0
 11
4.02541267958627
 21
40.1267751090255
 31
0.0
  0
LINE
  8
2
  6
CONTINUOUS
 62
2
 10
4.02541267958627
 20
40.1267751090255
 30
0.0
 11
3.97163650001226
 21
39.7872456731947
 31
0.0
  0
LINE
  8
2
  6
CONTINUOUS
 62
2
 10
3.97163650001228
 20
37.9809165630433
 30
0.0
 11
3.97163650001226
 21
39.7872456731947
 31
0.0
  0
LINE
  8
2
  6
CONTINUOUS
 62
2
 10
3.97163650001228
 20
37.9809165630433
 30
0.0
 11
4.0254126795231
 21
37.6413871271943
 31
0.0
  0
LINE
  8
2
  6
CONTINUOUS
 62
2
 10
4.0254126795231
 20
37.6413871271943
 30
0.0
 11
4.18147723143484
 21
37.3350931981843
 31
0.0
  0
LINE
  8
2
  6
CONTINUOUS
 62
2
 10
4.18147723143484
 20
37.3350931981843
 30
0.0
 11
4.42455346983992
 21
37.0920169598665
 31
0.0
  0
LINE
  8
2
  6
CONTINUOUS
 62
2
 10
4.42455346983992
 20
37.0920169598665
 30
0.0
 11
4.7308473989061
 21
36.9359524080648
 31
0.0
  0
LINE
  8
2
  6
CONTINUOUS
 62
2
 10
4.7308473989061
 20
36.9359524080648
 30
0.0
 11
5.07037683477433
 21
36.8821762282812
 31
0.0
  0
LINE
  8
2
  6
CONTINUOUS
 62
2
 10
5.07037683477433
 20
36.8821762282812
 30
0.0
 11
6.42929888080805
 21
36.8821762282812
 31
0.0
  0
LINE
  8
2
  6
CONTINUOUS
 62
2
 10
6.42929888080805
 20
36.8821762282812
 30
0.0
 11
6.42929888080805
 21
39.5850774517959
 31
0.0
  0
LINE
  8
2
  6
CONTINUOUS
 62
2
 10
6.42929888080805
 20
39.5850774517959
 30
0.0
 11
7.16765238576815
 21
39.5850774517959
 31
0.0
  0
LINE
  8
2
  6
CONTINUOUS
 62
2
 10
7.16765238576815
 20
39.5850774517959
 30
0.0
 11
7.16765238576814
 21
36.8821762282812
 31
0.0
  0
LINE
  8
2
  6
CONTINUOUS
 62
2
 10
7.16765238576814
 20
36.8821762282812
 30
0.0
 11
8.05543457625589
 21
36.8821762282812
 31
0.0
  0
LINE
  8
2
  6
CONTINUOUS
 62
2
 10
8.05543457625589
 20
36.8821762282812
 30
0.0
 11
8.05543457625587
 21
39.5850774517959
 31
0.0
  0
LINE
  8
2
  6
CONTINUOUS
 62
2
 10
8.05543457625587
 20
39.5850774517959
 30
0.0
 11
8.77620823583198
 21
39.5850774463157
 31
0.0
  0
ARC
  8
2
  6
CONTINUOUS
 62
2
 10
16.404333739778
 20
39.643809299001
 30
0.0
 40
7.62835160008191
 50
180.441133380384
 51
182.785944552222
  0
LINE
  8
2
  6
CONTINUOUS
 62
2
 10
8.78499815853786
 20
39.2730351967235
 30
0.0
 11
8.82953686181864
 21
39.3100980431097
 31
0.0
  0
ARC
  8
2
  6
CONTINUOUS
 62
2
 10
-182.510017984199
 20
269.038205285074
 30
0.0
 40
298.974628531666
 50
309.790770133327
 51
309.838869917742
  0
LINE
  8
2
  6
CONTINUOUS
 62
2
 10
9.0223260708465
 20
39.4708084569806
 30
0.0
 11
9.09249162811693
 21
39.5090314354228
 31
0.0
  0
ARC
  8
2
  6
CONTINUOUS
 62
2
 10
9.63505986619888
 20
38.5350332450386
 30
0.0
 40
1.11492276317559
 50
73.8257211253459
 51
119.120107591485
  0
LINE
  8
2
  6
CONTINUOUS
 62
2
 10
9.9456327338378
 20
39.6058260642775
 30
0.0
 11
10.0172662080484
 21
39.5809769530211
 31
0.0
  0
ARC
  8
2
  6
CONTINUOUS
 62
2
 10
9.57157725253458
 20
38.4278398598132
 30
0.0
 40
1.23627011643858
 50
61.5449909914436
 51
68.8684194216005
  0
LINE
  8
2
  6
CONTINUOUS
 62
2
 10
10.16062105766
 20
39.5147580703711
 30
0.0
 11
10.1970245218132
 21
39.4768471340064
 31
0.0
  0
ARC
  8
2
  6
CONTINUOUS
 62
2
 10
9.47829808919949
 20
38.8197280600417
 30
0.0
 40
0.97384452676283
 50
3.4339947099365
 51
42.4361327040853
  0
LINE
  8
2
  6
CONTINUOUS
 62
2
 10
10.4503940436275
 20
38.8780600211832
 30
0.0
 11
10.4550834664154
 21
38.824748985885
 31
0.0
  0
ARC
  8
2
  6
CONTINUOUS
 62
2
 10
296.775866795003
 20
37.2056731479237
 30
0.0
 40
286.325361036121
 50
179.676009466051
 51
180.064734091515
  0
LINE
  8
2
  6
CONTINUOUS
 62
2
 10
10.4506885060372
 20
36.8821762282812
 30
0.0
 11
11.4283784222855
 21
36.884320968897
 31
0.0
  0
ARC
  8
2
  6
CONTINUOUS
 62
2
 10
12.2305039115447
 20
39.1493135819762
 30
0.0
 40
2.40283100484043
 50
243.889271345263
 51
250.4988865076
  0
LINE
  8
2
  6
CONTINUOUS
 62
2
 10
11.1730004021097
 20
36.9917030598116
 30
0.0
 11
11.163432569848
 21
36.997447275246
 31
0.0
  0
ARC
  8
2
  6
CONTINUOUS
 62
2
 10
9.49258502892769
 20
34.2768793602141
 30
0.0
 40
3.19268245920262
 50
58.4436695497404
 51
60.7458715302793
  0
LINE
  8
2
  6
CONTINUOUS
 62
2
 10
11.0527982094868
 20
37.0623696431822
 30
0.0
 11
11.0676443767661
 21
37.0944835992626
 31
0.0
  0
ARC
  8
2
  6
CONTINUOUS
 62
2
 10
60.0927658300658
 20
14.5524886875525
 30
0.0
 40
53.9592815751873
 50
154.747236688704
 51
155.306792899455
  0
LINE
  8
2
  6
CONTINUOUS
 62
2
 10
11.2901261217954
 20
37.5721851585118
 30
0.0
 11
11.301060785607
 21
37.5714775697362
 31
0.0
  0
LINE
  8
2
  6
CONTINUOUS
 62
2
 10
11.301060785607
 20
37.5714775697362
 30
0.0
 11
11.3123074916736
 21
37.5694690724042
 31
0.0
  0
LINE
  8
2
  6
CONTINUOUS
 62
2
 10
11.3123074916736
 20
37.5694690724042
 30
0.0
 11
11.3238310803046
 21
37.5662695405495
 31
0.0
  0
LINE
  8
2
  6
CONTINUOUS
 62
2
 10
11.3238310803046
 20
37.5662695405495
 30
0.0
 11
11.3355304673891
 21
37.5620811423933
 31
0.0
  0
LINE
  8
2
  6
CONTINUOUS
 62
2
 10
11.3355304673891
 20
37.5620811423933
 30
0.0
 11
11.3473968630046
 21
37.556943432588
 31
0.0
  0
LINE
  8
2
  6
CONTINUOUS
 62
2
 10
11.3473968630046
 20
37.556943432588
 30
0.0
 11
11.3592852334267
 21
37.5510761592003
 31
0.0
  0
LINE
  8
2
  6
CONTINUOUS
 62
2
 10
11.3592852334267
 20
37.5510761592003
 30
0.0
 11
11.3711911836942
 21
37.5445540365732
 31
0.0
  0
LINE
  8
2
  6
CONTINUOUS
 62
2
 10
11.3711911836942
 20
37.5445540365732
 30
0.0
 11
11.3829740750441
 21
37.5375616530828
 31
0.0
  0
LINE
  8
2
  6
CONTINUOUS
 62
2
 10
11.3829740750441
 20
37.5375616530828
 30
0.0
 11
11.394651487322
 21
37.5301737230719
 31
0.0
  0
LINE
  8
2
  6
CONTINUOUS
 62
2
 10
11.394651487322
 20
37.5301737230719
 30
0.0
 11
11.4060739918422
 21
37.522579229878
 31
0.0
  0
LINE
  8
2
  6
CONTINUOUS
 62
2
 10
11.4060739918422
 20
37.522579229878
 30
0.0
 11
11.4172152188367
 21
37.5148968374573
 31
0.0
  0
LINE
  8
2
  6
CONTINUOUS
 62
2
 10
11.4172152188367
 20
37.5148968374573
 30
0.0
 11
11.4279608993107
 21
37.5072627896113
 31
0.0
  0
LINE
  8
2
  6
CONTINUOUS
 62
2
 10
11.4279608993107
 20
37.5072627896113
 30
0.0
 11
11.4383066383029
 21
37.499791355335
 31
0.0
  0
LINE
  8
2
  6
CONTINUOUS
 62
2
 10
11.4383066383029
 20
37.499791355335
 30
0.0
 11
11.4481205869728
 21
37.4926627280431
 31
0.0
  0
LINE
  8
2
  6
CONTINUOUS
 62
2
 10
11.4481205869728
 20
37.4926627280431
 30
0.0
 11
11.4573587957075
 21
37.4859648069624
 31
0.0
  0
LINE
  8
2
  6
CONTINUOUS
 62
2
 10
11.4573587957075
 20
37.4859648069624
 30
0.0
 11
11.4659245753574
 21
37.4798909703918
 31
0.0
  0
LINE
  8
2
  6
CONTINUOUS
 62
2
 10
11.4659245753574
 20
37.4798909703918
 30
0.0
 11
11.4823441515054
 21
37.4729513260644
 31
0.0
  0
ARC
  8
2
  6
CONTINUOUS
 62
2
 10
11.9115459203946
 20
38.3327743149762
 30
0.0
 40
0.960994136651664
 50
243.472796337924
 51
263.067061145017
  0
LINE
  8
2
  6
CONTINUOUS
 62
2
 10
11.795546675786
 20
37.3788068595936
 30
0.0
 11
11.8076064501076
 21
37.3708300046217
 31
0.0
  0
ARC
  8
2
  6
CONTINUOUS
 62
2
 10
11.9351314619653
 20
37.9530429055624
 30
0.0
 40
0.596015512106052
 50
257.645329196955
 51
280.119201464987
  0
LINE
  8
2
  6
CONTINUOUS
 62
2
 10
12.0398493917397
 20
37.3662987996228
 30
0.0
 11
12.0750574285746
 21
37.3703289793178
 31
0.0
  0
ARC
  8
2
  6
CONTINUOUS
 62
2
 10
11.8186919803308
 20
39.519073347575
 30
0.0
 40
2.16398373449768
 50
276.803764697229
 51
281.21149338695
  0
LINE
  8
2
  6
CONTINUOUS
 62
2
 10
12.2394377710299
 20
37.3963867049498
 30
0.0
 11
12.2614653172611
 21
37.4076685707073
 31
0.0
  0
LINE
  8
2
  6
CONTINUOUS
 62
2
 10
12.2614653172611
 20
37.4076685707073
 30
0.0
 11
12.281414046779
 21
37.4186383942095
 31
0.0
  0
LINE
  8
2
  6
CONTINUOUS
 62
2
 10
12.281414046779
 20
37.4186383942095
 30
0.0
 11
12.2994421781918
 21
37.4294543940648
 31
0.0
  0
LINE
  8
2
  6
CONTINUOUS
 62
2
 10
12.2994421781918
 20
37.4294543940648
 30
0.0
 11
12.3156068459968
 21
37.440318738495
 31
0.0
  0
LINE
  8
2
  6
CONTINUOUS
 62
2
 10
12.3156068459968
 20
37.440318738495
 30
0.0
 11
12.330088243609
 21
37.4513588813786
 31
0.0
  0
LINE
  8
2
  6
CONTINUOUS
 62
2
 10
12.330088243609
 20
37.4513588813786
 30
0.0
 11
12.3429083458351
 21
37.4627945707829
 31
0.0
  0
LINE
  8
2
  6
CONTINUOUS
 62
2
 10
12.3429083458351
 20
37.4627945707829
 30
0.0
 11
12.3542429511284
 21
37.4748060001225
 31
0.0
  0
LINE
  8
2
  6
CONTINUOUS
 62
2
 10
12.3542429511284
 20
37.4748060001225
 30
0.0
 11
12.3641579839093
 21
37.4875733628125
 31
0.0
  0
LINE
  8
2
  6
CONTINUOUS
 62
2
 10
12.3641579839093
 20
37.4875733628125
 30
0.0
 11
12.3728072678246
 21
37.5012241127316
 31
0.0
  0
LINE
  8
2
  6
CONTINUOUS
 62
2
 10
12.3728072678246
 20
37.5012241127316
 30
0.0
 11
12.3802830970623
 21
37.5160219475601
 31
0.0
  0
LINE
  8
2
  6
CONTINUOUS
 62
2
 10
12.3802830970623
 20
37.5160219475601
 30
0.0
 11
12.3866865557333
 21
37.532094321177
 31
0.0
  0
LINE
  8
2
  6
CONTINUOUS
 62
2
 10
12.3866865557333
 20
37.532094321177
 30
0.0
 11
12.392101148103
 21
37.5496565866879
 31
0.0
  0
LINE
  8
2
  6
CONTINUOUS
 62
2
 10
12.392101148103
 20
37.5496565866879
 30
0.0
 11
12.396702672625
 21
37.5688274080488
 31
0.0
  0
LINE
  8
2
  6
CONTINUOUS
 62
2
 10
12.396702672625
 20
37.5688274080488
 30
0.0
 11
12.4005438688354
 21
37.5898529030947
 31
0.0
  0
LINE
  8
2
  6
CONTINUOUS
 62
2
 10
12.4005438688354
 20
37.5898529030947
 30
0.0
 11
12.4037829553422
 21
37.6128825005113
 31
0.0
  0
LINE
  8
2
  6
CONTINUOUS
 62
2
 10
12.4037829553422
 20
37.6128825005113
 30
0.0
 11
12.4064463019137
 21
37.6381095785975
 31
0.0
  0
LINE
  8
2
  6
CONTINUOUS
 62
2
 10
12.4064463019137
 20
37.6381095785975
 30
0.0
 11
12.4031764506774
 21
37.6438537930676
 31
0.0
  0
LINE
  8
2
  6
CONTINUOUS
 62
2
 10
12.4031764506774
 20
37.6438537930676
 30
0.0
 11
12.3998538596026
 21
37.649615588031
 31
0.0
  0
ARC
  8
2
  6
CONTINUOUS
 62
2
 10
11.2446320929545
 20
37.003911821002
 30
0.0
 40
1.32343140543553
 50
29.2027264554259
 51
33.0673700273759
  0
LINE
  8
2
  6
CONTINUOUS
 62
2
 10
12.3537067658451
 20
37.7260088053785
 30
0.0
 11
12.2981808118914
 21
37.7568087012127
 31
0.0
  0
ARC
  8
2
  6
CONTINUOUS
 62
2
 10
0.475337101881623
 20
14.3752074893791
 30
0.0
 40
26.2007425204046
 50
63.1766804523145
 51
64.8555844061869
  0
LINE
  8
2
  6
CONTINUOUS
 62
2
 10
11.6080664149848
 20
38.0931594806812
 30
0.0
 11
11.5513142799662
 21
38.1223156538656
 31
0.0
  0
ARC
  8
2
  6
CONTINUOUS
 62
2
 10
12.0626407631399
 20
39.1502555379414
 30
0.0
 40
1.14809197265227
 50
236.493747331802
 51
243.552943878474
  0
LINE
  8
2
  6
CONTINUOUS
 62
2
 10
11.4288618663851
 20
38.1929470778843
 30
0.0
 11
11.4181689261488
 21
38.2028621101485
 31
0.0
  0
ARC
  8
2
  6
CONTINUOUS
 62
2
 10
12.1887431929949
 20
39.1371226307162
 30
0.0
 40
1.21104393851624
 50
220.362360609798
 51
230.484326864385
  0
LINE
  8
2
  6
CONTINUOUS
 62
2
 10
11.265971414276
 20
38.3528269814762
 30
0.0
 11
11.2593789749577
 21
38.3643505655135
 31
0.0
  0
ARC
  8
2
  6
CONTINUOUS
 62
2
 10
17.6823637633814
 20
42.0609103689062
 30
0.0
 40
7.41075488546073
 50
208.529097043717
 51
209.921311752288
  0
LINE
  8
2
  6
CONTINUOUS
 62
2
 10
11.1714621656411
 20
38.5214968077462
 30
0.0
 11
11.1673792470741
 21
38.5444604785404
 31
0.0
  0
ARC
  8
2
  6
CONTINUOUS
 62
2
 10
14.2540970094216
 20
39.1582160986255
 30
0.0
 40
3.1471451357663
 50
184.956976665507
 51
191.245880350616
  0
LINE
  8
2
  6
CONTINUOUS
 62
2
 10
11.1187226295726
 20
38.8862785988873
 30
0.0
 11
11.1461823480189
 21
39.0426293485239
 31
0.0
  0
LINE
  8
2
  6
CONTINUOUS
 62
2
 10
11.1461823480189
 20
39.0426293485239
 30
0.0
 11
11.1972078491652
 21
39.1793741756271
 31
0.0
  0
LINE
  8
2
  6
CONTINUOUS
 62
2
 10
11.1972078491652
 20
39.1793741756271
 30
0.0
 11
11.2693115848937
 21
39.2971899042429
 31
0.0
  0
LINE
  8
2
  6
CONTINUOUS
 62
2
 10
11.2693115848937
 20
39.2971899042429
 30
0.0
 11
11.3599796373182
 21
39.3968896022192
 31
0.0
  0
LINE
  8
2
  6
CONTINUOUS
 62
2
 10
11.3599796373182
 20
39.3968896022192
 30
0.0
 11
11.4667728023311
 21
39.4791500932393
 31
0.0
  0
ARC
  8
2
  6
CONTINUOUS
 62
2
 10
12.1009523388863
 20
38.4079533518372
 30
0.0
 40
1.24484783944691
 50
94.4200298654818
 51
120.626763115614
  0
LINE
  8
2
  6
CONTINUOUS
 62
2
 10
12.0050149281663
 20
39.6490988536218
 30
0.0
 11
12.1548787139043
 21
39.6555374714947
 31
0.0
  0
ARC
  8
2
  6
CONTINUOUS
 62
2
 10
12.1567458322996
 20
37.8687702532666
 30
0.0
 40
1.78676819376923
 50
62.167169535692
 51
90.0598723571117
  0
LINE
  8
2
  6
CONTINUOUS
 62
2
 10
12.9909761600071
 20
39.4488336502854
 30
0.0
 11
12.988950082973
 21
39.4262874993924
 31
0.0
  0
ARC
  8
2
  6
CONTINUOUS
 62
2
 10
11.9364110970841
 20
39.725134887742
 30
0.0
 40
1.09414262248546
 50
326.573691277179
 51
344.149165294834
  0
LINE
  8
2
  6
CONTINUOUS
 62
2
 10
12.8495770688459
 20
39.1224110817116
 30
0.0
 11
12.828327435242
 21
39.0862669272065
 31
0.0
  0
ARC
  8
2
  6
CONTINUOUS
 62
2
 10
2.35055721034006
 20
45.3569846244991
 30
0.0
 40
12.2108791380875
 50
328.267507710452
 51
329.10039625708
  0
LINE
  8
2
  6
CONTINUOUS
 62
2
 10
12.7360684023422
 20
38.9346231736168
 30
0.0
 11
12.6872931209207
 21
38.9616170267969
 31
0.0
  0
ARC
  8
2
  6
CONTINUOUS
 62
2
 10
12.0920821790139
 20
37.7756885927814
 30
0.0
 40
1.32691458503258
 50
63.3481777989541
 51
90.4182063419204
  0
LINE
  8
2
  6
CONTINUOUS
 62
2
 10
12.0823970124629
 20
39.1025678312658
 30
0.0
 11
12.0097219317604
 21
39.094002051616
 31
0.0
  0
LINE
  8
2
  6
CONTINUOUS
 62
2
 10
12.0097219317604
 20
39.094002051616
 30
0.0
 11
11.9443336969581
 21
39.0758684411311
 31
0.0
  0
LINE
  8
2
  6
CONTINUOUS
 62
2
 10
11.9443336969581
 20
39.0758684411311
 30
0.0
 11
11.8881353263158
 21
39.0470946292444
 31
0.0
  0
LINE
  8
2
  6
CONTINUOUS
 62
2
 10
11.8881353263158
 20
39.0470946292444
 30
0.0
 11
11.8431968466239
 21
39.0064851864716
 31
0.0
  0
LINE
  8
2
  6
CONTINUOUS
 62
2
 10
11.8431968466239
 20
39.0064851864716
 30
0.0
 11
11.811465225756
 21
38.95298092713
 31
0.0
  0
LINE
  8
2
  6
CONTINUOUS
 62
2
 10
11.811465225756
 20
38.95298092713
 30
0.0
 11
11.7949225912758
 21
38.8854479511941
 31
0.0
  0
LINE
  8
2
  6
CONTINUOUS
 62
2
 10
11.7949225912758
 20
38.8854479511941
 30
0.0
 11
11.795546675786
 21
38.8027743334453
 31
0.0
  0
LINE
  8
2
  6
CONTINUOUS
 62
2
 10
11.795546675786
 20
38.8027743334453
 30
0.0
 11
11.8171215413227
 21
38.7776703137874
 31
0.0
  0
ARC
  8
2
  6
CONTINUOUS
 62
2
 10
12.3920428314993
 20
39.3367939233059
 30
0.0
 40
0.801968640670822
 50
224.201899425959
 51
261.578957663901
  0
LINE
  8
2
  6
CONTINUOUS
 62
2
 10
12.2745974617422
 20
38.5434716144415
 30
0.0
 11
12.3414887721785
 21
38.5125706413967
 31
0.0
  0
ARC
  8
2
  6
CONTINUOUS
 62
2
 10
11.5661414427245
 20
36.6068919737622
 30
0.0
 40
2.05737081382247
 50
52.8631003856829
 51
67.8604836979476
  0
LINE
  8
2
  6
CONTINUOUS
 62
2
 10
12.8082204826454
 20
38.2470182872386
 30
0.0
 11
12.8554926863153
 21
38.2045585659028
 31
0.0
  0
ARC
  8
2
  6
CONTINUOUS
 62
2
 10
12.2512731346099
 20
37.5908107108086
 30
0.0
 40
0.861259366448872
 50
18.0631861705888
 51
45.4482225306235
  0
LINE
  8
2
  6
CONTINUOUS
 62
2
 10
13.0700854641099
 20
37.8578576455499
 30
0.0
 11
13.0709161053869
 21
37.841350294864
 31
0.0
  0
ARC
  8
2
  6
CONTINUOUS
 62
2
 10
-217.270253262149
 20
26.2053022074477
 30
0.0
 40
230.634888775954
 50
2.83044326367208
 51
2.89192850099956
  0
LINE
  8
2
  6
CONTINUOUS
 62
2
 10
13.0832703481271
 20
37.5941599652071
 30
0.0
 11
13.0766603262093
 21
37.5344324411971
 31
0.0
  0
ARC
  8
2
  6
CONTINUOUS
 62
2
 10
12.2874022042734
 20
37.6474151781193
 30
0.0
 40
0.79730388302343
 50
296.925458664808
 51
351.853423361557
  0
LINE
  8
2
  6
CONTINUOUS
 62
2
 10
12.6484460581257
 20
36.9365419000453
 30
0.0
 11
12.5954296385829
 21
36.9085459960863
 31
0.0
  0
ARC
  8
2
  6
CONTINUOUS
 62
2
 10
13.0290128961333
 20
35.2220409335275
 30
0.0
 40
1.74134826133784
 50
104.417921947835
 51
107.747708613169
  0
LINE
  8
2
  6
CONTINUOUS
 62
2
 10
12.4982043047503
 20
36.8805149328951
 30
0.0
 11
14.3073649645387
 21
36.8821762281267
 31
0.0
  0
ARC
  8
2
  6
CONTINUOUS
 62
2
 10
14.6228990175846
 20
37.5708001191496
 30
0.0
 40
0.757472509018654
 50
217.564850888566
 51
245.382295850923
  0
LINE
  8
2
  6
CONTINUOUS
 62
2
 10
14.022477981243
 20
37.1090001829895
 30
0.0
 11
14.0168700128272
 21
37.1203875232775
 31
0.0
  0
ARC
  8
2
  6
CONTINUOUS
 62
2
 10
20.3618250312748
 20
40.2086891466001
 30
0.0
 40
7.05663241941515
 50
204.580541613021
 51
205.953734750234
  0
LINE
  8
2
  6
CONTINUOUS
 62
2
 10
13.9446827705806
 20
37.2733277874565
 30
0.0
 11
13.9414656600021
 21
37.2922568793814
 31
0.0
  0
ARC
  8
2
  6
CONTINUOUS
 62
2
 10
23.0905597691081
 20
38.7664737463923
 30
0.0
 40
9.26710517843939
 50
187.404527911823
 51
189.153536344106
  0
LINE
  8
2
  6
CONTINUOUS
 62
2
 10
13.9007331571901
 20
37.5721851585118
 30
0.0
 11
13.8999552504806
 21
37.6636485883516
 31
0.0
  0
ARC
  8
2
  6
CONTINUOUS
 62
2
 10
167.844152905046
 20
39.2486449190854
 30
0.0
 40
153.952356931865
 50
180.079248099213
 51
180.589891616299
  0
LINE
  8
2
  6
CONTINUOUS
 62
2
 10
13.8919432345119
 20
39.0357072844149
 30
0.0
 11
13.4612370232852
 21
39.0357072844149
 31
0.0
  0
LINE
  8
2
  6
CONTINUOUS
 62
2
 10
13.4612370232852
 20
39.0357072844149
 30
0.0
 11
13.4612370232852
 21
39.5850774517959
 31
0.0
  0
LINE
  8
2
  6
CONTINUOUS
 62
2
 10
13.4612370232852
 20
39.5850774517959
 30
0.0
 11
13.8919432345119
 21
39.5850774517959
 31
0.0
  0
LINE
  8
2
  6
CONTINUOUS
 62
2
 10
13.8919432345119
 20
39.5850774517959
 30
0.0
 11
13.9051281185291
 21
40.3717755314856
 31
0.0
  0
LINE
  8
2
  6
CONTINUOUS
 62
2
 10
13.9051281185291
 20
40.3717755314856
 30
0.0
 11
14.6346917008111
 21
40.3717755314856
 31
0.0
  0
LINE
  8
2
  6
CONTINUOUS
 62
2
 10
14.6346917008111
 20
40.3717755314856
 30
0.0
 11
14.6346917008111
 21
39.593867374474
 31
0.0
  0
LINE
  8
2
  6
CONTINUOUS
 62
2
 10
14.6346917008111
 20
39.593867374474
 30
0.0
 11
14.6735035862604
 21
39.5938146347034
 31
0.0
  0
ARC
  8
2
  6
CONTINUOUS
 62
2
 10
14.4697329041389
 20
5.93890898199671
 30
0.0
 40
33.6555225332111
 50
88.6491109682447
 51
89.6530949297962
  0
LINE
  8
2
  6
CONTINUOUS
 62
2
 10
15.263171172295
 20
39.5850774517959
 30
0.0
 11
15.2631711563288
 21
39.0357072843891
 31
0.0
  0
ARC
  8
2
  6
CONTINUOUS
 62
2
 10
15.3633017986605
 20
9.4038315275421
 30
0.0
 40
29.632044934745
 50
90.1936104692198
 51
91.4089642270122
  0
LINE
  8
2
  6
CONTINUOUS
 62
2
 10
14.6346917008111
 20
39.0269173617367
 30
0.0
 11
14.6347092806565
 21
38.9403673880869
 31
0.0
  0
LINE
  8
2
  6
CONTINUOUS
 62
2
 10
14.6347092806565
 20
38.9403673880869
 30
0.0
 11
14.6347092806565
 21
38.8538349942824
 31
0.0
  0
LINE
  8
2
  6
CONTINUOUS
 62
2
 10
14.6347092806565
 20
38.8538349942824
 30
0.0
 11
14.6347444400485
 21
38.7672673728742
 31
0.0
  0
ARC
  8
2
  6
CONTINUOUS
 62
2
 10
140.684464889502
 20
38.6874094397723
 30
0.0
 40
126.049745746173
 50
179.963700657971
 51
180.476963658413
  0
LINE
  8
2
  6
CONTINUOUS
 62
2
 10
14.6390866621501
 20
37.6381095785975
 30
0.0
 11
14.6432399017689
 21
37.6281945429107
 31
0.0
  0
ARC
  8
2
  6
CONTINUOUS
 62
2
 10
18.668625201189
 20
39.2817586465332
 30
0.0
 40
4.35178136555331
 50
202.332076879331
 51
204.523272502081
  0
LINE
  8
2
  6
CONTINUOUS
 62
2
 10
14.7094060435749
 20
37.4754960090527
 30
0.0
 11
14.7392170663377
 21
37.4589709544179
 31
0.0
  0
LINE
  8
2
  6
CONTINUOUS
 62
2
 10
14.7392170663377
 20
37.4589709544179
 30
0.0
 11
14.7706937794479
 21
37.445632246754
 31
0.0
  0
LINE
  8
2
  6
CONTINUOUS
 62
2
 10
14.7706937794479
 20
37.445632246754
 30
0.0
 11
14.8036735693361
 21
37.4352996926458
 31
0.0
  0
LINE
  8
2
  6
CONTINUOUS
 62
2
 10
14.8036735693361
 20
37.4352996926458
 30
0.0
 11
14.837826813902
 21
37.4278941827895
 31
0.0
  0
LINE
  8
2
  6
CONTINUOUS
 62
2
 10
14.837826813902
 20
37.4278941827895
 30
0.0
 11
14.8730040844596
 21
37.4232047590407
 31
0.0
  0
LINE
  8
2
  6
CONTINUOUS
 62
2
 10
14.8730040844596
 20
37.4232047590407
 30
0.0
 11
14.9088933387544
 21
37.4211654969795
 31
0.0
  0
LINE
  8
2
  6
CONTINUOUS
 62
2
 10
14.9088933387544
 20
37.4211654969795
 30
0.0
 11
14.9452968035257
 21
37.4215962031907
 31
0.0
  0
LINE
  8
2
  6
CONTINUOUS
 62
2
 10
14.9452968035257
 20
37.4215962031907
 30
0.0
 11
14.9819112264413
 21
37.4244001885249
 31
0.0
  0
LINE
  8
2
  6
CONTINUOUS
 62
2
 10
14.9819112264413
 20
37.4244001885249
 30
0.0
 11
15.0185564140863
 21
37.4293664948381
 31
0.0
  0
LINE
  8
2
  6
CONTINUOUS
 62
2
 10
15.0185564140863
 20
37.4293664948381
 30
0.0
 11
15.0549466939735
 21
37.4364599624394
 31
0.0
  0
LINE
  8
2
  6
CONTINUOUS
 62
2
 10
15.0549466939735
 20
37.4364599624394
 30
0.0
 11
15.0908491331522
 21
37.4454740281457
 31
0.0
  0
LINE
  8
2
  6
CONTINUOUS
 62
2
 10
15.0908491331522
 20
37.4454740281457
 30
0.0
 11
15.1259912440193
 21
37.4563251876918
 31
0.0
  0
LINE
  8
2
  6
CONTINUOUS
 62
2
 10
15.1259912440193
 20
37.4563251876918
 30
0.0
 11
15.1601840436808
 21
37.4688156679673
 31
0.0
  0
ARC
  8
2
  6
CONTINUOUS
 62
2
 10
14.9212758155449
 20
38.0746313016121
 30
0.0
 40
0.651221716038008
 50
291.52219254959
 51
300.764361577052
  0
LINE
  8
2
  6
CONTINUOUS
 62
2
 10
15.2543812496169
 20
37.5150506611042
 30
0.0
 11
15.2611099340552
 21
37.4992024333716
 31
0.0
  0
ARC
  8
2
  6
CONTINUOUS
 62
2
 10
9.75400724640327
 20
35.5307943551689
 30
0.0
 40
5.84831688391426
 50
14.1137223157108
 51
19.6684539749814
  0
LINE
  8
2
  6
CONTINUOUS
 62
2
 10
15.4257847418398
 20
36.9568905710451
 30
0.0
 11
15.397648203888
 21
36.9459207494353
 31
0.0
  0
ARC
  8
2
  6
CONTINUOUS
 62
2
 10
12.8139683567133
 20
43.2874674759043
 30
0.0
 40
6.84767233712934
 50
290.70764364053
 51
292.167017924272
  0
LINE
  8
2
  6
CONTINUOUS
 62
2
 10
15.2353027966058
 20
36.8821762282812
 30
0.0
 11
15.992734754577
 21
36.8821762282812
 31
0.0
  0
LINE
  8
2
  6
CONTINUOUS
 62
2
 10
15.992734754577
 20
36.8821762282812
 30
0.0
 11
15.992734754577
 21
39.5850774517959
 31
0.0
  0
LINE
  8
2
  6
CONTINUOUS
 62
2
 10
15.992734754577
 20
39.5850774517959
 30
0.0
 11
16.7222807570136
 21
39.5850774517959
 31
0.0
  0
LINE
  8
2
  6
CONTINUOUS
 62
2
 10
16.7222807570136
 20
39.5850774517959
 30
0.0
 11
16.7222807570136
 21
39.229085583333
 31
0.0
  0
LINE
  8
2
  6
CONTINUOUS
 62
2
 10
16.7222807570136
 20
39.229085583333
 30
0.0
 11
16.7261219532239
 21
39.229085583333
 31
0.0
  0
LINE
  8
2
  6
CONTINUOUS
 62
2
 10
16.7261219532239
 20
39.229085583333
 30
0.0
 11
16.7295148633777
 21
39.2291031631783
 31
0.0
  0
LINE
  8
2
  6
CONTINUOUS
 62
2
 10
16.7295148633777
 20
39.2291031631783
 30
0.0
 11
16.7324375126682
 21
39.229138322869
 31
0.0
  0
LINE
  8
2
  6
CONTINUOUS
 62
2
 10
16.7324375126682
 20
39.229138322869
 30
0.0
 11
16.7349646154381
 21
39.2292745666706
 31
0.0
  0
LINE
  8
2
  6
CONTINUOUS
 62
2
 10
16.7349646154381
 20
39.2292745666706
 30
0.0
 11
16.7370741968809
 21
39.2294503651241
 31
0.0
  0
LINE
  8
2
  6
CONTINUOUS
 62
2
 10
16.7370741968809
 20
39.2294503651241
 30
0.0
 11
16.7388585511845
 21
39.2297624073792
 31
0.0
  0
LINE
  8
2
  6
CONTINUOUS
 62
2
 10
16.7388585511845
 20
39.2297624073792
 30
0.0
 11
16.7403088884264
 21
39.2301755337451
 31
0.0
  0
LINE
  8
2
  6
CONTINUOUS
 62
2
 10
16.7403088884264
 20
39.2301755337451
 30
0.0
 11
16.7415043179106
 21
39.2307292988737
 31
0.0
  0
LINE
  8
2
  6
CONTINUOUS
 62
2
 10
16.7415043179106
 20
39.2307292988737
 30
0.0
 11
16.7423877051398
 21
39.2313885430746
 31
0.0
  0
LINE
  8
2
  6
CONTINUOUS
 62
2
 10
16.7423877051398
 20
39.2313885430746
 30
0.0
 11
16.7430777140701
 21
39.2322719303038
 31
0.0
  0
LINE
  8
2
  6
CONTINUOUS
 62
2
 10
16.7430777140701
 20
39.2322719303038
 30
0.0
 11
16.7435655547787
 21
39.2333267210252
 31
0.0
  0
LINE
  8
2
  6
CONTINUOUS
 62
2
 10
16.7435655547787
 20
39.2333267210252
 30
0.0
 11
16.7439083617631
 21
39.2346232346201
 31
0.0
  0
LINE
  8
2
  6
CONTINUOUS
 62
2
 10
16.7439083617631
 20
39.2346232346201
 30
0.0
 11
16.744101740062
 21
39.2361263113982
 31
0.0
  0
LINE
  8
2
  6
CONTINUOUS
 62
2
 10
16.744101740062
 20
39.2361263113982
 30
0.0
 11
16.7442028241728
 21
39.2378930858564
 31
0.0
  0
LINE
  8
2
  6
CONTINUOUS
 62
2
 10
16.7442028241728
 20
39.2378930858564
 30
0.0
 11
16.7442379838636
 21
39.2399191630337
 31
0.0
  0
LINE
  8
2
  6
CONTINUOUS
 62
2
 10
16.7442379838636
 20
39.2399191630337
 30
0.0
 11
16.7442555637089
 21
39.2422704673501
 31
0.0
  0
LINE
  8
2
  6
CONTINUOUS
 62
2
 10
16.7442555637089
 20
39.2422704673501
 30
0.0
 11
16.769983667185
 21
39.2856663152337
 31
0.0
  0
ARC
  8
2
  6
CONTINUOUS
 62
2
 10
17.4447651407762
 20
38.8656271609004
 30
0.0
 40
0.794835157925847
 50
96.4720304976613
 51
148.098489707485
  0
LINE
  8
2
  6
CONTINUOUS
 62
2
 10
17.355172769682
 20
39.6553968332206
 30
0.0
 11
17.3872515915046
 21
39.6536168736972
 31
0.0
  0
ARC
  8
2
  6
CONTINUOUS
 62
2
 10
17.293921347514
 20
37.8365917379932
 30
0.0
 40
1.8194204786754
 50
74.4566582110312
 51
87.0596258065147
  0
LINE
  8
2
  6
CONTINUOUS
 62
2
 10
17.7814664397243
 20
39.5894724131349
 30
0.0
 11
17.7699428469505
 21
39.5499001668998
 31
0.0
  0
ARC
  8
2
  6
CONTINUOUS
 62
2
 10
44.3951836907559
 20
31.9106269929086
 30
0.0
 40
27.6994935805243
 50
163.990837259365
 51
165.273033305049
  0
LINE
  8
2
  6
CONTINUOUS
 62
2
 10
17.6056679861624
 20
38.9522030189729
 30
0.0
 11
17.5982800555811
 21
38.9538115750272
 31
0.0
  0
ARC
  8
2
  6
CONTINUOUS
 62
2
 10
17.3292988048572
 20
37.8683026218926
 30
0.0
 40
1.11833832116057
 50
76.0828450328283
 51
81.438132107549
  0
LINE
  8
2
  6
CONTINUOUS
 62
2
 10
17.4957939526861
 20
38.9741778256682
 30
0.0
 11
17.476970333271
 21
38.9884878197881
 31
0.0
  0
LINE
  8
2
  6
CONTINUOUS
 62
2
 10
17.476970333271
 20
38.9884878197881
 30
0.0
 11
17.4539187610477
 21
38.9987324746695
 31
0.0
  0
LINE
  8
2
  6
CONTINUOUS
 62
2
 10
17.4539187610477
 20
38.9987324746695
 30
0.0
 11
17.4272237658743
 21
39.0052545972966
 31
0.0
  0
LINE
  8
2
  6
CONTINUOUS
 62
2
 10
17.4272237658743
 20
39.0052545972966
 30
0.0
 11
17.3975138272223
 21
39.0084189694607
 31
0.0
  0
LINE
  8
2
  6
CONTINUOUS
 62
2
 10
17.3975138272223
 20
39.0084189694607
 30
0.0
 11
17.3653119454911
 21
39.0085420283782
 31
0.0
  0
LINE
  8
2
  6
CONTINUOUS
 62
2
 10
17.3653119454911
 20
39.0085420283782
 30
0.0
 11
17.3312949447269
 21
39.006050085299
 31
0.0
  0
LINE
  8
2
  6
CONTINUOUS
 62
2
 10
17.3312949447269
 20
39.006050085299
 30
0.0
 11
17.296012195097
 21
39.0012244177487
 31
0.0
  0
LINE
  8
2
  6
CONTINUOUS
 62
2
 10
17.296012195097
 20
39.0012244177487
 30
0.0
 11
17.2601097553592
 21
38.9944913368696
 31
0.0
  0
ARC
  8
2
  6
CONTINUOUS
 62
2
 10
17.4805170152166
 20
37.961122963286
 30
0.0
 40
1.05661230151873
 50
102.040206716937
 51
115.770391980938
  0
LINE
  8
2
  6
CONTINUOUS
 62
2
 10
17.0211381280689
 20
38.9126483669215
 30
0.0
 11
16.9982975136022
 21
38.8959343286928
 31
0.0
  0
ARC
  8
2
  6
CONTINUOUS
 62
2
 10
17.501116375924
 20
38.1959603198908
 30
0.0
 40
0.861852900038604
 50
125.691173753137
 51
153.313463417889
  0
LINE
  8
2
  6
CONTINUOUS
 62
2
 10
16.7310706796917
 20
38.5830262664929
 30
0.0
 11
16.7294093833405
 21
38.3704067230289
 31
0.0
  0
ARC
  8
2
  6
CONTINUOUS
 62
2
 10
209.370029862908
 20
36.7035255383298
 30
0.0
 40
192.647831941179
 50
179.504243325328
 51
179.946867131048
  0
LINE
  8
2
  6
CONTINUOUS
 62
2
 10
16.7222807570136
 20
36.8821762282812
 30
0.0
 11
18.6793267399888
 21
36.882176228163
 31
0.0
  0
ARC
  8
2
  6
CONTINUOUS
 62
2
 10
18.9739070836214
 20
37.534169547091
 30
0.0
 40
0.715452910247332
 50
205.995311875865
 51
245.685835041162
  0
LINE
  8
2
  6
CONTINUOUS
 62
2
 10
18.3308366071053
 20
37.2205882513879
 30
0.0
 11
18.3249869142622
 21
37.2436881659815
 31
0.0
  0
ARC
  8
2
  6
CONTINUOUS
 62
2
 10
21.4243042618584
 20
38.1078335953455
 30
0.0
 40
3.21753249310731
 50
189.107212881489
 51
195.579426520509
  0
LINE
  8
2
  6
CONTINUOUS
 62
2
 10
18.2473323416634
 20
37.5985549265461
 30
0.0
 11
18.2473323416634
 21
39.5850774517959
 31
0.0
  0
LINE
  8
2
  6
CONTINUOUS
 62
2
 10
18.2473323416634
 20
39.5850774517959
 30
0.0
 11
18.9900808079625
 21
39.5850774517959
 31
0.0
  0
LINE
  8
2
  6
CONTINUOUS
 62
2
 10
18.9900808079625
 20
39.5850774517959
 30
0.0
 11
18.9900808074127
 21
39.2438789757238
 31
0.0
  0
ARC
  8
2
  6
CONTINUOUS
 62
2
 10
107.109665246625
 20
38.8551109287418
 30
0.0
 40
88.1204420230277
 50
179.747222777718
 51
180.735532359882
  0
LINE
  8
2
  6
CONTINUOUS
 62
2
 10
18.9964842666335
 20
37.7238992239358
 30
0.0
 11
18.9989937895581
 21
37.7039460994565
 31
0.0
  0
LINE
  8
2
  6
CONTINUOUS
 62
2
 10
18.9989937895581
 20
37.7039460994565
 30
0.0
 11
19.0024877838227
 21
37.6845862947579
 31
0.0
  0
LINE
  8
2
  6
CONTINUOUS
 62
2
 10
19.0024877838227
 20
37.6845862947579
 30
0.0
 11
19.0069003250071
 21
37.6657450954975
 31
0.0
  0
LINE
  8
2
  6
CONTINUOUS
 62
2
 10
19.0069003250071
 20
37.6657450954975
 30
0.0
 11
19.0122973375314
 21
37.6474181067136
 31
0.0
  0
LINE
  8
2
  6
CONTINUOUS
 62
2
 10
19.0122973375314
 20
37.6474181067136
 30
0.0
 11
19.018577737285
 21
37.6295965384838
 31
0.0
  0
LINE
  8
2
  6
CONTINUOUS
 62
2
 10
19.018577737285
 20
37.6295965384838
 30
0.0
 11
19.0257766839583
 21
37.6122759958466
 31
0.0
  0
LINE
  8
2
  6
CONTINUOUS
 62
2
 10
19.0257766839583
 20
37.6122759958466
 30
0.0
 11
19.0338062783247
 21
37.595390554382
 31
0.0
  0
LINE
  8
2
  6
CONTINUOUS
 62
2
 10
19.0338062783247
 20
37.595390554382
 30
0.0
 11
19.042714864959
 21
37.5789665838579
 31
0.0
  0
LINE
  8
2
  6
CONTINUOUS
 62
2
 10
19.042714864959
 20
37.5789665838579
 30
0.0
 11
19.0524584942477
 21
37.5629469497771
 31
0.0
  0
LINE
  8
2
  6
CONTINUOUS
 62
2
 10
19.0524584942477
 20
37.5629469497771
 30
0.0
 11
19.0630459561135
 21
37.5473712067916
 31
0.0
  0
LINE
  8
2
  6
CONTINUOUS
 62
2
 10
19.0630459561135
 20
37.5473712067916
 30
0.0
 11
19.0743981412522
 21
37.5321470607131
 31
0.0
  0
LINE
  8
2
  6
CONTINUOUS
 62
2
 10
19.0743981412522
 20
37.5321470607131
 30
0.0
 11
19.0865633942387
 21
37.5173184611551
 31
0.0
  0
LINE
  8
2
  6
CONTINUOUS
 62
2
 10
19.0865633942387
 20
37.5173184611551
 30
0.0
 11
19.0994713956914
 21
37.5028194836977
 31
0.0
  0
LINE
  8
2
  6
CONTINUOUS
 62
2
 10
19.0994713956914
 20
37.5028194836977
 30
0.0
 11
19.1131397254559
 21
37.4886808930699
 31
0.0
  0
LINE
  8
2
  6
CONTINUOUS
 62
2
 10
19.1131397254559
 20
37.4886808930699
 30
0.0
 11
19.1373120128206
 21
37.4762914970552
 31
0.0
  0
LINE
  8
2
  6
CONTINUOUS
 62
2
 10
19.1373120128206
 20
37.4762914970552
 30
0.0
 11
19.1620732250049
 21
37.4655282367357
 31
0.0
  0
LINE
  8
2
  6
CONTINUOUS
 62
2
 10
19.1620732250049
 20
37.4655282367357
 30
0.0
 11
19.1873354627817
 21
37.4563251876918
 31
0.0
  0
LINE
  8
2
  6
CONTINUOUS
 62
2
 10
19.1873354627817
 20
37.4563251876918
 30
0.0
 11
19.2130459866152
 21
37.4486427952711
 31
0.0
  0
LINE
  8
2
  6
CONTINUOUS
 62
2
 10
19.2130459866152
 20
37.4486427952711
 30
0.0
 11
19.2391212922397
 21
37.4423975552084
 31
0.0
  0
LINE
  8
2
  6
CONTINUOUS
 62
2
 10
19.2391212922397
 20
37.4423975552084
 30
0.0
 11
19.26554379981
 21
37.4375850725422
 31
0.0
  0
LINE
  8
2
  6
CONTINUOUS
 62
2
 10
19.26554379981
 20
37.4375850725422
 30
0.0
 11
19.2922256100994
 21
37.434161397659
 31
0.0
  0
LINE
  8
2
  6
CONTINUOUS
 62
2
 10
19.2922256100994
 20
37.434161397659
 30
0.0
 11
19.3191491432624
 21
37.4320825809456
 31
0.0
  0
LINE
  8
2
  6
CONTINUOUS
 62
2
 10
19.3191491432624
 20
37.4320825809456
 30
0.0
 11
19.3461781554975
 21
37.4312519332525
 31
0.0
  0
LINE
  8
2
  6
CONTINUOUS
 62
2
 10
19.3461781554975
 20
37.4312519332525
 30
0.0
 11
19.3733258316889
 21
37.4317046142705
 31
0.0
  0
LINE
  8
2
  6
CONTINUOUS
 62
2
 10
19.3733258316889
 20
37.4317046142705
 30
0.0
 11
19.4005262474162
 21
37.4333307499659
 31
0.0
  0
LINE
  8
2
  6
CONTINUOUS
 62
2
 10
19.4005262474162
 20
37.4333307499659
 30
0.0
 11
19.4277090832983
 21
37.4361303403389
 31
0.0
  0
LINE
  8
2
  6
CONTINUOUS
 62
2
 10
19.4277090832983
 20
37.4361303403389
 30
0.0
 11
19.4547864401082
 21
37.4400066962399
 31
0.0
  0
LINE
  8
2
  6
CONTINUOUS
 62
2
 10
19.4547864401082
 20
37.4400066962399
 30
0.0
 11
19.4817627128072
 21
37.4449730025531
 31
0.0
  0
LINE
  8
2
  6
CONTINUOUS
 62
2
 10
19.4817627128072
 20
37.4449730025531
 30
0.0
 11
19.5085324223233
 21
37.4509457550128
 31
0.0
  0
LINE
  8
2
  6
CONTINUOUS
 62
2
 10
19.5085324223233
 20
37.4509457550128
 30
0.0
 11
19.5350560140045
 21
37.4579161636966
 31
0.0
  0
LINE
  8
2
  6
CONTINUOUS
 62
2
 10
19.5350560140045
 20
37.4579161636966
 30
0.0
 11
19.5465796013823
 21
37.4660820009739
 31
0.0
  0
ARC
  8
2
  6
CONTINUOUS
 62
2
 10
21.1849657396814
 20
35.1299847972093
 30
0.0
 40
2.85335929802182
 50
120.797291051368
 51
125.043313721654
  0
LINE
  8
2
  6
CONTINUOUS
 62
2
 10
19.7240393515836
 20
37.5809750811899
 30
0.0
 11
19.7347322902683
 21
37.5924986673502
 31
0.0
  0
ARC
  8
2
  6
CONTINUOUS
 62
2
 10
24.3068653017691
 20
33.3959272658953
 30
0.0
 40
6.20609473037308
 50
135.244096286114
 51
137.452466308707
  0
LINE
  8
2
  6
CONTINUOUS
 62
2
 10
19.8998378051456
 20
37.7655634574299
 30
0.0
 11
19.9006157133026
 21
37.8792435274258
 31
0.0
  0
LINE
  8
2
  6
CONTINUOUS
 62
2
 10
19.9006157133026
 20
37.8792435274258
 30
0.0
 11
19.9130226891627
 21
39.5850774517959
 31
0.0
  0
LINE
  8
2
  6
CONTINUOUS
 62
2
 10
19.9130226891627
 20
39.5850774517959
 30
0.0
 11
20.642586270723
 21
39.5850773927761
 31
0.0
  0
ARC
  8
2
  6
CONTINUOUS
 62
2
 10
130.190771684827
 20
39.1457412968754
 30
0.0
 40
109.549066375429
 50
179.770220117875
 51
180.901664137435
  0
LINE
  8
2
  6
CONTINUOUS
 62
2
 10
20.6552701298691
 20
37.4218379260643
 30
0.0
 11
20.6576741740985
 21
37.3841555218705
 31
0.0
  0
ARC
  8
2
  6
CONTINUOUS
 62
2
 10
28.540833298721
 20
38.0660072596144
 30
0.0
 40
7.91259246874141
 50
184.943479657924
 51
188.604531758195
  0
LINE
  8
2
  6
CONTINUOUS
 62
2
 10
20.7173006142085
 20
36.8821762282812
 30
0.0
 11
22.1904081566874
 21
36.8818817639756
 31
0.0
  0
ARC
  8
2
  6
CONTINUOUS
 62
2
 10
24.8863097607616
 20
45.0699399757987
 30
0.0
 40
8.62045142315956
 50
250.504761432522
 51
251.775975028953
  0
LINE
  8
2
  6
CONTINUOUS
 62
2
 10
22.0094192478886
 20
36.9437056870279
 30
0.0
 11
21.9303626843096
 21
36.9966342059568
 31
0.0
  0
ARC
  8
2
  6
CONTINUOUS
 62
2
 10
22.7629680422148
 20
38.2610287088783
 30
0.0
 40
1.51391054591428
 50
211.433179241178
 51
236.635046265871
  0
LINE
  8
2
  6
CONTINUOUS
 62
2
 10
21.4712254671928
 20
37.4715185690409
 30
0.0
 11
21.433921035997
 21
37.5423213951893
 31
0.0
  0
ARC
  8
2
  6
CONTINUOUS
 62
2
 10
22.9571389259471
 20
38.2289403489087
 30
0.0
 40
1.67081965749472
 50
176.976165926956
 51
204.264361372948
  0
LINE
  8
2
  6
CONTINUOUS
 62
2
 10
21.2886455882847
 20
38.3170783659444
 30
0.0
 11
21.2886455882394
 21
38.3764630826766
 31
0.0
  0
ARC
  8
2
  6
CONTINUOUS
 62
2
 10
22.9189944600917
 20
38.235075766668
 30
0.0
 40
1.63646809228847
 50
150.143490806848
 51
175.043588790038
  0
LINE
  8
2
  6
CONTINUOUS
 62
2
 10
21.4997267914765
 20
39.0497579758158
 30
0.0
 11
21.5346095993158
 21
39.1032578397024
 31
0.0
  0
ARC
  8
2
  6
CONTINUOUS
 62
2
 10
22.4372317996063
 20
38.5091785313707
 30
0.0
 40
1.08058181598861
 50
130.51253155295
 51
146.648266688384
  0
LINE
  8
2
  6
CONTINUOUS
 62
2
 10
21.7352703494815
 20
39.3307058794145
 30
0.0
 11
21.7476421626783
 21
39.3397375227654
 31
0.0
  0
ARC
  8
2
  6
CONTINUOUS
 62
2
 10
25.8187933809336
 20
33.8130244301048
 30
0.0
 40
6.86431568697762
 50
124.683238930359
 51
126.37653212677
  0
LINE
  8
2
  6
CONTINUOUS
 62
2
 10
21.9127300984296
 20
39.4576235729635
 30
0.0
 11
22.0096785497534
 21
39.5027334557141
 31
0.0
  0
ARC
  8
2
  6
CONTINUOUS
 62
2
 10
22.7310701686517
 20
37.8804777617941
 30
0.0
 40
1.7754209090446
 50
76.2069132691475
 51
113.97396327146
  0
LINE
  8
2
  6
CONTINUOUS
 62
2
 10
23.1543594162468
 20
39.6047009541747
 30
0.0
 11
23.2552853076638
 21
39.5737252667282
 31
0.0
  0
ARC
  8
2
  6
CONTINUOUS
 62
2
 10
22.7983762726691
 20
38.2514432533406
 30
0.0
 40
1.39899806618462
 50
57.8294410275981
 51
70.9376230561977
  0
LINE
  8
2
  6
CONTINUOUS
 62
2
 10
23.5432607552165
 20
39.4356487662683
 30
0.0
 11
23.5275839222897
 21
39.4042951005659
 31
0.0
  0
ARC
  8
2
  6
CONTINUOUS
 62
2
 10
44.9080726048014
 20
28.6227509350042
 30
0.0
 40
23.9450828124892
 50
153.239549944672
 51
154.491388087376
  0
LINE
  8
2
  6
CONTINUOUS
 62
2
 10
23.2971429202298
 20
38.9346231736168
 30
0.0
 11
23.2567927797486
 21
38.9580527131127
 31
0.0
  0
ARC
  8
2
  6
CONTINUOUS
 62
2
 10
22.7099384267611
 20
37.8797859104423
 30
0.0
 40
1.20901157195557
 50
63.1076756833117
 51
91.871817155502
  0
LINE
  8
2
  6
CONTINUOUS
 62
2
 10
22.6704478030496
 20
39.0881523580737
 30
0.0
 11
22.6247138353554
 21
39.0884468204834
 31
0.0
  0
LINE
  8
2
  6
CONTINUOUS
 62
2
 10
22.6247138353554
 20
39.0884468204834
 30
0.0
 11
22.6223273713483
 21
39.086095516167
 31
0.0
  0
LINE
  8
2
  6
CONTINUOUS
 62
2
 10
22.6223273713483
 20
39.086095516167
 30
0.0
 11
22.620041991452
 21
39.0839991196083
 31
0.0
  0
LINE
  8
2
  6
CONTINUOUS
 62
2
 10
22.620041991452
 20
39.0839991196083
 30
0.0
 11
22.6176027879088
 21
39.0820961013485
 31
0.0
  0
LINE
  8
2
  6
CONTINUOUS
 62
2
 10
22.6176027879088
 20
39.0820961013485
 30
0.0
 11
22.6147988025745
 21
39.0803337218515
 31
0.0
  0
LINE
  8
2
  6
CONTINUOUS
 62
2
 10
22.6147988025745
 20
39.0803337218515
 30
0.0
 11
22.6113399680007
 21
39.0785669473933
 31
0.0
  0
LINE
  8
2
  6
CONTINUOUS
 62
2
 10
22.6113399680007
 20
39.0785669473933
 30
0.0
 11
22.6070636706178
 21
39.0768177527803
 31
0.0
  0
LINE
  8
2
  6
CONTINUOUS
 62
2
 10
22.6070636706178
 20
39.0768177527803
 30
0.0
 11
22.6017018177842
 21
39.074985053902
 31
0.0
  0
LINE
  8
2
  6
CONTINUOUS
 62
2
 10
22.6017018177842
 20
39.074985053902
 30
0.0
 11
22.5950390563942
 21
39.0730468759514
 31
0.0
  0
LINE
  8
2
  6
CONTINUOUS
 62
2
 10
22.5950390563942
 20
39.0730468759514
 30
0.0
 11
22.5867853189994
 21
39.0708493952819
 31
0.0
  0
LINE
  8
2
  6
CONTINUOUS
 62
2
 10
22.5867853189994
 20
39.0708493952819
 30
0.0
 11
22.5767823869917
 21
39.068427771584
 31
0.0
  0
LINE
  8
2
  6
CONTINUOUS
 62
2
 10
22.5767823869917
 20
39.068427771584
 30
0.0
 11
22.5647577727682
 21
39.0656413660951
 31
0.0
  0
LINE
  8
2
  6
CONTINUOUS
 62
2
 10
22.5647577727682
 20
39.0656413660951
 30
0.0
 11
22.5505180980296
 21
39.062476993931
 31
0.0
  0
LINE
  8
2
  6
CONTINUOUS
 62
2
 10
22.5505180980296
 20
39.062476993931
 30
0.0
 11
22.5337689003665
 21
39.0588247810582
 31
0.0
  0
LINE
  8
2
  6
CONTINUOUS
 62
2
 10
22.5337689003665
 20
39.0588247810582
 30
0.0
 11
22.5143563561319
 21
39.0546539627474
 31
0.0
  0
LINE
  8
2
  6
CONTINUOUS
 62
2
 10
22.5143563561319
 20
39.0546539627474
 30
0.0
 11
22.4919991878002
 21
39.0498942196173
 31
0.0
  0
LINE
  8
2
  6
CONTINUOUS
 62
2
 10
22.4919991878002
 20
39.0498942196173
 30
0.0
 11
22.4664952271496
 21
39.044497207093
 31
0.0
  0
LINE
  8
2
  6
CONTINUOUS
 62
2
 10
22.4664952271496
 20
39.044497207093
 30
0.0
 11
22.4557495466758
 21
39.0378520255483
 31
0.0
  0
LINE
  8
2
  6
CONTINUOUS
 62
2
 10
22.4557495466758
 20
39.0378520255483
 30
0.0
 11
22.4450566057378
 21
39.0311057598929
 31
0.0
  0
LINE
  8
2
  6
CONTINUOUS
 62
2
 10
22.4450566057378
 20
39.0311057598929
 30
0.0
 11
22.4343636647999
 21
39.0242715950106
 31
0.0
  0
LINE
  8
2
  6
CONTINUOUS
 62
2
 10
22.4343636647999
 20
39.0242715950106
 30
0.0
 11
22.4236883037074
 21
39.017367110747
 31
0.0
  0
LINE
  8
2
  6
CONTINUOUS
 62
2
 10
22.4236883037074
 20
39.017367110747
 30
0.0
 11
22.4130305224602
 21
39.0103571474112
 31
0.0
  0
LINE
  8
2
  6
CONTINUOUS
 62
2
 10
22.4130305224602
 20
39.0103571474112
 30
0.0
 11
22.4024210857877
 21
39.0032988395008
 31
0.0
  0
LINE
  8
2
  6
CONTINUOUS
 62
2
 10
22.4024210857877
 20
39.0032988395008
 30
0.0
 11
22.3918512037673
 21
38.9961702122088
 31
0.0
  0
LINE
  8
2
  6
CONTINUOUS
 62
2
 10
22.3918512037673
 20
38.9961702122088
 30
0.0
 11
22.3813296663215
 21
38.9890064252261
 31
0.0
  0
LINE
  8
2
  6
CONTINUOUS
 62
2
 10
22.3813296663215
 20
38.9890064252261
 30
0.0
 11
22.3708257087213
 21
38.981759133978
 31
0.0
  0
LINE
  8
2
  6
CONTINUOUS
 62
2
 10
22.3708257087213
 20
38.981759133978
 30
0.0
 11
22.3604096503477
 21
38.9744722880779
 31
0.0
  0
LINE
  8
2
  6
CONTINUOUS
 62
2
 10
22.3604096503477
 20
38.9744722880779
 30
0.0
 11
22.3500463315103
 21
38.967137097603
 31
0.0
  0
LINE
  8
2
  6
CONTINUOUS
 62
2
 10
22.3500463315103
 20
38.967137097603
 30
0.0
 11
22.3397665169382
 21
38.9597975121668
 31
0.0
  0
LINE
  8
2
  6
CONTINUOUS
 62
2
 10
22.3397665169382
 20
38.9597975121668
 30
0.0
 11
22.3295438368636
 21
38.9523920023105
 31
0.0
  0
LINE
  8
2
  6
CONTINUOUS
 62
2
 10
22.3295438368636
 20
38.9523920023105
 30
0.0
 11
22.3194354257838
 21
38.945021652145
 31
0.0
  0
LINE
  8
2
  6
CONTINUOUS
 62
2
 10
22.3194354257838
 20
38.945021652145
 30
0.0
 11
22.3094017290467
 21
38.9375985624433
 31
0.0
  0
LINE
  8
2
  6
CONTINUOUS
 62
2
 10
22.3094017290467
 20
38.9375985624433
 30
0.0
 11
22.2994866962658
 21
38.9302282122777
 31
0.0
  0
LINE
  8
2
  6
CONTINUOUS
 62
2
 10
22.2994866962658
 20
38.9302282122777
 30
0.0
 11
22.265034594329
 21
38.8883881803299
 31
0.0
  0
LINE
  8
2
  6
CONTINUOUS
 62
2
 10
22.265034594329
 20
38.8883881803299
 30
0.0
 11
22.2341336211542
 21
38.8454098533954
 31
0.0
  0
LINE
  8
2
  6
CONTINUOUS
 62
2
 10
22.2341336211542
 20
38.8454098533954
 30
0.0
 11
22.2065684236357
 21
38.8012888365127
 31
0.0
  0
LINE
  8
2
  6
CONTINUOUS
 62
2
 10
22.2065684236357
 20
38.8012888365127
 30
0.0
 11
22.1821895727841
 21
38.7561262131713
 31
0.0
  0
ARC
  8
2
  6
CONTINUOUS
 62
2
 10
23.3541217149458
 20
38.2337883404989
 30
0.0
 40
1.28306734003306
 50
155.977152306266
 51
181.254337884154
  0
LINE
  8
2
  6
CONTINUOUS
 62
2
 10
22.0713618330012
 20
38.2057012556903
 30
0.0
 11
22.070948706628
 21
38.1523200543296
 31
0.0
  0
ARC
  8
2
  6
CONTINUOUS
 62
2
 10
23.360929349755
 20
38.2807742940288
 30
0.0
 40
1.29636050207455
 50
185.686676780493
 51
205.821922814172
  0
LINE
  8
2
  6
CONTINUOUS
 62
2
 10
22.1940076241287
 20
37.716111352443
 30
0.0
 11
22.2202894931157
 21
37.6714365699902
 31
0.0
  0
ARC
  8
2
  6
CONTINUOUS
 62
2
 10
22.771324798626
 20
38.021350863584
 30
0.0
 40
0.652747976465674
 50
212.416056731737
 51
247.879873708797
  0
LINE
  8
2
  6
CONTINUOUS
 62
2
 10
22.5255327428171
 20
37.4166474767229
 30
0.0
 11
22.5362432614503
 21
37.4148499378388
 31
0.0
  0
ARC
  8
2
  6
CONTINUOUS
 62
2
 10
21.8051243007763
 20
33.4556628352294
 30
0.0
 40
4.02612685445028
 50
77.2943799895562
 51
79.5374024094401
  0
LINE
  8
2
  6
CONTINUOUS
 62
2
 10
22.6906382554412
 20
37.3832018209327
 30
0.0
 11
22.7380291247003
 21
37.3859706465049
 31
0.0
  0
ARC
  8
2
  6
CONTINUOUS
 62
2
 10
22.6482138426624
 20
38.962388727252
 30
0.0
 40
1.57897458820392
 50
273.260860396178
 51
295.850991205239
  0
LINE
  8
2
  6
CONTINUOUS
 62
2
 10
23.3366975722813
 20
37.5414204291384
 30
0.0
 11
23.3506603644554
 21
37.5108974226388
 31
0.0
  0
LINE
  8
2
  6
CONTINUOUS
 62
2
 10
23.3506603644554
 20
37.5108974226388
 30
0.0
 11
23.5608406005727
 21
37.0535797205041
 31
0.0
  0
LINE
  8
2
  6
CONTINUOUS
 62
2
 10
23.5608406005727
 20
37.0535797205041
 30
0.0
 11
23.5435024808179
 21
37.0444425975685
 31
0.0
  0
ARC
  8
2
  6
CONTINUOUS
 62
2
 10
21.2767472022008
 20
40.8909066976266
 30
0.0
 40
4.46469098215921
 50
296.527113799892
 51
300.511220677569
  0
LINE
  8
2
  6
CONTINUOUS
 62
2
 10
23.2707731521955
 20
36.8962444995275
 30
0.0
 11
23.264180709853
 21
36.8943590610161
 31
0.0
  0
ARC
  8
2
  6
CONTINUOUS
 62
2
 10
23.4476150502201
 20
36.2758310311755
 30
0.0
 40
0.645155082847808
 50
106.518562389325
 51
110.148697910702
  0
LINE
  8
2
  6
CONTINUOUS
 62
2
 10
23.2253863864472
 20
36.8815037991964
 30
0.0
 11
24.7400321805007
 21
36.882176228132
 31
0.0
  0
ARC
  8
2
  6
CONTINUOUS
 62
2
 10
25.0019027865004
 20
37.5674947775717
 30
0.0
 40
0.733646869067722
 50
234.519642757171
 51
249.087385456532
  0
LINE
  8
2
  6
CONTINUOUS
 62
2
 10
24.5760766698928
 20
36.9700754550622
 30
0.0
 11
24.5483224895305
 21
36.9988492666084
 31
0.0
  0
ARC
  8
2
  6
CONTINUOUS
 62
2
 10
25.1445259517671
 20
37.5555172033386
 30
0.0
 40
0.815682389270789
 50
178.486348058393
 51
223.035920222807
  0
LINE
  8
2
  6
CONTINUOUS
 62
2
 10
24.329128187213
 20
37.5770635655981
 30
0.0
 11
24.3282975409148
 21
37.6741525417423
 31
0.0
  0
ARC
  8
2
  6
CONTINUOUS
 62
2
 10
184.129346515378
 20
39.1926530595698
 30
0.0
 40
159.808263544666
 50
180.059420942898
 51
180.544433549422
  0
LINE
  8
2
  6
CONTINUOUS
 62
2
 10
24.3211689122281
 20
39.0269173617367
 30
0.0
 11
24.2939684891835
 21
39.0276952703834
 31
0.0
  0
ARC
  8
2
  6
CONTINUOUS
 62
2
 10
23.8221829098376
 20
25.4321555113958
 30
0.0
 40
13.6037231290222
 50
88.0125481940602
 51
89.7124198832325
  0
LINE
  8
2
  6
CONTINUOUS
 62
2
 10
23.8904627010013
 20
39.0357072844149
 30
0.0
 11
23.8904626935544
 21
39.5850774515087
 31
0.0
  0
ARC
  8
2
  6
CONTINUOUS
 62
2
 10
24.3879868448055
 20
25.7630915719036
 30
0.0
 40
13.8309372038586
 50
90.2767997835584
 51
92.06147890822
  0
LINE
  8
2
  6
CONTINUOUS
 62
2
 10
24.3211689122281
 20
39.593867374474
 30
0.0
 11
24.3211689122281
 21
40.3717755314856
 31
0.0
  0
LINE
  8
2
  6
CONTINUOUS
 62
2
 10
24.3211689122281
 20
40.3717755314856
 30
0.0
 11
25.05073249451
 21
40.3717755314856
 31
0.0
  0
LINE
  8
2
  6
CONTINUOUS
 62
2
 10
25.05073249451
 20
40.3717755314856
 30
0.0
 11
25.0515103877234
 21
40.3230846043884
 31
0.0
  0
ARC
  8
2
  6
CONTINUOUS
 62
2
 10
-1551.72220021693
 20
13.446080631226
 30
0.0
 40
1577.00276087157
 50
0.949727432529236
 51
0.97654455135726
  0
LINE
  8
2
  6
CONTINUOUS
 62
2
 10
25.0639173785272
 20
39.5850774517959
 30
0.0
 11
25.6923968500111
 21
39.5850774517959
 31
0.0
  0
LINE
  8
2
  6
CONTINUOUS
 62
2
 10
25.6923968500111
 20
39.5850774517959
 30
0.0
 11
25.6923968500111
 21
39.0357072844149
 31
0.0
  0
LINE
  8
2
  6
CONTINUOUS
 62
2
 10
25.6923968500111
 20
39.0357072844149
 30
0.0
 11
25.05073249451
 21
39.0357072844149
 31
0.0
  0
LINE
  8
2
  6
CONTINUOUS
 62
2
 10
25.05073249451
 20
39.0357072844149
 30
0.0
 11
25.05073249451
 21
37.7995980380395
 31
0.0
  0
LINE
  8
2
  6
CONTINUOUS
 62
2
 10
25.05073249451
 20
37.7995980380395
 30
0.0
 11
25.051510402667
 21
37.7172188827004
 31
0.0
  0
LINE
  8
2
  6
CONTINUOUS
 62
2
 10
25.051510402667
 20
37.7172188827004
 30
0.0
 11
25.0639173785272
 21
37.7172188827004
 31
0.0
  0
LINE
  8
2
  6
CONTINUOUS
 62
2
 10
25.0639173785272
 20
37.7172188827004
 30
0.0
 11
25.0685540627399
 21
37.676991801564
 31
0.0
  0
LINE
  8
2
  6
CONTINUOUS
 62
2
 10
25.0685540627399
 20
37.676991801564
 30
0.0
 11
25.0744389159729
 21
37.6403597988031
 31
0.0
  0
LINE
  8
2
  6
CONTINUOUS
 62
2
 10
25.0744389159729
 20
37.6403597988031
 30
0.0
 11
25.0816862072209
 21
37.6071207061959
 31
0.0
  0
LINE
  8
2
  6
CONTINUOUS
 62
2
 10
25.0816862072209
 20
37.6071207061959
 30
0.0
 11
25.0905464492805
 21
37.5771866245156
 31
0.0
  0
LINE
  8
2
  6
CONTINUOUS
 62
2
 10
25.0905464492805
 20
37.5771866245156
 30
0.0
 11
25.1011207262622
 21
37.5503158308887
 31
0.0
  0
LINE
  8
2
  6
CONTINUOUS
 62
2
 10
25.1011207262622
 20
37.5503158308887
 30
0.0
 11
25.1136639459238
 21
37.526455585779
 31
0.0
  0
LINE
  8
2
  6
CONTINUOUS
 62
2
 10
25.1136639459238
 20
37.526455585779
 30
0.0
 11
25.1282859822988
 21
37.5053949310422
 31
0.0
  0
LINE
  8
2
  6
CONTINUOUS
 62
2
 10
25.1282859822988
 20
37.5053949310422
 30
0.0
 11
25.1452241632995
 21
37.4870195976837
 31
0.0
  0
LINE
  8
2
  6
CONTINUOUS
 62
2
 10
25.1452241632995
 20
37.4870195976837
 30
0.0
 11
25.1646015478434
 21
37.4711362074044
 31
0.0
  0
LINE
  8
2
  6
CONTINUOUS
 62
2
 10
25.1646015478434
 20
37.4711362074044
 30
0.0
 11
25.1866642537655
 21
37.4576568609776
 31
0.0
  0
LINE
  8
2
  6
CONTINUOUS
 62
2
 10
25.1866642537655
 20
37.4576568609776
 30
0.0
 11
25.2115309450218
 21
37.4463749952203
 31
0.0
  0
LINE
  8
2
  6
CONTINUOUS
 62
2
 10
25.2115309450218
 20
37.4463749952203
 30
0.0
 11
25.2394389495247
 21
37.437220290751
 31
0.0
  0
LINE
  8
2
  6
CONTINUOUS
 62
2
 10
25.2394389495247
 20
37.437220290751
 30
0.0
 11
25.2705157211531
 21
37.4299729995029
 31
0.0
  0
LINE
  8
2
  6
CONTINUOUS
 62
2
 10
25.2705157211531
 20
37.4299729995029
 30
0.0
 11
25.304981007974
 21
37.4245232474424
 31
0.0
  0
LINE
  8
2
  6
CONTINUOUS
 62
2
 10
25.304981007974
 20
37.4245232474424
 30
0.0
 11
25.3429798437114
 21
37.4206820512321
 31
0.0
  0
LINE
  8
2
  6
CONTINUOUS
 62
2
 10
25.3429798437114
 20
37.4206820512321
 30
0.0
 11
25.3847495562777
 21
37.4183615116452
 31
0.0
  0
LINE
  8
2
  6
CONTINUOUS
 62
2
 10
25.3847495562777
 20
37.4183615116452
 30
0.0
 11
25.4051861265043
 21
37.4211654969795
 31
0.0
  0
LINE
  8
2
  6
CONTINUOUS
 62
2
 10
25.4051861265043
 20
37.4211654969795
 30
0.0
 11
25.4253589990505
 21
37.4246419113986
 31
0.0
  0
LINE
  8
2
  6
CONTINUOUS
 62
2
 10
25.4253589990505
 20
37.4246419113986
 30
0.0
 11
25.4452593839937
 21
37.428742410328
 31
0.0
  0
LINE
  8
2
  6
CONTINUOUS
 62
2
 10
25.4452593839937
 20
37.428742410328
 30
0.0
 11
25.4649488107927
 21
37.4334494139221
 31
0.0
  0
LINE
  8
2
  6
CONTINUOUS
 62
2
 10
25.4649488107927
 20
37.4334494139221
 30
0.0
 11
25.4844140945633
 21
37.4386222834181
 31
0.0
  0
LINE
  8
2
  6
CONTINUOUS
 62
2
 10
25.4844140945633
 20
37.4386222834181
 30
0.0
 11
25.5037079748417
 21
37.4442829936228
 31
0.0
  0
LINE
  8
2
  6
CONTINUOUS
 62
2
 10
25.5037079748417
 20
37.4442829936228
 30
0.0
 11
25.5228260566666
 21
37.4503568301934
 31
0.0
  0
LINE
  8
2
  6
CONTINUOUS
 62
2
 10
25.5228260566666
 20
37.4503568301934
 30
0.0
 11
25.541860634226
 21
37.4568086334391
 31
0.0
  0
LINE
  8
2
  6
CONTINUOUS
 62
2
 10
25.541860634226
 20
37.4568086334391
 30
0.0
 11
25.5607545777041
 21
37.4635241361092
 31
0.0
  0
ARC
  8
2
  6
CONTINUOUS
 62
2
 10
23.0919320510929
 20
43.9649084737812
 30
0.0
 40
6.95435712154838
 50
290.793671297923
 51
291.958391558964
  0
LINE
  8
2
  6
CONTINUOUS
 62
2
 10
25.6923968534827
 20
37.5150506625142
 30
0.0
 11
25.7013933347243
 21
37.483749748755
 31
0.0
  0
ARC
  8
2
  6
CONTINUOUS
 62
2
 10
21.2471500846655
 20
35.8102147533737
 30
0.0
 40
4.75825622591511
 50
15.1629722653705
 51
20.5920539599368
  0
LINE
  8
2
  6
CONTINUOUS
 62
2
 10
25.8397511137867
 20
37.0548103096791
 30
0.0
 11
25.8455964123676
 21
37.0208592333349
 31
0.0
  0
LINE
  8
2
  6
CONTINUOUS
 62
2
 10
25.8455964123676
 20
37.0208592333349
 30
0.0
 11
25.8493013647765
 21
36.9881387461657
 31
0.0
  0
LINE
  8
2
  6
CONTINUOUS
 62
2
 10
25.8493013647765
 20
36.9881387461657
 30
0.0
 11
25.8506154582168
 21
36.9568905710451
 31
0.0
  0
LINE
  8
2
  6
CONTINUOUS
 62
2
 10
25.8506154582168
 20
36.9568905710451
 30
0.0
 11
25.8374305688642
 21
36.9510760348843
 31
0.0
  0
ARC
  8
2
  6
CONTINUOUS
 62
2
 10
30.1368403092706
 20
27.0540760656386
 30
0.0
 40
10.7905297602644
 50
113.480871335433
 51
114.386544650893
  0
LINE
  8
2
  6
CONTINUOUS
 62
2
 10
25.6815325055809
 20
36.8818817658716
 30
0.0
 11
26.6696697716818
 21
36.8821762281395
 31
0.0
  0
ARC
  8
2
  6
CONTINUOUS
 62
2
 10
27.0038214308191
 20
37.6105764486538
 30
0.0
 40
0.801388927144246
 50
208.40311296874
 51
245.356835708582
  0
LINE
  8
2
  6
CONTINUOUS
 62
2
 10
26.2989015147998
 20
37.229378174066
 30
0.0
 11
26.2947482771432
 21
37.2425630557259
 31
0.0
  0
ARC
  8
2
  6
CONTINUOUS
 62
2
 10
29.5956729016364
 20
38.3074073392705
 30
0.0
 40
3.4684285670578
 50
194.476895929576
 51
197.879166488521
  0
LINE
  8
2
  6
CONTINUOUS
 62
2
 10
26.237372056053
 20
37.4403363183404
 30
0.0
 11
26.2374072157884
 21
37.4695803899736
 31
0.0
  0
ARC
  8
2
  6
CONTINUOUS
 62
2
 10
27.7925864440499
 20
37.5066116175388
 30
0.0
 40
1.55562005124352
 50
166.284998346341
 51
181.364043543719
  0
LINE
  8
2
  6
CONTINUOUS
 62
2
 10
26.2813216694436
 20
37.8754374909062
 30
0.0
 11
26.2975522613221
 21
37.9056132947358
 31
0.0
  0
ARC
  8
2
  6
CONTINUOUS
 62
2
 10
27.6321461135566
 20
37.2429896988103
 30
0.0
 40
1.4900371741334
 50
143.449877184249
 51
153.595679050252
  0
LINE
  8
2
  6
CONTINUOUS
 62
2
 10
26.4351453163102
 20
38.1303452485709
 30
0.0
 11
26.5123164417615
 21
38.1905781931532
 31
0.0
  0
ARC
  8
2
  6
CONTINUOUS
 62
2
 10
27.5086922304373
 20
36.8447975323419
 30
0.0
 40
1.67448209882129
 50
93.9159481705666
 51
126.515141387342
  0
LINE
  8
2
  6
CONTINUOUS
 62
2
 10
27.3943368386348
 20
38.5153702316396
 30
0.0
 11
27.4841742408075
 21
38.5223450351235
 31
0.0
  0
ARC
  8
2
  6
CONTINUOUS
 62
2
 10
27.7592281161381
 20
33.7722312365437
 30
0.0
 40
4.75807058940838
 50
89.8556733751818
 51
93.3139938688386
  0
LINE
  8
2
  6
CONTINUOUS
 62
2
 10
27.7712135633809
 20
38.5302867304243
 30
0.0
 11
27.7695522682546
 21
38.5665187877076
 31
0.0
  0
ARC
  8
2
  6
CONTINUOUS
 62
2
 10
33.3360851918256
 20
38.8504238976364
 30
0.0
 40
5.57376810610596
 50
180.354283361312
 51
182.91967773829
  0
LINE
  8
2
  6
CONTINUOUS
 62
2
 10
27.7624236407028
 20
38.8159592174624
 30
0.0
 11
27.7520427420199
 21
38.8451153909857
 31
0.0
  0
LINE
  8
2
  6
CONTINUOUS
 62
2
 10
27.7520427420199
 20
38.8451153909857
 30
0.0
 11
27.7407257165719
 21
38.8717620415844
 31
0.0
  0
LINE
  8
2
  6
CONTINUOUS
 62
2
 10
27.7407257165719
 20
38.8717620415844
 30
0.0
 11
27.7283890600931
 21
38.8960398080213
 31
0.0
  0
LINE
  8
2
  6
CONTINUOUS
 62
2
 10
27.7283890600931
 20
38.8960398080213
 30
0.0
 11
27.7150327725839
 21
38.9181332786727
 31
0.0
  0
LINE
  8
2
  6
CONTINUOUS
 62
2
 10
27.7150327725839
 20
38.9181332786727
 30
0.0
 11
27.7005645598557
 21
38.9381171678813
 31
0.0
  0
LINE
  8
2
  6
CONTINUOUS
 62
2
 10
27.7005645598557
 20
38.9381171678813
 30
0.0
 11
27.6849932118314
 21
38.9562331985209
 31
0.0
  0
LINE
  8
2
  6
CONTINUOUS
 62
2
 10
27.6849932118314
 20
38.9562331985209
 30
0.0
 11
27.6682440141683
 21
38.9725868496635
 31
0.0
  0
LINE
  8
2
  6
CONTINUOUS
 62
2
 10
27.6682440141683
 20
38.9725868496635
 30
0.0
 11
27.6503345467117
 21
38.9873627096853
 31
0.0
  0
LINE
  8
2
  6
CONTINUOUS
 62
2
 10
27.6503345467117
 20
38.9873627096853
 30
0.0
 11
27.6311461455054
 21
39.0006530727746
 31
0.0
  0
LINE
  8
2
  6
CONTINUOUS
 62
2
 10
27.6311461455054
 20
39.0006530727746
 30
0.0
 11
27.6107095752789
 21
39.0126776869982
 31
0.0
  0
LINE
  8
2
  6
CONTINUOUS
 62
2
 10
27.6107095752789
 20
39.0126776869982
 30
0.0
 11
27.5889589116119
 21
39.0235596112737
 31
0.0
  0
LINE
  8
2
  6
CONTINUOUS
 62
2
 10
27.5889589116119
 20
39.0235596112737
 30
0.0
 11
27.5658633897752
 21
39.0334922238999
 31
0.0
  0
LINE
  8
2
  6
CONTINUOUS
 62
2
 10
27.5658633897752
 20
39.0334922238999
 30
0.0
 11
27.5413439004646
 21
39.0425590291424
 31
0.0
  0
LINE
  8
2
  6
CONTINUOUS
 62
2
 10
27.5413439004646
 20
39.0425590291424
 30
0.0
 11
27.5154399983323
 21
39.0510017498747
 31
0.0
  0
LINE
  8
2
  6
CONTINUOUS
 62
2
 10
27.5154399983323
 20
39.0510017498747
 30
0.0
 11
27.4880505992673
 21
39.058912680285
 31
0.0
  0
LINE
  8
2
  6
CONTINUOUS
 62
2
 10
27.4880505992673
 20
39.058912680285
 30
0.0
 11
27.4591713083085
 21
39.0664720137882
 31
0.0
  0
LINE
  8
2
  6
CONTINUOUS
 62
2
 10
27.4591713083085
 20
39.0664720137882
 30
0.0
 11
27.4439427672686
 21
39.0666785769711
 31
0.0
  0
LINE
  8
2
  6
CONTINUOUS
 62
2
 10
27.4439427672686
 20
39.0666785769711
 30
0.0
 11
27.4250664083174
 21
39.0672850816359
 31
0.0
  0
LINE
  8
2
  6
CONTINUOUS
 62
2
 10
27.4250664083174
 20
39.0672850816359
 30
0.0
 11
27.4030388620862
 21
39.0680981494836
 31
0.0
  0
LINE
  8
2
  6
CONTINUOUS
 62
2
 10
27.4030388620862
 20
39.0680981494836
 30
0.0
 11
27.3784710282008
 21
39.0689991165582
 31
0.0
  0
LINE
  8
2
  6
CONTINUOUS
 62
2
 10
27.3784710282008
 20
39.0689991165582
 30
0.0
 11
27.3518243776022
 21
39.0697946045605
 31
0.0
  0
LINE
  8
2
  6
CONTINUOUS
 62
2
 10
27.3518243776022
 20
39.0697946045605
 30
0.0
 11
27.3237229948003
 21
39.0703835293799
 31
0.0
  0
LINE
  8
2
  6
CONTINUOUS
 62
2
 10
27.3237229948003
 20
39.0703835293799
 30
0.0
 11
27.2946723003492
 21
39.0705900925629
 31
0.0
  0
LINE
  8
2
  6
CONTINUOUS
 62
2
 10
27.2946723003492
 20
39.0705900925629
 30
0.0
 11
27.2652392442616
 21
39.0703132099985
 31
0.0
  0
LINE
  8
2
  6
CONTINUOUS
 62
2
 10
27.2652392442616
 20
39.0703132099985
 30
0.0
 11
27.2359292470915
 21
39.0693111588133
 31
0.0
  0
LINE
  8
2
  6
CONTINUOUS
 62
2
 10
27.2359292470915
 20
39.0693111588133
 30
0.0
 11
27.2073444185423
 21
39.0675268045096
 31
0.0
  0
LINE
  8
2
  6
CONTINUOUS
 62
2
 10
27.2073444185423
 20
39.0675268045096
 30
0.0
 11
27.1799857842067
 21
39.064757978866
 31
0.0
  0
LINE
  8
2
  6
CONTINUOUS
 62
2
 10
27.1799857842067
 20
39.064757978866
 30
0.0
 11
27.1544642437109
 21
39.0608992028103
 31
0.0
  0
LINE
  8
2
  6
CONTINUOUS
 62
2
 10
27.1544642437109
 20
39.0608992028103
 30
0.0
 11
27.1312456629567
 21
39.0557439131595
 31
0.0
  0
LINE
  8
2
  6
CONTINUOUS
 62
2
 10
27.1312456629567
 20
39.0557439131595
 30
0.0
 11
27.110949731493
 21
39.0492042106871
 31
0.0
  0
LINE
  8
2
  6
CONTINUOUS
 62
2
 10
27.110949731493
 20
39.0492042106871
 30
0.0
 11
27.094059895067
 21
39.0410911120552
 31
0.0
  0
LINE
  8
2
  6
CONTINUOUS
 62
2
 10
27.094059895067
 20
39.0410911120552
 30
0.0
 11
27.0812046323865
 21
39.0313123228657
 31
0.0
  0
ARC
  8
2
  6
CONTINUOUS
 62
2
 10
27.5082780482281
 20
37.6248173339315
 30
0.0
 40
1.46990470997804
 50
106.89058522923
 51
125.280614363245
  0
LINE
  8
2
  6
CONTINUOUS
 62
2
 10
26.6592883446017
 20
38.8247491401405
 30
0.0
 11
26.6285236442432
 21
38.8247490988615
 31
0.0
  0
ARC
  8
2
  6
CONTINUOUS
 62
2
 10
84.1848794412076
 20
79.0808507014697
 30
0.0
 40
70.237367610598
 50
214.542090557411
 51
214.969734616513
  0
LINE
  8
2
  6
CONTINUOUS
 62
2
 10
26.3296662441731
 20
39.2554553513673
 30
0.0
 11
26.3343205082311
 21
39.2773774185264
 31
0.0
  0
LINE
  8
2
  6
CONTINUOUS
 62
2
 10
26.3343205082311
 20
39.2773774185264
 30
0.0
 11
26.3476284511657
 21
39.3002004527602
 31
0.0
  0
LINE
  8
2
  6
CONTINUOUS
 62
2
 10
26.3476284511657
 20
39.3002004527602
 30
0.0
 11
26.3684781477582
 21
39.3236299916586
 31
0.0
  0
LINE
  8
2
  6
CONTINUOUS
 62
2
 10
26.3684781477582
 20
39.3236299916586
 30
0.0
 11
26.3959202863592
 21
39.3474550770776
 31
0.0
  0
LINE
  8
2
  6
CONTINUOUS
 62
2
 10
26.3959202863592
 20
39.3474550770776
 30
0.0
 11
26.4288121770206
 21
39.371350481878
 31
0.0
  0
LINE
  8
2
  6
CONTINUOUS
 62
2
 10
26.4288121770206
 20
39.371350481878
 30
0.0
 11
26.4661517685573
 21
39.3951096428769
 31
0.0
  0
LINE
  8
2
  6
CONTINUOUS
 62
2
 10
26.4661517685573
 20
39.3951096428769
 30
0.0
 11
26.5068666893279
 21
39.4184337021114
 31
0.0
  0
ARC
  8
2
  6
CONTINUOUS
 62
2
 10
27.5776778164703
 20
37.4099822791013
 30
0.0
 40
2.27607416149015
 50
108.574401200282
 51
118.064424923359
  0
LINE
  8
2
  6
CONTINUOUS
 62
2
 10
26.8526666435198
 20
39.5674976064397
 30
0.0
 11
26.867912764015
 21
39.5792804976087
 31
0.0
  0
ARC
  8
2
  6
CONTINUOUS
 62
2
 10
27.1815589642595
 20
38.8461758238548
 30
0.0
 40
0.797380963911
 50
92.0926232465407
 51
113.162825944413
  0
LINE
  8
2
  6
CONTINUOUS
 62
2
 10
27.1524425614949
 20
39.6430250170512
 30
0.0
 11
27.1863365023353
 21
39.6463124480208
 31
0.0
  0
ARC
  8
2
  6
CONTINUOUS
 62
2
 10
27.3652182460106
 20
37.7757678162118
 30
0.0
 40
1.87907847037049
 50
84.7235333900119
 51
95.4626312243999
  0
LINE
  8
2
  6
CONTINUOUS
 62
2
 10
27.5380213096923
 20
39.6468837931069
 30
0.0
 11
27.6123532901535
 21
39.6421240497263
 31
0.0
  0
ARC
  8
2
  6
CONTINUOUS
 62
2
 10
27.561985354477
 20
38.4268673523718
 30
0.0
 40
1.21630003264376
 50
64.5862199843254
 51
87.62665830483
  0
LINE
  8
2
  6
CONTINUOUS
 62
2
 10
28.0839634072288
 20
39.5254685911544
 30
0.0
 11
28.1440249483922
 21
39.490361640098
 31
0.0
  0
ARC
  8
2
  6
CONTINUOUS
 62
2
 10
27.6518047400123
 20
38.7490315146754
 30
0.0
 40
0.889860151033099
 50
36.7796085318189
 51
56.4170729589099
  0
LINE
  8
2
  6
CONTINUOUS
 62
2
 10
28.3645333441524
 20
39.2818251194016
 30
0.0
 11
28.3810583981815
 21
39.2510076511648
 31
0.0
  0
ARC
  8
2
  6
CONTINUOUS
 62
2
 10
26.9212289034493
 20
38.604185111627
 30
0.0
 40
1.59670960144425
 50
6.33120729085687
 51
23.8972164036599
  0
LINE
  8
2
  6
CONTINUOUS
 62
2
 10
28.5082002353645
 20
38.7802633414667
 30
0.0
 11
28.51396202968
 21
38.7456398360377
 31
0.0
  0
LINE
  8
2
  6
CONTINUOUS
 62
2
 10
28.51396202968
 20
38.7456398360377
 30
0.0
 11
28.51396202968
 21
37.585370042529
 31
0.0
  0
LINE
  8
2
  6
CONTINUOUS
 62
2
 10
28.51396202968
 20
37.585370042529
 30
0.0
 11
28.5158298884513
 21
37.5416269866268
 31
0.0
  0
ARC
  8
2
  6
CONTINUOUS
 62
2
 10
36.4303509197926
 20
38.0298826369172
 30
0.0
 40
7.92956724768666
 50
183.53016686403
 51
188.322083581177
  0
LINE
  8
2
  6
CONTINUOUS
 62
2
 10
28.5842814111048
 20
36.8821762282812
 30
0.0
 11
29.7487450866964
 21
36.8821762278204
 31
0.0
  0
ARC
  8
2
  6
CONTINUOUS
 62
2
 10
30.5283893093032
 20
40.1330953237316
 30
0.0
 40
3.34310036971733
 50
248.697075284706
 51
256.513871924262
  0
LINE
  8
2
  6
CONTINUOUS
 62
2
 10
29.3138449933868
 20
37.0184200297917
 30
0.0
 11
29.3138449933868
 21
40.8859860081542
 31
0.0
  0
LINE
  8
2
  6
CONTINUOUS
 62
2
 10
29.3138449933868
 20
40.8859860081542
 30
0.0
 11
7.02320212044359
 21
40.8859860081542
 31
0.0
  0
LINE
  8
2
  6
CONTINUOUS
 62
2
 10
7.02320212044359
 20
40.8859860081542
 30
0.0
 11
7.02320212044359
 21
40.7962953541466
 31
0.0
  0
LINE
  8
2
  6
CONTINUOUS
 62
2
 10
27.8547178288228
 20
36.8821762282812
 30
0.0
 11
27.4142498757736
 21
36.8821762282812
 31
0.0
  0
LINE
  8
2
  6
CONTINUOUS
 62
2
 10
27.4142498757736
 20
36.8821762282812
 30
0.0
 11
27.4442020706125
 21
36.8939415399837
 31
0.0
  0
ARC
  8
2
  6
CONTINUOUS
 62
2
 10
28.3168894224443
 20
36.4694855589291
 30
0.0
 40
0.845692108381958
 50
126.389611776464
 51
133.154979916987
  0
LINE
  8
2
  6
CONTINUOUS
 62
2
 10
27.8151631767714
 20
37.1502688699632
 30
0.0
 11
27.8176023803145
 21
37.1337613951737
 31
0.0
  0
LINE
  8
2
  6
CONTINUOUS
 62
2
 10
27.8176023803145
 20
37.1337613951737
 30
0.0
 11
27.8200943233938
 21
37.117289080075
 31
0.0
  0
LINE
  8
2
  6
CONTINUOUS
 62
2
 10
27.8200943233938
 20
37.117289080075
 30
0.0
 11
27.8225335269369
 21
37.1007816052855
 31
0.0
  0
LINE
  8
2
  6
CONTINUOUS
 62
2
 10
27.8225335269369
 20
37.1007816052855
 30
0.0
 11
27.8250254700161
 21
37.0842741304961
 31
0.0
  0
LINE
  8
2
  6
CONTINUOUS
 62
2
 10
27.8250254700161
 20
37.0842741304961
 30
0.0
 11
27.8274646735594
 21
37.0677183111318
 31
0.0
  0
LINE
  8
2
  6
CONTINUOUS
 62
2
 10
27.8274646735594
 20
37.0677183111318
 30
0.0
 11
27.8299566166386
 21
37.0511405169609
 31
0.0
  0
LINE
  8
2
  6
CONTINUOUS
 62
2
 10
27.8299566166386
 20
37.0511405169609
 30
0.0
 11
27.8324485597179
 21
37.0345143782153
 31
0.0
  0
LINE
  8
2
  6
CONTINUOUS
 62
2
 10
27.8324485597179
 20
37.0345143782153
 30
0.0
 11
27.834940502797
 21
37.017866264663
 31
0.0
  0
LINE
  8
2
  6
CONTINUOUS
 62
2
 10
27.834940502797
 20
37.017866264663
 30
0.0
 11
27.8373797063403
 21
37.0011346468453
 31
0.0
  0
LINE
  8
2
  6
CONTINUOUS
 62
2
 10
27.8373797063403
 20
37.0011346468453
 30
0.0
 11
27.8398716494195
 21
36.9843678693368
 31
0.0
  0
LINE
  8
2
  6
CONTINUOUS
 62
2
 10
27.8398716494195
 20
36.9843678693368
 30
0.0
 11
27.8423108529626
 21
36.9675307724468
 31
0.0
  0
LINE
  8
2
  6
CONTINUOUS
 62
2
 10
27.8423108529626
 20
36.9675307724468
 30
0.0
 11
27.8448027960419
 21
36.9506277511369
 31
0.0
  0
LINE
  8
2
  6
CONTINUOUS
 62
2
 10
27.8448027960419
 20
36.9506277511369
 30
0.0
 11
27.847241999585
 21
36.9336368306001
 31
0.0
  0
LINE
  8
2
  6
CONTINUOUS
 62
2
 10
27.847241999585
 20
36.9336368306001
 30
0.0
 11
27.8497339426643
 21
36.9165580108367
 31
0.0
  0
LINE
  8
2
  6
CONTINUOUS
 62
2
 10
27.8497339426643
 20
36.9165580108367
 30
0.0
 11
27.8522258857435
 21
36.8994088716917
 31
0.0
  0
LINE
  8
2
  6
CONTINUOUS
 62
2
 10
27.8522258857435
 20
36.8994088716917
 30
0.0
 11
27.8547178288228
 21
36.8821762282812
 31
0.0
  0
LINE
  8
2
  6
CONTINUOUS
 62
2
 10
27.6540702639507
 20
37.4849275961998
 30
0.0
 11
27.696499220617
 21
37.5106556997651
 31
0.0
  0
LINE
  8
2
  6
CONTINUOUS
 62
2
 10
27.696499220617
 20
37.5106556997651
 30
0.0
 11
27.6985494700817
 21
37.5131212730763
 31
0.0
  0
LINE
  8
2
  6
CONTINUOUS
 62
2
 10
27.6985494700817
 20
37.5131212730763
 30
0.0
 11
27.7005997195464
 21
37.5155868463875
 31
0.0
  0
LINE
  8
2
  6
CONTINUOUS
 62
2
 10
27.7005997195464
 20
37.5155868463875
 30
0.0
 11
27.7047177983211
 21
37.52051799301
 31
0.0
  0
LINE
  8
2
  6
CONTINUOUS
 62
2
 10
27.7047177983211
 20
37.52051799301
 30
0.0
 11
27.7088534569412
 21
37.5254315597871
 31
0.0
  0
LINE
  8
2
  6
CONTINUOUS
 62
2
 10
27.7088534569412
 20
37.5254315597871
 30
0.0
 11
27.7130242752518
 21
37.5303627064094
 31
0.0
  0
LINE
  8
2
  6
CONTINUOUS
 62
2
 10
27.7130242752518
 20
37.5303627064094
 30
0.0
 11
27.717212673408
 21
37.5352103487664
 31
0.0
  0
LINE
  8
2
  6
CONTINUOUS
 62
2
 10
27.717212673408
 20
37.5352103487664
 30
0.0
 11
27.7214318362934
 21
37.5400711760074
 31
0.0
  0
LINE
  8
2
  6
CONTINUOUS
 62
2
 10
27.7214318362934
 20
37.5400711760074
 30
0.0
 11
27.7256729739856
 21
37.5448660788283
 31
0.0
  0
LINE
  8
2
  6
CONTINUOUS
 62
2
 10
27.7256729739856
 20
37.5448660788283
 30
0.0
 11
27.7299976159433
 21
37.5496565866879
 31
0.0
  0
LINE
  8
2
  6
CONTINUOUS
 62
2
 10
27.7299976159433
 20
37.5496565866879
 30
0.0
 11
27.7343222579009
 21
37.5543460104366
 31
0.0
  0
LINE
  8
2
  6
CONTINUOUS
 62
2
 10
27.7343222579009
 20
37.5543460104366
 30
0.0
 11
27.7387347990854
 21
37.5590002744947
 31
0.0
  0
LINE
  8
2
  6
CONTINUOUS
 62
2
 10
27.7387347990854
 20
37.5590002744947
 30
0.0
 11
27.7432000798058
 21
37.5635842191713
 31
0.0
  0
LINE
  8
2
  6
CONTINUOUS
 62
2
 10
27.7432000798058
 20
37.5635842191713
 30
0.0
 11
27.747766444637
 21
37.5681198192732
 31
0.0
  0
LINE
  8
2
  6
CONTINUOUS
 62
2
 10
27.747766444637
 20
37.5681198192732
 30
0.0
 11
27.7523899439657
 21
37.5725499403029
 31
0.0
  0
LINE
  8
2
  6
CONTINUOUS
 62
2
 10
27.7523899439657
 20
37.5725499403029
 30
0.0
 11
27.7571101324438
 21
37.5769097419513
 31
0.0
  0
LINE
  8
2
  6
CONTINUOUS
 62
2
 10
27.7571101324438
 20
37.5769097419513
 30
0.0
 11
27.7618874554194
 21
37.5811640645275
 31
0.0
  0
LINE
  8
2
  6
CONTINUOUS
 62
2
 10
27.7618874554194
 20
37.5811640645275
 30
0.0
 11
27.7668186020419
 21
37.585370042529
 31
0.0
  0
LINE
  8
2
  6
CONTINUOUS
 62
2
 10
27.7668186020419
 20
37.585370042529
 30
0.0
 11
27.7668186010114
 21
38.0732107512073
 31
0.0
  0
ARC
  8
2
  6
CONTINUOUS
 62
2
 10
27.7220787854537
 20
36.1600514565462
 30
0.0
 40
1.91368235029852
 50
88.6603648304472
 51
102.078164546475
  0
LINE
  8
2
  6
CONTINUOUS
 62
2
 10
27.3216485730483
 20
38.0313707192155
 30
0.0
 11
27.281228113046
 21
38.0194691637313
 31
0.0
  0
ARC
  8
2
  6
CONTINUOUS
 62
2
 10
27.6305841713179
 20
36.9732791326816
 30
0.0
 40
1.10297925480003
 50
108.465800881149
 51
120.932335462121
  0
LINE
  8
2
  6
CONTINUOUS
 62
2
 10
27.0636247877941
 20
37.9193871042966
 30
0.0
 11
27.0434343354025
 21
37.8908901749742
 31
0.0
  0
LINE
  8
2
  6
CONTINUOUS
 62
2
 10
27.0103314865968
 20
37.8399130184026
 30
0.0
 11
26.9971290227343
 21
37.8167823368752
 31
0.0
  0
LINE
  8
2
  6
CONTINUOUS
 62
2
 10
26.9971290227343
 20
37.8167823368752
 30
0.0
 11
26.9859702158944
 21
37.7946844712624
 31
0.0
  0
LINE
  8
2
  6
CONTINUOUS
 62
2
 10
26.9859702158944
 20
37.7946844712624
 30
0.0
 11
26.9767627718891
 21
37.7733513289228
 31
0.0
  0
LINE
  8
2
  6
CONTINUOUS
 62
2
 10
26.9767627718891
 20
37.7733513289228
 30
0.0
 11
26.9693572620329
 21
37.7523961532581
 31
0.0
  0
LINE
  8
2
  6
CONTINUOUS
 62
2
 10
26.9693572620329
 20
37.7523961532581
 30
0.0
 11
26.9636306274081
 21
37.7314937171297
 31
0.0
  0
LINE
  8
2
  6
CONTINUOUS
 62
2
 10
26.9636306274081
 20
37.7314937171297
 30
0.0
 11
26.9594070695612
 21
37.7102484740166
 31
0.0
  0
LINE
  8
2
  6
CONTINUOUS
 62
2
 10
26.9566382439177
 20
37.6883747514322
 30
0.0
 11
26.9551527469851
 21
37.6654813978172
 31
0.0
  0
LINE
  8
2
  6
CONTINUOUS
 62
2
 10
26.9551527469851
 20
37.6654813978172
 30
0.0
 11
26.95484070473
 21
37.6412607658776
 31
0.0
  0
LINE
  8
2
  6
CONTINUOUS
 62
2
 10
26.95484070473
 20
37.6412607658776
 30
0.0
 11
26.9555175287762
 21
37.6153041242092
 31
0.0
  0
LINE
  8
2
  6
CONTINUOUS
 62
2
 10
26.9555175287762
 20
37.6153041242092
 30
0.0
 11
26.9571260846263
 21
37.5873258003248
 31
0.0
  0
LINE
  8
2
  6
CONTINUOUS
 62
2
 10
26.9571260846263
 20
37.5873258003248
 30
0.0
 11
26.959494968788
 21
37.556943432588
 31
0.0
  0
LINE
  8
2
  6
CONTINUOUS
 62
2
 10
26.959494968788
 20
37.556943432588
 30
0.0
 11
26.962540677358
 21
37.5238405831227
 31
0.0
  0
ARC
  8
2
  6
CONTINUOUS
 62
2
 10
27.8629469592447
 20
38.0574545252554
 30
0.0
 40
1.04664956489721
 50
210.652544619595
 51
216.727590499261
  0
LINE
  8
2
  6
CONTINUOUS
 62
2
 10
27.0240701357427
 20
37.4315463956623
 30
0.0
 11
27.0711006170318
 21
37.4062489981947
 31
0.0
  0
LINE
  8
2
  6
CONTINUOUS
 62
2
 10
27.0711006170318
 20
37.4062489981947
 30
0.0
 11
27.1167642653445
 21
37.3862651089861
 31
0.0
  0
LINE
  8
2
  6
CONTINUOUS
 62
2
 10
27.1167642653445
 20
37.3862651089861
 30
0.0
 11
27.1611621647916
 21
37.3712826857813
 31
0.0
  0
LINE
  8
2
  6
CONTINUOUS
 62
2
 10
27.1611621647916
 20
37.3712826857813
 30
0.0
 11
27.2045228533626
 21
37.3610731905906
 31
0.0
  0
LINE
  8
2
  6
CONTINUOUS
 62
2
 10
27.2045228533626
 20
37.3610731905906
 30
0.0
 11
27.2469166504392
 21
37.3553113962751
 31
0.0
  0
LINE
  8
2
  6
CONTINUOUS
 62
2
 10
27.2469166504392
 20
37.3553113962751
 30
0.0
 11
27.2885633040879
 21
37.3538039245358
 31
0.0
  0
LINE
  8
2
  6
CONTINUOUS
 62
2
 10
27.2885633040879
 20
37.3538039245358
 30
0.0
 11
27.3295902683406
 21
37.3562079683658
 31
0.0
  0
LINE
  8
2
  6
CONTINUOUS
 62
2
 10
19.4643718507886
 20
36.8821762282812
 30
0.0
 11
19.4730958499128
 21
36.8854460797846
 31
0.0
  0
ARC
  8
2
  6
CONTINUOUS
 62
2
 10
18.9637658453902
 20
38.0303332673363
 30
0.0
 40
1.25306972101593
 50
293.983015270675
 51
316.568754983697
  0
LINE
  8
2
  6
CONTINUOUS
 62
2
 10
19.8737449196755
 20
37.16886834635
 30
0.0
 11
19.8978293078135
 21
37.1923857844752
 31
0.0
  0
LINE
  8
2
  6
CONTINUOUS
 62
2
 10
19.8978293078135
 20
37.1923857844752
 30
0.0
 11
19.9218126118408
 21
37.2161932900488
 31
0.0
  0
LINE
  8
2
  6
CONTINUOUS
 62
2
 10
19.9218126118408
 20
37.2161932900488
 30
0.0
 11
19.9259131107701
 21
37.195532576794
 31
0.0
  0
LINE
  8
2
  6
CONTINUOUS
 62
2
 10
19.9259131107701
 20
37.195532576794
 30
0.0
 11
19.9300311895448
 21
37.1747707794283
 31
0.0
  0
LINE
  8
2
  6
CONTINUOUS
 62
2
 10
19.9300311895448
 20
37.1747707794283
 30
0.0
 11
19.9341668481648
 21
37.1539210828359
 31
0.0
  0
LINE
  8
2
  6
CONTINUOUS
 62
2
 10
19.9341668481648
 20
37.1539210828359
 30
0.0
 11
19.9383376664756
 21
37.1330186467074
 31
0.0
  0
LINE
  8
2
  6
CONTINUOUS
 62
2
 10
19.9383376664756
 20
37.1330186467074
 30
0.0
 11
19.9425260646317
 21
37.1119931516614
 31
0.0
  0
LINE
  8
2
  6
CONTINUOUS
 62
2
 10
19.9425260646317
 20
37.1119931516614
 30
0.0
 11
19.9467452275172
 21
37.090936891886
 31
0.0
  0
LINE
  8
2
  6
CONTINUOUS
 62
2
 10
19.9467452275172
 20
37.090936891886
 30
0.0
 11
19.9509863652094
 21
37.0697927328839
 31
0.0
  0
LINE
  8
2
  6
CONTINUOUS
 62
2
 10
19.9509863652094
 20
37.0697927328839
 30
0.0
 11
19.955311007167
 21
37.0486309940364
 31
0.0
  0
LINE
  8
2
  6
CONTINUOUS
 62
2
 10
19.955311007167
 20
37.0486309940364
 30
0.0
 11
19.9596356491246
 21
37.027368171078
 31
0.0
  0
LINE
  8
2
  6
CONTINUOUS
 62
2
 10
19.9596356491246
 20
37.027368171078
 30
0.0
 11
19.964048190309
 21
37.006083373313
 31
0.0
  0
LINE
  8
2
  6
CONTINUOUS
 62
2
 10
19.9730798358608
 20
36.9634126936722
 30
0.0
 11
19.9753915855251
 21
36.952702172889
 31
0.0
  0
LINE
  8
2
  6
CONTINUOUS
 62
2
 10
19.9777033351894
 20
36.9419916521057
 30
0.0
 11
19.9824235236676
 21
36.9206057702299
 31
0.0
  0
LINE
  8
2
  6
CONTINUOUS
 62
2
 10
19.9824235236676
 20
36.9206057702299
 30
0.0
 11
19.9872008466431
 21
36.899167148818
 31
0.0
  0
LINE
  8
2
  6
CONTINUOUS
 62
2
 10
19.9872008466431
 20
36.899167148818
 30
0.0
 11
19.9911186051392
 21
36.8821762282812
 31
0.0
  0
LINE
  8
2
  6
CONTINUOUS
 62
2
 10
9.72112492375517
 20
36.8821762282812
 30
0.0
 11
8.79818304255502
 21
36.8821762282812
 31
0.0
  0
LINE
  8
2
  6
CONTINUOUS
 62
2
 10
8.79818304255502
 20
36.8821762282812
 30
0.0
 11
8.79823578186338
 21
36.9966340567405
 31
0.0
  0
ARC
  8
2
  6
CONTINUOUS
 62
2
 10
286.614118678122
 20
36.4314359360714
 30
0.0
 40
277.816457824844
 50
179.530879995492
 51
179.8834356701
  0
LINE
  8
2
  6
CONTINUOUS
 62
2
 10
8.80697296523315
 20
38.7060851839862
 30
0.0
 11
8.82341012039438
 21
38.7325076912018
 31
0.0
  0
ARC
  8
2
  6
CONTINUOUS
 62
2
 10
9.46426355020797
 20
38.2510814337874
 30
0.0
 40
0.801538745059709
 50
117.136951784847
 51
143.08514373882
  0
LINE
  8
2
  6
CONTINUOUS
 62
2
 10
9.09866654930577
 20
38.9643858518048
 30
0.0
 11
9.12460562575367
 21
38.979526502036
 31
0.0
  0
ARC
  8
2
  6
CONTINUOUS
 62
2
 10
-2.61021594060629
 20
59.3288329674561
 30
0.0
 40
23.4904301965267
 50
299.970731520292
 51
300.115966059183
  0
LINE
  8
2
  6
CONTINUOUS
 62
2
 10
9.17614971771318
 20
39.0093375163805
 30
0.0
 11
9.19431848683973
 21
39.0109460720752
 31
0.0
  0
ARC
  8
2
  6
CONTINUOUS
 62
2
 10
9.45950493517526
 20
37.0607162508894
 30
0.0
 40
1.96817687412059
 50
89.5073839928561
 51
97.7434180538321
  0
LINE
  8
2
  6
CONTINUOUS
 62
2
 10
9.47642666128098
 20
39.0288203799966
 30
0.0
 11
9.48795024991196
 21
39.0238364938381
 31
0.0
  0
LINE
  8
2
  6
CONTINUOUS
 62
2
 10
9.48795024991196
 20
39.0238364938381
 30
0.0
 11
9.49371204422746
 21
39.0213972902949
 31
0.0
  0
LINE
  8
2
  6
CONTINUOUS
 62
2
 10
9.49371204422746
 20
39.0213972902949
 30
0.0
 11
9.49947383854294
 21
39.0189053472156
 31
0.0
  0
LINE
  8
2
  6
CONTINUOUS
 62
2
 10
9.49947383854294
 20
39.0189053472156
 30
0.0
 11
9.50523563285845
 21
39.0164661436725
 31
0.0
  0
LINE
  8
2
  6
CONTINUOUS
 62
2
 10
9.50523563285845
 20
39.0164661436725
 30
0.0
 11
9.51099742717393
 21
39.0139742005932
 31
0.0
  0
LINE
  8
2
  6
CONTINUOUS
 62
2
 10
9.51099742717393
 20
39.0139742005932
 30
0.0
 11
9.51675922148942
 21
39.0115349970501
 31
0.0
  0
LINE
  8
2
  6
CONTINUOUS
 62
2
 10
9.51675922148942
 20
39.0115349970501
 30
0.0
 11
9.52257375534098
 21
39.0090430539709
 31
0.0
  0
LINE
  8
2
  6
CONTINUOUS
 62
2
 10
9.52257375534098
 20
39.0090430539709
 30
0.0
 11
9.53409734397197
 21
39.0040591678124
 31
0.0
  0
LINE
  8
2
  6
CONTINUOUS
 62
2
 10
9.53409734397197
 20
39.0040591678124
 30
0.0
 11
9.53985913828745
 21
39.0016199642692
 31
0.0
  0
LINE
  8
2
  6
CONTINUOUS
 62
2
 10
9.53985913828745
 20
39.0016199642692
 30
0.0
 11
9.54562093260295
 21
38.99912802119
 31
0.0
  0
LINE
  8
2
  6
CONTINUOUS
 62
2
 10
9.54562093260295
 20
38.99912802119
 30
0.0
 11
9.55138272691845
 21
38.9966888176468
 31
0.0
  0
LINE
  8
2
  6
CONTINUOUS
 62
2
 10
9.55138272691845
 20
38.9966888176468
 30
0.0
 11
9.55714452123394
 21
38.9941968745676
 31
0.0
  0
LINE
  8
2
  6
CONTINUOUS
 62
2
 10
9.55714452123394
 20
38.9941968745676
 30
0.0
 11
9.56290631554943
 21
38.9917576710244
 31
0.0
  0
LINE
  8
2
  6
CONTINUOUS
 62
2
 10
9.56290631554943
 20
38.9917576710244
 30
0.0
 11
9.581800254346
 21
38.9746129268408
 31
0.0
  0
LINE
  8
2
  6
CONTINUOUS
 62
2
 10
9.581800254346
 20
38.9746129268408
 30
0.0
 11
9.5988966539549
 21
38.9577934097962
 31
0.0
  0
LINE
  8
2
  6
CONTINUOUS
 62
2
 10
9.5988966539549
 20
38.9577934097962
 30
0.0
 11
9.61434933802299
 21
38.9411277163986
 31
0.0
  0
LINE
  8
2
  6
CONTINUOUS
 62
2
 10
9.61434933802299
 20
38.9411277163986
 30
0.0
 11
9.62822423097036
 21
38.9245191574983
 31
0.0
  0
LINE
  8
2
  6
CONTINUOUS
 62
2
 10
9.62822423097036
 20
38.9245191574983
 30
0.0
 11
9.64064878667586
 21
38.9078051195259
 31
0.0
  0
LINE
  8
2
  6
CONTINUOUS
 62
2
 10
9.64064878667586
 20
38.9078051195259
 30
0.0
 11
9.65170650940489
 21
38.8909152830999
 31
0.0
  0
LINE
  8
2
  6
CONTINUOUS
 62
2
 10
9.65170650940489
 20
38.8909152830999
 30
0.0
 11
9.66148090342293
 21
38.8736826396895
 31
0.0
  0
LINE
  8
2
  6
CONTINUOUS
 62
2
 10
9.66148090342293
 20
38.8736826396895
 30
0.0
 11
9.67004668307275
 21
38.8560500547973
 31
0.0
  0
LINE
  8
2
  6
CONTINUOUS
 62
2
 10
9.67004668307275
 20
38.8560500547973
 30
0.0
 11
9.67757085662287
 21
38.8377977806787
 31
0.0
  0
ARC
  8
2
  6
CONTINUOUS
 62
2
 10
8.99336178515707
 20
38.622751378517
 30
0.0
 40
0.717207786181091
 50
355.941107806268
 51
17.4478945587766
  0
LINE
  8
2
  6
CONTINUOUS
 62
2
 10
9.7087706874311
 20
38.5719861236092
 30
0.0
 11
9.70960133512417
 21
38.4597607858166
 31
0.0
  0
LINE
  8
2
  6
CONTINUOUS
 62
2
 10
9.70960133512417
 20
38.4597607858166
 30
0.0
 11
9.71126263051032
 21
38.2350639923964
 31
0.0
  0
LINE
  8
2
  6
CONTINUOUS
 62
2
 10
9.71126263051032
 20
38.2350639923964
 30
0.0
 11
9.71209327820341
 21
38.1225749569235
 31
0.0
  0
LINE
  8
2
  6
CONTINUOUS
 62
2
 10
9.71209327820341
 20
38.1225749569235
 30
0.0
 11
9.71375457358957
 21
37.8974298774467
 31
0.0
  0
LINE
  8
2
  6
CONTINUOUS
 62
2
 10
9.71536312943967
 20
37.6720606549417
 30
0.0
 11
9.72034701559815
 21
36.995025650584
 31
0.0
  0
LINE
  8
2
  6
CONTINUOUS
 62
2
 10
9.72034701559815
 20
36.995025650584
 30
0.0
 11
9.72086562103616
 21
36.9197927023822
 31
0.0
  0
LINE
  8
2
  6
CONTINUOUS
 62
2
 10
9.72086562103616
 20
36.9197927023822
 30
0.0
 11
9.72112492375517
 21
36.8821762282812
 31
0.0
  0
LINE
  8
2
  6
CONTINUOUS
 62
2
 10
35.25583272378
 20
38.5698413824758
 30
0.0
 11
35.756858316514
 21
38.5698413831548
 31
0.0
  0
LINE
  8
2
  6
CONTINUOUS
 62
2
 10
30.056593459686
 20
38.8643037921919
 30
0.0
 11
30.056593459686
 21
38.1567150166052
 31
0.0
  0
LINE
  8
2
  6
CONTINUOUS
 62
2
 10
26.9580226567395
 20
37.6993116127244
 30
0.0
 11
26.9566382439177
 21
37.6883747514322
 31
0.0
  0
LINE
  8
2
  6
CONTINUOUS
 62
2
 10
27.7306810324316
 20
37.0798549968696
 30
0.0
 11
27.738457916521
 21
37.0864232665908
 31
0.0
  0
LINE
  8
2
  6
CONTINUOUS
 62
2
 10
19.9911186051392
 20
36.8821762282812
 30
0.0
 11
19.7277452279639
 21
36.8821762282812
 31
0.0
  0
LINE
  8
2
  6
CONTINUOUS
 62
2
 10
9.71382529251294
 20
37.8871896175267
 30
0.0
 11
9.71453248174658
 21
37.784787018327
 31
0.0
  0
LINE
  8
2
  6
CONTINUOUS
 62
2
 10
35.12812031781
 20
38.5698413824758
 30
0.0
 11
35.25583272378
 21
38.5698413824758
 31
0.0
  0
LINE
  8
2
  6
CONTINUOUS
 62
2
 10
34.7548071311286
 20
38.5698413824758
 30
0.0
 11
35.12812031781
 21
38.5698413824758
 31
0.0
  0
LINE
  8
2
  6
CONTINUOUS
 62
2
 10
31.2915775959585
 20
40.8859860081542
 30
0.0
 11
32.5397466162483
 21
40.8859860081542
 31
0.0
  0
LINE
  8
2
  6
CONTINUOUS
 62
2
 10
30.0434085756688
 20
40.8859860081542
 30
0.0
 11
31.2915775959585
 21
40.8859860081542
 31
0.0
  0
LINE
  8
2
  6
CONTINUOUS
 62
2
 10
30.3527699043244
 20
39.0457629559586
 30
0.0
 11
30.3265122078042
 21
39.0367994323076
 31
0.0
  0
LINE
  8
2
  6
CONTINUOUS
 62
2
 10
26.9587148631504
 20
37.7047800433706
 30
0.0
 11
26.9580226567395
 21
37.6993116127244
 31
0.0
  0
LINE
  8
2
  6
CONTINUOUS
 62
2
 10
26.9594070695612
 20
37.7102484740166
 30
0.0
 11
26.9587148631504
 21
37.7047800433706
 31
0.0
  0
LINE
  8
2
  6
CONTINUOUS
 62
2
 10
27.7267925903867
 20
37.076570862009
 30
0.0
 11
27.7306810324316
 21
37.0798549968696
 31
0.0
  0
LINE
  8
2
  6
CONTINUOUS
 62
2
 10
27.7229041487929
 20
37.0732867276225
 30
0.0
 11
27.7267925903867
 21
37.076570862009
 31
0.0
  0
LINE
  8
2
  6
CONTINUOUS
 62
2
 10
19.9662808306693
 20
36.9954168021432
 30
0.0
 11
19.9685134710295
 21
36.9847502309733
 31
0.0
  0
LINE
  8
2
  6
CONTINUOUS
 62
2
 10
19.964048190309
 20
37.006083373313
 30
0.0
 11
19.9662808306693
 21
36.9954168021432
 31
0.0
  0
LINE
  8
2
  6
CONTINUOUS
 62
2
 10
9.71378993305125
 20
37.8923097474868
 30
0.0
 11
9.71382529251294
 21
37.8871896175267
 31
0.0
  0
LINE
  8
2
  6
CONTINUOUS
 62
2
 10
9.71375457358957
 20
37.8974298774467
 30
0.0
 11
9.71378993305125
 21
37.8923097474868
 31
0.0
  0
LINE
  8
2
  6
CONTINUOUS
 62
2
 10
9.71453248174658
 20
37.784787018327
 30
0.0
 11
9.71475902202652
 21
37.7540434646764
 31
0.0
  0
LINE
  8
2
  6
CONTINUOUS
 62
2
 10
19.7277452279639
 20
36.8821762282812
 30
0.0
 11
19.6009358241388
 21
36.8821762282812
 31
0.0
  0
LINE
  8
2
  6
CONTINUOUS
 62
2
 10
19.6009358241388
 20
36.8821762282812
 30
0.0
 11
19.4643718507886
 21
36.8821762282812
 31
0.0
  0
LINE
  8
2
  6
CONTINUOUS
 62
2
 10
27.0257314311288
 20
37.8645204069399
 30
0.0
 11
27.0180314588628
 21
37.8522167126712
 31
0.0
  0
LINE
  8
2
  6
CONTINUOUS
 62
2
 10
27.0180314588628
 20
37.8522167126712
 30
0.0
 11
27.0103314865968
 21
37.8399130184026
 31
0.0
  0
LINE
  8
2
  6
CONTINUOUS
 62
2
 10
30.056593459686
 20
38.1567150166052
 30
0.0
 11
30.056593459686
 21
37.9601625789423
 31
0.0
  0
LINE
  8
2
  6
CONTINUOUS
 62
2
 10
30.056593459686
 20
37.9601625789423
 30
0.0
 11
30.056593459686
 21
37.4491262410185
 31
0.0
  0
LINE
  8
2
  6
CONTINUOUS
 62
2
 10
32.5397466162483
 20
40.8859860081542
 30
0.0
 11
32.5397466162483
 21
39.885033563186
 31
0.0
  0
LINE
  8
2
  6
CONTINUOUS
 62
2
 10
32.5397466162483
 20
39.885033563186
 30
0.0
 11
32.5397466162483
 21
38.8840811182177
 31
0.0
  0
ARC
  8
2
  6
CONTINUOUS
 62
2
 10
34.5248154945026
 20
38.4444135499609
 30
0.0
 40
1.23841094010279
 50
6.69930016063714
 51
14.6763932195632
  0
ARC
  8
2
  6
CONTINUOUS
 62
2
 10
34.524815532781
 20
38.444413553019
 30
0.0
 40
1.23841090172898
 50
5.81295652606577
 51
6.6993002267194
  0
LINE
  8
2
  6
CONTINUOUS
 62
2
 10
32.5397466162483
 20
37.8831286732495
 30
0.0
 11
32.5397466162483
 21
36.8821762282812
 31
0.0
  0
LINE
  8
2
  6
CONTINUOUS
 62
2
 10
32.5397466162483
 20
38.8840811182177
 30
0.0
 11
32.5397466162483
 21
37.8831286732495
 31
0.0
  0
LINE
  8
2
  6
CONTINUOUS
 62
2
 10
30.3265122078042
 20
39.0367994323076
 30
0.0
 11
30.3133833595441
 21
39.0323176704821
 31
0.0
  0
LINE
  8
2
  6
CONTINUOUS
 62
2
 10
27.0345828832656
 20
37.8777052909571
 30
0.0
 11
27.0257314311288
 21
37.8645204069399
 31
0.0
  0
LINE
  8
2
  6
CONTINUOUS
 62
2
 10
27.0434343354025
 20
37.8908901749742
 30
0.0
 11
27.0345828832656
 21
37.8777052909571
 31
0.0
  0
ARC
  8
2
  6
CONTINUOUS
 62
2
 10
27.0997562311772
 20
37.7354335581864
 30
0.0
 40
0.909258902873436
 50
307.591662662457
 51
313.262042407922
  0
ARC
  8
2
  6
CONTINUOUS
 62
2
 10
27.0997562569449
 20
37.7354335280256
 30
0.0
 40
0.90925886325558
 50
306.961620302433
 51
307.591662535247
  0
LINE
  8
2
  6
CONTINUOUS
 62
2
 10
19.9765474603572
 20
36.9473469124973
 30
0.0
 11
19.9777033351894
 21
36.9419916521057
 31
0.0
  0
LINE
  8
2
  6
CONTINUOUS
 62
2
 10
19.9753915855251
 20
36.952702172889
 30
0.0
 11
19.9765474603572
 21
36.9473469124973
 31
0.0
  0
LINE
  8
2
  6
CONTINUOUS
 62
2
 10
9.71475902202652
 20
37.7540434646764
 30
0.0
 11
9.71513658915973
 21
37.7028042085923
 31
0.0
  0
LINE
  8
2
  6
CONTINUOUS
 62
2
 10
2.00099046491451
 20
2.00148153142456
 30
0.0
 11
43.0009904649145
 21
2.00148153142456
 31
0.0
  0
LINE
  8
2
  6
CONTINUOUS
 62
2
 10
2.00099046491451
 20
43.0014815314246
 30
0.0
 11
43.0009904649145
 21
43.0014815314246
 31
0.0
  0
LINE
  8
2
  6
CONTINUOUS
 62
2
 10
2.00099046491451
 20
2.00148153142456
 30
0.0
 11
2.00099046491451
 21
43.0014815314246
 31
0.0
  0
LINE
  8
2
  6
CONTINUOUS
 62
2
 10
43.0009904649145
 20
2.00148153142456
 30
0.0
 11
43.0009904649145
 21
43.0014815314246
 31
0.0
  0
ARC
  8
2
  6
CONTINUOUS
 62
2
 10
34.5248154943074
 20
38.4444135501902
 30
0.0
 40
1.23841094022825
 50
15.5627368904017
 51
23.539829938009
  0
LINE
  8
2
  6
CONTINUOUS
 62
2
 10
32.5397466162483
 20
36.8821762282812
 30
0.0
 11
31.7303352713612
 21
36.882176228325
 31
0.0
  0
LINE
  8
2
  6
CONTINUOUS
 62
2
 10
31.7303352713612
 20
36.882176228325
 30
0.0
 11
30.9209239264742
 21
36.8821762283687
 31
0.0
  0
LINE
  8
2
  6
CONTINUOUS
 62
2
 10
30.3133833595441
 20
39.0323176704821
 30
0.0
 11
30.3068189354141
 21
39.0300767895694
 31
0.0
  0
ARC
  8
2
  6
CONTINUOUS
 62
2
 10
27.0997562284209
 20
37.7354335603674
 30
0.0
 40
0.909258906237704
 50
292.260635981125
 51
302.551325153659
  0
ARC
  8
2
  6
CONTINUOUS
 62
2
 10
27.1970367802772
 20
38.1636913493446
 30
0.0
 40
0.818290802682434
 50
279.322319739463
 51
296.564251928416
  0
LINE
  8
2
  6
CONTINUOUS
 62
2
 10
19.9685134710295
 20
36.9847502309733
 30
0.0
 11
19.9707966534451
 21
36.9740814623227
 31
0.0
  0
LINE
  8
2
  6
CONTINUOUS
 62
2
 10
9.7152498592997
 20
37.687432431767
 30
0.0
 11
9.71536312943967
 21
37.6720606549417
 31
0.0
  0
LINE
  8
9
  6
CONTINUOUS
 62
9
 10
43.0009904648743
 20
43.2999815314246
 30
0.0
 11
43.0009904649145
 21
43.0014815314246
 31
0.0
  0
LINE
  8
9
  6
CONTINUOUS
 62
9
 10
43.2994904649145
 20
43.0014815314782
 30
0.0
 11
43.0009904649145
 21
43.0014815314246
 31
0.0
  0
LINE
  8
9
  6
CONTINUOUS
 62
9
 10
38.8931435592146
 20
38.7871602093887
 30
0.0
 11
38.6311630308135
 21
38.9302282097895
 31
0.0
  0
LINE
  8
9
  6
CONTINUOUS
 62
9
 10
38.4998657500238
 20
38.6925871484023
 30
0.0
 11
38.6311630308135
 21
38.9302282097895
 31
0.0
  0
LINE
  8
9
  6
CONTINUOUS
 62
9
 10
35.5811864619023
 20
38.6695516519134
 30
0.0
 11
35.7203571295226
 21
38.7674334495017
 31
0.0
  0
LINE
  8
9
  6
CONTINUOUS
 62
9
 10
35.4244264581837
 20
38.792701864908
 30
0.0
 11
35.7203571295226
 21
38.7674334495017
 31
0.0
  0
LINE
  8
9
  6
CONTINUOUS
 62
9
 10
30.3225043317014
 20
40.2338326863237
 30
0.0
 11
30.0434085756688
 21
40.1322501385074
 31
0.0
  0
LINE
  8
9
  6
CONTINUOUS
 62
9
 10
30.3225043317561
 20
40.0306675908416
 30
0.0
 11
30.0434085756688
 21
40.1322501385074
 31
0.0
  0
LINE
  8
9
  6
CONTINUOUS
 62
9
 10
30.489837556947
 20
38.7976438884521
 30
0.0
 11
30.3035367233491
 21
39.028956349113
 31
0.0
  0
LINE
  8
9
  6
CONTINUOUS
 62
9
 10
30.2975666580022
 20
38.7320088564885
 30
0.0
 11
30.3035367233491
 21
39.028956349113
 31
0.0
  0
LINE
  8
9
  6
CONTINUOUS
 62
9
 10
25.6099405156993
 20
37.801936009577
 30
0.0
 11
25.6923968534827
 21
37.5150506625142
 31
0.0
  0
LINE
  8
9
  6
CONTINUOUS
 62
9
 10
25.9694686946757
 20
37.6261067061045
 30
0.0
 11
25.6923968534827
 21
37.5150506625142
 31
0.0
  0
LINE
  8
9
  6
CONTINUOUS
 62
9
 10
27.6705294559816
 20
36.9513685053487
 30
0.0
 11
27.6181152584535
 21
36.9884023196775
 31
0.0
  0
LINE
  8
9
  6
CONTINUOUS
 62
9
 10
27.6320797997631
 20
36.9353856033418
 30
0.0
 11
27.6181152584535
 21
36.9884023196775
 31
0.0
  0
LINE
  8
9
  6
CONTINUOUS
 62
9
 10
27.354099633227
 20
37.6379712978727
 30
0.0
 11
27.5723860002915
 21
37.4365649498842
 31
0.0
  0
LINE
  8
9
  6
CONTINUOUS
 62
9
 10
27.5346304467864
 20
37.7311629356814
 30
0.0
 11
27.5723860002915
 21
37.4365649498842
 31
0.0
  0
LINE
  8
9
  6
CONTINUOUS
 62
9
 10
19.9031597687705
 20
36.9256368006667
 30
0.0
 11
19.971938244653
 21
36.9687470779974
 31
0.0
  0
LINE
  8
9
  6
CONTINUOUS
 62
9
 10
19.8304782589433
 20
36.9884280065649
 30
0.0
 11
19.971938244653
 21
36.9687470779974
 31
0.0
  0
LINE
  8
9
  6
CONTINUOUS
 62
9
 10
9.43685355685294
 20
37.5914820108048
 30
0.0
 11
9.71519322422972
 21
37.6951183201797
 31
0.0
  0
LINE
  8
9
  6
CONTINUOUS
 62
9
 10
9.43535653315438
 20
37.7946415907462
 30
0.0
 11
9.71519322422972
 21
37.6951183201797
 31
0.0
  0
LINE
  8
0
  6
CONTINUOUS
 62
0
 10
2.00099046491451
 20
1.90148153142456
 30
0.0
 11
9.43685355685294
 21
37.5914820108048
 31
0.0
  0
LINE
  8
0
  6
CONTINUOUS
 62
0
 10
9.43535653315438
 20
37.7946415907462
 30
0.0
 11
19.9031597687705
 21
36.9256368006667
 31
0.0
  0
LINE
  8
0
  6
CONTINUOUS
 62
0
 10
19.8304782589433
 20
36.9884280065649
 30
0.0
 11
27.354099633227
 21
37.6379712978727
 31
0.0
  0
LINE
  8
0
  6
CONTINUOUS
 62
0
 10
27.5346304467864
 20
37.7311629356814
 30
0.0
 11
27.6705294559816
 21
36.9513685053487
 31
0.0
  0
LINE
  8
0
  6
CONTINUOUS
 62
0
 10
27.6320797997631
 20
36.9353856033418
 30
0.0
 11
25.6099405156993
 21
37.801936009577
 31
0.0
  0
LINE
  8
0
  6
CONTINUOUS
 62
0
 10
25.9694686946757
 20
37.6261067061045
 30
0.0
 11
30.489837556947
 21
38.7976438884521
 31
0.0
  0
LINE
  8
0
  6
CONTINUOUS
 62
0
 10
30.2975666580022
 20
38.7320088564885
 30
0.0
 11
30.3225043317014
 21
40.2338326863237
 31
0.0
  0
LINE
  8
0
  6
CONTINUOUS
 62
0
 10
30.3225043317561
 20
40.0306675908416
 30
0.0
 11
35.5811864619023
 21
38.6695516519134
 31
0.0
  0
LINE
  8
0
  6
CONTINUOUS
 62
0
 10
35.4244264581837
 20
38.792701864908
 30
0.0
 11
38.8931435592146
 21
38.7871602093887
 31
0.0
  0
LINE
  8
0
  6
CONTINUOUS
 62
0
 10
38.4998657500238
 20
38.6925871484023
 30
0.0
 11
43.0009904648743
 21
43.2999815314246
 31
0.0
  0
ARC
  8
2
  6
CONTINUOUS
 62
2
 10
34.5248155329222
 20
38.4444135603867
 30
0.0
 40
1.2384109002935
 50
15.1195650695719
 51
15.5627369152682
  0
ARC
  8
2
  6
CONTINUOUS
 62
2
 10
34.5248155329803
 20
38.444413560171
 30
0.0
 40
1.23841090029373
 50
14.6763932136306
 51
15.1195650799066
  0
LINE
  8
2
  6
CONTINUOUS
 62
2
 10
30.0434085756688
 20
39.3785142688607
 30
0.0
 11
30.0434085756688
 21
40.1322501385074
 31
0.0
  0
LINE
  8
2
  6
CONTINUOUS
 62
2
 10
30.0434085756688
 20
40.1322501385074
 30
0.0
 11
30.0434085756688
 21
40.8859860081542
 31
0.0
  0
LINE
  8
2
  6
CONTINUOUS
 62
2
 10
30.3068189354141
 20
39.0300767895694
 30
0.0
 11
30.3035367233491
 21
39.028956349113
 31
0.0
  0
LINE
  8
2
  6
CONTINUOUS
 62
2
 10
30.3035367233491
 20
39.028956349113
 30
0.0
 11
30.3002545112841
 21
39.0278359086566
 31
0.0
  0
ARC
  8
2
  6
CONTINUOUS
 62
2
 10
27.0997562312084
 20
37.7354335567479
 30
0.0
 40
0.909258901680636
 50
304.756472819167
 51
306.961620510021
  0
ARC
  8
2
  6
CONTINUOUS
 62
2
 10
27.0997562310741
 20
37.7354335566547
 30
0.0
 40
0.909258901680636
 50
302.551325138614
 51
304.756472829468
  0
ARC
  8
2
  6
CONTINUOUS
 62
2
 10
27.1970367811296
 20
38.1636913481564
 30
0.0
 40
0.818290801237423
 50
297.30319186448
 51
303.953651434689
  0
ARC
  8
2
  6
CONTINUOUS
 62
2
 10
27.1970367856456
 20
38.1636913390885
 30
0.0
 40
0.818290791108287
 50
296.564251913353
 51
297.303191874745
  0
LINE
  8
2
  6
CONTINUOUS
 62
2
 10
19.9707966534451
 20
36.9740814623227
 30
0.0
 11
19.971938244653
 21
36.9687470779974
 31
0.0
  0
LINE
  8
2
  6
CONTINUOUS
 62
2
 10
19.971938244653
 20
36.9687470779974
 30
0.0
 11
19.9730798358608
 21
36.9634126936722
 31
0.0
  0
LINE
  8
2
  6
CONTINUOUS
 62
2
 10
9.71513658915973
 20
37.7028042085923
 30
0.0
 11
9.71519322422972
 21
37.6951183201797
 31
0.0
  0
LINE
  8
2
  6
CONTINUOUS
 62
2
 10
9.71519322422972
 20
37.6951183201797
 30
0.0
 11
9.7152498592997
 21
37.687432431767
 31
0.0
  0
ENDSEC
  0
EOF
