0
SECTION
2
HEADER
9
$INSUNITS
70
4
9
$ACADVER
1
AC1014
9
$HANDSEED
5
FFFF
0
ENDSEC
0
SECTION
2
TABLES
0
TABLE
2
VPORT
5
8
100
AcDbSymbolTable
0
ENDTAB
0
TABLE
2
LTYPE
5
5
100
AcDbSymbolTable
0
LTYPE
5
14
100
AcDbSymbolTableRecord
100
AcDbLinetypeTableRecord
2
BYBLOCK
70
0
0
LTYPE
5
15
100
AcDbSymbolTableRecord
100
AcDbLinetypeTableRecord
2
BYLAYER
70
0
0
ENDTAB
0
TABLE
2
LAYER
5
2
100
AcDbSymbolTable
70
2
0
LAYER
5
50
100
AcDbSymbolTableRecord
100
AcDbLayerTableRecord
2
0
70
0
6
CONTINUOUS
0
ENDTAB
0
TABLE
2
STYLE
5
3
100
AcDbSymbolTable
70
1
0
STYLE
5
11
100
AcDbSymbolTableRecord
100
AcDbTextStyleTableRecord
2
STANDARD
70
0
0
ENDTAB
0
TABLE
2
VIEW
5
6
100
AcDbSymbolTable
70
0
0
ENDTAB
0
TABLE
2
UCS
5
7
100
AcDbSymbolTable
70
0
0
ENDTAB
0
TABLE
2
APPID
5
9
100
AcDbSymbolTable
70
2
0
APPID
5
12
100
AcDbSymbolTableRecord
100
AcDbRegAppTableRecord
2
ACAD
70
0
0
ENDTAB
0
TABLE
2
DIMSTYLE
5
A
100
AcDbSymbolTable
70
1
0
ENDTAB
0
TABLE
2
BLOCK_RECORD
5
1
100
AcDbSymbolTable
70
1
0
BLOCK_RECORD
5
1F
100
AcDbSymbolTableRecord
100
AcDbBlockTableRecord
2
*MODEL_SPACE
0
BLOCK_RECORD
5
1B
100
AcDbSymbolTableRecord
100
AcDbBlockTableRecord
2
*PAPER_SPACE
0
ENDTAB
0
ENDSEC
0
SECTION
2
BLOCKS
0
BLOCK
5
20
100
AcDbEntity
100
AcDbBlockBegin
2
*MODEL_SPACE
0
ENDBLK
5
21
100
AcDbEntity
100
AcDbBlockEnd
0
BLOCK
5
1C
100
AcDbEntity
100
AcDbBlockBegin
2
*PAPER_SPACE
0
ENDBLK
5
1D
100
AcDbEntity
100
AcDbBlockEnd
0
ENDSEC
0
SECTION
2
ENTITIES
0
LWPOLYLINE
5
100
100
AcDbEntity
8
0
100
AcDbPolyline
90
8
70
1
43
0.0
10
51.499999999999815
20
-40.000000000000014
42
0.41421356237309764
10
67.499999999999773
20
-24.000000000000021
10
67.499999999999801
20
23.999999999999979
42
0.41421356237309698
10
51.499999999999858
20
39.999999999999986
10
-51.499999999999851
20
39.999999999999993
42
0.41421356237309775
10
-67.499999999999829
20
23.999999999999986
10
-67.499999999999829
20
-24.000000000000018
42
0.41421356237309725
10
-51.499999999999879
20
-40.000000000000014
0
LWPOLYLINE
5
101
100
AcDbEntity
8
0
100
AcDbPolyline
90
4
70
1
43
0.0
10
34.49999999999968
20
-34.100000000000009
10
34.49999999999968
20
-31.100000000000012
10
54.499999999999631
20
-31.100000000000012
10
54.499999999999631
20
-34.100000000000009
0
LWPOLYLINE
5
102
100
AcDbEntity
8
0
100
AcDbPolyline
90
4
70
1
43
0.0
10
-10.000000000000169
20
-34.100000000000009
10
-10.000000000000169
20
-31.100000000000001
10
9.9999999999997673
20
-31.100000000000009
10
9.9999999999997673
20
-34.100000000000009
0
LWPOLYLINE
5
103
100
AcDbEntity
8
0
100
AcDbPolyline
90
4
70
1
43
0.0
10
-54.500000000000028
20
-34.100000000000001
10
-54.500000000000028
20
-31.100000000000001
10
-34.500000000000092
20
-31.100000000000001
10
-34.500000000000092
20
-34.100000000000001
0
LWPOLYLINE
5
104
100
AcDbEntity
8
0
100
AcDbPolyline
90
4
70
1
43
0.0
10
-57.000000000000227
20
-12.999999999999973
10
-60.000000000000206
20
-12.999999999999973
10
-60.000000000000206
20
13.000000000000032
10
-57.000000000000199
20
13.000000000000028
0
LWPOLYLINE
5
105
100
AcDbEntity
8
0
100
AcDbPolyline
90
4
70
1
43
0.0
10
54.499999999999631
20
31.099999999999998
10
34.499999999999687
20
31.099999999999994
10
34.499999999999687
20
34.099999999999994
10
54.499999999999631
20
34.099999999999994
0
LWPOLYLINE
5
106
100
AcDbEntity
8
0
100
AcDbPolyline
90
4
70
1
43
0.0
10
9.9999999999997691
20
31.099999999999991
10
-10.000000000000167
20
31.099999999999994
10
-10.000000000000169
20
34.099999999999994
10
9.9999999999997673
20
34.099999999999994
0
LWPOLYLINE
5
107
100
AcDbEntity
8
0
100
AcDbPolyline
90
4
70
1
43
0.0
10
-34.500000000000092
20
31.099999999999998
10
-54.500000000000028
20
31.099999999999994
10
-54.500000000000028
20
34.099999999999987
10
-34.500000000000092
20
34.099999999999994
0
LWPOLYLINE
5
108
100
AcDbEntity
8
0
100
AcDbPolyline
90
4
70
1
43
0.0
10
59.999999999999801
20
-13.000000000000018
10
56.999999999999815
20
-13.000000000000018
10
56.999999999999815
20
12.999999999999982
10
59.999999999999801
20
12.999999999999986
0
LWPOLYLINE
5
109
100
AcDbEntity
8
0
100
AcDbPolyline
90
8
70
1
43
0.0
10
46.999999999999844
20
-20.800000000000061
42
0.41421356237310264
10
48.799999999999827
20
-19.000000000000043
10
48.799999999999848
20
19.000000000000014
42
0.41421356237309215
10
46.999999999999872
20
20.800000000000001
10
-46.999999999999872
20
20.800000000000033
42
0.41421356237310658
10
-48.799999999999876
20
18.999999999999986
10
-48.799999999999869
20
-19.000000000000057
42
0.41421356237310336
10
-46.999999999999858
20
-20.800000000000054
0
CIRCLE
5
110
100
AcDbEntity
8
0
100
AcDbCircle
10
-46.45999999999988
20
-27.460000000000065
30
0
40
1.7500000000000073
210
-1.7972630606426032e-46
220
1.1014514924148565e-31
230
1
0
CIRCLE
5
111
100
AcDbEntity
8
0
100
AcDbCircle
10
-46.459999999999866
20
27.460000000000036
30
0
40
1.7500000000000073
210
-1.7972630606426032e-46
220
1.1014514924148565e-31
230
1
0
LWPOLYLINE
5
112
100
AcDbEntity
8
0
100
AcDbPolyline
90
4
70
1
43
0.0
10
42.19979170019414
20
-25.000000000000078
10
42.19979170019414
20
-31.000000000000082
10
-3.1450525314392763
20
-31.000000000000082
10
-3.1450525314392834
20
-25.000000000000085
0
CIRCLE
5
113
100
AcDbEntity
8
0
100
AcDbCircle
10
46.459999999999852
20
-27.460000000000075
30
0
40
1.7500000000000073
210
-1.7972630606426032e-46
220
1.1014514924148565e-31
230
1
0
CIRCLE
5
114
100
AcDbEntity
8
0
100
AcDbCircle
10
46.459999999999866
20
27.460000000000026
30
0
40
1.7500000000000073
210
-1.7972630606426032e-46
220
1.1014514924148565e-31
230
1
0
ENDSEC
0
SECTION
2
OBJECTS
0
DICTIONARY
5
C
100
AcDbDictionary
3
ACAD_GROUP
350
D
3
ACAD_MLINESTYLE
350
17
0
DICTIONARY
5
D
100
AcDbDictionary
0
DICTIONARY
5
1A
330
C
100
AcDbDictionary
0
DICTIONARY
5
17
100
AcDbDictionary
0
ENDSEC
0
EOF
