0
SECTION
2
HEADER
9
$ANGDIR
70
0
9
$CHAMFERA
40
10
9
$CHAMFERB
40
10
9
$CLAYER
8
Layer_1
9
$EXTMAX
10
395.352724683222220392054
20
228.083653182622811073088
9
$EXTMIN
10
24.8425706251599081042514
20
69.8825889347903057569056
9
$LIMMAX
10
420
20
297
9
$LIMMIN
10
0
20
0
9
$LTSCALE
40
10
9
$PLINEGEN
70
0
9
$TEXTSIZE
40
20
9
$GRIDUNIT
10
10
20
10
9
$SNAPUNIT
10
1
20
1
0
ENDSEC
0
SECTION
2
TABLES
0
TABLE
2
STYLE
70
1
0
STYLE
2
STANDARD
70
0
40
0
41
1
50
0
71
0
42
0.20000000000000001110223
3
txt
4

0
ENDTAB
0
TABLE
2
LTYPE
70
14
0
LTYPE
2
CONTINUOUS
70
0
3
Solid line
72
65
73
0
40
0
0
LTYPE
2
DOT
70
0
3
............................................
72
65
73
2
40
0.25
49
0
49
-0.25
0
LTYPE
2
HIDDEN
70
0
3
_ _ _ _ _ _ _ _ _ _ _ _ _ _ _ _ _ _ _ _ _ _ 
72
65
73
2
40
0.375
49
0.25
49
-0.125
0
LTYPE
2
TSLONGDASH
70
0
3
__ __ __ __ __ __ __ __ __ __ __ __ __ __ _ 
72
65
73
2
40
1.28000000000000002664535
49
1
49
-0.280000000000000026645353
0
LTYPE
2
TSDASHDOT
70
0
3
______ . ______ . ______ . ______ . ______ .
72
65
73
4
40
1.28000000000000002664535
49
1
49
-0.140000000000000013322676
49
0
49
-0.140000000000000013322676
0
LTYPE
2
TSCENTER
70
0
3
______ _ ______ _ ______ _ ______ _ ______ _
72
65
73
4
40
2
49
1.5
49
-0.179999999999999993338662
49
0.140000000000000013322676
49
-0.179999999999999993338662
0
LTYPE
2
TSPHANTOM
70
0
3
_____ _ _ _____ _ _ _____ _ _ _____ _ _ ____
72
65
73
6
40
2.5
49
1.62999999999999989341859
49
-0.190000000000000002220446
49
0.149999999999999994448885
49
-0.190000000000000002220446
49
0.149999999999999994448885
49
-0.190000000000000002220446
0
LTYPE
2
DASHED
70
0
3
__ __ __ __ __ __ __ __ __ __ __ __ __ __ __
72
65
73
2
40
0.75
49
0.5
49
-0.25
0
LTYPE
2
CENTER
70
0
3
____ _ ____ _ ____ _ ____ _ ____ _ ____ _ __
72
65
73
4
40
2
49
1.25
49
-0.25
49
0.25
49
-0.25
0
LTYPE
2
PHANTOM
70
0
3
_____ _ _ _____ _ _ _____ _ _ _____ _ _ ____
72
65
73
6
40
2.5
49
1.25
49
-0.25
49
0.25
49
-0.25
49
0.25
49
-0.25
0
LTYPE
2
DASHDOT
70
0
3
__ . __ . __ . __ . __ . __ . __ . __ . __ .
72
65
73
4
40
1
49
0.5
49
-0.25
49
0
49
-0.25
0
LTYPE
2
BORDER
70
0
3
__ __ . __ __ . __ __ . __ __ . __ __ . __ _
72
65
73
6
40
1.75
49
0.5
49
-0.25
49
0.5
49
-0.25
49
0
49
-0.25
0
LTYPE
2
DIVIDE
70
0
3
__ . . __ . . __ . . __ . . __ . . __ . . __
72
65
73
6
40
1.25
49
0.5
49
-0.25
49
0
49
-0.25
49
0
49
-0.25
0
ENDTAB
0
TABLE
2
LAYER
70
4
0
LAYER
2
Layer_1
70
0
62
7
6
CONTINUOUS
0
LAYER
2
Layer_2
70
0
62
7
6
CONTINUOUS
0
LAYER
2
Layer_3
70
0
62
7
6
CONTINUOUS
0
LAYER
2
0
70
0
62
7
6
CONTINUOUS
0
ENDTAB
0
ENDSEC
0
SECTION
2
ENTITIES
0
LINE
8
0
6
CONTINUOUS
62
7
10
40.6060955428496725971854
20
99.6122791866897614454501
11
40.6060955428496725971854
21
139.61227918668976144545
0
LINE
8
0
6
CONTINUOUS
62
7
10
40.6060955428496725971854
20
139.61227918668976144545
11
106.857374077349675189907
21
139.61227918668976144545
0
LINE
8
0
6
CONTINUOUS
62
7
10
106.857374077349675189907
20
139.61227918668976144545
11
106.857374077349675189907
21
99.6122791866897614454501
0
LINE
8
0
6
CONTINUOUS
62
7
10
106.857374077349675189907
20
99.6122791866897614454501
11
40.6060955428496725971854
21
99.6122791866897614454501
0
LINE
8
0
6
CONTINUOUS
62
7
10
194.245919077749675807354
20
139.61227918668976144545
11
194.245919077749675807354
21
99.6122791866897614454501
0
LINE
8
0
6
CONTINUOUS
62
7
10
194.245919077749675807354
20
99.6122791866897614454501
11
130.981092853149675647728
21
99.6122791866897614454501
0
LINE
8
0
6
CONTINUOUS
62
7
10
130.981092853149675647728
20
99.6122791866897614454501
11
130.981092853149675647728
21
139.61227918668976144545
0
LINE
8
0
6
CONTINUOUS
62
7
10
130.981092853149675647728
20
139.61227918668976144545
11
194.245919077749675807354
21
139.61227918668976144545
0
LINE
8
0
6
CONTINUOUS
62
7
10
280.857881008149661283824
20
139.61227918668976144545
11
280.857881008149661283824
21
99.6122791866897614454501
0
LINE
8
0
6
CONTINUOUS
62
7
10
280.857881008149661283824
20
99.6122791866897614454501
11
217.593283941649673352003
21
99.6122791866897614454501
0
LINE
8
0
6
CONTINUOUS
62
7
10
217.593283941649673352003
20
99.6122791866897614454501
11
217.593283941649673352003
21
139.61227918668976144545
0
LINE
8
0
6
CONTINUOUS
62
7
10
217.593283941649673352003
20
139.61227918668976144545
11
280.857881008149661283824
21
139.61227918668976144545
0
LINE
8
0
6
CONTINUOUS
62
7
10
304.981462494249683459202
20
99.6122791866897614454501
11
304.981462494249683459202
21
139.61227918668976144545
0
LINE
8
0
6
CONTINUOUS
62
7
10
304.981462494249683459202
20
139.61227918668976144545
11
371.232471025749646287295
21
139.61227918668976144545
0
LINE
8
0
6
CONTINUOUS
62
7
10
371.232471025749646287295
20
139.61227918668976144545
11
371.232471025749646287295
21
99.6122791866897614454501
0
LINE
8
0
6
CONTINUOUS
62
7
10
371.232471025749646287295
20
99.6122791866897614454501
11
304.981462494249683459202
21
99.6122791866897614454501
0
CIRCLE
8
0
6
CONTINUOUS
62
7
10
379.728872619549690625718
20
113.11227918668976144545
40
0.249999996527662915468682
0
CIRCLE
8
0
6
CONTINUOUS
62
7
10
379.728872619549690625718
20
145.11227918668976144545
40
0.249999996527662915468682
0
CIRCLE
8
0
6
CONTINUOUS
62
7
10
32.1100223946496754479085
20
153.11227918668976144545
40
0.249999996527733969742258
0
CIRCLE
8
0
6
CONTINUOUS
62
7
10
32.1100223946496754479085
20
121.11227918668976144545
40
0.249999996527733969742258
0
CIRCLE
8
0
6
CONTINUOUS
62
7
10
32.1100223946496754479085
20
97.1122791866897614454501
40
0.249999996527733969742258
0
CIRCLE
8
0
6
CONTINUOUS
62
7
10
32.1100223946496754479085
20
129.11227918668976144545
40
0.249999996527733969742258
0
CIRCLE
8
0
6
CONTINUOUS
62
7
10
32.1100223946496754479085
20
161.11227918668976144545
40
0.249999996527733969742258
0
CIRCLE
8
0
6
CONTINUOUS
62
7
10
379.728872619549690625718
20
137.11227918668976144545
40
0.249999996527662915468682
0
CIRCLE
8
0
6
CONTINUOUS
62
7
10
379.728872619549690625718
20
105.11227918668976144545
40
0.249999996527662915468682
0
LINE
8
0
6
CONTINUOUS
62
7
10
383.728872564049652282847
20
164.61227918668976144545
11
28.1100224501496711582149
21
164.61227918668976144545
0
LINE
8
0
6
CONTINUOUS
62
7
10
383.728872564049652282847
20
93.1122791866897614454501
11
383.728872564049652282847
21
164.61227918668976144545
0
LINE
8
0
6
CONTINUOUS
62
7
10
28.1100224501496711582149
20
93.1122791866897614454501
11
383.728872564049652282847
21
93.1122791866897614454501
0
LINE
8
0
6
CONTINUOUS
62
7
10
28.1100224501496711582149
20
164.61227918668976144545
11
28.1100224501496711582149
21
93.1122791866897614454501
0
CIRCLE
8
0
6
CONTINUOUS
62
7
10
379.728872619549690625718
20
121.11227918668976144545
40
0.249999996527662915468682
0
CIRCLE
8
0
6
CONTINUOUS
62
7
10
379.728872619549690625718
20
153.11227918668976144545
40
0.249999996527662915468682
0
CIRCLE
8
0
6
CONTINUOUS
62
7
10
32.1100223946496754479085
20
145.11227918668976144545
40
0.249999996527733969742258
0
CIRCLE
8
0
6
CONTINUOUS
62
7
10
32.1100223946496754479085
20
113.11227918668976144545
40
0.249999996527733969742258
0
CIRCLE
8
0
6
CONTINUOUS
62
7
10
32.1100223946496754479085
20
105.11227918668976144545
40
0.249999996527733969742258
0
CIRCLE
8
0
6
CONTINUOUS
62
7
10
32.1100223946496754479085
20
137.11227918668976144545
40
0.249999996527733969742258
0
CIRCLE
8
0
6
CONTINUOUS
62
7
10
379.728872619549690625718
20
161.11227918668976144545
40
0.249999996527662915468682
0
CIRCLE
8
0
6
CONTINUOUS
62
7
10
379.728872619549690625718
20
129.11227918668976144545
40
0.249999996527662915468682
0
CIRCLE
8
0
6
CONTINUOUS
62
7
10
379.728872619549690625718
20
97.1122791866897614454501
40
0.249999996527662915468682
0
CIRCLE
8
0
6
CONTINUOUS
62
7
10
28.8425705695599390310235
20
182.083653182622811073088
40
0.249999996527719758887542
0
CIRCLE
8
0
6
CONTINUOUS
62
7
10
28.8425705695599390310235
20
214.083653182622811073088
40
0.249999996527719758887542
0
CIRCLE
8
0
6
CONTINUOUS
62
7
10
389.02745790105990408847
20
206.083653182622811073088
40
0.249999996527776602306403
0
CIRCLE
8
0
6
CONTINUOUS
62
7
10
29.0274629010599483081023
20
170.583653182622811073088
40
0.249999996527719758887542
0
CIRCLE
8
0
6
CONTINUOUS
62
7
10
61.0274624566599186437088
20
170.583653182622811073088
40
0.249999996527776602306403
0
CIRCLE
8
0
6
CONTINUOUS
62
7
10
93.0274620121599014055391
20
170.583653182622811073088
40
0.249999996527776602306403
0
CIRCLE
8
0
6
CONTINUOUS
62
7
10
125.027461567759928584564
20
170.583653182622811073088
40
0.249999996527662915468682
0
CIRCLE
8
0
6
CONTINUOUS
62
7
10
157.027461123259939768104
20
170.583653182622811073088
40
0.249999996527748180596973
0
CIRCLE
8
0
6
CONTINUOUS
62
7
10
189.02746067885993852542
20
170.583653182622811073088
40
0.249999996527748180596973
0
CIRCLE
8
0
6
CONTINUOUS
62
7
10
221.02746023435992128725
20
170.583653182622811073088
40
0.249999996527748180596973
0
CIRCLE
8
0
6
CONTINUOUS
62
7
10
253.027459789959920044566
20
170.583653182622811073088
40
0.249999996527776602306403
0
CIRCLE
8
0
6
CONTINUOUS
62
7
10
285.027459345559918801882
20
170.583653182622811073088
40
0.249999996527833445725264
0
CIRCLE
8
0
6
CONTINUOUS
62
7
10
317.027458901059958407131
20
170.583653182622811073088
40
0.249999996527719758887542
0
CIRCLE
8
0
6
CONTINUOUS
62
7
10
349.027458456659928742738
20
170.583653182622811073088
40
0.249999996527776602306403
0
CIRCLE
8
0
6
CONTINUOUS
62
7
10
381.027458012159911504568
20
170.583653182622811073088
40
0.249999996527776602306403
0
CIRCLE
8
0
6
CONTINUOUS
62
7
10
373.027458123259918920667
20
170.583653182622811073088
40
0.249999996527776602306403
0
CIRCLE
8
0
6
CONTINUOUS
62
7
10
341.027458567759936158836
20
170.583653182622811073088
40
0.249999996527719758887542
0
CIRCLE
8
0
6
CONTINUOUS
62
7
10
309.027459012159908979811
20
170.583653182622811073088
40
0.249999996527776602306403
0
CIRCLE
8
0
6
CONTINUOUS
62
7
10
277.027459456659926217981
20
170.583653182622811073088
40
0.249999996527662915468682
0
CIRCLE
8
0
6
CONTINUOUS
62
7
10
245.027459901059927460665
20
170.583653182622811073088
40
0.249999996527748180596973
0
CIRCLE
8
0
6
CONTINUOUS
62
7
10
213.027460345559916277125
20
170.583653182622811073088
40
0.249999996527719758887542
0
CIRCLE
8
0
6
CONTINUOUS
62
7
10
181.027460789959917519809
20
170.583653182622811073088
40
0.249999996527776602306403
0
CIRCLE
8
0
6
CONTINUOUS
62
7
10
149.027461234359918762493
20
170.583653182622811073088
40
0.249999996527748180596973
0
CIRCLE
8
0
6
CONTINUOUS
62
7
10
117.027461678859936000663
20
170.583653182622811073088
40
0.249999996527719758887542
0
CIRCLE
8
0
6
CONTINUOUS
62
7
10
85.0274621232599088216375
20
170.583653182622811073088
40
0.249999996527719758887542
0
CIRCLE
8
0
6
CONTINUOUS
62
7
10
53.0274625677599260598072
20
170.583653182622811073088
40
0.249999996527776602306403
0
CIRCLE
8
0
6
CONTINUOUS
62
7
10
389.02745790105990408847
20
182.083653182622811073088
40
0.249999996527776602306403
0
CIRCLE
8
0
6
CONTINUOUS
62
7
10
389.02745790105990408847
20
214.083653182622811073088
40
0.249999996527776602306403
0
CIRCLE
8
0
6
CONTINUOUS
62
7
10
28.8425705695599390310235
20
206.083653182622811073088
40
0.249999996527719758887542
0
CIRCLE
8
0
6
CONTINUOUS
62
7
10
28.8425705695599390310235
20
174.083653182622811073088
40
0.249999996527719758887542
0
LINE
8
0
6
CONTINUOUS
62
7
10
393.027457845559922589018
20
228.083653182622811073088
11
24.8425706251599081042514
21
228.083653182622811073088
0
LINE
8
0
6
CONTINUOUS
62
7
10
393.027457845559922589018
20
168.083653182622811073088
11
393.027457845559922589018
21
228.083653182622811073088
0
LINE
8
0
6
CONTINUOUS
62
7
10
24.8425706251599081042514
20
168.083653182622811073088
11
393.027457845559922589018
21
168.083653182622811073088
0
LINE
8
0
6
CONTINUOUS
62
7
10
24.8425706251599081042514
20
228.083653182622811073088
11
24.8425706251599081042514
21
168.083653182622811073088
0
CIRCLE
8
0
6
CONTINUOUS
62
7
10
28.8425705695599390310235
20
190.083653182622811073088
40
0.249999996527719758887542
0
CIRCLE
8
0
6
CONTINUOUS
62
7
10
28.8425705695599390310235
20
222.083653182622811073088
40
0.249999996527719758887542
0
CIRCLE
8
0
6
CONTINUOUS
62
7
10
389.02745790105990408847
20
198.083653182622811073088
40
0.249999996527776602306403
0
CIRCLE
8
0
6
CONTINUOUS
62
7
10
37.0274627899599408920039
20
170.583653182622811073088
40
0.249999996527776602306403
0
CIRCLE
8
0
6
CONTINUOUS
62
7
10
69.0274623455599112276104
20
170.583653182622811073088
40
0.249999996527719758887542
0
CIRCLE
8
0
6
CONTINUOUS
62
7
10
101.02746190105995083286
20
170.583653182622811073088
40
0.249999996527776602306403
0
CIRCLE
8
0
6
CONTINUOUS
62
7
10
133.027461456659921168466
20
170.583653182622811073088
40
0.249999996527719758887542
0
CIRCLE
8
0
6
CONTINUOUS
62
7
10
165.027461012159932352006
20
170.583653182622811073088
40
0.249999996527748180596973
0
CIRCLE
8
0
6
CONTINUOUS
62
7
10
197.027460567759931109322
20
170.583653182622811073088
40
0.249999996527748180596973
0
CIRCLE
8
0
6
CONTINUOUS
62
7
10
229.027460123259913871152
20
170.583653182622811073088
40
0.249999996527719758887542
0
CIRCLE
8
0
6
CONTINUOUS
62
7
10
261.027459678859941050177
20
170.583653182622811073088
40
0.249999996527719758887542
0
CIRCLE
8
0
6
CONTINUOUS
62
7
10
293.027459234359923812008
20
170.583653182622811073088
40
0.249999996527776602306403
0
CIRCLE
8
0
6
CONTINUOUS
62
7
10
325.027458789959950991033
20
170.583653182622811073088
40
0.249999996527719758887542
0
CIRCLE
8
0
6
CONTINUOUS
62
7
10
357.02745834555992132664
20
170.583653182622811073088
40
0.249999996527719758887542
0
CIRCLE
8
0
6
CONTINUOUS
62
7
10
389.02745790105990408847
20
170.583653182622811073088
40
0.249999996527776602306403
0
CIRCLE
8
0
6
CONTINUOUS
62
7
10
365.027458234359926336765
20
170.583653182622811073088
40
0.249999996527719758887542
0
CIRCLE
8
0
6
CONTINUOUS
62
7
10
333.027458678859943574935
20
170.583653182622811073088
40
0.249999996527719758887542
0
CIRCLE
8
0
6
CONTINUOUS
62
7
10
301.027459123259916395909
20
170.583653182622811073088
40
0.249999996527833445725264
0
CIRCLE
8
0
6
CONTINUOUS
62
7
10
269.027459567759933634079
20
170.583653182622811073088
40
0.249999996527719758887542
0
CIRCLE
8
0
6
CONTINUOUS
62
7
10
237.027460012159934876763
20
170.583653182622811073088
40
0.249999996527748180596973
0
CIRCLE
8
0
6
CONTINUOUS
62
7
10
205.027460456659923693223
20
170.583653182622811073088
40
0.249999996527719758887542
0
CIRCLE
8
0
6
CONTINUOUS
62
7
10
173.027460901059924935907
20
170.583653182622811073088
40
0.249999996527748180596973
0
CIRCLE
8
0
6
CONTINUOUS
62
7
10
141.027461345559913752368
20
170.583653182622811073088
40
0.249999996527691337178112
0
CIRCLE
8
0
6
CONTINUOUS
62
7
10
109.027461789959943416761
20
170.583653182622811073088
40
0.249999996527719758887542
0
CIRCLE
8
0
6
CONTINUOUS
62
7
10
77.0274622343599162377359
20
170.583653182622811073088
40
0.249999996527776602306403
0
CIRCLE
8
0
6
CONTINUOUS
62
7
10
45.0274626788599334759056
20
170.583653182622811073088
40
0.249999996527719758887542
0
CIRCLE
8
0
6
CONTINUOUS
62
7
10
389.02745790105990408847
20
190.083653182622811073088
40
0.249999996527776602306403
0
CIRCLE
8
0
6
CONTINUOUS
62
7
10
389.02745790105990408847
20
222.083653182622811073088
40
0.249999996527776602306403
0
CIRCLE
8
0
6
CONTINUOUS
62
7
10
28.8425705695599390310235
20
198.083653182622811073088
40
0.249999996527719758887542
0
CIRCLE
8
0
6
CONTINUOUS
62
7
10
389.02745790105990408847
20
174.083653182622811073088
40
0.249999996527776602306403
0
LINE
8
0
6
CONTINUOUS
62
7
10
313.481235866859947236662
20
218.083653182622811073088
11
380.527458019159951163601
21
218.083653182622811073088
0
LINE
8
0
6
CONTINUOUS
62
7
10
313.481235866859947236662
20
178.083653182622811073088
11
313.481235866859947236662
21
218.083653182622811073088
0
LINE
8
0
6
CONTINUOUS
62
7
10
380.527458019159951163601
20
178.083653182622811073088
11
313.481235866859947236662
21
178.083653182622811073088
0
LINE
8
0
6
CONTINUOUS
62
7
10
380.527458019159951163601
20
218.083653182622811073088
11
380.527458019159951163601
21
178.083653182622811073088
0
LINE
8
0
6
CONTINUOUS
62
7
10
221.435014061759915193761
20
218.083653182622811073088
11
288.48123621405994754241
21
218.083653182622811073088
0
LINE
8
0
6
CONTINUOUS
62
7
10
221.435014061759915193761
20
178.083653182622811073088
11
221.435014061759915193761
21
218.083653182622811073088
0
LINE
8
0
6
CONTINUOUS
62
7
10
288.48123621405994754241
20
178.083653182622811073088
11
221.435014061759915193761
21
178.083653182622811073088
0
LINE
8
0
6
CONTINUOUS
62
7
10
288.48123621405994754241
20
218.083653182622811073088
11
288.48123621405994754241
21
178.083653182622811073088
0
LINE
8
0
6
CONTINUOUS
62
7
10
129.388792256659939994279
20
218.083653182622811073088
11
196.435014408959915499508
21
218.083653182622811073088
0
LINE
8
0
6
CONTINUOUS
62
7
10
129.388792256659939994279
20
178.083653182622811073088
11
129.388792256659939994279
21
218.083653182622811073088
0
LINE
8
0
6
CONTINUOUS
62
7
10
196.435014408959915499508
20
178.083653182622811073088
11
129.388792256659939994279
21
178.083653182622811073088
0
LINE
8
0
6
CONTINUOUS
62
7
10
196.435014408959915499508
20
218.083653182622811073088
11
196.435014408959915499508
21
178.083653182622811073088
0
LINE
8
0
6
CONTINUOUS
62
7
10
37.3425704515599363730871
20
218.083653182622811073088
11
104.388792603859940300026
21
218.083653182622811073088
0
LINE
8
0
6
CONTINUOUS
62
7
10
37.3425704515599363730871
20
178.083653182622811073088
11
37.3425704515599363730871
21
218.083653182622811073088
0
LINE
8
0
6
CONTINUOUS
62
7
10
104.388792603859940300026
20
178.083653182622811073088
11
37.3425704515599363730871
21
178.083653182622811073088
0
LINE
8
0
6
CONTINUOUS
62
7
10
104.388792603859940300026
20
218.083653182622811073088
11
104.388792603859940300026
21
178.083653182622811073088
0
CIRCLE
8
0
6
CONTINUOUS
62
7
10
391.352724738722201891505
20
82.4825889347902148074354
40
0.249999996527776602306403
0
CIRCLE
8
0
6
CONTINUOUS
62
7
10
375.352724960922216723702
20
85.8825889347903057569056
40
0.249999996527776602306403
0
CIRCLE
8
0
6
CONTINUOUS
62
7
10
343.352725405422233961872
20
85.8825889347903057569056
40
0.249999996527776602306403
0
CIRCLE
8
0
6
CONTINUOUS
62
7
10
311.352725849822206782846
20
85.8825889347903057569056
40
0.249999996527776602306403
0
CIRCLE
8
0
6
CONTINUOUS
62
7
10
279.352726294322224021016
20
85.8825889347903057569056
40
0.249999996527776602306403
0
CIRCLE
8
0
6
CONTINUOUS
62
7
10
247.3527267387222252637
20
85.8825889347903057569056
40
0.249999996527776602306403
0
CIRCLE
8
0
6
CONTINUOUS
62
7
10
215.35272718322221408016
20
85.8825889347903057569056
40
0.249999996527805024015834
0
CIRCLE
8
0
6
CONTINUOUS
62
7
10
183.352727627622215322845
20
85.8825889347903057569056
40
0.249999996527776602306403
0
CIRCLE
8
0
6
CONTINUOUS
62
7
10
151.352728072022216565529
20
85.8825889347903057569056
40
0.249999996527776602306403
0
CIRCLE
8
0
6
CONTINUOUS
62
7
10
119.352728516522233803698
20
85.8825889347903057569056
40
0.249999996527606072049821
0
CIRCLE
8
0
6
CONTINUOUS
62
7
10
87.352728960922206624673
20
85.8825889347903057569056
40
0.249999996527890289144125
0
CIRCLE
8
0
6
CONTINUOUS
62
7
10
55.3527294054222238628427
20
85.8825889347903057569056
40
0.249999996527833445725264
0
CIRCLE
8
0
6
CONTINUOUS
62
7
10
31.167837407222236834059
20
87.7825889347903967063758
40
0.249999996527890289144125
0
CIRCLE
8
0
6
CONTINUOUS
62
7
10
31.167837407222236834059
20
71.8825889347903057569056
40
0.249999996527776602306403
0
CIRCLE
8
0
6
CONTINUOUS
62
7
10
31.3527297387222461111378
20
85.8825889347903057569056
40
0.249999996527662915468682
0
CIRCLE
8
0
6
CONTINUOUS
62
7
10
63.3527292943222164467443
20
85.8825889347903057569056
40
0.249999996527890289144125
0
CIRCLE
8
0
6
CONTINUOUS
62
7
10
95.3527288498221992085746
20
85.8825889347903057569056
40
0.249999996527833445725264
0
CIRCLE
8
0
6
CONTINUOUS
62
7
10
127.3527284054222263876
20
85.8825889347903057569056
40
0.249999996527662915468682
0
CIRCLE
8
0
6
CONTINUOUS
62
7
10
159.35272796092223757114
20
85.8825889347903057569056
40
0.249999996527776602306403
0
CIRCLE
8
0
6
CONTINUOUS
62
7
10
191.352727516522236328456
20
85.8825889347903057569056
40
0.249999996527805024015834
0
CIRCLE
8
0
6
CONTINUOUS
62
7
10
223.352727072022219090286
20
85.8825889347903057569056
40
0.249999996527805024015834
0
CIRCLE
8
0
6
CONTINUOUS
62
7
10
255.352726627622217847602
20
85.8825889347903057569056
40
0.249999996527805024015834
0
CIRCLE
8
0
6
CONTINUOUS
62
7
10
287.352726183222216604918
20
85.8825889347903057569056
40
0.249999996527776602306403
0
CIRCLE
8
0
6
CONTINUOUS
62
7
10
319.352725738722199366748
20
85.8825889347903057569056
40
0.249999996527776602306403
0
CIRCLE
8
0
6
CONTINUOUS
62
7
10
351.352725294322226545773
20
85.8825889347903057569056
40
0.249999996527776602306403
0
CIRCLE
8
0
6
CONTINUOUS
62
7
10
383.352724849822209307604
20
85.8825889347903057569056
40
0.249999996527776602306403
0
CIRCLE
8
0
6
CONTINUOUS
62
7
10
391.352724738722201891505
20
77.1825889347904876558459
40
0.249999996527776602306403
0
LINE
8
0
6
CONTINUOUS
62
7
10
395.352724683222220392054
20
89.8825889347903057569056
11
27.1678374628222059072868
21
89.8825889347903057569056
0
LINE
8
0
6
CONTINUOUS
62
7
10
395.352724683222220392054
20
69.8825889347903057569056
11
395.352724683222220392054
21
89.8825889347903057569056
0
LINE
8
0
6
CONTINUOUS
62
7
10
27.1678374628222059072868
20
69.8825889347903057569056
11
395.352724683222220392054
21
69.8825889347903057569056
0
LINE
8
0
6
CONTINUOUS
62
7
10
27.1678374628222059072868
20
89.8825889347903057569056
11
27.1678374628222059072868
21
69.8825889347903057569056
0
CIRCLE
8
0
6
CONTINUOUS
62
7
10
391.352724738722201891505
20
87.7825889347903967063758
40
0.249999996527776602306403
0
CIRCLE
8
0
6
CONTINUOUS
62
7
10
367.352725072022224139801
20
85.8825889347903057569056
40
0.249999996527776602306403
0
CIRCLE
8
0
6
CONTINUOUS
62
7
10
335.35272551652224137797
20
85.8825889347903057569056
40
0.249999996527776602306403
0
CIRCLE
8
0
6
CONTINUOUS
62
7
10
303.352725960922214198945
20
85.8825889347903057569056
40
0.249999996527776602306403
0
CIRCLE
8
0
6
CONTINUOUS
62
7
10
271.352726405422231437115
20
85.8825889347903057569056
40
0.249999996527776602306403
0
CIRCLE
8
0
6
CONTINUOUS
62
7
10
239.352726849822232679799
20
85.8825889347903057569056
40
0.249999996527776602306403
0
CIRCLE
8
0
6
CONTINUOUS
62
7
10
207.352727294322221496259
20
85.8825889347903057569056
40
0.249999996527805024015834
0
CIRCLE
8
0
6
CONTINUOUS
62
7
10
175.352727738722222738943
20
85.8825889347903057569056
40
0.249999996527776602306403
0
CIRCLE
8
0
6
CONTINUOUS
62
7
10
143.352728183222211555403
20
85.8825889347903057569056
40
0.249999996527634493759251
0
CIRCLE
8
0
6
CONTINUOUS
62
7
10
111.352728627622241219797
20
85.8825889347903057569056
40
0.249999996527719758887542
0
CIRCLE
8
0
6
CONTINUOUS
62
7
10
79.3527290720222140407714
20
85.8825889347903057569056
40
0.249999996527833445725264
0
CIRCLE
8
0
6
CONTINUOUS
62
7
10
47.352729516522231278941
20
85.8825889347903057569056
40
0.249999996527890289144125
0
CIRCLE
8
0
6
CONTINUOUS
62
7
10
31.167837407222236834059
20
82.4825889347902148074354
40
0.249999996527890289144125
0
CIRCLE
8
0
6
CONTINUOUS
62
7
10
31.167837407222236834059
20
77.1825889347904876558459
40
0.249999996527890289144125
0
CIRCLE
8
0
6
CONTINUOUS
62
7
10
39.3527296276222386950394
20
85.8825889347903057569056
40
0.249999996527719758887542
0
CIRCLE
8
0
6
CONTINUOUS
62
7
10
71.3527291832222090306459
20
85.8825889347903057569056
40
0.249999996527890289144125
0
CIRCLE
8
0
6
CONTINUOUS
62
7
10
103.352728738722248635895
20
85.8825889347903057569056
40
0.249999996527719758887542
0
CIRCLE
8
0
6
CONTINUOUS
62
7
10
135.352728294322218971502
20
85.8825889347903057569056
40
0.249999996527606072049821
0
CIRCLE
8
0
6
CONTINUOUS
62
7
10
167.352727849822230155041
20
85.8825889347903057569056
40
0.249999996527776602306403
0
CIRCLE
8
0
6
CONTINUOUS
62
7
10
199.352727405422228912357
20
85.8825889347903057569056
40
0.249999996527805024015834
0
CIRCLE
8
0
6
CONTINUOUS
62
7
10
231.352726960922211674188
20
85.8825889347903057569056
40
0.249999996527805024015834
0
CIRCLE
8
0
6
CONTINUOUS
62
7
10
263.352726516522182009794
20
85.8825889347903057569056
40
0.249999996527776602306403
0
CIRCLE
8
0
6
CONTINUOUS
62
7
10
295.352726072022221615043
20
85.8825889347903057569056
40
0.249999996527776602306403
0
CIRCLE
8
0
6
CONTINUOUS
62
7
10
327.35272562762219195065
20
85.8825889347903057569056
40
0.249999996527776602306403
0
CIRCLE
8
0
6
CONTINUOUS
62
7
10
359.352725183222219129675
20
85.8825889347903057569056
40
0.249999996527776602306403
0
CIRCLE
8
0
6
CONTINUOUS
62
7
10
391.352724738722201891505
20
85.8825889347903057569056
40
0.249999996527776602306403
0
CIRCLE
8
0
6
CONTINUOUS
62
7
10
391.352724738722201891505
20
71.8825889347903057569056
40
0.249999996527776602306403
0
ENDSEC
0
EOF
