  0
SECTION
  2
HEADER
  9
$ACADVER
  1
AC1027
  9
$ACADMAINTVER
 70
   125
  9
$DWGCODEPAGE
  3
ANSI_1252
  9
$LASTSAVEDBY
  1
poojars
  9
$REQUIREDVERSIONS
160
                 0
  9
$INSBASE
 10
0.0
 20
0.0
 30
0.0
  9
$EXTMIN
 10
7.403209
 20
3.15733
 30
-2.617369
  9
$EXTMAX
 10
287.403209
 20
205.157333
 30
2.617798
  9
$LIMMIN
 10
0.0
 20
0.0
  9
$LIMMAX
 10
297.0
 20
210.0
  9
$ORTHOMODE
 70
     0
  9
$REGENMODE
 70
     1
  9
$FILLMODE
 70
     1
  9
$QTEXTMODE
 70
     0
  9
$MIRRTEXT
 70
     0
  9
$LTSCALE
 40
0.75
  9
$ATTMODE
 70
     1
  9
$TEXTSIZE
 40
3.5
  9
$TRACEWID
 40
1.0
  9
$TEXTSTYLE
  7
Standard
  9
$CLAYER
  8
0
  9
$CELTYPE
  6
ByLayer
  9
$CECOLOR
 62
   256
  9
$CELTSCALE
 40
1.0
  9
$DISPSILH
 70
     0
  9
$DIMSCALE
 40
1.0
  9
$DIMASZ
 40
3.5
  9
$DIMEXO
 40
2.1
  9
$DIMDLI
 40
10.5
  9
$DIMRND
 40
0.0
  9
$DIMDLE
 40
0.0
  9
$DIMEXE
 40
2.1
  9
$DIMTP
 40
0.1
  9
$DIMTM
 40
0.1
  9
$DIMTXT
 40
3.5
  9
$DIMCEN
 40
0.0
  9
$DIMTSZ
 40
0.0
  9
$DIMTOL
 70
     0
  9
$DIMLIM
 70
     0
  9
$DIMTIH
 70
     0
  9
$DIMTOH
 70
     0
  9
$DIMSE1
 70
     0
  9
$DIMSE2
 70
     0
  9
$DIMTAD
 70
     1
  9
$DIMZIN
 70
    12
  9
$DIMBLK
  1

  9
$DIMASO
 70
     1
  9
$DIMSHO
 70
     1
  9
$DIMPOST
  1

  9
$DIMAPOST
  1

  9
$DIMALT
 70
     0
  9
$DIMALTD
 70
     2
  9
$DIMALTF
 40
0.03937
  9
$DIMLFAC
 40
1.0
  9
$DIMTOFL
 70
     1
  9
$DIMTVP
 40
0.0
  9
$DIMTIX
 70
     0
  9
$DIMSOXD
 70
     0
  9
$DIMSAH
 70
     0
  9
$DIMBLK1
  1

  9
$DIMBLK2
  1

  9
$DIMSTYLE
  2
ISO-25
  9
$DIMCLRD
 70
   256
  9
$DIMCLRE
 70
   256
  9
$DIMCLRT
 70
   256
  9
$DIMTFAC
 40
0.714286
  9
$DIMGAP
 40
1.4
  9
$DIMJUST
 70
     0
  9
$DIMSD1
 70
     0
  9
$DIMSD2
 70
     0
  9
$DIMTOLJ
 70
     0
  9
$DIMTZIN
 70
    12
  9
$DIMALTZ
 70
    12
  9
$DIMALTTZ
 70
    12
  9
$DIMUPT
 70
     0
  9
$DIMDEC
 70
     2
  9
$DIMTDEC
 70
     2
  9
$DIMALTU
 70
     2
  9
$DIMALTTD
 70
     4
  9
$DIMTXSTY
  7
Standard
  9
$DIMAUNIT
 70
     0
  9
$DIMADEC
 70
     2
  9
$DIMALTRND
 40
0.0
  9
$DIMAZIN
 70
     3
  9
$DIMDSEP
 70
    46
  9
$DIMATFIT
 70
     3
  9
$DIMFRAC
 70
     0
  9
$DIMLDRBLK
  1

  9
$DIMLUNIT
 70
     2
  9
$DIMLWD
 70
    -2
  9
$DIMLWE
 70
    -2
  9
$DIMTMOVE
 70
     0
  9
$DIMFXL
 40
1.0
  9
$DIMFXLON
 70
     0
  9
$DIMJOGANG
 40
0.785398
  9
$DIMTFILL
 70
     0
  9
$DIMTFILLCLR
 70
     0
  9
$DIMARCSYM
 70
     0
  9
$DIMLTYPE
  6

  9
$DIMLTEX1
  6

  9
$DIMLTEX2
  6

  9
$DIMTXTDIRECTION
 70
     0
  9
$LUNITS
 70
     2
  9
$LUPREC
 70
     4
  9
$SKETCHINC
 40
1.0
  9
$FILLETRAD
 40
0.0
  9
$AUNITS
 70
     0
  9
$AUPREC
 70
     0
  9
$MENU
  1
.
  9
$ELEVATION
 40
0.0
  9
$PELEVATION
 40
0.0
  9
$THICKNESS
 40
0.0
  9
$LIMCHECK
 70
     0
  9
$CHAMFERA
 40
0.0
  9
$CHAMFERB
 40
0.0
  9
$CHAMFERC
 40
0.0
  9
$CHAMFERD
 40
0.0
  9
$SKPOLY
 70
     0
  9
$TDCREATE
 40
2459782.592280093
  9
$TDUCREATE
 40
2459782.508946759
  9
$TDUPDATE
 40
2459782.592280093
  9
$TDUUPDATE
 40
2459782.508946759
  9
$TDINDWG
 40
0.0000000000
  9
$TDUSRTIMER
 40
0.0000000000
  9
$USRTIMER
 70
     1
  9
$ANGBASE
 50
0.0
  9
$ANGDIR
 70
     0
  9
$PDMODE
 70
     0
  9
$PDSIZE
 40
0.0
  9
$PLINEWID
 40
0.0
  9
$SPLFRAME
 70
     0
  9
$SPLINETYPE
 70
     6
  9
$SPLINESEGS
 70
     8
  9
$HANDSEED
  5
2C4
  9
$SURFTAB1
 70
     6
  9
$SURFTAB2
 70
     6
  9
$SURFTYPE
 70
     6
  9
$SURFU
 70
     6
  9
$SURFV
 70
     6
  9
$UCSBASE
  2

  9
$UCSNAME
  2

  9
$UCSORG
 10
0.0
 20
0.0
 30
0.0
  9
$UCSXDIR
 10
1.0
 20
0.0
 30
0.0
  9
$UCSYDIR
 10
0.0
 20
1.0
 30
0.0
  9
$UCSORTHOREF
  2

  9
$UCSORTHOVIEW
 70
     0
  9
$UCSORGTOP
 10
0.0
 20
0.0
 30
0.0
  9
$UCSORGBOTTOM
 10
0.0
 20
0.0
 30
0.0
  9
$UCSORGLEFT
 10
0.0
 20
0.0
 30
0.0
  9
$UCSORGRIGHT
 10
0.0
 20
0.0
 30
0.0
  9
$UCSORGFRONT
 10
0.0
 20
0.0
 30
0.0
  9
$UCSORGBACK
 10
0.0
 20
0.0
 30
0.0
  9
$PUCSBASE
  2

  9
$PUCSNAME
  2

  9
$PUCSORG
 10
0.0
 20
0.0
 30
0.0
  9
$PUCSXDIR
 10
1.0
 20
0.0
 30
0.0
  9
$PUCSYDIR
 10
0.0
 20
1.0
 30
0.0
  9
$PUCSORTHOREF
  2

  9
$PUCSORTHOVIEW
 70
     0
  9
$PUCSORGTOP
 10
0.0
 20
0.0
 30
0.0
  9
$PUCSORGBOTTOM
 10
0.0
 20
0.0
 30
0.0
  9
$PUCSORGLEFT
 10
0.0
 20
0.0
 30
0.0
  9
$PUCSORGRIGHT
 10
0.0
 20
0.0
 30
0.0
  9
$PUCSORGFRONT
 10
0.0
 20
0.0
 30
0.0
  9
$PUCSORGBACK
 10
0.0
 20
0.0
 30
0.0
  9
$USERI1
 70
     0
  9
$USERI2
 70
     0
  9
$USERI3
 70
     0
  9
$USERI4
 70
     0
  9
$USERI5
 70
     0
  9
$USERR1
 40
0.0
  9
$USERR2
 40
0.0
  9
$USERR3
 40
0.0
  9
$USERR4
 40
0.0
  9
$USERR5
 40
0.0
  9
$WORLDVIEW
 70
     1
  9
$SHADEDGE
 70
     3
  9
$SHADEDIF
 70
    70
  9
$TILEMODE
 70
     1
  9
$MAXACTVP
 70
    64
  9
$PINSBASE
 10
0.0
 20
0.0
 30
0.0
  9
$PLIMCHECK
 70
     0
  9
$PEXTMIN
 10
1.000000E+20
 20
1.000000E+20
 30
1.000000E+20
  9
$PEXTMAX
 10
-1.000000E+20
 20
-1.000000E+20
 30
-1.000000E+20
  9
$PLIMMIN
 10
0.0
 20
0.0
  9
$PLIMMAX
 10
12.0
 20
9.0
  9
$UNITMODE
 70
     0
  9
$VISRETAIN
 70
     1
  9
$PLINEGEN
 70
     0
  9
$PSLTSCALE
 70
     1
  9
$TREEDEPTH
 70
  3020
  9
$CMLSTYLE
  2
Standard
  9
$CMLJUST
 70
     0
  9
$CMLSCALE
 40
20.0
  9
$PROXYGRAPHICS
 70
     1
  9
$MEASUREMENT
 70
     1
  9
$CELWEIGHT
370
    -1
  9
$ENDCAPS
280
     0
  9
$JOINSTYLE
280
     0
  9
$LWDISPLAY
290
     0
  9
$INSUNITS
 70
     4
  9
$HYPERLINKBASE
  1

  9
$STYLESHEET
  1

  9
$XEDIT
290
     1
  9
$CEPSNTYPE
380
     0
  9
$PSTYLEMODE
290
     1
  9
$FINGERPRINTGUID
  2
{FBC9784F-5B4F-FF41-99A2-AF242999C021}
  9
$VERSIONGUID
  2
{1B3A5DC7-FE0E-4842-9CDC-DA8E5BA15BA5}
  9
$EXTNAMES
290
     1
  9
$PSVPSCALE
 40
0.0
  9
$OLESTARTUP
290
     0
  9
$SORTENTS
280
   127
  9
$INDEXCTL
280
     0
  9
$HIDETEXT
280
     1
  9
$XCLIPFRAME
280
     0
  9
$HALOGAP
280
     0
  9
$OBSCOLOR
 70
   257
  9
$OBSLTYPE
280
     0
  9
$INTERSECTIONDISPLAY
280
     0
  9
$INTERSECTIONCOLOR
 70
   257
  9
$DIMASSOC
280
     2
  9
$PROJECTNAME
  1

  9
$CAMERADISPLAY
290
     0
  9
$LENSLENGTH
 40
50.0
  9
$CAMERAHEIGHT
 40
0.0
  9
$STEPSPERSEC
 40
2.0
  9
$STEPSIZE
 40
6.0
  9
$3DDWFPREC
 40
2.0
  9
$PSOLWIDTH
 40
5.0
  9
$PSOLHEIGHT
 40
80.0
  9
$LOFTANG1
 40
1.570796
  9
$LOFTANG2
 40
1.570796
  9
$LOFTMAG1
 40
0.0
  9
$LOFTMAG2
 40
0.0
  9
$LOFTPARAM
 70
     7
  9
$LOFTNORMALS
280
     1
  9
$LATITUDE
 40
37.795
  9
$LONGITUDE
 40
-122.394
  9
$NORTHDIRECTION
 40
0.0
  9
$TIMEZONE
 70
 -8000
  9
$LIGHTGLYPHDISPLAY
280
     1
  9
$TILEMODELIGHTSYNCH
280
     1
  9
$CMATERIAL
347
11
  9
$SOLIDHIST
280
     0
  9
$SHOWHIST
280
     1
  9
$DWFFRAME
280
     2
  9
$DGNFRAME
280
     0
  9
$REALWORLDSCALE
290
     1
  9
$INTERFERECOLOR
 62
     1
  9
$INTERFEREOBJVS
345
33
  9
$INTERFEREVPVS
346
30
  9
$CSHADOW
280
     0
  9
$SHADOWPLANELOCATION
 40
0.0
  0
ENDSEC
  0
SECTION
  2
CLASSES
  0
CLASS
  1
ACDBDICTIONARYWDFLT
  2
AcDbDictionaryWithDefault
  3
ObjectDBX Classes
 90
        0
 91
        1
280
     0
281
     0
  0
CLASS
  1
MATERIAL
  2
AcDbMaterial
  3
ObjectDBX Classes
 90
     1153
 91
        3
280
     0
281
     0
  0
CLASS
  1
VISUALSTYLE
  2
AcDbVisualStyle
  3
ObjectDBX Classes
 90
     4095
 91
       24
280
     0
281
     0
  0
CLASS
  1
SCALE
  2
AcDbScale
  3
ObjectDBX Classes
 90
     1153
 91
       17
280
     0
281
     0
  0
CLASS
  1
TABLESTYLE
  2
AcDbTableStyle
  3
ObjectDBX Classes
 90
     4095
 91
        1
280
     0
281
     0
  0
CLASS
  1
MLEADERSTYLE
  2
AcDbMLeaderStyle
  3
ACDB_MLEADERSTYLE_CLASS
 90
     4095
 91
        1
280
     0
281
     0
  0
CLASS
  1
ACDBSECTIONVIEWSTYLE
  2
AcDbSectionViewStyle
  3
ObjectDBX Classes
 90
     1025
 91
        1
280
     0
281
     0
  0
CLASS
  1
ACDBDETAILVIEWSTYLE
  2
AcDbDetailViewStyle
  3
ObjectDBX Classes
 90
     1025
 91
        1
280
     0
281
     0
  0
CLASS
  1
ACMESCOPE
  2
AcMeScope
  3
AcMeServices
 90
     1024
 91
        1
280
     0
281
     0
  0
CLASS
  1
ACMECOMMANDHISTORY
  2
AcMeCommandHistory
  3
AcMeServices
 90
     1024
 91
        1
280
     0
281
     0
  0
CLASS
  1
ACIMSYSVARMAN
  2
AcImSysVarManager
  3
AcMeServices
 90
     1024
 91
        1
280
     0
281
     0
  0
CLASS
  1
ACIMINTSYSVAR
  2
AcImIntSysVar
  3
AcMeServices
 90
     1024
 91
        1
280
     0
281
     0
  0
CLASS
  1
ACMESTATEMGR
  2
AcMeStateMgr
  3
AcMeServices
 90
     1024
 91
        1
280
     0
281
     0
  0
CLASS
  1
ACGREFMASTER
  2
AcGrefMaster
  3
AcAttribServices
 90
     1024
 91
        1
280
     0
281
     0
  0
CLASS
  1
SORTENTSTABLE
  2
AcDbSortentsTable
  3
ObjectDBX Classes
 90
        0
 91
        1
280
     0
281
     0
  0
CLASS
  1
DICTIONARYVAR
  2
AcDbDictionaryVar
  3
ObjectDBX Classes
 90
        0
 91
        6
280
     0
281
     0
  0
CLASS
  1
CELLSTYLEMAP
  2
AcDbCellStyleMap
  3
ObjectDBX Classes
 90
     1152
 91
        1
280
     0
281
     0
  0
ENDSEC
  0
SECTION
  2
TABLES
  0
TABLE
  2
VPORT
  5
8
330
0
100
AcDbSymbolTable
 70
     1
1001
ACAD
1000
DbSaveVer
1071
      246
  0
VPORT
  5
57
330
8
100
AcDbSymbolTableRecord
100
AcDbViewportTableRecord
  2
*Active
 70
     0
 10
0.0
 20
0.0
 11
1.0
 21
1.0
 12
147.403209
 22
104.157332
 13
0.0
 23
0.0
 14
0.5
 24
0.5
 15
0.0
 25
0.0
 16
0.0
 26
0.0
 36
1.0
 17
0.0
 27
0.0
 37
0.0
 40
202.000003
 41
1.729977
 42
50.0
 43
0.0
 44
0.0
 50
0.0
 51
0.0
 71
     0
 72
 20000
 73
     1
 74
     0
 75
     0
 76
     0
 77
     0
 78
     0
281
     0
 65
     1
110
0.0
120
0.0
130
0.0
111
1.0
121
0.0
131
0.0
112
0.0
122
1.0
132
0.0
 79
     0
146
0.0
348
2F
 60
     3
 61
     5
292
     1
282
     1
141
0.0
142
0.0
 63
   250
421
  3355443
  0
ENDTAB
  0
TABLE
  2
LTYPE
  5
5
330
0
100
AcDbSymbolTable
 70
    14
  0
LTYPE
  5
5B
330
5
100
AcDbSymbolTableRecord
100
AcDbLinetypeTableRecord
  2
ByBlock
 70
     0
  3

 72
    65
 73
     0
 40
0.0
  0
LTYPE
  5
5C
330
5
100
AcDbSymbolTableRecord
100
AcDbLinetypeTableRecord
  2
ByLayer
 70
     0
  3

 72
    65
 73
     0
 40
0.0
  0
LTYPE
  5
5D
330
5
100
AcDbSymbolTableRecord
100
AcDbLinetypeTableRecord
  2
Continuous
 70
     0
  3
Solid line
 72
    65
 73
     0
 40
0.0
  0
LTYPE
  5
80
330
5
100
AcDbSymbolTableRecord
100
AcDbLinetypeTableRecord
  2
HIDDEN
 70
     0
  3
Hidden __ __ __ __ __ __ __ __ __ __ __ __ __ _
 72
    65
 73
     2
 40
9.525
 49
6.35
 74
     0
 49
-3.175
 74
     0
  0
LTYPE
  5
81
330
5
100
AcDbSymbolTableRecord
100
AcDbLinetypeTableRecord
  2
PHANTOM2
 70
     0
  3
Phantom (.5x) ___ _ _ ___ _ _ ___ _ _ ___ _ _
 72
    65
 73
     6
 40
31.75
 49
15.875
 74
     0
 49
-3.175
 74
     0
 49
3.175
 74
     0
 49
-3.175
 74
     0
 49
3.175
 74
     0
 49
-3.175
 74
     0
  0
LTYPE
  5
82
330
5
100
AcDbSymbolTableRecord
100
AcDbLinetypeTableRecord
  2
CENTER
 70
     0
  3
Center ____ _ ____ _ ____ _ ____ _ ____ _ ____
 72
    65
 73
     4
 40
50.8
 49
31.75
 74
     0
 49
-6.35
 74
     0
 49
6.35
 74
     0
 49
-6.35
 74
     0
  0
LTYPE
  5
90
330
5
100
AcDbSymbolTableRecord
100
AcDbLinetypeTableRecord
  2
AM_ISO02W050
 70
     0
  3
__ __ __ __ __ __ __ __ __ __ __ __ __ __ __
 72
    65
 73
     2
 40
7.5
 49
6.0
 74
     0
 49
-1.5
 74
     0
  0
LTYPE
  5
91
330
5
100
AcDbSymbolTableRecord
100
AcDbLinetypeTableRecord
  2
AM_ISO08W050
 70
     0
  3
____ . ____ . ____ . ____ . ____ . ____ . ____
 72
    65
 73
     4
 40
18.0
 49
12.0
 74
     0
 49
-1.5
 74
     0
 49
3.0
 74
     0
 49
-1.5
 74
     0
  0
LTYPE
  5
92
330
5
100
AcDbSymbolTableRecord
100
AcDbLinetypeTableRecord
  2
AM_ISO09W050
 70
     0
  3
_____ . . _____ . . _____ . . ____ .. ____
 72
    65
 73
     6
 40
22.5
 49
12.0
 74
     0
 49
-1.5
 74
     0
 49
3.0
 74
     0
 49
-1.5
 74
     0
 49
3.0
 74
     0
 49
-1.5
 74
     0
  0
LTYPE
  5
93
330
5
100
AcDbSymbolTableRecord
100
AcDbLinetypeTableRecord
  2
Amconstr
 70
     0
  3
_______________________
 72
    65
 73
     2
 40
9999.0
 49
9999.0
 74
     0
 49
0.0
 74
     0
  0
LTYPE
  5
94
330
5
100
AcDbSymbolTableRecord
100
AcDbLinetypeTableRecord
  2
AM_ISO08W050x2
 70
     0
  3
__ . __ . __ . __ . __ . __
 72
    65
 73
     4
 40
9.0
 49
6.0
 74
     0
 49
-0.75
 74
     0
 49
1.5
 74
     0
 49
-0.75
 74
     0
  0
LTYPE
  5
95
330
5
100
AcDbSymbolTableRecord
100
AcDbLinetypeTableRecord
  2
AM_ISO02W050x2
 70
     0
  3
 _ _ _ _ _ _ _ _ _ _ _ _
 72
    65
 73
     2
 40
3.75
 49
3.0
 74
     0
 49
-0.75
 74
     0
  0
LTYPE
  5
96
330
5
100
AcDbSymbolTableRecord
100
AcDbLinetypeTableRecord
  2
Amzigzag
 70
     0
  3
/\/-/\/-/\/-/\/-/\/-/\/
 72
    65
 73
     2
 40
11.0001
 49
0.0001
 74
     4
 75
   136
340
8D
 46
0.04
 50
0.0
 44
0.0
 45
0.0
 49
-11.0
 74
     0
  0
LTYPE
  5
97
330
5
100
AcDbSymbolTableRecord
100
AcDbLinetypeTableRecord
  2
ACISOWELD
 70
     0
  3
_ _ _ _ _
 72
    65
 73
     2
 40
2.0
 49
2.0
 74
     0
 49
-1.0
 74
     0
  0
LTYPE
  5
98
330
5
100
AcDbSymbolTableRecord
100
AcDbLinetypeTableRecord
  2
ACISOTGL
 70
     0
  3
_ _ _ _ _
 72
    65
 73
     2
 40
3.0
 49
2.0
 74
     0
 49
-1.0
 74
     0
  0
LTYPE
  5
99
330
5
100
AcDbSymbolTableRecord
100
AcDbLinetypeTableRecord
  2
ACISOTGB
 70
     0
  3
__ . . __ . .
 72
    65
 73
     6
 40
9.0
 49
4.0
 74
     0
 49
-1.0
 74
     0
 49
1.0
 74
     0
 49
-1.0
 74
     0
 49
1.0
 74
     0
 49
-1.0
 74
     0
  0
ENDTAB
  0
TABLE
  2
LAYER
  5
2
330
0
100
AcDbSymbolTable
 70
     3
  0
LAYER
  5
54
330
2
100
AcDbSymbolTableRecord
100
AcDbLayerTableRecord
  2
0
 70
     0
 62
     7
  6
Continuous
370
    -3
390
F
347
21
348
0
1001
AcAecLayerStandard
1000

1000

  0
LAYER
  5
A4
330
2
100
AcDbSymbolTableRecord
100
AcDbLayerTableRecord
  2
Visible
 70
     0
 62
     7
  6
Continuous
370
    35
390
F
347
21
348
0
  0
ENDTAB
  0
TABLE
  2
STYLE
  5
3
330
0
100
AcDbSymbolTable
 70
     4
  0
STYLE
  5
55
330
3
100
AcDbSymbolTableRecord
100
AcDbTextStyleTableRecord
  2
Standard
 70
     0
 40
0.0
 41
1.0
 50
0.0
 71
     0
 42
3.5
  3
Arial.ttf
  4

1001
ACAD
1000
Arial
1071
       34
  0
STYLE
  5
5A
330
3
100
AcDbSymbolTableRecord
100
AcDbTextStyleTableRecord
  2
Annotative
 70
     0
 40
0.0
 41
1.0
 50
0.0
 71
     0
 42
0.2
  3
txt
  4

1001
AcadAnnotative
1000
AnnotativeData
1002
{
1070
     1
1070
     1
1002
}
  0
STYLE
  5
8D
330
3
100
AcDbSymbolTableRecord
100
AcDbTextStyleTableRecord
  2

 70
     1
 40
0.0
 41
1.0
 50
0.0
 71
     0
 42
10.0
  3
genltshp.shx
  4

  0
STYLE
  5
8E
330
3
100
AcDbSymbolTableRecord
100
AcDbTextStyleTableRecord
  2
ACISOGDT
 70
     0
 40
0.0
 41
1.0
 50
0.0
 71
     0
 42
10.0
  3
amgdt.shx
  4

  0
ENDTAB
  0
TABLE
  2
VIEW
  5
6
330
0
100
AcDbSymbolTable
 70
     0
  0
ENDTAB
  0
TABLE
  2
UCS
  5
7
330
0
100
AcDbSymbolTable
 70
     0
  0
ENDTAB
  0
TABLE
  2
APPID
  5
9
330
0
100
AcDbSymbolTable
 70
    16
  0
APPID
  5
56
330
9
100
AcDbSymbolTableRecord
100
AcDbRegAppTableRecord
  2
ACAD
 70
     0
  0
APPID
  5
5E
330
9
100
AcDbSymbolTableRecord
100
AcDbRegAppTableRecord
  2
AcadAnnotative
 70
     0
  0
APPID
  5
78
330
9
100
AcDbSymbolTableRecord
100
AcDbRegAppTableRecord
  2
ACAD_PSEXT
 70
     0
  0
APPID
  5
79
330
9
100
AcDbSymbolTableRecord
100
AcDbRegAppTableRecord
  2
MCAD_NO_VIS
 70
     0
  0
APPID
  5
7A
330
9
100
AcDbSymbolTableRecord
100
AcDbRegAppTableRecord
  2
ACAD_TEMP_GRAPHIC
 70
     0
  0
APPID
  5
83
330
9
100
AcDbSymbolTableRecord
100
AcDbRegAppTableRecord
  2
ACAD_DSTYLE_DIMJAG
 70
     0
  0
APPID
  5
84
330
9
100
AcDbSymbolTableRecord
100
AcDbRegAppTableRecord
  2
ACAD_DSTYLE_DIMTALN
 70
     0
  0
APPID
  5
85
330
9
100
AcDbSymbolTableRecord
100
AcDbRegAppTableRecord
  2
ACAD_NAV_VCDISPLAY
 70
     0
  0
APPID
  5
86
330
9
100
AcDbSymbolTableRecord
100
AcDbRegAppTableRecord
  2
ACAD_DSTYLE_DIMBREAK
 70
     0
  0
APPID
  5
87
330
9
100
AcDbSymbolTableRecord
100
AcDbRegAppTableRecord
  2
FUSIONCURRENTTITLEBLOCK
 70
     0
  0
APPID
  5
88
330
9
100
AcDbSymbolTableRecord
100
AcDbRegAppTableRecord
  2
AcSynergy
 70
     0
  0
APPID
  5
89
330
9
100
AcDbSymbolTableRecord
100
AcDbRegAppTableRecord
  2
GENIUS_GENSCREG_15
 70
     0
  0
APPID
  5
8A
330
9
100
AcDbSymbolTableRecord
100
AcDbRegAppTableRecord
  2
GENIUS_GENOBJ-N-SDF_13
 70
     0
  0
APPID
  5
8B
330
9
100
AcDbSymbolTableRecord
100
AcDbRegAppTableRecord
  2
GENIUS_GENODEF_13
 70
     0
  0
APPID
  5
8C
330
9
100
AcDbSymbolTableRecord
100
AcDbRegAppTableRecord
  2
ACATTRIBSERVICES
 70
     0
  0
APPID
  5
2B5
330
9
100
AcDbSymbolTableRecord
100
AcDbRegAppTableRecord
  2
AcAecLayerStandard
 70
     0
  0
ENDTAB
  0
TABLE
  2
DIMSTYLE
  5
A
330
0
100
AcDbSymbolTable
 70
     3
100
AcDbDimStyleTable
 71
     1
340
9C
  0
DIMSTYLE
105
58
330
A
100
AcDbSymbolTableRecord
100
AcDbDimStyleTableRecord
  2
Standard
 70
     0
 41
3.5
 42
2.1
 43
10.5
 44
2.1
 78
    12
 79
     3
140
3.5
143
0.03937
146
0.714286
147
1.4
179
     2
271
     2
272
     2
284
    12
340
55
  0
DIMSTYLE
105
59
330
A
100
AcDbSymbolTableRecord
100
AcDbDimStyleTableRecord
  2
Annotative
 70
     0
 40
0.0
 41
3.5
 42
2.1
 43
10.5
 44
2.1
 73
     0
 74
     0
 77
     1
 78
    12
 79
     3
140
3.5
141
2.5
143
0.03937
146
0.714286
147
1.4
171
     3
172
     1
179
     2
271
     2
272
     2
274
     3
278
    44
283
     0
284
    12
340
55
1001
AcadAnnotative
1000
AnnotativeData
1002
{
1070
     1
1070
     1
1002
}
  0
DIMSTYLE
105
9C
330
A
100
AcDbSymbolTableRecord
100
AcDbDimStyleTableRecord
  2
ISO-25
 70
     0
 41
3.5
 42
2.1
 43
10.5
 44
2.1
 47
0.1
 48
0.1
 73
     0
 74
     0
 77
     1
 78
    12
 79
     3
140
3.5
141
0.0
143
0.03937
146
0.714286
147
1.4
172
     1
176
   256
177
   256
178
   256
179
     2
271
     2
272
     2
274
     4
283
     0
284
    12
285
    12
286
    12
340
55
1001
ACAD_DSTYLE_DIMJAG
1070
   388
1040
1.5
1001
ACAD_DSTYLE_DIMTALN
1070
   392
1070
     1
1001
ACAD_DSTYLE_DIMBREAK
1070
   391
1040
3.5
  0
ENDTAB
  0
TABLE
  2
BLOCK_RECORD
  5
1
330
0
100
AcDbSymbolTable
 70
     2
  0
BLOCK_RECORD
  5
70
102
{ACAD_XDICTIONARY
360
9D
102
}
330
1
100
AcDbSymbolTableRecord
100
AcDbBlockTableRecord
  2
*Model_Space
340
73
 70
     0
280
     1
281
     0
  0
BLOCK_RECORD
  5
6C
330
1
100
AcDbSymbolTableRecord
100
AcDbBlockTableRecord
  2
*Paper_Space
340
6F
 70
     0
280
     1
281
     0
  0
BLOCK_RECORD
  5
74
330
1
100
AcDbSymbolTableRecord
100
AcDbBlockTableRecord
  2
*Paper_Space0
340
77
 70
     0
280
     1
281
     0
  0
ENDTAB
  0
ENDSEC
  0
SECTION
  2
BLOCKS
  0
BLOCK
  5
71
330
70
100
AcDbEntity
  8
0
100
AcDbBlockBegin
  2
*Model_Space
 70
     0
 10
0.0
 20
0.0
 30
0.0
  3
*Model_Space
  1

  0
ENDBLK
  5
72
330
70
100
AcDbEntity
  8
0
100
AcDbBlockEnd
  0
BLOCK
  5
6D
330
6C
100
AcDbEntity
 67
     1
  8
0
100
AcDbBlockBegin
  2
*Paper_Space
 70
     0
 10
0.0
 20
0.0
 30
0.0
  3
*Paper_Space
  1

  0
ENDBLK
  5
6E
330
6C
100
AcDbEntity
 67
     1
  8
0
100
AcDbBlockEnd
  0
BLOCK
  5
75
330
74
100
AcDbEntity
 67
     1
  8
0
100
AcDbBlockBegin
  2
*Paper_Space0
 70
     0
 10
0.0
 20
0.0
 30
0.0
  3
*Paper_Space0
  1

  0
ENDBLK
  5
76
330
74
100
AcDbEntity
 67
     1
  8
0
100
AcDbBlockEnd
  0
ENDSEC
  0
SECTION
  2
ENTITIES
  0
LINE
  5
1AD
330
70
100
AcDbEntity
  8
Visible
100
AcDbLine
 10
70.403209
 20
108.03733
 30
2.617798
 11
70.403209
 21
113.03733
 31
2.617798
210
-1.0
220
0.0000000000000002
230
0.0
  0
LINE
  5
1AE
330
70
100
AcDbEntity
  8
Visible
100
AcDbLine
 10
75.403209
 20
108.03733
 30
2.617798
 11
70.403209
 21
108.03733
 31
2.617798
210
-1.0
220
0.0000000000000002
230
0.0
  0
LINE
  5
1AF
330
70
100
AcDbEntity
  8
Visible
100
AcDbLine
 10
70.403209
 20
75.03733
 30
2.617798
 11
70.403209
 21
80.03733
 31
2.617798
210
-1.0
220
0.0000000000000002
230
0.0
  0
LINE
  5
1B0
330
70
100
AcDbEntity
  8
Visible
100
AcDbLine
 10
70.403209
 20
80.03733
 30
2.617798
 11
75.403209
 21
80.03733
 31
2.617798
210
-1.0
220
0.0000000000000002
230
0.0
  0
LINE
  5
1B1
330
70
100
AcDbEntity
  8
Visible
100
AcDbLine
 10
50.403209
 20
113.03733
 30
2.617798
 11
70.403209
 21
113.03733
 31
2.617798
210
-1.0
220
0.0000000000000002
230
0.0
  0
LINE
  5
1B2
330
70
100
AcDbEntity
  8
Visible
100
AcDbLine
 10
75.403209
 20
108.03733
 30
2.617798
 11
75.403209
 21
80.03733
 31
2.617798
210
-1.0
220
0.0000000000000002
230
0.0
  0
LINE
  5
1B3
330
70
100
AcDbEntity
  8
Visible
100
AcDbLine
 10
70.403209
 20
75.03733
 30
2.617798
 11
50.403209
 21
75.03733
 31
2.617798
210
-1.0
220
0.0000000000000002
230
0.0
  0
CIRCLE
  5
1B4
330
70
100
AcDbEntity
  8
Visible
100
AcDbCircle
 10
-67.903209
 20
110.53733
 30
-2.617798
 40
1.499999999999985
210
0.0000000000000002
220
0.0000000000000002
230
-1.0
  0
CIRCLE
  5
1B5
330
70
100
AcDbEntity
  8
Visible
100
AcDbCircle
 10
-52.903209
 20
110.53733
 30
-2.617798
 40
1.499999999999985
210
0.0000000000000002
220
0.0000000000000002
230
-1.0
  0
LINE
  5
1B6
330
70
100
AcDbEntity
  8
Visible
100
AcDbLine
 10
50.403209
 20
75.03733
 30
2.617798
 11
50.403209
 21
113.03733
 31
2.617798
210
-1.0
220
0.0000000000000002
230
0.0
  0
LINE
  5
1B7
330
70
100
AcDbEntity
  8
Visible
100
AcDbLine
 10
105.373209
 20
107.53733
 30
2.617798
 11
100.373209
 21
107.53733
 31
2.617798
210
-1.0
220
0.0000000000000002
230
0.0
  0
LINE
  5
1B8
330
70
100
AcDbEntity
  8
Visible
100
AcDbLine
 10
100.373209
 20
107.53733
 30
2.617798
 11
100.373209
 21
112.53733
 31
2.617798
210
-1.0
220
0.0000000000000002
230
0.0
  0
LINE
  5
1B9
330
70
100
AcDbEntity
  8
Visible
100
AcDbLine
 10
100.373209
 20
74.53733
 30
2.617798
 11
100.373209
 21
79.53733
 31
2.617798
210
-1.0
220
0.0000000000000002
230
0.0
  0
LINE
  5
1BA
330
70
100
AcDbEntity
  8
Visible
100
AcDbLine
 10
100.373209
 20
79.53733
 30
2.617798
 11
105.373209
 21
79.53733
 31
2.617798
210
-1.0
220
0.0000000000000002
230
0.0
  0
LINE
  5
1BB
330
70
100
AcDbEntity
  8
Visible
100
AcDbLine
 10
80.373209
 20
74.53733
 30
2.617798
 11
100.373209
 21
74.53733
 31
2.617798
210
-1.0
220
0.0000000000000002
230
0.0
  0
LINE
  5
1BC
330
70
100
AcDbEntity
  8
Visible
100
AcDbLine
 10
105.373209
 20
107.53733
 30
2.617798
 11
105.373209
 21
79.53733
 31
2.617798
210
-1.0
220
0.0000000000000002
230
0.0
  0
LINE
  5
1BD
330
70
100
AcDbEntity
  8
Visible
100
AcDbLine
 10
80.373209
 20
112.53733
 30
2.617798
 11
100.373209
 21
112.53733
 31
2.617798
210
-1.0
220
0.0000000000000002
230
0.0
  0
LINE
  5
1BE
330
70
100
AcDbEntity
  8
Visible
100
AcDbLine
 10
80.373209
 20
74.53733
 30
2.617798
 11
80.373209
 21
112.53733
 31
2.617798
210
-1.0
220
0.0000000000000002
230
0.0
  0
CIRCLE
  5
1BF
330
70
100
AcDbEntity
  8
Visible
100
AcDbCircle
 10
-82.873209
 20
110.03733
 30
-2.617798
 40
1.499999999999985
210
0.0000000000000002
220
0.0000000000000002
230
-1.0
  0
CIRCLE
  5
1C0
330
70
100
AcDbEntity
  8
Visible
100
AcDbCircle
 10
-97.873209
 20
110.03733
 30
-2.617798
 40
1.499999999999985
210
0.0000000000000002
220
0.0000000000000002
230
-1.0
  0
LINE
  5
1C1
330
70
100
AcDbEntity
  8
Visible
100
AcDbLine
 10
86.294292
 20
105.393604
 30
2.617798
 11
89.735104
 21
93.510809
 31
2.617798
210
-1.0
220
0.0000000000000002
230
0.0
  0
ARC
  5
1C2
330
70
100
AcDbEntity
  8
Visible
100
AcDbCircle
 10
-86.373209
 20
92.53733
 30
-2.617798
 40
3.499999999999954
210
0.0
220
0.0000000000000002
230
-1.0
100
AcDbArc
 50
163.850964
 51
357.677918
  0
LINE
  5
1C3
330
70
100
AcDbEntity
  8
Visible
100
AcDbLine
 10
82.876083
 20
92.395521
 30
2.617798
 11
82.374851
 21
104.756297
 31
2.617798
210
-1.0
220
0.0000000000000002
230
0.0
  0
ARC
  5
1C4
330
70
100
AcDbEntity
  8
Visible
100
AcDbCircle
 10
-84.373209
 20
104.83733
 30
-2.617798
 40
2.000000000000013
210
0.0
220
0.0000000000000002
230
-1.0
100
AcDbArc
 50
357.677918
 51
163.850964
  0
LINE
  5
1C5
330
70
100
AcDbEntity
  8
Visible
100
AcDbLine
 10
61.053209
 20
147.87733
 30
2.617798
 11
56.053209
 21
147.87733
 31
2.617798
210
-1.0
220
0.0000000000000002
230
0.0
  0
LINE
  5
1C6
330
70
100
AcDbEntity
  8
Visible
100
AcDbLine
 10
56.053209
 20
147.87733
 30
2.617798
 11
56.053209
 21
152.87733
 31
2.617798
210
-1.0
220
0.0000000000000002
230
0.0
  0
LINE
  5
1C7
330
70
100
AcDbEntity
  8
Visible
100
AcDbLine
 10
61.053209
 20
119.87733
 30
2.617798
 11
56.053209
 21
119.87733
 31
2.617798
210
-1.0
220
0.0000000000000002
230
0.0
  0
LINE
  5
1C8
330
70
100
AcDbEntity
  8
Visible
100
AcDbLine
 10
56.053209
 20
114.87733
 30
2.617798
 11
56.053209
 21
119.87733
 31
2.617798
210
-1.0
220
0.0000000000000002
230
0.0
  0
LINE
  5
1C9
330
70
100
AcDbEntity
  8
Visible
100
AcDbLine
 10
61.053209
 20
147.87733
 30
2.617798
 11
61.053209
 21
119.87733
 31
2.617798
210
-1.0
220
0.0000000000000002
230
0.0
  0
LINE
  5
1CA
330
70
100
AcDbEntity
  8
Visible
100
AcDbLine
 10
91.053209
 20
147.87733
 30
2.617798
 11
96.053209
 21
147.87733
 31
2.617798
210
-1.0
220
0.0000000000000002
230
0.0
  0
LINE
  5
1CB
330
70
100
AcDbEntity
  8
Visible
100
AcDbLine
 10
96.053209
 20
152.87733
 30
2.617798
 11
96.053209
 21
147.87733
 31
2.617798
210
-1.0
220
0.0000000000000002
230
0.0
  0
LINE
  5
1CC
330
70
100
AcDbEntity
  8
Visible
100
AcDbLine
 10
91.053209
 20
119.87733
 30
2.617798
 11
96.053209
 21
119.87733
 31
2.617798
210
-1.0
220
0.0000000000000002
230
0.0
  0
LINE
  5
1CD
330
70
100
AcDbEntity
  8
Visible
100
AcDbLine
 10
96.053209
 20
119.87733
 30
2.617798
 11
96.053209
 21
114.87733
 31
2.617798
210
-1.0
220
0.0000000000000002
230
0.0
  0
LINE
  5
1CE
330
70
100
AcDbEntity
  8
Visible
100
AcDbLine
 10
91.053209
 20
119.87733
 30
2.617798
 11
91.053209
 21
147.87733
 31
2.617798
210
-1.0
220
0.0000000000000002
230
0.0
  0
LINE
  5
1CF
330
70
100
AcDbEntity
  8
Visible
100
AcDbLine
 10
56.053209
 20
114.87733
 30
2.617798
 11
96.053209
 21
114.87733
 31
2.617798
210
-1.0
220
0.0000000000000002
230
0.0
  0
CIRCLE
  5
1D0
330
70
100
AcDbEntity
  8
Visible
100
AcDbCircle
 10
-80.053209
 20
118.37733
 30
-2.617798
 40
1.499999999999985
210
0.0
220
0.0000000000000002
230
-1.0
  0
CIRCLE
  5
1D1
330
70
100
AcDbEntity
  8
Visible
100
AcDbCircle
 10
-72.053209
 20
118.37733
 30
-2.617798
 40
1.499999999999985
210
0.0
220
0.0000000000000002
230
-1.0
  0
LINE
  5
1D2
330
70
100
AcDbEntity
  8
Visible
100
AcDbLine
 10
56.053209
 20
152.87733
 30
2.617798
 11
96.053209
 21
152.87733
 31
2.617798
210
-1.0
220
0.0000000000000002
230
0.0
  0
LINE
  5
1D3
330
70
100
AcDbEntity
  8
Visible
100
AcDbLine
 10
183.403225
 20
158.15733
 30
2.617798
 11
183.403225
 21
165.15733
 31
2.617798
210
-1.0
220
0.0000000000000002
230
0.0
  0
LINE
  5
1D4
330
70
100
AcDbEntity
  8
Visible
100
AcDbLine
 10
183.403225
 20
165.15733
 30
2.617798
 11
187.403225
 21
165.15733
 31
2.617798
210
-1.0
220
0.0000000000000002
230
0.0
  0
LINE
  5
1D5
330
70
100
AcDbEntity
  8
Visible
100
AcDbLine
 10
187.403225
 20
158.15733
 30
2.617798
 11
183.403225
 21
158.15733
 31
2.617798
210
-1.0
220
0.0000000000000002
230
0.0
  0
LINE
  5
1D6
330
70
100
AcDbEntity
  8
Visible
100
AcDbLine
 10
183.403225
 20
178.15733
 30
2.617798
 11
183.403225
 21
194.15733
 31
2.617798
210
-1.0
220
0.0000000000000002
230
0.0
  0
LINE
  5
1D7
330
70
100
AcDbEntity
  8
Visible
100
AcDbLine
 10
183.403225
 20
194.15733
 30
2.617798
 11
187.403225
 21
194.15733
 31
2.617798
210
-1.0
220
0.0000000000000002
230
0.0
  0
LINE
  5
1D8
330
70
100
AcDbEntity
  8
Visible
100
AcDbLine
 10
187.403225
 20
178.15733
 30
2.617798
 11
183.403225
 21
178.15733
 31
2.617798
210
-1.0
220
0.0000000000000002
230
0.0
  0
LINE
  5
1D9
330
70
100
AcDbEntity
  8
Visible
100
AcDbLine
 10
187.403225
 20
151.85733
 30
2.617798
 11
187.403225
 21
158.15733
 31
2.617798
210
-1.0
220
0.0000000000000002
230
0.0
  0
LINE
  5
1DA
330
70
100
AcDbEntity
  8
Visible
100
AcDbLine
 10
187.403225
 20
194.15733
 30
2.617798
 11
187.403225
 21
203.157333
 31
2.617798
210
-1.0
220
0.0000000000000002
230
0.0
  0
CIRCLE
  5
1DB
330
70
100
AcDbEntity
  8
Visible
100
AcDbCircle
 10
-166.403225
 20
186.15733
 30
-2.617798
 40
6.999999999999957
210
-0.0000000000000002
220
0.0000000000000002
230
-1.0
  0
ARC
  5
1DC
330
70
100
AcDbEntity
  8
Visible
100
AcDbCircle
 10
-161.403209
 20
198.157333
 30
-2.617798
 40
4.999999999999999
210
0.0
220
0.0000000000000002
230
-1.0
100
AcDbArc
 50
0.0
 51
90.0
  0
LINE
  5
1DD
330
70
100
AcDbEntity
  8
Visible
100
AcDbLine
 10
156.403209
 20
161.85733
 30
2.617798
 11
156.403209
 21
198.157333
 31
2.617798
210
-1.0
220
0.0000000000000002
230
0.0
  0
ARC
  5
1DE
330
70
100
AcDbEntity
  8
Visible
100
AcDbCircle
 10
-166.403209
 20
161.85733
 30
-2.617798
 40
9.999999999999998
210
-0.0000000000000002
220
0.0000000000000002
230
-1.0
100
AcDbArc
 50
270.0
 51
0.0
  0
LINE
  5
1DF
330
70
100
AcDbEntity
  8
Visible
100
AcDbLine
 10
187.403225
 20
151.85733
 30
2.617798
 11
166.403209
 21
151.85733
 31
2.617798
210
-1.0
220
0.0000000000000002
230
0.0
  0
LINE
  5
1E0
330
70
100
AcDbEntity
  8
Visible
100
AcDbLine
 10
178.403225
 20
169.15733
 30
2.617798
 11
178.403225
 21
174.15733
 31
2.617798
210
-1.0
220
0.0000000000000002
230
0.0
  0
LINE
  5
1E1
330
70
100
AcDbEntity
  8
Visible
100
AcDbLine
 10
183.403225
 20
169.15733
 30
2.617798
 11
178.403225
 21
169.15733
 31
2.617798
210
-1.0
220
0.0000000000000002
230
0.0
  0
LINE
  5
1E2
330
70
100
AcDbEntity
  8
Visible
100
AcDbLine
 10
183.403225
 20
174.15733
 30
2.617798
 11
183.403225
 21
169.15733
 31
2.617798
210
-1.0
220
0.0000000000000002
230
0.0
  0
LINE
  5
1E3
330
70
100
AcDbEntity
  8
Visible
100
AcDbLine
 10
178.403225
 20
174.15733
 30
2.617798
 11
183.403225
 21
174.15733
 31
2.617798
210
-1.0
220
0.0000000000000002
230
0.0
  0
LINE
  5
1E4
330
70
100
AcDbEntity
  8
Visible
100
AcDbLine
 10
183.403225
 20
198.15733
 30
2.617798
 11
178.403225
 21
198.15733
 31
2.617798
210
-1.0
220
0.0000000000000002
230
0.0
  0
LINE
  5
1E5
330
70
100
AcDbEntity
  8
Visible
100
AcDbLine
 10
183.403225
 20
203.15733
 30
2.617798
 11
183.403225
 21
198.15733
 31
2.617798
210
-1.0
220
0.0000000000000002
230
0.0
  0
LINE
  5
1E6
330
70
100
AcDbEntity
  8
Visible
100
AcDbLine
 10
178.403225
 20
198.15733
 30
2.617798
 11
178.403225
 21
203.15733
 31
2.617798
210
-1.0
220
0.0000000000000002
230
0.0
  0
LINE
  5
1E7
330
70
100
AcDbEntity
  8
Visible
100
AcDbLine
 10
183.403225
 20
203.157333
 30
2.617798
 11
187.403225
 21
203.157333
 31
2.617798
210
-1.0
220
0.0000000000000002
230
0.0
  0
LINE
  5
1E8
330
70
100
AcDbEntity
  8
Visible
100
AcDbLine
 10
161.403209
 20
203.157333
 30
2.617798
 11
178.403225
 21
203.157333
 31
2.617798
210
-1.0
220
0.0000000000000002
230
0.0
  0
LINE
  5
1E9
330
70
100
AcDbEntity
  8
Visible
100
AcDbLine
 10
187.403225
 20
165.15733
 30
2.617798
 11
187.403225
 21
178.15733
 31
2.617798
210
-1.0
220
0.0000000000000002
230
0.0
  0
CIRCLE
  5
1EA
330
70
100
AcDbEntity
  8
Visible
100
AcDbCircle
 10
-172.903225
 20
165.60733
 30
-2.617798
 40
1.499999999999985
210
-0.0000000000000002
220
0.0000000000000002
230
-1.0
  0
CIRCLE
  5
1EB
330
70
100
AcDbEntity
  8
Visible
100
AcDbCircle
 10
-172.903225
 20
159.98233
 30
-2.617798
 40
1.499999999999985
210
-0.0000000000000002
220
0.0000000000000002
230
-1.0
  0
CIRCLE
  5
1EC
330
70
100
AcDbEntity
  8
Visible
100
AcDbCircle
 10
-168.903225
 20
159.98233
 30
-2.617798
 40
1.499999999999985
210
-0.0000000000000002
220
0.0000000000000002
230
-1.0
  0
CIRCLE
  5
1ED
330
70
100
AcDbEntity
  8
Visible
100
AcDbCircle
 10
-168.903225
 20
165.60733
 30
-2.617798
 40
1.499999999999985
210
-0.0000000000000002
220
0.0000000000000002
230
-1.0
  0
CIRCLE
  5
1EE
330
70
100
AcDbEntity
  8
Visible
100
AcDbCircle
 10
168.903225
 20
154.35733
 30
2.617798
 40
1.499999999999985
  0
CIRCLE
  5
1EF
330
70
100
AcDbEntity
  8
Visible
100
AcDbCircle
 10
183.903225
 20
154.35733
 30
2.617798
 40
1.499999999999985
  0
LINE
  5
1F0
330
70
100
AcDbEntity
  8
Visible
100
AcDbLine
 10
241.403225
 20
165.15733
 30
2.617798
 11
241.403225
 21
158.15733
 31
2.617798
210
-1.0
220
0.0000000000000002
230
0.0
  0
LINE
  5
1F1
330
70
100
AcDbEntity
  8
Visible
100
AcDbLine
 10
237.403225
 20
165.15733
 30
2.617798
 11
241.403225
 21
165.15733
 31
2.617798
210
-1.0
220
0.0000000000000002
230
0.0
  0
LINE
  5
1F2
330
70
100
AcDbEntity
  8
Visible
100
AcDbLine
 10
241.403225
 20
158.15733
 30
2.617798
 11
237.403225
 21
158.15733
 31
2.617798
210
-1.0
220
0.0000000000000002
230
0.0
  0
LINE
  5
1F3
330
70
100
AcDbEntity
  8
Visible
100
AcDbLine
 10
241.403225
 20
194.15733
 30
2.617798
 11
241.403225
 21
178.15733
 31
2.617798
210
-1.0
220
0.0000000000000002
230
0.0
  0
LINE
  5
1F4
330
70
100
AcDbEntity
  8
Visible
100
AcDbLine
 10
237.403225
 20
194.15733
 30
2.617798
 11
241.403225
 21
194.15733
 31
2.617798
210
-1.0
220
0.0000000000000002
230
0.0
  0
LINE
  5
1F5
330
70
100
AcDbEntity
  8
Visible
100
AcDbLine
 10
241.403225
 20
178.15733
 30
2.617798
 11
237.403225
 21
178.15733
 31
2.617798
210
-1.0
220
0.0000000000000002
230
0.0
  0
LINE
  5
1F6
330
70
100
AcDbEntity
  8
Visible
100
AcDbLine
 10
246.403225
 20
174.15733
 30
2.617798
 11
246.403225
 21
169.15733
 31
2.617798
210
-1.0
220
0.0000000000000002
230
0.0
  0
LINE
  5
1F7
330
70
100
AcDbEntity
  8
Visible
100
AcDbLine
 10
246.403225
 20
169.15733
 30
2.617798
 11
241.403225
 21
169.15733
 31
2.617798
210
-1.0
220
0.0000000000000002
230
0.0
  0
LINE
  5
1F8
330
70
100
AcDbEntity
  8
Visible
100
AcDbLine
 10
241.403225
 20
169.15733
 30
2.617798
 11
241.403225
 21
174.15733
 31
2.617798
210
-1.0
220
0.0000000000000002
230
0.0
  0
LINE
  5
1F9
330
70
100
AcDbEntity
  8
Visible
100
AcDbLine
 10
241.403225
 20
174.15733
 30
2.617798
 11
246.403225
 21
174.15733
 31
2.617798
210
-1.0
220
0.0000000000000002
230
0.0
  0
LINE
  5
1FA
330
70
100
AcDbEntity
  8
Visible
100
AcDbLine
 10
237.403225
 20
151.85733
 30
2.617798
 11
237.403225
 21
158.15733
 31
2.617798
210
-1.0
220
0.0000000000000002
230
0.0
  0
LINE
  5
1FB
330
70
100
AcDbEntity
  8
Visible
100
AcDbLine
 10
258.40324
 20
151.85733
 30
2.617798
 11
237.403225
 21
151.85733
 31
2.617798
210
-1.0
220
0.0000000000000002
230
0.0
  0
ARC
  5
1FC
330
70
100
AcDbEntity
  8
Visible
100
AcDbCircle
 10
-258.40324
 20
161.85733
 30
-2.617798
 40
9.999999999999998
210
0.0
220
0.0000000000000002
230
-1.0
100
AcDbArc
 50
180.0
 51
270.0
  0
LINE
  5
1FD
330
70
100
AcDbEntity
  8
Visible
100
AcDbLine
 10
268.40324
 20
161.85733
 30
2.617798
 11
268.40324
 21
198.157333
 31
2.617798
210
-1.0
220
0.0000000000000002
230
0.0
  0
ARC
  5
1FE
330
70
100
AcDbEntity
  8
Visible
100
AcDbCircle
 10
-263.40324
 20
198.157333
 30
-2.617798
 40
4.999999999999999
210
0.0000000000000002
220
0.0000000000000002
230
-1.0
100
AcDbArc
 50
90.0
 51
180.0
  0
LINE
  5
1FF
330
70
100
AcDbEntity
  8
Visible
100
AcDbLine
 10
246.403225
 20
203.157333
 30
2.617798
 11
263.40324
 21
203.157333
 31
2.617798
210
-1.0
220
0.0000000000000002
230
0.0
  0
LINE
  5
200
330
70
100
AcDbEntity
  8
Visible
100
AcDbLine
 10
246.403225
 20
203.15733
 30
2.617798
 11
246.403225
 21
198.15733
 31
2.617798
210
-1.0
220
0.0000000000000002
230
0.0
  0
LINE
  5
201
330
70
100
AcDbEntity
  8
Visible
100
AcDbLine
 10
246.403225
 20
198.15733
 30
2.617798
 11
241.403225
 21
198.15733
 31
2.617798
210
-1.0
220
0.0000000000000002
230
0.0
  0
LINE
  5
202
330
70
100
AcDbEntity
  8
Visible
100
AcDbLine
 10
241.403225
 20
198.15733
 30
2.617798
 11
241.403225
 21
203.15733
 31
2.617798
210
-1.0
220
0.0000000000000002
230
0.0
  0
LINE
  5
203
330
70
100
AcDbEntity
  8
Visible
100
AcDbLine
 10
237.403225
 20
203.157333
 30
2.617798
 11
241.403225
 21
203.157333
 31
2.617798
210
-1.0
220
0.0000000000000002
230
0.0
  0
LINE
  5
204
330
70
100
AcDbEntity
  8
Visible
100
AcDbLine
 10
237.403225
 20
194.15733
 30
2.617798
 11
237.403225
 21
203.157333
 31
2.617798
210
-1.0
220
0.0000000000000002
230
0.0
  0
LINE
  5
205
330
70
100
AcDbEntity
  8
Visible
100
AcDbLine
 10
237.403225
 20
165.15733
 30
2.617798
 11
237.403225
 21
178.15733
 31
2.617798
210
-1.0
220
0.0000000000000002
230
0.0
  0
CIRCLE
  5
206
330
70
100
AcDbEntity
  8
Visible
100
AcDbCircle
 10
-255.903225
 20
154.35733
 30
-2.617798
 40
1.499999999999985
210
0.0000000000000002
220
0.0000000000000002
230
-1.0
  0
CIRCLE
  5
207
330
70
100
AcDbEntity
  8
Visible
100
AcDbCircle
 10
-240.903225
 20
154.35733
 30
-2.617798
 40
1.499999999999985
210
0.0000000000000002
220
0.0000000000000002
230
-1.0
  0
CIRCLE
  5
208
330
70
100
AcDbEntity
  8
Visible
100
AcDbCircle
 10
-255.903225
 20
165.60733
 30
-2.617798
 40
1.499999999999985
210
0.0000000000000002
220
0.0000000000000002
230
-1.0
  0
CIRCLE
  5
209
330
70
100
AcDbEntity
  8
Visible
100
AcDbCircle
 10
-255.903225
 20
159.98233
 30
-2.617798
 40
1.499999999999985
210
0.0000000000000002
220
0.0000000000000002
230
-1.0
  0
CIRCLE
  5
20A
330
70
100
AcDbEntity
  8
Visible
100
AcDbCircle
 10
-251.903225
 20
159.98233
 30
-2.617798
 40
1.499999999999985
210
0.0000000000000002
220
0.0000000000000002
230
-1.0
  0
CIRCLE
  5
20B
330
70
100
AcDbEntity
  8
Visible
100
AcDbCircle
 10
-251.903225
 20
165.60733
 30
-2.617798
 40
1.499999999999985
210
0.0000000000000002
220
0.0000000000000002
230
-1.0
  0
CIRCLE
  5
20C
330
70
100
AcDbEntity
  8
Visible
100
AcDbCircle
 10
-258.403225
 20
186.15733
 30
-2.617798
 40
6.999999999999957
210
0.0000000000000002
220
0.0000000000000002
230
-1.0
  0
CIRCLE
  5
20D
330
70
100
AcDbEntity
  8
Visible
100
AcDbCircle
 10
-203.403224
 20
198.157333
 30
-2.617798
 40
1.999999999999992
210
0.0
220
0.0000000000000002
230
-1.0
  0
CIRCLE
  5
20E
330
70
100
AcDbEntity
  8
Visible
100
AcDbCircle
 10
-203.403224
 20
174.157333
 30
-2.617798
 40
2.000000000000028
210
0.0
220
0.0000000000000002
230
-1.0
  0
CIRCLE
  5
20F
330
70
100
AcDbEntity
  8
Visible
100
AcDbCircle
 10
-221.403224
 20
198.157333
 30
-2.617798
 40
2.000000000000028
210
0.0
220
0.0000000000000002
230
-1.0
  0
CIRCLE
  5
210
330
70
100
AcDbEntity
  8
Visible
100
AcDbCircle
 10
-221.403224
 20
174.157333
 30
-2.617798
 40
1.999999999999992
210
0.0
220
0.0000000000000002
230
-1.0
  0
LINE
  5
211
330
70
100
AcDbEntity
  8
Visible
100
AcDbLine
 10
227.403225
 20
174.157333
 30
2.617798
 11
232.403225
 21
174.157333
 31
2.617798
210
-1.0
220
0.0000000000000002
230
0.0
  0
LINE
  5
212
330
70
100
AcDbEntity
  8
Visible
100
AcDbLine
 10
232.403225
 20
174.157333
 30
2.617798
 11
232.403225
 21
169.157333
 31
2.617798
210
-1.0
220
0.0000000000000002
230
0.0
  0
LINE
  5
213
330
70
100
AcDbEntity
  8
Visible
100
AcDbLine
 10
227.403225
 20
198.157333
 30
2.617798
 11
232.403225
 21
198.157333
 31
2.617798
210
-1.0
220
0.0000000000000002
230
0.0
  0
LINE
  5
214
330
70
100
AcDbEntity
  8
Visible
100
AcDbLine
 10
232.403225
 20
203.157333
 30
2.617798
 11
232.403225
 21
198.157333
 31
2.617798
210
-1.0
220
0.0000000000000002
230
0.0
  0
LINE
  5
215
330
70
100
AcDbEntity
  8
Visible
100
AcDbLine
 10
227.403225
 20
198.157333
 30
2.617798
 11
227.403225
 21
174.157333
 31
2.617798
210
-1.0
220
0.0000000000000002
230
0.0
  0
LINE
  5
216
330
70
100
AcDbEntity
  8
Visible
100
AcDbLine
 10
197.403225
 20
198.157333
 30
2.617798
 11
192.403225
 21
198.157333
 31
2.617798
210
-1.0
220
0.0000000000000002
230
0.0
  0
LINE
  5
217
330
70
100
AcDbEntity
  8
Visible
100
AcDbLine
 10
192.403225
 20
198.157333
 30
2.617798
 11
192.403225
 21
203.157333
 31
2.617798
210
-1.0
220
0.0000000000000002
230
0.0
  0
LINE
  5
218
330
70
100
AcDbEntity
  8
Visible
100
AcDbLine
 10
197.403225
 20
174.157333
 30
2.617798
 11
192.403225
 21
174.157333
 31
2.617798
210
-1.0
220
0.0000000000000002
230
0.0
  0
LINE
  5
219
330
70
100
AcDbEntity
  8
Visible
100
AcDbLine
 10
192.403225
 20
169.157333
 30
2.617798
 11
192.403225
 21
174.157333
 31
2.617798
210
-1.0
220
0.0000000000000002
230
0.0
  0
LINE
  5
21A
330
70
100
AcDbEntity
  8
Visible
100
AcDbLine
 10
197.403225
 20
174.157333
 30
2.617798
 11
197.403225
 21
198.157333
 31
2.617798
210
-1.0
220
0.0000000000000002
230
0.0
  0
LINE
  5
21B
330
70
100
AcDbEntity
  8
Visible
100
AcDbLine
 10
232.403225
 20
203.157333
 30
2.617798
 11
192.403225
 21
203.157333
 31
2.617798
210
-1.0
220
0.0000000000000002
230
0.0
  0
LINE
  5
21C
330
70
100
AcDbEntity
  8
Visible
100
AcDbLine
 10
192.403225
 20
169.157333
 30
2.617798
 11
232.403225
 21
169.157333
 31
2.617798
210
-1.0
220
0.0000000000000002
230
0.0
  0
CIRCLE
  5
21D
330
70
100
AcDbEntity
  8
Visible
100
AcDbCircle
 10
-179.813443
 20
125.031459
 30
-2.334865
 40
1.499999999999999
210
0.0000011143792834
220
0.0004415765369302
230
-0.9999999025044555
  0
ARC
  5
21E
330
70
100
AcDbEntity
  8
Visible
100
AcDbCircle
 10
179.813443
 20
125.031459
 30
-2.665135
 40
1.499999999999999
210
-0.000001114379284
220
-0.0004415765369302
230
0.9999999025044553
100
AcDbArc
 50
179.897574
 51
359.813239
  0
CIRCLE
  5
21F
330
70
100
AcDbEntity
  8
Visible
100
AcDbCircle
 10
-179.733318
 20
109.217113
 30
-2.334865
 40
1.499999999999986
210
0.0000011143792834
220
0.0004415765369302
230
-0.9999999025044555
  0
ARC
  5
220
330
70
100
AcDbEntity
  8
Visible
100
AcDbCircle
 10
179.733318
 20
109.217113
 30
-2.665135
 40
1.499999999999986
210
-0.0000011143792745
220
-0.0004415765369302
230
0.9999999025044553
100
AcDbArc
 50
179.897574
 51
359.813239
  0
CIRCLE
  5
221
330
70
100
AcDbEntity
  8
Visible
100
AcDbCircle
 10
-179.893568
 20
140.845806
 30
-2.334865
 40
1.499999999999986
210
0.0000011143792834
220
0.0004415765369302
230
-0.9999999025044555
  0
ARC
  5
222
330
70
100
AcDbEntity
  8
Visible
100
AcDbCircle
 10
179.893568
 20
140.845806
 30
-2.665135
 40
1.499999999999986
210
-0.0000011143792745
220
-0.0004415765369302
230
0.9999999025044553
100
AcDbArc
 50
179.897574
 51
359.813239
  0
LINE
  5
223
330
70
100
AcDbEntity
  8
Visible
100
AcDbLine
 10
177.393597
 20
140.857428
 30
2.397262
 11
177.233347
 21
109.228737
 31
2.383295
210
-1.0
220
0.0000000000000002
230
0.0
  0
LINE
  5
224
330
70
100
AcDbEntity
  8
Visible
100
AcDbLine
 10
177.393603
 20
140.859635
 30
-2.602738
 11
177.393597
 21
140.857428
 31
2.397262
210
-1.0
220
0.0000000000000002
230
0.0
  0
ARC
  5
225
330
70
100
AcDbEntity
  8
Visible
100
AcDbCircle
 10
179.893568
 20
140.845806
 30
-2.665135
 40
2.5
210
-0.0000011143792834
220
-0.0004415765369302
230
0.9999999025044555
100
AcDbArc
 50
359.855406
 51
179.709708
  0
ARC
  5
226
330
70
100
AcDbEntity
  8
Visible
100
AcDbCircle
 10
179.893568
 20
140.845806
 30
2.334865
 40
2.5
210
-0.0000011143792714
220
-0.0004415765369303
230
0.9999999025044553
100
AcDbArc
 50
359.709708
 51
179.709708
  0
LINE
  5
227
330
70
100
AcDbEntity
  8
Visible
100
AcDbLine
 10
182.233283
 20
109.203405
 30
2.38329
 11
182.393533
 21
140.832095
 31
2.397256
210
-1.0
220
0.0000000000000002
230
0.0
  0
ARC
  5
228
330
70
100
AcDbEntity
  8
Visible
100
AcDbCircle
 10
179.733318
 20
109.217113
 30
2.334865
 40
2.5
210
-0.0000011143792714
220
-0.0004415765369303
230
0.9999999025044553
100
AcDbArc
 50
179.709708
 51
359.709708
  0
LINE
  5
229
330
70
100
AcDbEntity
  8
Visible
100
AcDbLine
 10
182.393562
 20
140.84066
 30
-2.60274
 11
182.393557
 21
140.838452
 31
2.397259
210
-1.0
220
0.0000000000000002
230
0.0
  0
LINE
  5
22A
330
70
100
AcDbEntity
  8
Visible
100
AcDbLine
 10
177.233329
 20
109.224588
 30
-2.616707
 11
177.233323
 21
109.22238
 31
2.383292
210
-1.0
220
0.0000000000000002
230
0.0
  0
ARC
  5
22B
330
70
100
AcDbEntity
  8
Visible
100
AcDbCircle
 10
-207.403209
 20
128.15733
 30
-2.617798
 40
20.0
210
0.0
220
0.0000000000000002
230
-1.0
100
AcDbArc
 50
0.0
 51
90.0
  0
LINE
  5
22C
330
70
100
AcDbEntity
  8
Visible
100
AcDbLine
 10
187.403209
 20
128.15733
 30
2.617798
 11
187.403209
 21
108.15733
 31
2.617798
210
-1.0
220
0.0000000000000002
230
0.0
  0
ARC
  5
22D
330
70
100
AcDbEntity
  8
Visible
100
AcDbCircle
 10
-267.403209
 20
128.15733
 30
-2.617798
 40
20.0
210
0.0
220
0.0000000000000002
230
-1.0
100
AcDbArc
 50
90.0
 51
180.0
  0
LINE
  5
22E
330
70
100
AcDbEntity
  8
Visible
100
AcDbLine
 10
287.403209
 20
108.15733
 30
2.617798
 11
287.403209
 21
128.15733
 31
2.617798
210
-1.0
220
0.0000000000000002
230
0.0
  0
LINE
  5
22F
330
70
100
AcDbEntity
  8
Visible
100
AcDbLine
 10
239.903209
 20
148.15733
 30
2.617798
 11
239.903209
 21
128.15733
 31
2.617798
210
-1.0
220
0.0000000000000002
230
0.0
  0
LINE
  5
230
330
70
100
AcDbEntity
  8
Visible
100
AcDbLine
 10
267.403209
 20
148.15733
 30
2.617798
 11
239.903209
 21
148.15733
 31
2.617798
210
-1.0
220
0.0000000000000002
230
0.0
  0
LINE
  5
231
330
70
100
AcDbEntity
  8
Visible
100
AcDbLine
 10
187.403209
 20
108.15733
 30
2.617798
 11
287.403209
 21
108.15733
 31
2.617798
210
-1.0
220
0.0000000000000002
230
0.0
  0
LINE
  5
232
330
70
100
AcDbEntity
  8
Visible
100
AcDbLine
 10
234.903209
 20
148.15733
 30
2.617798
 11
207.403209
 21
148.15733
 31
2.617798
210
-1.0
220
0.0000000000000002
230
0.0
  0
LINE
  5
233
330
70
100
AcDbEntity
  8
Visible
100
AcDbLine
 10
234.903209
 20
128.15733
 30
2.617798
 11
234.903209
 21
148.15733
 31
2.617798
210
-1.0
220
0.0000000000000002
230
0.0
  0
LINE
  5
234
330
70
100
AcDbEntity
  8
Visible
100
AcDbLine
 10
239.903209
 20
128.15733
 30
2.617798
 11
234.903209
 21
128.15733
 31
2.617798
210
-1.0
220
0.0000000000000002
230
0.0
  0
LINE
  5
235
330
70
100
AcDbEntity
  8
Visible
100
AcDbLine
 10
7.403209
 20
13.15733
 30
2.617798
 11
7.403209
 21
205.157333
 31
2.617798
210
-1.0
220
0.0000000000000002
230
0.0
  0
LINE
  5
236
330
70
100
AcDbEntity
  8
Visible
100
AcDbLine
 10
7.403209
 20
13.15733
 30
2.617798
 11
147.403209
 21
13.15733
 31
2.617798
210
-1.0
220
0.0000000000000002
230
0.0
  0
LINE
  5
237
330
70
100
AcDbEntity
  8
Visible
100
AcDbLine
 10
147.403209
 20
13.15733
 30
2.617798
 11
147.403209
 21
205.157333
 31
2.617798
210
-1.0
220
0.0000000000000002
230
0.0
  0
LINE
  5
238
330
70
100
AcDbEntity
  8
Visible
100
AcDbLine
 10
7.403209
 20
205.157333
 30
2.617798
 11
147.403209
 21
205.157333
 31
2.617798
210
-1.0
220
0.0000000000000002
230
0.0
  0
CIRCLE
  5
239
330
70
100
AcDbEntity
  8
Visible
100
AcDbCircle
 10
-136.407382
 20
180.85733
 30
-2.617798
 40
1.500000000000021
210
0.0
220
0.0000000000000002
230
-1.0
  0
CIRCLE
  5
23A
330
70
100
AcDbEntity
  8
Visible
100
AcDbCircle
 10
-64.899037
 20
180.85733
 30
-2.617798
 40
1.499999999999985
210
0.0
220
0.0000000000000002
230
-1.0
  0
CIRCLE
  5
23B
330
70
100
AcDbEntity
  8
Visible
100
AcDbCircle
 10
-18.360644
 20
156.157283
 30
-2.617798
 40
1.500000000000003
210
0.0
220
0.0000000000000002
230
-1.0
  0
CIRCLE
  5
23C
330
70
100
AcDbEntity
  8
Visible
100
AcDbCircle
 10
-136.407382
 20
140.65733
 30
-2.617798
 40
1.500000000000021
210
0.0
220
0.0000000000000002
230
-1.0
  0
CIRCLE
  5
23D
330
70
100
AcDbEntity
  8
Visible
100
AcDbCircle
 10
-136.403209
 20
68.157332
 30
-2.617798
 40
1.499999999999985
210
0.0
220
0.0000000000000002
230
-1.0
  0
CIRCLE
  5
23E
330
70
100
AcDbEntity
  8
Visible
100
AcDbCircle
 10
-18.403209
 20
83.657332
 30
-2.617798
 40
1.500000000000003
210
0.0
220
0.0000000000000002
230
-1.0
  0
CIRCLE
  5
23F
330
70
100
AcDbEntity
  8
Visible
100
AcDbCircle
 10
-120.907382
 20
18.65733
 30
-2.617798
 40
1.499999999999985
210
0.0
220
0.0000000000000002
230
-1.0
  0
CIRCLE
  5
240
330
70
100
AcDbEntity
  8
Visible
100
AcDbCircle
 10
-49.399037
 20
18.65733
 30
-2.617798
 40
1.499999999999985
210
0.0
220
0.0000000000000002
230
-1.0
  0
CIRCLE
  5
241
330
70
100
AcDbEntity
  8
Visible
100
AcDbCircle
 10
-33.899037
 20
18.65733
 30
-2.617798
 40
1.499999999999985
210
0.0
220
0.0000000000000002
230
-1.0
  0
CIRCLE
  5
242
330
70
100
AcDbEntity
  8
Visible
100
AcDbCircle
 10
-105.407382
 20
18.65733
 30
-2.617798
 40
1.499999999999985
210
0.0
220
0.0000000000000002
230
-1.0
  0
CIRCLE
  5
243
330
70
100
AcDbEntity
  8
Visible
100
AcDbCircle
 10
-18.403209
 20
99.157332
 30
-2.617798
 40
1.500000000000003
210
0.0
220
0.0000000000000002
230
-1.0
  0
CIRCLE
  5
244
330
70
100
AcDbEntity
  8
Visible
100
AcDbCircle
 10
-136.403209
 20
52.657332
 30
-2.617798
 40
1.499999999999985
210
0.0
220
0.0000000000000002
230
-1.0
  0
CIRCLE
  5
245
330
70
100
AcDbEntity
  8
Visible
100
AcDbCircle
 10
-136.403209
 20
114.657332
 30
-2.617798
 40
1.499999999999985
210
0.0
220
0.0000000000000002
230
-1.0
  0
CIRCLE
  5
246
330
70
100
AcDbEntity
  8
Visible
100
AcDbCircle
 10
-14.403209
 20
168.15733
 30
-2.617798
 40
2.749999999999985
210
0.0
220
0.0000000000000002
230
-1.0
  0
CIRCLE
  5
247
330
70
100
AcDbEntity
  8
Visible
100
AcDbCircle
 10
-49.399037
 20
180.85733
 30
-2.617798
 40
1.499999999999985
210
0.0
220
0.0000000000000002
230
-1.0
  0
CIRCLE
  5
248
330
70
100
AcDbEntity
  8
Visible
100
AcDbCircle
 10
-120.907382
 20
180.85733
 30
-2.617798
 40
1.499999999999985
210
0.0
220
0.0000000000000002
230
-1.0
  0
CIRCLE
  5
249
330
70
100
AcDbEntity
  8
Visible
100
AcDbCircle
 10
-89.907382
 20
180.85733
 30
-2.617798
 40
1.499999999999985
210
0.0
220
0.0000000000000002
230
-1.0
  0
CIRCLE
  5
24A
330
70
100
AcDbEntity
  8
Visible
100
AcDbCircle
 10
-18.399037
 20
140.65733
 30
-2.617798
 40
1.500000000000003
210
0.0
220
0.0000000000000002
230
-1.0
  0
CIRCLE
  5
24B
330
70
100
AcDbEntity
  8
Visible
100
AcDbCircle
 10
-136.407382
 20
159.65733
 30
-2.617798
 40
1.500000000000021
210
0.0
220
0.0000000000000002
230
-1.0
  0
CIRCLE
  5
24C
330
70
100
AcDbEntity
  8
Visible
100
AcDbCircle
 10
-136.403209
 20
83.657332
 30
-2.617798
 40
1.499999999999985
210
0.0
220
0.0000000000000002
230
-1.0
  0
CIRCLE
  5
24D
330
70
100
AcDbEntity
  8
Visible
100
AcDbCircle
 10
-18.403209
 20
68.157332
 30
-2.617798
 40
1.500000000000003
210
0.0
220
0.0000000000000002
230
-1.0
  0
CIRCLE
  5
24E
330
70
100
AcDbEntity
  8
Visible
100
AcDbCircle
 10
-136.403213
 20
18.65733
 30
-2.617798
 40
1.499999999999985
210
0.0
220
0.0000000000000002
230
-1.0
  0
CIRCLE
  5
24F
330
70
100
AcDbEntity
  8
Visible
100
AcDbCircle
 10
-64.899037
 20
18.65733
 30
-2.617798
 40
1.499999999999985
210
0.0
220
0.0000000000000002
230
-1.0
  0
CIRCLE
  5
250
330
70
100
AcDbEntity
  8
Visible
100
AcDbCircle
 10
-18.403211
 20
18.65733
 30
-2.617798
 40
1.500000000000003
210
0.0
220
0.0000000000000002
230
-1.0
  0
CIRCLE
  5
251
330
70
100
AcDbEntity
  8
Visible
100
AcDbCircle
 10
-89.907382
 20
18.65733
 30
-2.617798
 40
1.499999999999985
210
0.0
220
0.0000000000000002
230
-1.0
  0
CIRCLE
  5
252
330
70
100
AcDbEntity
  8
Visible
100
AcDbCircle
 10
-18.403209
 20
114.657332
 30
-2.617798
 40
1.500000000000003
210
0.0
220
0.0000000000000002
230
-1.0
  0
CIRCLE
  5
253
330
70
100
AcDbEntity
  8
Visible
100
AcDbCircle
 10
-18.403209
 20
52.657332
 30
-2.617798
 40
1.500000000000003
210
0.0
220
0.0000000000000002
230
-1.0
  0
CIRCLE
  5
254
330
70
100
AcDbEntity
  8
Visible
100
AcDbCircle
 10
-136.403209
 20
99.157332
 30
-2.617798
 40
1.499999999999985
210
0.0
220
0.0000000000000002
230
-1.0
  0
CIRCLE
  5
255
330
70
100
AcDbEntity
  8
Visible
100
AcDbCircle
 10
-14.403209
 20
200.15733
 30
-2.617798
 40
2.749999999999985
210
0.0
220
0.0000000000000002
230
-1.0
  0
CIRCLE
  5
256
330
70
100
AcDbEntity
  8
Visible
100
AcDbCircle
 10
-33.899037
 20
180.85733
 30
-2.617798
 40
1.499999999999985
210
0.0
220
0.0000000000000002
230
-1.0
  0
CIRCLE
  5
257
330
70
100
AcDbEntity
  8
Visible
100
AcDbCircle
 10
-105.407382
 20
180.85733
 30
-2.617798
 40
1.499999999999985
210
0.0
220
0.0000000000000002
230
-1.0
  0
LINE
  5
258
330
70
100
AcDbEntity
  8
Visible
100
AcDbLine
 10
45.403209
 20
154.85733
 30
2.617798
 11
109.403209
 21
154.85733
 31
2.617798
210
-1.0
220
0.0000000000000002
230
0.0
  0
ARC
  5
259
330
70
100
AcDbEntity
  8
Visible
100
AcDbCircle
 10
-109.403209
 20
149.85733
 30
-2.617798
 40
5.0
210
0.0
220
0.0000000000000002
230
-1.0
100
AcDbArc
 50
90.0
 51
180.0
  0
LINE
  5
25A
330
70
100
AcDbEntity
  8
Visible
100
AcDbLine
 10
114.403209
 20
149.85733
 30
2.617798
 11
114.403209
 21
77.85733
 31
2.617798
210
-1.0
220
0.0000000000000002
230
0.0
  0
ARC
  5
25B
330
70
100
AcDbEntity
  8
Visible
100
AcDbCircle
 10
-109.403209
 20
77.85733
 30
-2.617798
 40
5.000000000000004
210
0.0
220
0.0000000000000002
230
-1.0
100
AcDbArc
 50
180.0
 51
270.0
  0
LINE
  5
25C
330
70
100
AcDbEntity
  8
Visible
100
AcDbLine
 10
109.403209
 20
72.85733
 30
2.617798
 11
45.403209
 21
72.85733
 31
2.617798
210
-1.0
220
0.0000000000000002
230
0.0
  0
ARC
  5
25D
330
70
100
AcDbEntity
  8
Visible
100
AcDbCircle
 10
-45.403209
 20
77.85733
 30
-2.617798
 40
5.0
210
0.0
220
0.0000000000000002
230
-1.0
100
AcDbArc
 50
270.0
 51
0.0
  0
LINE
  5
25E
330
70
100
AcDbEntity
  8
Visible
100
AcDbLine
 10
40.403209
 20
77.85733
 30
2.617798
 11
40.403209
 21
149.85733
 31
2.617798
210
-1.0
220
0.0000000000000002
230
0.0
  0
ARC
  5
25F
330
70
100
AcDbEntity
  8
Visible
100
AcDbCircle
 10
-45.403209
 20
149.85733
 30
-2.617798
 40
5.0
210
0.0
220
0.0000000000000002
230
-1.0
100
AcDbArc
 50
0.0
 51
90.0
  0
LINE
  5
260
330
70
100
AcDbEntity
  8
Visible
100
AcDbLine
 10
21.653208
 20
42.907332
 30
2.617798
 11
21.653208
 21
36.407332
 31
2.617798
210
-1.0
220
0.0000000000000002
230
0.0
  0
LINE
  5
261
330
70
100
AcDbEntity
  8
Visible
100
AcDbLine
 10
21.653208
 20
36.407332
 30
2.617798
 11
15.153208
 21
36.407332
 31
2.617798
210
-1.0
220
0.0000000000000002
230
0.0
  0
LINE
  5
262
330
70
100
AcDbEntity
  8
Visible
100
AcDbLine
 10
15.153208
 20
36.407332
 30
2.617798
 11
15.153208
 21
42.907332
 31
2.617798
210
-1.0
220
0.0000000000000002
230
0.0
  0
LINE
  5
263
330
70
100
AcDbEntity
  8
Visible
100
AcDbLine
 10
15.153208
 20
42.907332
 30
2.617798
 11
21.653208
 21
42.907332
 31
2.617798
210
-1.0
220
0.0000000000000002
230
0.0
  0
LINE
  5
264
330
70
100
AcDbEntity
  8
Visible
100
AcDbLine
 10
15.153208
 20
124.407332
 30
2.617798
 11
15.153208
 21
130.907332
 31
2.617798
210
-1.0
220
0.0000000000000002
230
0.0
  0
LINE
  5
265
330
70
100
AcDbEntity
  8
Visible
100
AcDbLine
 10
15.153208
 20
130.907332
 30
2.617798
 11
21.653208
 21
130.907332
 31
2.617798
210
-1.0
220
0.0000000000000002
230
0.0
  0
LINE
  5
266
330
70
100
AcDbEntity
  8
Visible
100
AcDbLine
 10
21.653208
 20
130.907332
 30
2.617798
 11
21.653208
 21
124.407332
 31
2.617798
210
-1.0
220
0.0000000000000002
230
0.0
  0
LINE
  5
267
330
70
100
AcDbEntity
  8
Visible
100
AcDbLine
 10
21.653208
 20
124.407332
 30
2.617798
 11
15.153208
 21
124.407332
 31
2.617798
210
-1.0
220
0.0000000000000002
230
0.0
  0
LINE
  5
268
330
70
100
AcDbEntity
  8
Visible
100
AcDbLine
 10
133.15321
 20
36.407332
 30
2.617798
 11
133.15321
 21
42.907332
 31
2.617798
210
-1.0
220
0.0000000000000002
230
0.0
  0
LINE
  5
269
330
70
100
AcDbEntity
  8
Visible
100
AcDbLine
 10
133.15321
 20
42.907332
 30
2.617798
 11
139.65321
 21
42.907332
 31
2.617798
210
-1.0
220
0.0000000000000002
230
0.0
  0
LINE
  5
26A
330
70
100
AcDbEntity
  8
Visible
100
AcDbLine
 10
139.65321
 20
42.907332
 30
2.617798
 11
139.65321
 21
36.407332
 31
2.617798
210
-1.0
220
0.0000000000000002
230
0.0
  0
LINE
  5
26B
330
70
100
AcDbEntity
  8
Visible
100
AcDbLine
 10
139.65321
 20
36.407332
 30
2.617798
 11
133.15321
 21
36.407332
 31
2.617798
210
-1.0
220
0.0000000000000002
230
0.0
  0
LINE
  5
26C
330
70
100
AcDbEntity
  8
Visible
100
AcDbLine
 10
133.15321
 20
124.407332
 30
2.617798
 11
133.15321
 21
130.907332
 31
2.617798
210
-1.0
220
0.0000000000000002
230
0.0
  0
LINE
  5
26D
330
70
100
AcDbEntity
  8
Visible
100
AcDbLine
 10
133.15321
 20
130.907332
 30
2.617798
 11
139.65321
 21
130.907332
 31
2.617798
210
-1.0
220
0.0000000000000002
230
0.0
  0
LINE
  5
26E
330
70
100
AcDbEntity
  8
Visible
100
AcDbLine
 10
139.65321
 20
130.907332
 30
2.617798
 11
139.65321
 21
124.407332
 31
2.617798
210
-1.0
220
0.0000000000000002
230
0.0
  0
LINE
  5
26F
330
70
100
AcDbEntity
  8
Visible
100
AcDbLine
 10
139.65321
 20
124.407332
 30
2.617798
 11
133.15321
 21
124.407332
 31
2.617798
210
-1.0
220
0.0000000000000002
230
0.0
  0
CIRCLE
  5
270
330
70
100
AcDbEntity
  8
Visible
100
AcDbCircle
 10
-77.403209
 20
56.65733
 30
-2.617798
 40
11.2
210
0.0
220
0.0000000000000002
230
-1.0
  0
CIRCLE
  5
271
330
70
100
AcDbEntity
  8
Visible
100
AcDbCircle
 10
-282.466754
 20
181.112096
 30
-2.332668
 40
1.499999999999999
210
0.0000011143792834
220
0.0004415765369302
230
-0.9999999025044555
  0
ARC
  5
272
330
70
100
AcDbEntity
  8
Visible
100
AcDbCircle
 10
282.466754
 20
181.112096
 30
-2.667332
 40
1.499999999999999
210
-0.000001114379284
220
-0.0004415765369302
230
0.9999999025044553
100
AcDbArc
 50
179.897574
 51
359.813239
  0
CIRCLE
  5
273
330
70
100
AcDbEntity
  8
Visible
100
AcDbCircle
 10
-282.386629
 20
165.297749
 30
-2.332668
 40
1.499999999999986
210
0.0000011143792834
220
0.0004415765369302
230
-0.9999999025044555
  0
ARC
  5
274
330
70
100
AcDbEntity
  8
Visible
100
AcDbCircle
 10
282.386629
 20
165.297749
 30
-2.667332
 40
1.499999999999986
210
-0.0000011143792745
220
-0.0004415765369302
230
0.9999999025044555
100
AcDbArc
 50
179.897574
 51
359.813239
  0
CIRCLE
  5
275
330
70
100
AcDbEntity
  8
Visible
100
AcDbCircle
 10
-282.546879
 20
196.926442
 30
-2.332668
 40
1.499999999999986
210
0.0000011143792834
220
0.0004415765369302
230
-0.9999999025044555
  0
ARC
  5
276
330
70
100
AcDbEntity
  8
Visible
100
AcDbCircle
 10
282.546879
 20
196.926442
 30
-2.667332
 40
1.499999999999986
210
-0.0000011143792745
220
-0.0004415765369302
230
0.9999999025044553
100
AcDbArc
 50
179.897574
 51
359.813239
  0
LINE
  5
277
330
70
100
AcDbEntity
  8
Visible
100
AcDbLine
 10
280.046908
 20
196.938059
 30
2.419944
 11
279.886659
 21
165.309369
 31
2.405977
210
-1.0
220
0.0000000000000002
230
0.0
  0
LINE
  5
278
330
70
100
AcDbEntity
  8
Visible
100
AcDbLine
 10
280.046914
 20
196.940267
 30
-2.580056
 11
280.046908
 21
196.938059
 31
2.419944
210
-1.0
220
0.0000000000000002
230
0.0
  0
ARC
  5
279
330
70
100
AcDbEntity
  8
Visible
100
AcDbCircle
 10
282.546879
 20
196.926442
 30
-2.667332
 40
2.5
210
-0.0000011143792834
220
-0.0004415765369302
230
0.9999999025044555
100
AcDbArc
 50
359.855406
 51
179.709708
  0
ARC
  5
27A
330
70
100
AcDbEntity
  8
Visible
100
AcDbCircle
 10
282.546879
 20
196.926442
 30
2.332668
 40
2.5
210
-0.0000011143792714
220
-0.0004415765369303
230
0.9999999025044553
100
AcDbArc
 50
359.709708
 51
179.709708
  0
LINE
  5
27B
330
70
100
AcDbEntity
  8
Visible
100
AcDbLine
 10
284.886594
 20
165.284037
 30
2.405971
 11
285.046844
 21
196.912727
 31
2.419938
210
-1.0
220
0.0000000000000002
230
0.0
  0
ARC
  5
27C
330
70
100
AcDbEntity
  8
Visible
100
AcDbCircle
 10
282.386629
 20
165.297749
 30
2.332668
 40
2.5
210
-0.0000011143792714
220
-0.0004415765369303
230
0.9999999025044553
100
AcDbArc
 50
179.709708
 51
359.709708
  0
LINE
  5
27D
330
70
100
AcDbEntity
  8
Visible
100
AcDbLine
 10
285.046874
 20
196.921292
 30
-2.580059
 11
285.046868
 21
196.919084
 31
2.419941
210
-1.0
220
0.0000000000000002
230
0.0
  0
LINE
  5
27E
330
70
100
AcDbEntity
  8
Visible
100
AcDbLine
 10
279.88664
 20
165.30522
 30
-2.594025
 11
279.886634
 21
165.303012
 31
2.405974
210
-1.0
220
0.0000000000000002
230
0.0
  0
CIRCLE
  5
27F
330
70
100
AcDbEntity
  8
Visible
100
AcDbCircle
 10
-157.525252
 20
52.279373
 30
-2.617798
 40
1.500000000000003
210
0.0
220
0.0000000000000002
230
-1.0
  0
CIRCLE
  5
280
330
70
100
AcDbEntity
  8
Visible
100
AcDbCircle
 10
-275.810831
 20
37.279431
 30
-2.617798
 40
1.499999999999985
210
0.0
220
0.0000000000000002
230
-1.0
  0
CIRCLE
  5
281
330
70
100
AcDbEntity
  8
Visible
100
AcDbCircle
 10
-275.68636
 20
82.279258
 30
-2.617798
 40
1.499999999999985
210
0.0
220
0.0000000000000002
230
-1.0
  0
CIRCLE
  5
282
330
70
100
AcDbEntity
  8
Visible
100
AcDbCircle
 10
-275.852321
 20
22.279488
 30
-2.617798
 40
1.499999999999985
210
0.0
220
0.0000000000000002
230
-1.0
  0
CIRCLE
  5
283
330
70
100
AcDbEntity
  8
Visible
100
AcDbCircle
 10
-157.483762
 20
37.279431
 30
-2.617798
 40
1.500000000000003
210
0.0
220
0.0000000000000002
230
-1.0
  0
CIRCLE
  5
284
330
70
100
AcDbEntity
  8
Visible
100
AcDbCircle
 10
-157.566743
 20
67.279316
 30
-2.617798
 40
1.500000000000003
210
0.0
220
0.0000000000000002
230
-1.0
  0
CIRCLE
  5
285
330
70
100
AcDbEntity
  8
Visible
100
AcDbCircle
 10
-275.76934
 20
52.279373
 30
-2.617798
 40
1.499999999999985
210
0.0
220
0.0000000000000002
230
-1.0
  0
CIRCLE
  5
286
330
70
100
AcDbEntity
  8
Visible
100
AcDbCircle
 10
-275.72785
 20
67.279316
 30
-2.617798
 40
1.499999999999985
210
0.0
220
0.0000000000000002
230
-1.0
  0
CIRCLE
  5
287
330
70
100
AcDbEntity
  8
Visible
100
AcDbCircle
 10
-157.608233
 20
82.279258
 30
-2.617798
 40
1.500000000000003
210
0.0
220
0.0000000000000002
230
-1.0
  0
CIRCLE
  5
288
330
70
100
AcDbEntity
  8
Visible
100
AcDbCircle
 10
-157.442272
 20
22.279488
 30
-2.617798
 40
1.500000000000003
210
0.0
220
0.0000000000000002
230
-1.0
  0
LINE
  5
289
330
70
100
AcDbEntity
  8
Visible
100
AcDbLine
 10
203.647297
 20
87.401415
 30
2.617798
 11
191.647296
 21
101.645502
 31
2.617798
210
-1.0
220
0.0000000000000002
230
0.0
  0
LINE
  5
28A
330
70
100
AcDbEntity
  8
Visible
100
AcDbLine
 10
229.647297
 20
87.401415
 30
2.617798
 11
203.647297
 21
87.401415
 31
2.617798
210
-1.0
220
0.0000000000000002
230
0.0
  0
LINE
  5
28B
330
70
100
AcDbEntity
  8
Visible
100
AcDbLine
 10
241.647296
 20
101.645502
 30
2.617798
 11
229.647297
 21
87.401415
 31
2.617798
210
-1.0
220
0.0000000000000002
230
0.0
  0
LINE
  5
28C
330
70
100
AcDbEntity
  8
Visible
100
AcDbLine
 10
241.647296
 20
101.645502
 30
2.617798
 11
275.891383
 21
101.645502
 31
2.617798
210
-1.0
220
0.0000000000000002
230
0.0
  0
LINE
  5
28D
330
70
100
AcDbEntity
  8
Visible
100
AcDbLine
 10
157.403209
 20
101.645502
 30
2.617798
 11
191.647296
 21
101.645502
 31
2.617798
210
-1.0
220
0.0000000000000002
230
0.0
  0
ARC
  5
28E
330
70
100
AcDbEntity
  8
Visible
100
AcDbCircle
 10
-275.891383
 20
8.15733
 30
-2.617798
 40
4.999999999999999
210
0.0
220
0.0000000000000002
230
-1.0
100
AcDbArc
 50
180.0
 51
270.0
  0
LINE
  5
28F
330
70
100
AcDbEntity
  8
Visible
100
AcDbLine
 10
275.891383
 20
3.15733
 30
2.617798
 11
157.403209
 21
3.15733
 31
2.617798
210
-1.0
220
0.0000000000000002
230
0.0
  0
ARC
  5
290
330
70
100
AcDbEntity
  8
Visible
100
AcDbCircle
 10
-157.403209
 20
96.645502
 30
-2.617798
 40
4.999999999999999
210
0.0
220
0.0000000000000002
230
-1.0
100
AcDbArc
 50
0.0
 51
90.0
  0
LINE
  5
291
330
70
100
AcDbEntity
  8
Visible
100
AcDbLine
 10
152.403209
 20
8.15733
 30
2.617798
 11
152.403209
 21
96.645502
 31
2.617798
210
-1.0
220
0.0000000000000002
230
0.0
  0
ARC
  5
292
330
70
100
AcDbEntity
  8
Visible
100
AcDbCircle
 10
-157.403209
 20
8.15733
 30
-2.617798
 40
4.999999999999999
210
0.0
220
0.0000000000000002
230
-1.0
100
AcDbArc
 50
270.0
 51
0.0
  0
LINE
  5
293
330
70
100
AcDbEntity
  8
Visible
100
AcDbLine
 10
280.891383
 20
96.645502
 30
2.617798
 11
280.891383
 21
8.15733
 31
2.617798
210
-1.0
220
0.0000000000000002
230
0.0
  0
ARC
  5
294
330
70
100
AcDbEntity
  8
Visible
100
AcDbCircle
 10
-275.891383
 20
96.645502
 30
-2.617798
 40
4.999999999999999
210
0.0
220
0.0000000000000002
230
-1.0
100
AcDbArc
 50
90.0
 51
180.0
  0
CIRCLE
  5
295
330
70
100
AcDbEntity
  8
Visible
100
AcDbCircle
 10
157.647295
 20
8.401416
 30
2.617798
 40
3.000000000000007
  0
CIRCLE
  5
296
330
70
100
AcDbEntity
  8
Visible
100
AcDbCircle
 10
275.647297
 20
96.401416
 30
2.617798
 40
3.000000000000007
  0
CIRCLE
  5
297
330
70
100
AcDbEntity
  8
Visible
100
AcDbCircle
 10
157.647295
 20
96.401416
 30
2.617798
 40
2.999999999999989
  0
CIRCLE
  5
298
330
70
100
AcDbEntity
  8
Visible
100
AcDbCircle
 10
275.647297
 20
8.401416
 30
2.617798
 40
3.000000000000007
  0
CIRCLE
  5
299
330
70
100
AcDbEntity
  8
Visible
100
AcDbCircle
 10
-159.813443
 20
125.031459
 30
-2.334887
 40
1.499999999999999
210
0.0000011143792834
220
0.0004415765369302
230
-0.9999999025044555
  0
ARC
  5
29A
330
70
100
AcDbEntity
  8
Visible
100
AcDbCircle
 10
159.813443
 20
125.031459
 30
-2.665113
 40
1.499999999999999
210
-0.000001114379284
220
-0.0004415765369302
230
0.9999999025044553
100
AcDbArc
 50
179.897574
 51
359.813239
  0
CIRCLE
  5
29B
330
70
100
AcDbEntity
  8
Visible
100
AcDbCircle
 10
-159.733318
 20
109.217113
 30
-2.334887
 40
1.499999999999986
210
0.0000011143792834
220
0.0004415765369302
230
-0.9999999025044555
  0
ARC
  5
29C
330
70
100
AcDbEntity
  8
Visible
100
AcDbCircle
 10
159.733318
 20
109.217113
 30
-2.665113
 40
1.499999999999986
210
-0.0000011143792745
220
-0.0004415765369302
230
0.9999999025044553
100
AcDbArc
 50
179.897574
 51
359.813239
  0
CIRCLE
  5
29D
330
70
100
AcDbEntity
  8
Visible
100
AcDbCircle
 10
-159.893568
 20
140.845806
 30
-2.334887
 40
1.499999999999986
210
0.0000011143792834
220
0.0004415765369302
230
-0.9999999025044555
  0
ARC
  5
29E
330
70
100
AcDbEntity
  8
Visible
100
AcDbCircle
 10
159.893568
 20
140.845806
 30
-2.665113
 40
1.499999999999986
210
-0.0000011143792745
220
-0.0004415765369302
230
0.9999999025044553
100
AcDbArc
 50
179.897574
 51
359.813239
  0
LINE
  5
29F
330
70
100
AcDbEntity
  8
Visible
100
AcDbLine
 10
157.393597
 20
140.857428
 30
2.397262
 11
157.233347
 21
109.228737
 31
2.383295
210
-1.0
220
0.0000000000000002
230
0.0
  0
LINE
  5
2A0
330
70
100
AcDbEntity
  8
Visible
100
AcDbLine
 10
157.393603
 20
140.859635
 30
-2.602738
 11
157.393597
 21
140.857428
 31
2.397262
210
-1.0
220
0.0000000000000002
230
0.0
  0
ARC
  5
2A1
330
70
100
AcDbEntity
  8
Visible
100
AcDbCircle
 10
159.893568
 20
140.845806
 30
-2.665113
 40
2.5
210
-0.0000011143792834
220
-0.0004415765369302
230
0.9999999025044555
100
AcDbArc
 50
359.855406
 51
179.709708
  0
ARC
  5
2A2
330
70
100
AcDbEntity
  8
Visible
100
AcDbCircle
 10
159.893568
 20
140.845806
 30
2.334887
 40
2.5
210
-0.0000011143792714
220
-0.0004415765369303
230
0.9999999025044553
100
AcDbArc
 50
359.709708
 51
179.709708
  0
LINE
  5
2A3
330
70
100
AcDbEntity
  8
Visible
100
AcDbLine
 10
162.233283
 20
109.203405
 30
2.38329
 11
162.393533
 21
140.832095
 31
2.397256
210
-1.0
220
0.0000000000000002
230
0.0
  0
ARC
  5
2A4
330
70
100
AcDbEntity
  8
Visible
100
AcDbCircle
 10
159.733318
 20
109.217113
 30
2.334887
 40
2.5
210
-0.0000011143792714
220
-0.0004415765369303
230
0.9999999025044553
100
AcDbArc
 50
179.709708
 51
359.709708
  0
LINE
  5
2A5
330
70
100
AcDbEntity
  8
Visible
100
AcDbLine
 10
162.393562
 20
140.84066
 30
-2.60274
 11
162.393557
 21
140.838452
 31
2.397259
210
-1.0
220
0.0000000000000002
230
0.0
  0
LINE
  5
2A6
330
70
100
AcDbEntity
  8
Visible
100
AcDbLine
 10
157.233329
 20
109.224588
 30
-2.616707
 11
157.233323
 21
109.22238
 31
2.383292
210
-1.0
220
0.0000000000000002
230
0.0
  0
CIRCLE
  5
2A7
330
70
100
AcDbEntity
  8
Visible
100
AcDbCircle
 10
-169.813443
 20
125.031459
 30
-2.334876
 40
1.499999999999999
210
0.0000011143792834
220
0.0004415765369302
230
-0.9999999025044555
  0
ARC
  5
2A8
330
70
100
AcDbEntity
  8
Visible
100
AcDbCircle
 10
169.813443
 20
125.031459
 30
-2.665124
 40
1.499999999999999
210
-0.000001114379284
220
-0.0004415765369302
230
0.9999999025044553
100
AcDbArc
 50
179.897574
 51
359.813239
  0
CIRCLE
  5
2A9
330
70
100
AcDbEntity
  8
Visible
100
AcDbCircle
 10
-169.733318
 20
109.217113
 30
-2.334876
 40
1.499999999999986
210
0.0000011143792834
220
0.0004415765369302
230
-0.9999999025044555
  0
ARC
  5
2AA
330
70
100
AcDbEntity
  8
Visible
100
AcDbCircle
 10
169.733318
 20
109.217113
 30
-2.665124
 40
1.499999999999986
210
-0.0000011143792745
220
-0.0004415765369302
230
0.9999999025044553
100
AcDbArc
 50
179.897574
 51
359.813239
  0
CIRCLE
  5
2AB
330
70
100
AcDbEntity
  8
Visible
100
AcDbCircle
 10
-169.893568
 20
140.845806
 30
-2.334876
 40
1.499999999999986
210
0.0000011143792834
220
0.0004415765369302
230
-0.9999999025044555
  0
ARC
  5
2AC
330
70
100
AcDbEntity
  8
Visible
100
AcDbCircle
 10
169.893568
 20
140.845806
 30
-2.665124
 40
1.499999999999986
210
-0.0000011143792745
220
-0.0004415765369302
230
0.9999999025044553
100
AcDbArc
 50
179.897574
 51
359.813239
  0
LINE
  5
2AD
330
70
100
AcDbEntity
  8
Visible
100
AcDbLine
 10
167.393597
 20
140.857428
 30
2.397262
 11
167.233347
 21
109.228737
 31
2.383295
210
-1.0
220
0.0000000000000002
230
0.0
  0
LINE
  5
2AE
330
70
100
AcDbEntity
  8
Visible
100
AcDbLine
 10
167.393603
 20
140.859635
 30
-2.602738
 11
167.393597
 21
140.857428
 31
2.397262
210
-1.0
220
0.0000000000000002
230
0.0
  0
ARC
  5
2AF
330
70
100
AcDbEntity
  8
Visible
100
AcDbCircle
 10
169.893568
 20
140.845806
 30
-2.665124
 40
2.5
210
-0.0000011143792834
220
-0.0004415765369302
230
0.9999999025044555
100
AcDbArc
 50
359.855406
 51
179.709708
  0
ARC
  5
2B0
330
70
100
AcDbEntity
  8
Visible
100
AcDbCircle
 10
169.893568
 20
140.845806
 30
2.334876
 40
2.5
210
-0.0000011143792714
220
-0.0004415765369303
230
0.9999999025044553
100
AcDbArc
 50
359.709708
 51
179.709708
  0
LINE
  5
2B1
330
70
100
AcDbEntity
  8
Visible
100
AcDbLine
 10
172.233283
 20
109.203405
 30
2.38329
 11
172.393533
 21
140.832095
 31
2.397256
210
-1.0
220
0.0000000000000002
230
0.0
  0
ARC
  5
2B2
330
70
100
AcDbEntity
  8
Visible
100
AcDbCircle
 10
169.733318
 20
109.217113
 30
2.334876
 40
2.5
210
-0.0000011143792714
220
-0.0004415765369303
230
0.9999999025044553
100
AcDbArc
 50
179.709708
 51
359.709708
  0
LINE
  5
2B3
330
70
100
AcDbEntity
  8
Visible
100
AcDbLine
 10
172.393562
 20
140.84066
 30
-2.60274
 11
172.393557
 21
140.838452
 31
2.397259
210
-1.0
220
0.0000000000000002
230
0.0
  0
LINE
  5
2B4
330
70
100
AcDbEntity
  8
Visible
100
AcDbLine
 10
167.233329
 20
109.224588
 30
-2.616707
 11
167.233323
 21
109.22238
 31
2.383292
210
-1.0
220
0.0000000000000002
230
0.0
  0
ENDSEC
  0
SECTION
  2
OBJECTS
  0
DICTIONARY
  5
C
330
0
100
AcDbDictionary
281
     1
  3
ACAD_COLOR
350
63
  3
ACAD_DETAILVIEWSTYLE
350
6A
  3
ACAD_GROUP
350
D
  3
ACAD_LAYOUT
350
62
  3
ACAD_MATERIAL
350
10
  3
ACAD_MLEADERSTYLE
350
66
  3
ACAD_MLINESTYLE
350
5F
  3
ACAD_PLOTSETTINGS
350
61
  3
ACAD_PLOTSTYLENAME
350
E
  3
ACAD_SCALELIST
350
42
  3
ACAD_SECTIONVIEWSTYLE
350
68
  3
ACAD_TABLESTYLE
350
64
  3
ACAD_VISUALSTYLE
350
29
  3
ACDB_RECOMPOSE_DATA
350
2BF
  3
AcDbVariableDictionary
350
2B6
  0
DICTIONARY
  5
9D
330
70
100
AcDbDictionary
280
     1
281
     1
  3
ACAD_SORTENTS
360
9E
  0
DICTIONARY
  5
63
102
{ACAD_REACTORS
330
C
102
}
330
C
100
AcDbDictionary
281
     1
  0
DICTIONARY
  5
6A
102
{ACAD_REACTORS
330
C
102
}
330
C
100
AcDbDictionary
281
     1
  3
Imperial24
350
6B
  0
DICTIONARY
  5
D
102
{ACAD_REACTORS
330
C
102
}
330
C
100
AcDbDictionary
281
     1
  0
DICTIONARY
  5
62
102
{ACAD_REACTORS
330
C
102
}
330
C
100
AcDbDictionary
281
     1
  3
Model
350
73
  3
Sheet1
350
6F
  3
Sheet2
350
77
  0
DICTIONARY
  5
10
102
{ACAD_REACTORS
330
C
102
}
330
C
100
AcDbDictionary
281
     1
  3
ByBlock
350
19
  3
ByLayer
350
11
  3
Global
350
21
  0
DICTIONARY
  5
66
102
{ACAD_REACTORS
330
C
102
}
330
C
100
AcDbDictionary
281
     1
  3
Standard
350
67
  0
DICTIONARY
  5
5F
102
{ACAD_REACTORS
330
C
102
}
330
C
100
AcDbDictionary
281
     1
  3
Standard
350
60
  0
DICTIONARY
  5
61
102
{ACAD_REACTORS
330
C
102
}
330
C
100
AcDbDictionary
281
     1
  0
ACDBDICTIONARYWDFLT
  5
E
102
{ACAD_REACTORS
330
C
102
}
330
C
100
AcDbDictionary
281
     1
  3
Normal
350
F
100
AcDbDictionaryWithDefault
340
F
  0
DICTIONARY
  5
42
102
{ACAD_REACTORS
330
C
102
}
330
C
100
AcDbDictionary
281
     1
  3
A0
350
43
  3
A1
350
44
  3
A2
350
45
  3
A3
350
46
  3
A4
350
47
  3
A5
350
48
  3
A6
350
49
  3
A7
350
4A
  3
A8
350
4B
  3
A9
350
4C
  3
B0
350
4D
  3
B1
350
4E
  3
B2
350
4F
  3
B3
350
50
  3
B4
350
51
  3
B5
350
52
  3
B6
350
53
  0
DICTIONARY
  5
68
102
{ACAD_REACTORS
330
C
102
}
330
C
100
AcDbDictionary
281
     1
  3
Imperial24
350
69
  0
DICTIONARY
  5
64
102
{ACAD_REACTORS
330
C
102
}
330
C
100
AcDbDictionary
281
     1
  3
Standard
350
65
  0
DICTIONARY
  5
29
102
{ACAD_REACTORS
330
C
102
}
330
C
100
AcDbDictionary
281
     1
  3
2dWireframe
350
2F
  3
Basic
350
2E
  3
Brighten
350
35
  3
ColorChange
350
39
  3
Conceptual
350
32
  3
Dim
350
34
  3
EdgeColorOff
350
41
  3
Facepattern
350
38
  3
Flat
350
2A
  3
FlatWithEdges
350
2B
  3
Gouraud
350
2C
  3
GouraudWithEdges
350
2D
  3
Hidden
350
31
  3
JitterOff
350
3F
  3
Linepattern
350
37
  3
OverhangOff
350
40
  3
Realistic
350
33
  3
Shaded
350
3E
  3
Shaded with edges
350
3D
  3
Shades of Gray
350
3A
  3
Sketchy
350
3B
  3
Thicken
350
36
  3
Wireframe
350
30
  3
X-Ray
350
3C
  0
XRECORD
  5
2BF
102
{ACAD_REACTORS
330
C
102
}
330
C
100
AcDbXrecord
280
     1
 90
        1
330
65
  0
DICTIONARY
  5
2B6
102
{ACAD_REACTORS
330
C
102
}
330
C
100
AcDbDictionary
281
     1
  3
ANNOALLVISIBLE
350
2BB
  3
CANNOSCALE
350
2BC
  3
CMLEADERSTYLE
350
2B8
  3
CTABLESTYLE
350
2B7
  3
CVIEWDETAILSTYLE
350
2B9
  3
CVIEWSECTIONSTYLE
350
2BA
  0
SORTENTSTABLE
  5
9E
102
{ACAD_REACTORS
330
9D
102
}
330
9D
100
AcDbSortentsTable
330
70
  0
ACDBDETAILVIEWSTYLE
  5
6B
102
{ACAD_XDICTIONARY
360
2C2
102
}
102
{ACAD_REACTORS
330
6A
102
}
330
6A
100
AcDbModelDocViewStyle
 70
     0
  3
Imperial24
290
     0
100
AcDbDetailViewStyle
 70
     0
 71
     0
 90
        3
 71
     1
340
55
 62
   256
 40
0.24
340
0
 62
   256
 40
0.24
300

 40
0.36
280
     3
 71
     2
340
5D
 90
       25
 62
   256
 71
     3
340
55
 62
   256
 40
0.24
 90
        1
 40
0.75
 90
        1
300
%<\AcVar ViewType \f "%tc1">% %<\AcVar ViewDetailId>%\PSCALE %<\AcVar ViewScale \f "%sn">%
 71
     4
340
5D
 90
       25
 62
   256
340
5D
 90
       25
 62
   256
280
     0
  0
LAYOUT
  5
73
102
{ACAD_REACTORS
330
62
102
}
330
62
100
AcDbPlotSettings
  1

  2
AutoCAD PDF (High Quality Print).pc3
  4
ISO_full_bleed_A4_(297.00_x_210.00_MM)
  6

 40
0.0
 41
0.0
 42
0.0
 43
0.0
 44
297.0
 45
210.0
 46
0.0
 47
0.0
 48
0.0
 49
0.0
140
0.0
141
0.0
142
1.0
143
1.31719
 70
 11952
 72
     1
 73
     0
 74
     0
  7

 75
     0
147
0.759192
 76
     0
 77
     2
 78
   300
148
47.102671
149
8.06179
100
AcDbLayout
  1
Model
 70
     1
 71
     0
 10
0.0
 20
0.0
 11
12.0
 21
9.0
 12
0.0
 22
0.0
 32
0.0
 14
0.0
 24
0.0
 34
0.0
 15
0.0
 25
0.0
 35
0.0
146
0.0
 13
0.0
 23
0.0
 33
0.0
 16
1.0
 26
0.0
 36
0.0
 17
0.0
 27
1.0
 37
0.0
 76
     0
330
70
1001
ACAD_PSEXT
1000
AutoCAD PDF (High Quality Print).pc3
1000
DWG To PDF
1000
File
1000

1070
     0
  0
LAYOUT
  5
6F
102
{ACAD_REACTORS
330
62
102
}
330
62
100
AcDbPlotSettings
  1

  2

  4

  6

 40
0.0
 41
0.0
 42
0.0
 43
0.0
 44
0.0
 45
0.0
 46
0.0
 47
0.0
 48
0.0
 49
0.0
140
0.0
141
0.0
142
1.0
143
1.0
 70
   688
 72
     0
 73
     0
 74
     5
  7

 75
    16
147
1.0
 76
     0
 77
     2
 78
   300
148
0.0
149
0.0
100
AcDbLayout
  1
Sheet1
 70
     1
 71
     1
 10
0.0
 20
0.0
 11
12.0
 21
9.0
 12
0.0
 22
0.0
 32
0.0
 14
0.0
 24
0.0
 34
0.0
 15
0.0
 25
0.0
 35
0.0
146
0.0
 13
0.0
 23
0.0
 33
0.0
 16
1.0
 26
0.0
 36
0.0
 17
0.0
 27
1.0
 37
0.0
 76
     0
330
6C
  0
LAYOUT
  5
77
102
{ACAD_REACTORS
330
62
102
}
330
62
100
AcDbPlotSettings
  1

  2

  4

  6

 40
0.0
 41
0.0
 42
0.0
 43
0.0
 44
0.0
 45
0.0
 46
0.0
 47
0.0
 48
0.0
 49
0.0
140
0.0
141
0.0
142
1.0
143
1.0
 70
   688
 72
     0
 73
     0
 74
     5
  7

 75
    16
147
1.0
 76
     0
 77
     2
 78
   300
148
0.0
149
0.0
100
AcDbLayout
  1
Sheet2
 70
     1
 71
     2
 10
0.0
 20
0.0
 11
12.0
 21
9.0
 12
0.0
 22
0.0
 32
0.0
 14
0.0
 24
0.0
 34
0.0
 15
0.0
 25
0.0
 35
0.0
146
0.0
 13
0.0
 23
0.0
 33
0.0
 16
1.0
 26
0.0
 36
0.0
 17
0.0
 27
1.0
 37
0.0
 76
     0
330
74
  0
MATERIAL
  5
19
102
{ACAD_XDICTIONARY
360
1A
102
}
102
{ACAD_REACTORS
330
10
102
}
330
10
100
AcDbMaterial
  1
ByBlock
 72
     0
 43
0.020833
 43
0.0
 43
0.0
 43
0.0
 43
0.0
 43
0.020833
 43
0.0
 43
0.0
 43
0.0
 43
0.0
 43
1.0
 43
0.0
 43
0.0
 43
0.0
 43
0.0
 43
1.0
 77
     0
 47
0.020833
 47
0.0
 47
0.0
 47
0.0
 47
0.0
 47
0.020833
 47
0.0
 47
0.0
 47
0.0
 47
0.0
 47
1.0
 47
0.0
 47
0.0
 47
0.0
 47
0.0
 47
1.0
171
     0
 49
0.020833
 49
0.0
 49
0.0
 49
0.0
 49
0.0
 49
0.020833
 49
0.0
 49
0.0
 49
0.0
 49
0.0
 49
1.0
 49
0.0
 49
0.0
 49
0.0
 49
0.0
 49
1.0
175
     0
142
0.020833
142
0.0
142
0.0
142
0.0
142
0.0
142
0.020833
142
0.0
142
0.0
142
0.0
142
0.0
142
1.0
142
0.0
142
0.0
142
0.0
142
0.0
142
1.0
179
     0
144
0.020833
144
0.0
144
0.0
144
0.0
144
0.0
144
0.020833
144
0.0
144
0.0
144
0.0
144
0.0
144
1.0
144
0.0
144
0.0
144
0.0
144
0.0
144
1.0
147
0.020833
147
0.0
147
0.0
147
0.0
147
0.0
147
0.020833
147
0.0
147
0.0
147
0.0
147
0.0
147
1.0
147
0.0
147
0.0
147
0.0
147
0.0
147
1.0
  0
MATERIAL
  5
11
102
{ACAD_XDICTIONARY
360
12
102
}
102
{ACAD_REACTORS
330
10
102
}
330
10
100
AcDbMaterial
  1
ByLayer
 72
     0
 43
0.020833
 43
0.0
 43
0.0
 43
0.0
 43
0.0
 43
0.020833
 43
0.0
 43
0.0
 43
0.0
 43
0.0
 43
1.0
 43
0.0
 43
0.0
 43
0.0
 43
0.0
 43
1.0
 77
     0
 47
0.020833
 47
0.0
 47
0.0
 47
0.0
 47
0.0
 47
0.020833
 47
0.0
 47
0.0
 47
0.0
 47
0.0
 47
1.0
 47
0.0
 47
0.0
 47
0.0
 47
0.0
 47
1.0
171
     0
 49
0.020833
 49
0.0
 49
0.0
 49
0.0
 49
0.0
 49
0.020833
 49
0.0
 49
0.0
 49
0.0
 49
0.0
 49
1.0
 49
0.0
 49
0.0
 49
0.0
 49
0.0
 49
1.0
175
     0
142
0.020833
142
0.0
142
0.0
142
0.0
142
0.0
142
0.020833
142
0.0
142
0.0
142
0.0
142
0.0
142
1.0
142
0.0
142
0.0
142
0.0
142
0.0
142
1.0
179
     0
144
0.020833
144
0.0
144
0.0
144
0.0
144
0.0
144
0.020833
144
0.0
144
0.0
144
0.0
144
0.0
144
1.0
144
0.0
144
0.0
144
0.0
144
0.0
144
1.0
147
0.020833
147
0.0
147
0.0
147
0.0
147
0.0
147
0.020833
147
0.0
147
0.0
147
0.0
147
0.0
147
1.0
147
0.0
147
0.0
147
0.0
147
0.0
147
1.0
  0
MATERIAL
  5
21
102
{ACAD_XDICTIONARY
360
22
102
}
102
{ACAD_REACTORS
330
10
102
}
330
10
100
AcDbMaterial
  1
Global
 72
     0
 43
0.020833
 43
0.0
 43
0.0
 43
0.0
 43
0.0
 43
0.020833
 43
0.0
 43
0.0
 43
0.0
 43
0.0
 43
1.0
 43
0.0
 43
0.0
 43
0.0
 43
0.0
 43
1.0
 77
     0
 47
0.020833
 47
0.0
 47
0.0
 47
0.0
 47
0.0
 47
0.020833
 47
0.0
 47
0.0
 47
0.0
 47
0.0
 47
1.0
 47
0.0
 47
0.0
 47
0.0
 47
0.0
 47
1.0
171
     0
 49
0.020833
 49
0.0
 49
0.0
 49
0.0
 49
0.0
 49
0.020833
 49
0.0
 49
0.0
 49
0.0
 49
0.0
 49
1.0
 49
0.0
 49
0.0
 49
0.0
 49
0.0
 49
1.0
175
     0
142
0.020833
142
0.0
142
0.0
142
0.0
142
0.0
142
0.020833
142
0.0
142
0.0
142
0.0
142
0.0
142
1.0
142
0.0
142
0.0
142
0.0
142
0.0
142
1.0
179
     0
144
0.020833
144
0.0
144
0.0
144
0.0
144
0.0
144
0.020833
144
0.0
144
0.0
144
0.0
144
0.0
144
1.0
144
0.0
144
0.0
144
0.0
144
0.0
144
1.0
147
0.020833
147
0.0
147
0.0
147
0.0
147
0.0
147
0.020833
147
0.0
147
0.0
147
0.0
147
0.0
147
1.0
147
0.0
147
0.0
147
0.0
147
0.0
147
1.0
  0
MLEADERSTYLE
  5
67
102
{ACAD_REACTORS
330
66
102
}
330
66
100
AcDbMLeaderStyle
179
     2
170
     2
171
     1
172
     0
 90
        2
 40
0.0
 41
0.0
173
     1
 91
-1056964608
340
5B
 92
       -2
290
     1
 42
0.09
291
     1
 43
0.36
  3
Standard
 44
0.18
300

342
55
174
     1
178
     6
175
     1
176
     0
 93
-1056964608
 45
0.18
292
     0
297
     0
 46
0.18
 94
-1056964608
 47
1.0
 49
1.0
140
1.0
293
     1
141
0.0
294
     1
177
     0
142
1.0
295
     0
296
     0
143
0.125
271
     0
272
     9
273
     9
298
     1
  0
MLINESTYLE
  5
60
102
{ACAD_REACTORS
330
5F
102
}
330
5F
100
AcDbMlineStyle
  2
STANDARD
 70
     0
  3

 62
   256
 51
90.0
 52
90.0
 71
     0
  0
ACDBPLACEHOLDER
  5
F
102
{ACAD_REACTORS
330
E
102
}
330
E
  0
SCALE
  5
43
102
{ACAD_REACTORS
330
42
102
}
330
42
100
AcDbScale
 70
     0
300
1:1
140
1.0
141
1.0
290
     1
  0
SCALE
  5
44
102
{ACAD_REACTORS
330
42
102
}
330
42
100
AcDbScale
 70
     0
300
1:2
140
1.0
141
2.0
290
     0
  0
SCALE
  5
45
102
{ACAD_REACTORS
330
42
102
}
330
42
100
AcDbScale
 70
     0
300
1:4
140
1.0
141
4.0
290
     0
  0
SCALE
  5
46
102
{ACAD_REACTORS
330
42
102
}
330
42
100
AcDbScale
 70
     0
300
1:5
140
1.0
141
5.0
290
     0
  0
SCALE
  5
47
102
{ACAD_REACTORS
330
42
102
}
330
42
100
AcDbScale
 70
     0
300
1:8
140
1.0
141
8.0
290
     0
  0
SCALE
  5
48
102
{ACAD_REACTORS
330
42
102
}
330
42
100
AcDbScale
 70
     0
300
1:10
140
1.0
141
10.0
290
     0
  0
SCALE
  5
49
102
{ACAD_REACTORS
330
42
102
}
330
42
100
AcDbScale
 70
     0
300
1:16
140
1.0
141
16.0
290
     0
  0
SCALE
  5
4A
102
{ACAD_REACTORS
330
42
102
}
330
42
100
AcDbScale
 70
     0
300
1:20
140
1.0
141
20.0
290
     0
  0
SCALE
  5
4B
102
{ACAD_REACTORS
330
42
102
}
330
42
100
AcDbScale
 70
     0
300
1:30
140
1.0
141
30.0
290
     0
  0
SCALE
  5
4C
102
{ACAD_REACTORS
330
42
102
}
330
42
100
AcDbScale
 70
     0
300
1:40
140
1.0
141
40.0
290
     0
  0
SCALE
  5
4D
102
{ACAD_REACTORS
330
42
102
}
330
42
100
AcDbScale
 70
     0
300
1:50
140
1.0
141
50.0
290
     0
  0
SCALE
  5
4E
102
{ACAD_REACTORS
330
42
102
}
330
42
100
AcDbScale
 70
     0
300
1:100
140
1.0
141
100.0
290
     0
  0
SCALE
  5
4F
102
{ACAD_REACTORS
330
42
102
}
330
42
100
AcDbScale
 70
     0
300
2:1
140
2.0
141
1.0
290
     0
  0
SCALE
  5
50
102
{ACAD_REACTORS
330
42
102
}
330
42
100
AcDbScale
 70
     0
300
4:1
140
4.0
141
1.0
290
     0
  0
SCALE
  5
51
102
{ACAD_REACTORS
330
42
102
}
330
42
100
AcDbScale
 70
     0
300
8:1
140
8.0
141
1.0
290
     0
  0
SCALE
  5
52
102
{ACAD_REACTORS
330
42
102
}
330
42
100
AcDbScale
 70
     0
300
10:1
140
10.0
141
1.0
290
     0
  0
SCALE
  5
53
102
{ACAD_REACTORS
330
42
102
}
330
42
100
AcDbScale
 70
     0
300
100:1
140
100.0
141
1.0
290
     0
  0
ACDBSECTIONVIEWSTYLE
  5
69
102
{ACAD_XDICTIONARY
360
2C0
102
}
102
{ACAD_REACTORS
330
68
102
}
330
68
100
AcDbModelDocViewStyle
 70
     0
  3
Imperial24
290
     0
100
AcDbSectionViewStyle
 70
     0
 71
     0
 90
       78
 71
     1
340
55
 62
   256
 40
0.24
340
0
340
0
 62
   256
 40
0.24
300
I, O, Q, S, X, Z
 40
0.48
 90
        3
 40
0.18
 90
        1
 71
     2
340
5D
 90
       25
 62
   256
340
5D
 90
       50
 62
   256
 40
0.24
 40
0.0
 40
0.24
 71
     3
340
55
 62
   256
 40
0.24
 90
        1
 40
0.75
 90
        1
300
%<\AcVar ViewType \f "%tc1">% %<\AcVar ViewSectionStartId>%-%<\AcVar ViewSectionEndId>%\PSCALE %<\AcVar ViewScale \f "%sn">%
 71
     4
 62
   256
 62
   257
300
ANSI31
 40
1.0
 90
        0
290
     0
290
     0
 90
        6
 40
0.0
 40
1.570796
 40
0.261799
 40
1.308997
 40
-0.261799
 40
1.832596
  0
TABLESTYLE
  5
65
102
{ACAD_XDICTIONARY
360
2BD
102
}
102
{ACAD_REACTORS
330
64
102
}
330
64
100
AcDbTableStyle
280
     0
  3
Standard
 70
     0
 71
     0
 40
1.5
 41
1.5
280
     0
281
     0
  7
Standard
140
0.18
170
     2
 62
     0
 63
     7
283
     0
 90
      512
 91
        0
  1

274
    -2
284
     1
 64
     0
275
    -2
285
     1
 65
     0
276
    -2
286
     1
 66
     0
277
    -2
287
     1
 67
     0
278
    -2
288
     1
 68
     0
279
    -2
289
     1
 69
     0
  7
Standard
140
0.25
170
     5
 62
     0
 63
     7
283
     0
 90
      512
 91
        0
  1

274
    -2
284
     1
 64
     0
275
    -2
285
     1
 65
     0
276
    -2
286
     1
 66
     0
277
    -2
287
     1
 67
     0
278
    -2
288
     1
 68
     0
279
    -2
289
     1
 69
     0
  7
Standard
140
0.18
170
     5
 62
     0
 63
     7
283
     0
 90
      512
 91
        0
  1

274
    -2
284
     1
 64
     0
275
    -2
285
     1
 65
     0
276
    -2
286
     1
 66
     0
277
    -2
287
     1
 67
     0
278
    -2
288
     1
 68
     0
279
    -2
289
     1
 69
     0
  0
VISUALSTYLE
  5
2F
102
{ACAD_REACTORS
330
29
102
}
330
29
100
AcDbVisualStyle
  2
2dWireframe
 70
     4
177
     3
291
     0
 70
    58
 90
        0
176
     1
 90
        2
176
     1
 90
        0
176
     1
 90
        0
176
     1
 40
0.6
176
     1
 40
30.0
176
     1
 62
     7
420
 16777215
176
     1
 90
        1
176
     1
 90
        4
176
     1
 62
     7
176
     1
 62
   257
176
     1
 90
        1
176
     1
 90
        1
176
     1
 40
1.0
176
     1
 90
        0
176
     1
 62
   257
176
     1
 40
1.0
176
     1
 90
        1
176
     1
 90
        6
176
     1
 90
        2
176
     1
 62
     7
176
     1
 90
        5
176
     1
 90
        0
176
     1
 90
        0
176
     1
290
     0
176
     1
 90
        1
176
     1
 40
0.0
176
     1
 90
        0
176
     1
290
     1
176
     1
290
     1
176
     1
290
     0
176
     1
290
     0
176
     1
290
     0
176
     1
290
     0
176
     1
290
     0
176
     1
290
     0
176
     1
290
     0
176
     1
 90
       50
176
     1
 40
0.0
176
     1
 40
1.0
176
     1
 90
        0
176
     1
 62
    18
420
        0
176
     1
 90
       50
176
     1
 90
        3
176
     1
 62
     5
420
      255
176
     1
290
     0
176
     1
 90
       50
176
     1
 90
       50
176
     1
 90
       50
176
     1
290
     0
176
     1
 90
       50
176
     1
 62
   256
176
     0
 40
1.0
176
     0
 90
        2
176
     1
  1
strokes_ogs.tif
176
     1
290
     0
176
     1
 40
1.0
176
     1
 40
1.0
176
     1
1001
ACAD
1000
AcDbSavedByObjectVersion
1070
     0
  0
VISUALSTYLE
  5
2E
102
{ACAD_REACTORS
330
29
102
}
330
29
100
AcDbVisualStyle
  2
Basic
 70
     7
177
     3
291
     1
 70
    58
 90
        1
176
     1
 90
        0
176
     1
 90
        1
176
     1
 90
        0
176
     1
 40
0.6
176
     1
 40
30.0
176
     1
 62
     7
420
 16777215
176
     1
 90
        0
176
     1
 90
        4
176
     1
 62
     7
176
     1
 62
   257
176
     1
 90
        1
176
     1
 90
        1
176
     1
 40
1.0
176
     1
 90
        8
176
     1
 62
     7
176
     1
 40
1.0
176
     1
 90
        1
176
     1
 90
        6
176
     1
 90
        2
176
     1
 62
     7
176
     1
 90
        5
176
     1
 90
        0
176
     1
 90
        0
176
     1
290
     0
176
     1
 90
        1
176
     1
 40
0.0
176
     1
 90
        0
176
     1
290
     0
176
     1
290
     1
176
     1
290
     1
176
     1
290
     0
176
     1
290
     0
176
     1
290
     0
176
     1
290
     0
176
     1
290
     0
176
     1
290
     0
176
     1
 90
       50
176
     1
 40
0.0
176
     1
 40
1.0
176
     1
 90
        0
176
     1
 62
    18
420
        0
176
     1
 90
       50
176
     1
 90
        3
176
     1
 62
     5
420
      255
176
     1
290
     0
176
     1
 90
       50
176
     1
 90
       50
176
     1
 90
       50
176
     1
290
     0
176
     1
 90
       50
176
     1
 62
   256
176
     0
 40
1.0
176
     0
 90
        2
176
     1
  1
strokes_ogs.tif
176
     1
290
     0
176
     1
 40
1.0
176
     1
 40
1.0
176
     1
1001
ACAD
1000
AcDbSavedByObjectVersion
1070
     0
  0
VISUALSTYLE
  5
35
102
{ACAD_REACTORS
330
29
102
}
330
29
100
AcDbVisualStyle
  2
Brighten
 70
    12
177
     3
291
     1
 70
    58
 90
        2
176
     1
 90
        2
176
     1
 90
        0
176
     1
 90
        0
176
     1
 40
0.6
176
     1
 40
30.0
176
     1
 62
     7
420
 16777215
176
     1
 90
        1
176
     1
 90
        4
176
     1
 62
     7
176
     1
 62
   257
176
     1
 90
        1
176
     1
 90
        1
176
     1
 40
1.0
176
     1
 90
        8
176
     1
 62
     7
176
     1
 40
1.0
176
     1
 90
        1
176
     1
 90
        6
176
     1
 90
        2
176
     1
 62
     7
176
     1
 90
        5
176
     1
 90
        0
176
     1
 90
        0
176
     1
290
     0
176
     1
 90
        1
176
     1
 40
50.0
176
     1
 90
        0
176
     1
290
     0
176
     1
290
     1
176
     1
290
     1
176
     1
290
     0
176
     1
290
     0
176
     1
290
     0
176
     1
290
     0
176
     1
290
     0
176
     1
290
     0
176
     1
 90
       50
176
     1
 40
0.0
176
     1
 40
1.0
176
     1
 90
        0
176
     1
 62
    18
420
        0
176
     1
 90
       50
176
     1
 90
        3
176
     1
 62
     5
420
      255
176
     1
290
     0
176
     1
 90
       50
176
     1
 90
       50
176
     1
 90
       50
176
     1
290
     0
176
     1
 90
       50
176
     1
 62
   256
176
     0
 40
1.0
176
     0
 90
        2
176
     1
  1
strokes_ogs.tif
176
     1
290
     0
176
     1
 40
1.0
176
     1
 40
1.0
176
     1
1001
ACAD
1000
AcDbSavedByObjectVersion
1070
     0
  0
VISUALSTYLE
  5
39
102
{ACAD_REACTORS
330
29
102
}
330
29
100
AcDbVisualStyle
  2
ColorChange
 70
    16
177
     3
291
     1
 70
    58
 90
        2
176
     1
 90
        2
176
     1
 90
        3
176
     1
 90
        0
176
     1
 40
0.6
176
     1
 40
30.0
176
     1
 62
     8
420
  8421504
176
     1
 90
        1
176
     1
 90
        4
176
     1
 62
     7
176
     1
 62
   257
176
     1
 90
        1
176
     1
 90
        1
176
     1
 40
1.0
176
     1
 90
        8
176
     1
 62
     8
420
  8421504
176
     1
 40
1.0
176
     1
 90
        1
176
     1
 90
        6
176
     1
 90
        2
176
     1
 62
     7
176
     1
 90
        5
176
     1
 90
        0
176
     1
 90
        0
176
     1
290
     0
176
     1
 90
        1
176
     1
 40
0.0
176
     1
 90
        0
176
     1
290
     0
176
     1
290
     1
176
     1
290
     1
176
     1
290
     0
176
     1
290
     0
176
     1
290
     0
176
     1
290
     0
176
     1
290
     0
176
     1
290
     0
176
     1
 90
       50
176
     1
 40
0.0
176
     1
 40
1.0
176
     1
 90
        0
176
     1
 62
    18
420
        0
176
     1
 90
       50
176
     1
 90
        3
176
     1
 62
     5
420
      255
176
     1
290
     0
176
     1
 90
       50
176
     1
 90
       50
176
     1
 90
       50
176
     1
290
     0
176
     1
 90
       50
176
     1
 62
   256
176
     0
 40
1.0
176
     0
 90
        2
176
     1
  1
strokes_ogs.tif
176
     1
290
     0
176
     1
 40
1.0
176
     1
 40
1.0
176
     1
1001
ACAD
1000
AcDbSavedByObjectVersion
1070
     0
  0
VISUALSTYLE
  5
32
102
{ACAD_REACTORS
330
29
102
}
330
29
100
AcDbVisualStyle
  2
Conceptual
 70
     9
177
     3
291
     0
 70
    58
 90
        3
176
     1
 90
        2
176
     1
 90
        0
176
     1
 90
        0
176
     1
 40
0.6
176
     1
 40
30.0
176
     1
 62
     7
420
 16777215
176
     1
 90
        2
176
     1
 90
        2
176
     1
 62
     7
176
     1
 62
   257
176
     1
 90
        1
176
     1
 90
        1
176
     1
 40
179.0
176
     1
 90
        8
176
     1
 62
     7
176
     1
 40
1.0
176
     1
 90
        1
176
     1
 90
        6
176
     1
 90
        2
176
     1
 62
     7
176
     1
 90
        3
176
     1
 90
        0
176
     1
 90
        0
176
     1
290
     0
176
     1
 90
        1
176
     1
 40
0.0
176
     1
 90
        0
176
     1
290
     0
176
     1
290
     1
176
     1
290
     1
176
     1
290
     0
176
     1
290
     0
176
     1
290
     0
176
     1
290
     0
176
     1
290
     0
176
     1
290
     0
176
     1
 90
       50
176
     1
 40
0.0
176
     1
 40
1.0
176
     1
 90
        0
176
     1
 62
    18
420
        0
176
     1
 90
       50
176
     1
 90
        3
176
     1
 62
     5
420
      255
176
     1
290
     0
176
     1
 90
       50
176
     1
 90
       50
176
     1
 90
       50
176
     1
290
     0
176
     1
 90
       50
176
     1
 62
   256
176
     0
 40
1.0
176
     0
 90
        2
176
     1
  1
strokes_ogs.tif
176
     1
290
     0
176
     1
 40
1.0
176
     1
 40
1.0
176
     1
1001
ACAD
1000
AcDbSavedByObjectVersion
1070
     0
  0
VISUALSTYLE
  5
34
102
{ACAD_REACTORS
330
29
102
}
330
29
100
AcDbVisualStyle
  2
Dim
 70
    11
177
     3
291
     1
 70
    58
 90
        2
176
     1
 90
        2
176
     1
 90
        0
176
     1
 90
        0
176
     1
 40
0.6
176
     1
 40
30.0
176
     1
 62
     7
420
 16777215
176
     1
 90
        1
176
     1
 90
        4
176
     1
 62
     7
176
     1
 62
   257
176
     1
 90
        1
176
     1
 90
        1
176
     1
 40
1.0
176
     1
 90
        8
176
     1
 62
     7
176
     1
 40
1.0
176
     1
 90
        1
176
     1
 90
        6
176
     1
 90
        2
176
     1
 62
     7
176
     1
 90
        5
176
     1
 90
        0
176
     1
 90
        0
176
     1
290
     0
176
     1
 90
        1
176
     1
 40
-50.0
176
     1
 90
        0
176
     1
290
     0
176
     1
290
     1
176
     1
290
     1
176
     1
290
     0
176
     1
290
     0
176
     1
290
     0
176
     1
290
     0
176
     1
290
     0
176
     1
290
     0
176
     1
 90
       50
176
     1
 40
0.0
176
     1
 40
1.0
176
     1
 90
        0
176
     1
 62
    18
420
        0
176
     1
 90
       50
176
     1
 90
        3
176
     1
 62
     5
420
      255
176
     1
290
     0
176
     1
 90
       50
176
     1
 90
       50
176
     1
 90
       50
176
     1
290
     0
176
     1
 90
       50
176
     1
 62
   256
176
     0
 40
1.0
176
     0
 90
        2
176
     1
  1
strokes_ogs.tif
176
     1
290
     0
176
     1
 40
1.0
176
     1
 40
1.0
176
     1
1001
ACAD
1000
AcDbSavedByObjectVersion
1070
     0
  0
VISUALSTYLE
  5
41
102
{ACAD_REACTORS
330
29
102
}
330
29
100
AcDbVisualStyle
  2
EdgeColorOff
 70
    22
177
     3
291
     1
 70
    58
 90
        2
176
     0
 90
        2
176
     0
 90
        0
176
     0
 90
        0
176
     0
 40
0.6
176
     0
 40
30.0
176
     0
 62
     7
420
 16777215
176
     0
 90
        1
176
     0
 90
        4
176
     0
 62
     7
176
     0
 62
   257
176
     0
 90
        1
176
     0
 90
        1
176
     0
 40
1.0
176
     0
 90
        8
176
     2
 62
     7
176
     0
 40
1.0
176
     0
 90
        1
176
     0
 90
        6
176
     0
 90
        2
176
     0
 62
     7
176
     0
 90
        5
176
     0
 90
        0
176
     0
 90
        0
176
     0
290
     0
176
     0
 90
        1
176
     0
 40
0.0
176
     0
 90
        0
176
     0
290
     0
176
     0
290
     1
176
     0
290
     1
176
     0
290
     0
176
     0
290
     0
176
     0
290
     0
176
     0
290
     0
176
     0
290
     0
176
     0
290
     0
176
     0
 90
       50
176
     0
 40
0.0
176
     0
 40
1.0
176
     0
 90
        0
176
     0
 62
    18
420
        0
176
     0
 90
       50
176
     0
 90
        3
176
     0
 62
     5
420
      255
176
     0
290
     0
176
     0
 90
       50
176
     0
 90
       50
176
     0
 90
       50
176
     0
290
     0
176
     0
 90
       50
176
     0
 62
   256
176
     0
 40
1.0
176
     0
 90
        2
176
     0
  1
strokes_ogs.tif
176
     0
290
     0
176
     0
 40
1.0
176
     0
 40
1.0
176
     0
1001
ACAD
1000
AcDbSavedByObjectVersion
1070
     0
  0
VISUALSTYLE
  5
38
102
{ACAD_REACTORS
330
29
102
}
330
29
100
AcDbVisualStyle
  2
Facepattern
 70
    15
177
     3
291
     1
 70
    58
 90
        2
176
     1
 90
        2
176
     1
 90
        0
176
     1
 90
        0
176
     1
 40
0.6
176
     1
 40
30.0
176
     1
 62
     7
420
 16777215
176
     1
 90
        1
176
     1
 90
        4
176
     1
 62
     7
176
     1
 62
   257
176
     1
 90
        1
176
     1
 90
        1
176
     1
 40
1.0
176
     1
 90
        8
176
     1
 62
     7
176
     1
 40
1.0
176
     1
 90
        1
176
     1
 90
        6
176
     1
 90
        2
176
     1
 62
     7
176
     1
 90
        5
176
     1
 90
        0
176
     1
 90
        0
176
     1
290
     0
176
     1
 90
        1
176
     1
 40
0.0
176
     1
 90
        0
176
     1
290
     0
176
     1
290
     1
176
     1
290
     1
176
     1
290
     0
176
     1
290
     0
176
     1
290
     0
176
     1
290
     0
176
     1
290
     0
176
     1
290
     0
176
     1
 90
       50
176
     1
 40
0.0
176
     1
 40
1.0
176
     1
 90
        0
176
     1
 62
    18
420
        0
176
     1
 90
       50
176
     1
 90
        3
176
     1
 62
     5
420
      255
176
     1
290
     0
176
     1
 90
       50
176
     1
 90
       50
176
     1
 90
       50
176
     1
290
     0
176
     1
 90
       50
176
     1
 62
   256
176
     0
 40
1.0
176
     0
 90
        2
176
     1
  1
strokes_ogs.tif
176
     1
290
     0
176
     1
 40
1.0
176
     1
 40
1.0
176
     1
1001
ACAD
1000
AcDbSavedByObjectVersion
1070
     0
  0
VISUALSTYLE
  5
2A
102
{ACAD_REACTORS
330
29
102
}
330
29
100
AcDbVisualStyle
  2
Flat
 70
     0
177
     3
291
     1
 70
    58
 90
        2
176
     1
 90
        1
176
     1
 90
        1
176
     1
 90
        2
176
     1
 40
0.6
176
     1
 40
30.0
176
     1
 62
     7
420
 16777215
176
     1
 90
        0
176
     1
 90
        0
176
     1
 62
     7
176
     1
 62
   257
176
     1
 90
        1
176
     1
 90
        1
176
     1
 40
1.0
176
     1
 90
        8
176
     1
 62
     7
176
     1
 40
1.0
176
     1
 90
        1
176
     1
 90
        6
176
     1
 90
        2
176
     1
 62
     7
176
     1
 90
        5
176
     1
 90
        0
176
     1
 90
        0
176
     1
290
     0
176
     1
 90
       13
176
     1
 40
0.0
176
     1
 90
        0
176
     1
290
     0
176
     1
290
     1
176
     1
290
     1
176
     1
290
     0
176
     1
290
     0
176
     1
290
     0
176
     1
290
     0
176
     1
290
     0
176
     1
290
     0
176
     1
 90
       50
176
     1
 40
0.0
176
     1
 40
1.0
176
     1
 90
        0
176
     1
 62
    18
420
        0
176
     1
 90
       50
176
     1
 90
        3
176
     1
 62
     5
420
      255
176
     1
290
     0
176
     1
 90
       50
176
     1
 90
       50
176
     1
 90
       50
176
     1
290
     0
176
     1
 90
       50
176
     1
 62
   256
176
     0
 40
1.0
176
     0
 90
        2
176
     1
  1
strokes_ogs.tif
176
     1
290
     0
176
     1
 40
1.0
176
     1
 40
1.0
176
     1
1001
ACAD
1000
AcDbSavedByObjectVersion
1070
     0
  0
VISUALSTYLE
  5
2B
102
{ACAD_REACTORS
330
29
102
}
330
29
100
AcDbVisualStyle
  2
FlatWithEdges
 70
     1
177
     3
291
     1
 70
    58
 90
        2
176
     1
 90
        1
176
     1
 90
        1
176
     1
 90
        2
176
     1
 40
0.6
176
     1
 40
30.0
176
     1
 62
     7
420
 16777215
176
     1
 90
        1
176
     1
 90
        0
176
     1
 62
     7
176
     1
 62
   257
176
     1
 90
        1
176
     1
 90
        1
176
     1
 40
1.0
176
     1
 90
        0
176
     1
 62
   257
176
     1
 40
1.0
176
     1
 90
        1
176
     1
 90
        6
176
     1
 90
        2
176
     1
 62
     7
176
     1
 90
        5
176
     1
 90
        0
176
     1
 90
        0
176
     1
290
     0
176
     1
 90
       13
176
     1
 40
0.0
176
     1
 90
        0
176
     1
290
     0
176
     1
290
     1
176
     1
290
     1
176
     1
290
     0
176
     1
290
     0
176
     1
290
     0
176
     1
290
     0
176
     1
290
     0
176
     1
290
     0
176
     1
 90
       50
176
     1
 40
0.0
176
     1
 40
1.0
176
     1
 90
        0
176
     1
 62
    18
420
        0
176
     1
 90
       50
176
     1
 90
        3
176
     1
 62
     5
420
      255
176
     1
290
     0
176
     1
 90
       50
176
     1
 90
       50
176
     1
 90
       50
176
     1
290
     0
176
     1
 90
       50
176
     1
 62
   256
176
     0
 40
1.0
176
     0
 90
        2
176
     1
  1
strokes_ogs.tif
176
     1
290
     0
176
     1
 40
1.0
176
     1
 40
1.0
176
     1
1001
ACAD
1000
AcDbSavedByObjectVersion
1070
     0
  0
VISUALSTYLE
  5
2C
102
{ACAD_REACTORS
330
29
102
}
330
29
100
AcDbVisualStyle
  2
Gouraud
 70
     2
177
     3
291
     1
 70
    58
 90
        2
176
     1
 90
        2
176
     1
 90
        1
176
     1
 90
        2
176
     1
 40
0.6
176
     1
 40
30.0
176
     1
 62
     7
420
 16777215
176
     1
 90
        0
176
     1
 90
        0
176
     1
 62
     7
176
     1
 62
   257
176
     1
 90
        1
176
     1
 90
        1
176
     1
 40
1.0
176
     1
 90
        0
176
     1
 62
     7
176
     1
 40
1.0
176
     1
 90
        1
176
     1
 90
        6
176
     1
 90
        2
176
     1
 62
     7
176
     1
 90
        5
176
     1
 90
        0
176
     1
 90
        0
176
     1
290
     0
176
     1
 90
       13
176
     1
 40
0.0
176
     1
 90
        0
176
     1
290
     0
176
     1
290
     1
176
     1
290
     1
176
     1
290
     0
176
     1
290
     0
176
     1
290
     0
176
     1
290
     0
176
     1
290
     0
176
     1
290
     0
176
     1
 90
       50
176
     1
 40
0.0
176
     1
 40
1.0
176
     1
 90
        0
176
     1
 62
    18
420
        0
176
     1
 90
       50
176
     1
 90
        3
176
     1
 62
     5
420
      255
176
     1
290
     0
176
     1
 90
       50
176
     1
 90
       50
176
     1
 90
       50
176
     1
290
     0
176
     1
 90
       50
176
     1
 62
   256
176
     0
 40
1.0
176
     0
 90
        2
176
     1
  1
strokes_ogs.tif
176
     1
290
     0
176
     1
 40
1.0
176
     1
 40
1.0
176
     1
1001
ACAD
1000
AcDbSavedByObjectVersion
1070
     0
  0
VISUALSTYLE
  5
2D
102
{ACAD_REACTORS
330
29
102
}
330
29
100
AcDbVisualStyle
  2
GouraudWithEdges
 70
     3
177
     3
291
     1
 70
    58
 90
        2
176
     1
 90
        2
176
     1
 90
        1
176
     1
 90
        2
176
     1
 40
0.6
176
     1
 40
30.0
176
     1
 62
     7
420
 16777215
176
     1
 90
        1
176
     1
 90
        0
176
     1
 62
     7
176
     1
 62
   257
176
     1
 90
        1
176
     1
 90
        1
176
     1
 40
1.0
176
     1
 90
        0
176
     1
 62
   257
176
     1
 40
1.0
176
     1
 90
        1
176
     1
 90
        6
176
     1
 90
        2
176
     1
 62
     7
176
     1
 90
        5
176
     1
 90
        0
176
     1
 90
        0
176
     1
290
     0
176
     1
 90
       13
176
     1
 40
0.0
176
     1
 90
        0
176
     1
290
     0
176
     1
290
     1
176
     1
290
     1
176
     1
290
     0
176
     1
290
     0
176
     1
290
     0
176
     1
290
     0
176
     1
290
     0
176
     1
290
     0
176
     1
 90
       50
176
     1
 40
0.0
176
     1
 40
1.0
176
     1
 90
        0
176
     1
 62
    18
420
        0
176
     1
 90
       50
176
     1
 90
        3
176
     1
 62
     5
420
      255
176
     1
290
     0
176
     1
 90
       50
176
     1
 90
       50
176
     1
 90
       50
176
     1
290
     0
176
     1
 90
       50
176
     1
 62
   256
176
     0
 40
1.0
176
     0
 90
        2
176
     1
  1
strokes_ogs.tif
176
     1
290
     0
176
     1
 40
1.0
176
     1
 40
1.0
176
     1
1001
ACAD
1000
AcDbSavedByObjectVersion
1070
     0
  0
VISUALSTYLE
  5
31
102
{ACAD_REACTORS
330
29
102
}
330
29
100
AcDbVisualStyle
  2
Hidden
 70
     6
177
     3
291
     0
 70
    58
 90
        1
176
     1
 90
        2
176
     1
 90
        2
176
     1
 90
        0
176
     1
 40
0.6
176
     1
 40
30.0
176
     1
 62
     7
420
 16777215
176
     1
 90
        2
176
     1
 90
        2
176
     1
 62
     7
176
     1
 62
   257
176
     1
 90
        2
176
     1
 90
        1
176
     1
 40
40.0
176
     1
 90
        0
176
     1
 62
   257
176
     1
 40
1.0
176
     1
 90
        1
176
     1
 90
        6
176
     1
 90
        2
176
     1
 62
     7
176
     1
 90
        3
176
     1
 90
        0
176
     1
 90
        0
176
     1
290
     0
176
     1
 90
        1
176
     1
 40
0.0
176
     1
 90
        0
176
     1
290
     0
176
     1
290
     1
176
     1
290
     1
176
     1
290
     0
176
     1
290
     0
176
     1
290
     0
176
     1
290
     0
176
     1
290
     0
176
     1
290
     0
176
     1
 90
       50
176
     1
 40
0.0
176
     1
 40
1.0
176
     1
 90
        0
176
     1
 62
    18
420
        0
176
     1
 90
       50
176
     1
 90
        3
176
     1
 62
     5
420
      255
176
     1
290
     0
176
     1
 90
       50
176
     1
 90
       50
176
     1
 90
       50
176
     1
290
     0
176
     1
 90
       50
176
     1
 62
   256
176
     0
 40
1.0
176
     0
 90
        2
176
     1
  1
strokes_ogs.tif
176
     1
290
     0
176
     1
 40
1.0
176
     1
 40
1.0
176
     1
1001
ACAD
1000
AcDbSavedByObjectVersion
1070
     0
  0
VISUALSTYLE
  5
3F
102
{ACAD_REACTORS
330
29
102
}
330
29
100
AcDbVisualStyle
  2
JitterOff
 70
    20
177
     3
291
     1
 70
    58
 90
        2
176
     0
 90
        2
176
     0
 90
        0
176
     0
 90
        0
176
     0
 40
0.6
176
     0
 40
30.0
176
     0
 62
     7
420
 16777215
176
     0
 90
        1
176
     0
 90
        4
176
     0
 62
     7
176
     0
 62
   257
176
     0
 90
        1
176
     0
 90
        1
176
     0
 40
1.0
176
     0
 90
       10
176
     2
 62
     7
176
     0
 40
1.0
176
     0
 90
        1
176
     0
 90
        6
176
     0
 90
        2
176
     0
 62
     7
176
     0
 90
        5
176
     0
 90
        0
176
     0
 90
        0
176
     0
290
     0
176
     0
 90
        1
176
     0
 40
0.0
176
     0
 90
        0
176
     0
290
     0
176
     0
290
     1
176
     0
290
     1
176
     0
290
     0
176
     0
290
     0
176
     0
290
     0
176
     0
290
     0
176
     0
290
     0
176
     0
290
     0
176
     0
 90
       50
176
     0
 40
0.0
176
     0
 40
1.0
176
     0
 90
        0
176
     0
 62
    18
420
        0
176
     0
 90
       50
176
     0
 90
        3
176
     0
 62
     5
420
      255
176
     0
290
     0
176
     0
 90
       50
176
     0
 90
       50
176
     0
 90
       50
176
     0
290
     0
176
     0
 90
       50
176
     0
 62
   256
176
     0
 40
1.0
176
     0
 90
        2
176
     0
  1
strokes_ogs.tif
176
     0
290
     0
176
     0
 40
1.0
176
     0
 40
1.0
176
     0
1001
ACAD
1000
AcDbSavedByObjectVersion
1070
     0
  0
VISUALSTYLE
  5
37
102
{ACAD_REACTORS
330
29
102
}
330
29
100
AcDbVisualStyle
  2
Linepattern
 70
    14
177
     3
291
     1
 70
    58
 90
        2
176
     1
 90
        2
176
     1
 90
        0
176
     1
 90
        0
176
     1
 40
0.6
176
     1
 40
30.0
176
     1
 62
     7
420
 16777215
176
     1
 90
        1
176
     1
 90
        4
176
     1
 62
     7
176
     1
 62
   257
176
     1
 90
        7
176
     1
 90
        7
176
     1
 40
1.0
176
     1
 90
        8
176
     1
 62
     7
176
     1
 40
1.0
176
     1
 90
        1
176
     1
 90
        6
176
     1
 90
        2
176
     1
 62
     7
176
     1
 90
        5
176
     1
 90
        0
176
     1
 90
        0
176
     1
290
     0
176
     1
 90
        1
176
     1
 40
0.0
176
     1
 90
        0
176
     1
290
     0
176
     1
290
     1
176
     1
290
     1
176
     1
290
     0
176
     1
290
     0
176
     1
290
     0
176
     1
290
     0
176
     1
290
     0
176
     1
290
     0
176
     1
 90
       50
176
     1
 40
0.0
176
     1
 40
1.0
176
     1
 90
        0
176
     1
 62
    18
420
        0
176
     1
 90
       50
176
     1
 90
        3
176
     1
 62
     5
420
      255
176
     1
290
     0
176
     1
 90
       50
176
     1
 90
       50
176
     1
 90
       50
176
     1
290
     0
176
     1
 90
       50
176
     1
 62
   256
176
     0
 40
1.0
176
     0
 90
        2
176
     1
  1
strokes_ogs.tif
176
     1
290
     0
176
     1
 40
1.0
176
     1
 40
1.0
176
     1
1001
ACAD
1000
AcDbSavedByObjectVersion
1070
     0
  0
VISUALSTYLE
  5
40
102
{ACAD_REACTORS
330
29
102
}
330
29
100
AcDbVisualStyle
  2
OverhangOff
 70
    21
177
     3
291
     1
 70
    58
 90
        2
176
     0
 90
        2
176
     0
 90
        0
176
     0
 90
        0
176
     0
 40
0.6
176
     0
 40
30.0
176
     0
 62
     7
420
 16777215
176
     0
 90
        1
176
     0
 90
        4
176
     0
 62
     7
176
     0
 62
   257
176
     0
 90
        1
176
     0
 90
        1
176
     0
 40
1.0
176
     0
 90
        9
176
     2
 62
     7
176
     0
 40
1.0
176
     0
 90
        1
176
     0
 90
        6
176
     0
 90
        2
176
     0
 62
     7
176
     0
 90
        5
176
     0
 90
        0
176
     0
 90
        0
176
     0
290
     0
176
     0
 90
        1
176
     0
 40
0.0
176
     0
 90
        0
176
     0
290
     0
176
     0
290
     1
176
     0
290
     1
176
     0
290
     0
176
     0
290
     0
176
     0
290
     0
176
     0
290
     0
176
     0
290
     0
176
     0
290
     0
176
     0
 90
       50
176
     0
 40
0.0
176
     0
 40
1.0
176
     0
 90
        0
176
     0
 62
    18
420
        0
176
     0
 90
       50
176
     0
 90
        3
176
     0
 62
     5
420
      255
176
     0
290
     0
176
     0
 90
       50
176
     0
 90
       50
176
     0
 90
       50
176
     0
290
     0
176
     0
 90
       50
176
     0
 62
   256
176
     0
 40
1.0
176
     0
 90
        2
176
     0
  1
strokes_ogs.tif
176
     0
290
     0
176
     0
 40
1.0
176
     0
 40
1.0
176
     0
1001
ACAD
1000
AcDbSavedByObjectVersion
1070
     0
  0
VISUALSTYLE
  5
33
102
{ACAD_REACTORS
330
29
102
}
330
29
100
AcDbVisualStyle
  2
Realistic
 70
     8
177
     3
291
     0
 70
    58
 90
        2
176
     1
 90
        3
176
     1
 90
        0
176
     1
 90
        2
176
     1
 40
0.6
176
     1
 40
30.0
176
     1
 62
     7
420
 16777215
176
     1
 90
        0
176
     1
 90
        0
176
     1
 62
     7
176
     1
 62
   257
176
     1
 90
        1
176
     1
 90
        1
176
     1
 40
1.0
176
     1
 90
        8
176
     1
 62
   257
176
     1
 40
1.0
176
     1
 90
        1
176
     1
 90
        6
176
     1
 90
        2
176
     1
 62
     7
176
     1
 90
        3
176
     1
 90
        0
176
     1
 90
        0
176
     1
290
     0
176
     1
 90
       13
176
     1
 40
0.0
176
     1
 90
        0
176
     1
290
     0
176
     1
290
     1
176
     1
290
     1
176
     1
290
     0
176
     1
290
     0
176
     1
290
     0
176
     1
290
     0
176
     1
290
     0
176
     1
290
     0
176
     1
 90
       50
176
     1
 40
0.0
176
     1
 40
1.0
176
     1
 90
        0
176
     1
 62
    18
420
        0
176
     1
 90
       50
176
     1
 90
        3
176
     1
 62
     5
420
      255
176
     1
290
     0
176
     1
 90
       50
176
     1
 90
       50
176
     1
 90
       50
176
     1
290
     0
176
     1
 90
       50
176
     1
 62
   256
176
     0
 40
1.0
176
     0
 90
        2
176
     1
  1
strokes_ogs.tif
176
     1
290
     0
176
     1
 40
1.0
176
     1
 40
1.0
176
     1
1001
ACAD
1000
AcDbSavedByObjectVersion
1070
     0
  0
VISUALSTYLE
  5
3E
102
{ACAD_REACTORS
330
29
102
}
330
29
100
AcDbVisualStyle
  2
Shaded
 70
    27
177
     3
291
     0
 70
    58
 90
        2
176
     1
 90
        2
176
     1
 90
        1
176
     1
 90
        2
176
     1
 40
0.6
176
     1
 40
30.0
176
     1
 62
     7
420
 16777215
176
     1
 90
        0
176
     1
 90
        4
176
     1
 62
     7
176
     1
 62
   257
176
     1
 90
        1
176
     1
 90
        1
176
     1
 40
1.0
176
     1
 90
        8
176
     1
 62
   257
176
     1
 40
1.0
176
     1
 90
        1
176
     1
 90
        6
176
     1
 90
        2
176
     1
 62
     8
420
  7895160
176
     1
 90
        3
176
     1
 90
        0
176
     1
 90
        0
176
     1
290
     0
176
     1
 90
        5
176
     1
 40
0.0
176
     1
 90
        0
176
     1
290
     0
176
     1
290
     1
176
     1
290
     1
176
     1
290
     0
176
     1
290
     0
176
     1
290
     0
176
     1
290
     0
176
     1
290
     0
176
     1
290
     0
176
     1
 90
       50
176
     1
 40
0.0
176
     1
 40
1.0
176
     1
 90
        0
176
     1
 62
    18
420
        0
176
     1
 90
       50
176
     1
 90
        3
176
     1
 62
     5
420
      255
176
     1
290
     0
176
     1
 90
       50
176
     1
 90
       50
176
     1
 90
       50
176
     1
290
     0
176
     1
 90
       50
176
     1
 62
   256
176
     0
 40
1.0
176
     0
 90
        2
176
     1
  1
strokes_ogs.tif
176
     1
290
     0
176
     1
 40
1.0
176
     1
 40
1.0
176
     1
1001
ACAD
1000
AcDbSavedByObjectVersion
1070
     0
  0
VISUALSTYLE
  5
3D
102
{ACAD_REACTORS
330
29
102
}
330
29
100
AcDbVisualStyle
  2
Shaded with edges
 70
    26
177
     3
291
     0
 70
    58
 90
        2
176
     1
 90
        2
176
     1
 90
        1
176
     1
 90
        2
176
     1
 40
0.6
176
     1
 40
30.0
176
     1
 62
     7
420
 16777215
176
     1
 90
        1
176
     1
 90
        2
176
     1
 62
     7
176
     1
 62
   257
176
     1
 90
        2
176
     1
 90
        1
176
     1
 40
1.0
176
     1
 90
        8
176
     1
 62
   257
176
     1
 40
1.0
176
     1
 90
        1
176
     1
 90
        6
176
     1
 90
        2
176
     1
 62
     7
176
     1
 90
        3
176
     1
 90
        0
176
     1
 90
        0
176
     1
290
     0
176
     1
 90
        5
176
     1
 40
0.0
176
     1
 90
        0
176
     1
290
     0
176
     1
290
     1
176
     1
290
     1
176
     1
290
     0
176
     1
290
     0
176
     1
290
     0
176
     1
290
     0
176
     1
290
     0
176
     1
290
     0
176
     1
 90
       50
176
     1
 40
0.0
176
     1
 40
1.0
176
     1
 90
        0
176
     1
 62
    18
420
        0
176
     1
 90
       50
176
     1
 90
        3
176
     1
 62
     5
420
      255
176
     1
290
     0
176
     1
 90
       50
176
     1
 90
       50
176
     1
 90
       50
176
     1
290
     0
176
     1
 90
       50
176
     1
 62
   256
176
     0
 40
1.0
176
     0
 90
        2
176
     1
  1
strokes_ogs.tif
176
     1
290
     0
176
     1
 40
1.0
176
     1
 40
1.0
176
     1
1001
ACAD
1000
AcDbSavedByObjectVersion
1070
     0
  0
VISUALSTYLE
  5
3A
102
{ACAD_REACTORS
330
29
102
}
330
29
100
AcDbVisualStyle
  2
Shades of Gray
 70
    23
177
     3
291
     0
 70
    58
 90
        2
176
     1
 90
        2
176
     1
 90
        3
176
     1
 90
        0
176
     1
 40
0.6
176
     1
 40
30.0
176
     1
 62
     7
420
 16777215
176
     1
 90
        2
176
     1
 90
        2
176
     1
 62
     7
176
     1
 62
     7
176
     1
 90
        1
176
     1
 90
        1
176
     1
 40
40.0
176
     1
 90
        8
176
     1
 62
     7
176
     1
 40
1.0
176
     1
 90
        1
176
     1
 90
        6
176
     1
 90
        2
176
     1
 62
     7
176
     1
 90
        3
176
     1
 90
        0
176
     1
 90
        0
176
     1
290
     0
176
     1
 90
        1
176
     1
 40
0.0
176
     1
 90
        0
176
     1
290
     0
176
     1
290
     1
176
     1
290
     1
176
     1
290
     0
176
     1
290
     0
176
     1
290
     0
176
     1
290
     0
176
     1
290
     0
176
     1
290
     0
176
     1
 90
       50
176
     1
 40
0.0
176
     1
 40
1.0
176
     1
 90
        0
176
     1
 62
    18
420
        0
176
     1
 90
       50
176
     1
 90
        3
176
     1
 62
     5
420
      255
176
     1
290
     0
176
     1
 90
       50
176
     1
 90
       50
176
     1
 90
       50
176
     1
290
     0
176
     1
 90
       50
176
     1
 62
   256
176
     0
 40
1.0
176
     0
 90
        2
176
     1
  1
strokes_ogs.tif
176
     1
290
     0
176
     1
 40
1.0
176
     1
 40
1.0
176
     1
1001
ACAD
1000
AcDbSavedByObjectVersion
1070
     0
  0
VISUALSTYLE
  5
3B
102
{ACAD_REACTORS
330
29
102
}
330
29
100
AcDbVisualStyle
  2
Sketchy
 70
    24
177
     3
291
     0
 70
    58
 90
        1
176
     1
 90
        2
176
     1
 90
        2
176
     1
 90
        0
176
     1
 40
0.6
176
     1
 40
30.0
176
     1
 62
     7
420
 16777215
176
     1
 90
        2
176
     1
 90
        2
176
     1
 62
     7
176
     1
 62
     7
176
     1
 90
        1
176
     1
 90
        1
176
     1
 40
40.0
176
     1
 90
       11
176
     1
 62
     7
176
     1
 40
1.0
176
     1
 90
        1
176
     1
 90
        6
176
     1
 90
        2
176
     1
 62
     7
176
     1
 90
        6
176
     1
 90
        0
176
     1
 90
        0
176
     1
290
     0
176
     1
 90
        1
176
     1
 40
0.0
176
     1
 90
        0
176
     1
290
     0
176
     1
290
     1
176
     1
290
     1
176
     1
290
     0
176
     1
290
     0
176
     1
290
     0
176
     1
290
     0
176
     1
290
     0
176
     1
290
     0
176
     1
 90
       50
176
     1
 40
0.0
176
     1
 40
1.0
176
     1
 90
        0
176
     1
 62
    18
420
        0
176
     1
 90
       50
176
     1
 90
        3
176
     1
 62
     5
420
      255
176
     1
290
     0
176
     1
 90
       50
176
     1
 90
       50
176
     1
 90
       50
176
     1
290
     0
176
     1
 90
       50
176
     1
 62
   256
176
     0
 40
1.0
176
     0
 90
        2
176
     1
  1
strokes_ogs.tif
176
     1
290
     0
176
     1
 40
1.0
176
     1
 40
1.0
176
     1
1001
ACAD
1000
AcDbSavedByObjectVersion
1070
     0
  0
VISUALSTYLE
  5
36
102
{ACAD_REACTORS
330
29
102
}
330
29
100
AcDbVisualStyle
  2
Thicken
 70
    13
177
     3
291
     1
 70
    58
 90
        2
176
     1
 90
        2
176
     1
 90
        0
176
     1
 90
        0
176
     1
 40
0.6
176
     1
 40
30.0
176
     1
 62
     7
420
 16777215
176
     1
 90
        1
176
     1
 90
        4
176
     1
 62
     7
176
     1
 62
   257
176
     1
 90
        1
176
     1
 90
        1
176
     1
 40
1.0
176
     1
 90
       12
176
     1
 62
     7
176
     1
 40
1.0
176
     1
 90
        1
176
     1
 90
        6
176
     1
 90
        2
176
     1
 62
     7
176
     1
 90
        5
176
     1
 90
        0
176
     1
 90
        0
176
     1
290
     0
176
     1
 90
        1
176
     1
 40
0.0
176
     1
 90
        0
176
     1
290
     0
176
     1
290
     1
176
     1
290
     1
176
     1
290
     0
176
     1
290
     0
176
     1
290
     0
176
     1
290
     0
176
     1
290
     0
176
     1
290
     0
176
     1
 90
       50
176
     1
 40
0.0
176
     1
 40
1.0
176
     1
 90
        0
176
     1
 62
    18
420
        0
176
     1
 90
       50
176
     1
 90
        3
176
     1
 62
     5
420
      255
176
     1
290
     0
176
     1
 90
       50
176
     1
 90
       50
176
     1
 90
       50
176
     1
290
     0
176
     1
 90
       50
176
     1
 62
   256
176
     0
 40
1.0
176
     0
 90
        2
176
     1
  1
strokes_ogs.tif
176
     1
290
     0
176
     1
 40
1.0
176
     1
 40
1.0
176
     1
1001
ACAD
1000
AcDbSavedByObjectVersion
1070
     0
  0
VISUALSTYLE
  5
30
102
{ACAD_REACTORS
330
29
102
}
330
29
100
AcDbVisualStyle
  2
Wireframe
 70
     5
177
     3
291
     0
 70
    58
 90
        0
176
     1
 90
        2
176
     1
 90
        0
176
     1
 90
        0
176
     1
 40
0.6
176
     1
 40
30.0
176
     1
 62
     7
420
 16777215
176
     1
 90
        1
176
     1
 90
        4
176
     1
 62
     7
176
     1
 62
   257
176
     1
 90
        1
176
     1
 90
        1
176
     1
 40
1.0
176
     1
 90
        0
176
     1
 62
   257
176
     1
 40
1.0
176
     1
 90
        1
176
     1
 90
        6
176
     1
 90
        2
176
     1
 62
     7
176
     1
 90
        3
176
     1
 90
        0
176
     1
 90
        0
176
     1
290
     0
176
     1
 90
        1
176
     1
 40
0.0
176
     1
 90
        0
176
     1
290
     0
176
     1
290
     1
176
     1
290
     1
176
     1
290
     0
176
     1
290
     0
176
     1
290
     0
176
     1
290
     0
176
     1
290
     0
176
     1
290
     0
176
     1
 90
       50
176
     1
 40
0.0
176
     1
 40
1.0
176
     1
 90
        0
176
     1
 62
    18
420
        0
176
     1
 90
       50
176
     1
 90
        3
176
     1
 62
     5
420
      255
176
     1
290
     0
176
     1
 90
       50
176
     1
 90
       50
176
     1
 90
       50
176
     1
290
     0
176
     1
 90
       50
176
     1
 62
   256
176
     0
 40
1.0
176
     0
 90
        2
176
     1
  1
strokes_ogs.tif
176
     1
290
     0
176
     1
 40
1.0
176
     1
 40
1.0
176
     1
1001
ACAD
1000
AcDbSavedByObjectVersion
1070
     0
  0
VISUALSTYLE
  5
3C
102
{ACAD_REACTORS
330
29
102
}
330
29
100
AcDbVisualStyle
  2
X-Ray
 70
    25
177
     3
291
     0
 70
    58
 90
        2
176
     1
 90
        2
176
     1
 90
        1
176
     1
 90
        1
176
     1
 40
0.5
176
     1
 40
30.0
176
     1
 62
     7
420
 16777215
176
     1
 90
        1
176
     1
 90
        0
176
     1
 62
     7
176
     1
 62
   257
176
     1
 90
        1
176
     1
 90
        1
176
     1
 40
1.0
176
     1
 90
        8
176
     1
 62
     7
176
     1
 40
1.0
176
     1
 90
        1
176
     1
 90
        6
176
     1
 90
        2
176
     1
 62
     7
176
     1
 90
        3
176
     1
 90
        0
176
     1
 90
        0
176
     1
290
     0
176
     1
 90
       13
176
     1
 40
0.0
176
     1
 90
        0
176
     1
290
     0
176
     1
290
     1
176
     1
290
     1
176
     1
290
     0
176
     1
290
     0
176
     1
290
     0
176
     1
290
     0
176
     1
290
     0
176
     1
290
     0
176
     1
 90
       50
176
     1
 40
0.0
176
     1
 40
1.0
176
     1
 90
        0
176
     1
 62
    18
420
        0
176
     1
 90
       50
176
     1
 90
        3
176
     1
 62
     5
420
      255
176
     1
290
     0
176
     1
 90
       50
176
     1
 90
       50
176
     1
 90
       50
176
     1
290
     0
176
     1
 90
       50
176
     1
 62
   256
176
     0
 40
1.0
176
     0
 90
        2
176
     1
  1
strokes_ogs.tif
176
     1
290
     0
176
     1
 40
1.0
176
     1
 40
1.0
176
     1
1001
ACAD
1000
AcDbSavedByObjectVersion
1070
     0
  0
DICTIONARYVAR
  5
2BB
102
{ACAD_REACTORS
330
2B6
102
}
330
2B6
100
DictionaryVariables
280
     0
  1
0
  0
DICTIONARYVAR
  5
2BC
102
{ACAD_REACTORS
330
2B6
102
}
330
2B6
100
DictionaryVariables
280
     0
  1
1:1
  0
DICTIONARYVAR
  5
2B8
102
{ACAD_REACTORS
330
2B6
102
}
330
2B6
100
DictionaryVariables
280
     0
  1
STANDARD
  0
DICTIONARYVAR
  5
2B7
102
{ACAD_REACTORS
330
2B6
102
}
330
2B6
100
DictionaryVariables
280
     0
  1
STANDARD
  0
DICTIONARYVAR
  5
2B9
102
{ACAD_REACTORS
330
2B6
102
}
330
2B6
100
DictionaryVariables
280
     0
  1
Imperial24
  0
DICTIONARYVAR
  5
2BA
102
{ACAD_REACTORS
330
2B6
102
}
330
2B6
100
DictionaryVariables
280
     0
  1
Imperial24
  0
DICTIONARY
  5
2C2
330
6B
100
AcDbDictionary
280
     1
281
     1
  3
ACAD_XREC_ROUNDTRIP
360
2C3
  0
DICTIONARY
  5
1A
330
19
100
AcDbDictionary
280
     1
281
     1
  3
BUMPTILE
360
1C
  3
DIFFUSETILE
360
1B
  3
OPACITYTILE
360
1F
  3
REFLECTIONTILE
360
1E
  3
REFRACTIONTILE
360
20
  3
SPECULARTILE
360
1D
  0
DICTIONARY
  5
12
330
11
100
AcDbDictionary
280
     1
281
     1
  3
BUMPTILE
360
14
  3
DIFFUSETILE
360
13
  3
OPACITYTILE
360
17
  3
REFLECTIONTILE
360
16
  3
REFRACTIONTILE
360
18
  3
SPECULARTILE
360
15
  0
DICTIONARY
  5
22
330
21
100
AcDbDictionary
280
     1
281
     1
  3
BUMPTILE
360
24
  3
DIFFUSETILE
360
23
  3
OPACITYTILE
360
27
  3
REFLECTIONTILE
360
26
  3
REFRACTIONTILE
360
28
  3
SPECULARTILE
360
25
  0
DICTIONARY
  5
2C0
330
69
100
AcDbDictionary
280
     1
281
     1
  3
ACAD_XREC_ROUNDTRIP
360
2C1
  0
DICTIONARY
  5
2BD
330
65
100
AcDbDictionary
280
     1
281
     1
  3
ACAD_ROUNDTRIP_2008_TABLESTYLE_CELLSTYLEMAP
360
2BE
  0
XRECORD
  5
2C3
102
{ACAD_REACTORS
330
2C2
102
}
330
2C2
100
AcDbXrecord
280
     1
102
DISPLAYNAME
  1
Imperial24
102
FLAGS
 90
        0
  0
XRECORD
  5
1C
102
{ACAD_REACTORS
330
1A
102
}
330
1A
100
AcDbXrecord
280
     1
270
     1
271
     1
  0
XRECORD
  5
1B
102
{ACAD_REACTORS
330
1A
102
}
330
1A
100
AcDbXrecord
280
     1
270
     1
271
     1
  0
XRECORD
  5
1F
102
{ACAD_REACTORS
330
1A
102
}
330
1A
100
AcDbXrecord
280
     1
270
     1
271
     1
  0
XRECORD
  5
1E
102
{ACAD_REACTORS
330
1A
102
}
330
1A
100
AcDbXrecord
280
     1
270
     1
271
     1
  0
XRECORD
  5
20
102
{ACAD_REACTORS
330
1A
102
}
330
1A
100
AcDbXrecord
280
     1
270
     1
271
     1
  0
XRECORD
  5
1D
102
{ACAD_REACTORS
330
1A
102
}
330
1A
100
AcDbXrecord
280
     1
270
     1
271
     1
  0
XRECORD
  5
14
102
{ACAD_REACTORS
330
12
102
}
330
12
100
AcDbXrecord
280
     1
270
     1
271
     1
  0
XRECORD
  5
13
102
{ACAD_REACTORS
330
12
102
}
330
12
100
AcDbXrecord
280
     1
270
     1
271
     1
  0
XRECORD
  5
17
102
{ACAD_REACTORS
330
12
102
}
330
12
100
AcDbXrecord
280
     1
270
     1
271
     1
  0
XRECORD
  5
16
102
{ACAD_REACTORS
330
12
102
}
330
12
100
AcDbXrecord
280
     1
270
     1
271
     1
  0
XRECORD
  5
18
102
{ACAD_REACTORS
330
12
102
}
330
12
100
AcDbXrecord
280
     1
270
     1
271
     1
  0
XRECORD
  5
15
102
{ACAD_REACTORS
330
12
102
}
330
12
100
AcDbXrecord
280
     1
270
     1
271
     1
  0
XRECORD
  5
24
102
{ACAD_REACTORS
330
22
102
}
330
22
100
AcDbXrecord
280
     1
270
     1
271
     1
  0
XRECORD
  5
23
102
{ACAD_REACTORS
330
22
102
}
330
22
100
AcDbXrecord
280
     1
270
     1
271
     1
  0
XRECORD
  5
27
102
{ACAD_REACTORS
330
22
102
}
330
22
100
AcDbXrecord
280
     1
270
     1
271
     1
  0
XRECORD
  5
26
102
{ACAD_REACTORS
330
22
102
}
330
22
100
AcDbXrecord
280
     1
270
     1
271
     1
  0
XRECORD
  5
28
102
{ACAD_REACTORS
330
22
102
}
330
22
100
AcDbXrecord
280
     1
270
     1
271
     1
  0
XRECORD
  5
25
102
{ACAD_REACTORS
330
22
102
}
330
22
100
AcDbXrecord
280
     1
270
     1
271
     1
  0
XRECORD
  5
2C1
102
{ACAD_REACTORS
330
2C0
102
}
330
2C0
100
AcDbXrecord
280
     1
102
DISPLAYNAME
  1
Imperial24
102
FLAGS
 90
        0
  0
CELLSTYLEMAP
  5
2BE
102
{ACAD_REACTORS
330
2BD
102
}
330
2BD
100
AcDbCellStyleMap
 90
        3
300
CELLSTYLE
  1
TABLEFORMAT_BEGIN
 90
        5
170
     1
 91
        0
 92
    32768
 62
   257
 93
        1
300
CONTENTFORMAT
  1
CONTENTFORMAT_BEGIN
 90
        0
 91
        0
 92
      512
 93
        0
300

 40
0.0
140
1.0
 94
        5
 62
     0
340
55
144
0.25
309
CONTENTFORMAT_END
171
     1
301
MARGIN
  1
CELLMARGIN_BEGIN
 40
1.5
 40
1.5
 40
1.5
 40
1.5
 40
0.18
 40
0.18
309
CELLMARGIN_END
 94
        0
309
TABLEFORMAT_END
  1
CELLSTYLE_BEGIN
 90
        1
 91
        1
300
_TITLE
309
CELLSTYLE_END
300
CELLSTYLE
  1
TABLEFORMAT_BEGIN
 90
        5
170
     1
 91
        0
 92
        0
 62
   257
 93
        1
300
CONTENTFORMAT
  1
CONTENTFORMAT_BEGIN
 90
        0
 91
        0
 92
      512
 93
        0
300

 40
0.0
140
1.0
 94
        5
 62
     0
340
55
144
0.18
309
CONTENTFORMAT_END
171
     1
301
MARGIN
  1
CELLMARGIN_BEGIN
 40
1.5
 40
1.5
 40
1.5
 40
1.5
 40
0.18
 40
0.18
309
CELLMARGIN_END
 94
        0
309
TABLEFORMAT_END
  1
CELLSTYLE_BEGIN
 90
        2
 91
        1
300
_HEADER
309
CELLSTYLE_END
300
CELLSTYLE
  1
TABLEFORMAT_BEGIN
 90
        5
170
     1
 91
        0
 92
        0
 62
   257
 93
        1
300
CONTENTFORMAT
  1
CONTENTFORMAT_BEGIN
 90
        0
 91
        0
 92
      512
 93
        0
300

 40
0.0
140
1.0
 94
        2
 62
     0
340
55
144
0.18
309
CONTENTFORMAT_END
171
     1
301
MARGIN
  1
CELLMARGIN_BEGIN
 40
1.5
 40
1.5
 40
1.5
 40
1.5
 40
0.18
 40
0.18
309
CELLMARGIN_END
 94
        0
309
TABLEFORMAT_END
  1
CELLSTYLE_BEGIN
 90
        3
 91
        2
300
_DATA
309
CELLSTYLE_END
  0
ENDSEC
  0
EOF
