0
SECTION
2
HEADER
9
$INSUNITS
70
4
9
$ACADVER
1
AC1014
9
$HANDSEED
5
FFFF
0
ENDSEC
0
SECTION
2
TABLES
0
TABLE
2
VPORT
5
8
100
AcDbSymbolTable
0
ENDTAB
0
TABLE
2
LTYPE
5
5
100
AcDbSymbolTable
0
LTYPE
5
14
100
AcDbSymbolTableRecord
100
AcDbLinetypeTableRecord
2
BYBLOCK
70
0
0
LTYPE
5
15
100
AcDbSymbolTableRecord
100
AcDbLinetypeTableRecord
2
BYLAYER
70
0
0
ENDTAB
0
TABLE
2
LAYER
5
2
100
AcDbSymbolTable
70
2
0
LAYER
5
50
100
AcDbSymbolTableRecord
100
AcDbLayerTableRecord
2
0
70
0
6
CONTINUOUS
0
ENDTAB
0
TABLE
2
STYLE
5
3
100
AcDbSymbolTable
70
1
0
STYLE
5
11
100
AcDbSymbolTableRecord
100
AcDbTextStyleTableRecord
2
STANDARD
70
0
0
ENDTAB
0
TABLE
2
VIEW
5
6
100
AcDbSymbolTable
70
0
0
ENDTAB
0
TABLE
2
UCS
5
7
100
AcDbSymbolTable
70
0
0
ENDTAB
0
TABLE
2
APPID
5
9
100
AcDbSymbolTable
70
2
0
APPID
5
12
100
AcDbSymbolTableRecord
100
AcDbRegAppTableRecord
2
ACAD
70
0
0
ENDTAB
0
TABLE
2
DIMSTYLE
5
A
100
AcDbSymbolTable
70
1
0
ENDTAB
0
TABLE
2
BLOCK_RECORD
5
1
100
AcDbSymbolTable
70
1
0
BLOCK_RECORD
5
1F
100
AcDbSymbolTableRecord
100
AcDbBlockTableRecord
2
*MODEL_SPACE
0
BLOCK_RECORD
5
1B
100
AcDbSymbolTableRecord
100
AcDbBlockTableRecord
2
*PAPER_SPACE
0
ENDTAB
0
ENDSEC
0
SECTION
2
BLOCKS
0
BLOCK
5
20
100
AcDbEntity
100
AcDbBlockBegin
2
*MODEL_SPACE
0
ENDBLK
5
21
100
AcDbEntity
100
AcDbBlockEnd
0
BLOCK
5
1C
100
AcDbEntity
100
AcDbBlockBegin
2
*PAPER_SPACE
0
ENDBLK
5
1D
100
AcDbEntity
100
AcDbBlockEnd
0
ENDSEC
0
SECTION
2
ENTITIES
0
LWPOLYLINE
5
100
100
AcDbEntity
8
0
100
AcDbPolyline
90
12
70
1
43
0.0
10
-20
20
-42.954952840974144
10
-20
20
-197.19999999999999
42
-0.41421356237309725
10
-24.800000000000004
20
-202.00000000000003
10
-42.551996979783141
20
-202.00000000000003
42
-0.073564216967964044
10
-43.941704249927014
20
-201.79442202059292
42
0.1479289803138073
10
-106.05829575007294
20
-201.79442202059292
42
-0.073564216967966611
10
-107.44800302021685
20
-202
10
-125.19999999999999
20
-202
42
-0.41421356237309936
10
-130
20
-197.19999999999999
10
-130
20
-42.954952840974173
42
-0.28658811517222865
10
-127.30668904935601
20
-38.641965332375953
42
-0.23117435938195535
10
-22.693310950644072
20
-38.641965332375968
42
-0.28658811517223037
0
LWPOLYLINE
5
101
100
AcDbEntity
8
0
100
AcDbPolyline
90
8
70
1
43
0.0
10
-107
20
-50.620000000000005
10
-109.00000000000003
20
-50.620000000000012
42
-0.41421356237309503
10
-109.50000000000003
20
-50.120000000000005
10
-109.5
20
-47.120000000000019
42
-0.41421356237307422
10
-109.00000000000006
20
-46.620000000000033
10
-107
20
-46.620000000000047
42
-0.41421356237309503
10
-106.50000000000003
20
-47.120000000000019
10
-106.5
20
-50.119999999999997
42
-0.41421356237310542
0
LWPOLYLINE
5
102
100
AcDbEntity
8
0
100
AcDbPolyline
90
4
70
1
43
0.0
10
-105.0000028014183
20
-81.830000596046446
10
-111.0000028014183
20
-81.830000596046446
10
-111.0000028014183
20
-61.830000596046446
10
-105.0000028014183
20
-61.830000596046446
0
LWPOLYLINE
5
103
100
AcDbEntity
8
0
100
AcDbPolyline
90
8
70
1
43
0.0
10
-117
20
-124.82999999999998
10
-120.99999999999997
20
-124.82999999999998
42
-0.41421356237309503
10
-122.99999999999997
20
-122.83
10
-122.99999999999997
20
-110.83
42
-0.41421356237309503
10
-120.99999999999997
20
-108.83000000000001
10
-117
20
-108.83000000000001
42
-0.41421356237309503
10
-115
20
-110.83
10
-115
20
-122.83
42
-0.41421356237309503
0
LWPOLYLINE
5
104
100
AcDbEntity
8
0
100
AcDbPolyline
90
8
70
1
43
0.0
10
-104.5
20
-126.8
10
-105.5
20
-126.8
42
-0.41421356237313667
10
-106.00000000000001
20
-126.29999999999998
10
-106.00000000000001
20
-107.30000000000001
42
-0.41421356237313667
10
-105.5
20
-106.8
10
-104.5
20
-106.8
42
-0.41421356237313667
10
-103.99999999999999
20
-107.30000000000001
10
-103.99999999999999
20
-126.29999999999998
42
-0.41421356237313667
0
CIRCLE
5
105
100
AcDbEntity
8
0
100
AcDbCircle
10
-84.000002443790436
20
-97.590000596046451
30
0
40
1.50000000000001
210
0
220
0
230
1
0
LWPOLYLINE
5
106
100
AcDbEntity
8
0
100
AcDbPolyline
90
4
70
1
43
0.0
10
-82.5
20
-191.17000000000002
10
-97.5
20
-191.17000000000002
10
-97.5
20
-194.16999999999999
10
-82.5
20
-194.16999999999999
0
LINE
5
107
100
AcDbEntity
8
0
100
AcDbLine
10
-125.19999999999999
20
-202
30
0
11
-106.73000000000002
21
-202
31
0
0
CIRCLE
5
108
100
AcDbEntity
8
0
100
AcDbCircle
10
-50.869999999999997
20
-67.109999999999999
30
0
40
1.5000000000000004
210
0
220
0
230
1
0
CIRCLE
5
109
100
AcDbEntity
8
0
100
AcDbCircle
10
-50.869999999999997
20
-149.66000000000003
30
0
40
1.4999999999999947
210
0
220
0
230
1
0
LWPOLYLINE
5
110
100
AcDbEntity
8
0
100
AcDbPolyline
90
8
70
1
43
0.0
10
-109.50000000000003
20
-191.88
10
-109.50000000000003
20
-194.88
42
0.41421356237307422
10
-109.00000000000006
20
-195.37999999999997
10
-107
20
-195.37999999999997
42
0.41421356237309503
10
-106.50000000000003
20
-194.88
10
-106.49999999999999
20
-191.88
42
0.41421356237309503
10
-107
20
-191.38
10
-109.00000000000003
20
-191.38
42
0.41421356237309503
0
LWPOLYLINE
5
111
100
AcDbEntity
8
0
100
AcDbPolyline
90
4
70
1
43
0.0
10
-105.0000028014183
20
-160.16999940395354
10
-111.0000028014183
20
-160.16999940395354
10
-111.0000028014183
20
-180.16999940395354
10
-105.0000028014183
20
-180.16999940395354
0
LWPOLYLINE
5
112
100
AcDbEntity
8
0
100
AcDbPolyline
90
8
70
1
43
0.0
10
-33.000000000000007
20
-124.82999999999998
10
-29.000000000000021
20
-124.82999999999998
42
0.41421356237309503
10
-27.000000000000028
20
-122.83
10
-27.000000000000028
20
-110.83
42
0.41421356237309503
10
-29.000000000000021
20
-108.83000000000001
10
-33.000000000000007
20
-108.83000000000001
42
0.41421356237309503
10
-35
20
-110.83
10
-35
20
-122.83
42
0.41421356237309503
0
LWPOLYLINE
5
113
100
AcDbEntity
8
0
100
AcDbPolyline
90
8
70
1
43
0.0
10
-43.000000000000007
20
-50.620000000000005
10
-40.999999999999979
20
-50.620000000000005
42
0.41421356237309503
10
-40.499999999999972
20
-50.120000000000005
10
-40.499999999999972
20
-47.120000000000019
42
0.41421356237307422
10
-40.999999999999943
20
-46.620000000000033
10
-43.000000000000007
20
-46.620000000000019
42
0.41421356237309503
10
-43.499999999999979
20
-47.120000000000019
10
-43.500000000000014
20
-50.119999999999997
42
0.41421356237310542
0
LWPOLYLINE
5
114
100
AcDbEntity
8
0
100
AcDbPolyline
90
4
70
1
43
0.0
10
-44.999997198581703
20
-180.16999940395354
10
-44.999997198581703
20
-160.16999940395354
10
-38.999997198581688
20
-160.16999940395354
10
-38.999997198581688
20
-180.16999940395354
0
LWPOLYLINE
5
115
100
AcDbEntity
8
0
100
AcDbPolyline
90
8
70
1
43
0.0
10
-43.999999999999986
20
-107.30000000000001
42
0.41421356237313667
10
-44.499999999999993
20
-106.8
10
-45.500000000000007
20
-106.8
42
0.41421356237313667
10
-46.000000000000014
20
-107.30000000000001
10
-46.000000000000014
20
-126.29999999999998
42
0.41421356237313667
10
-45.500000000000007
20
-126.8
10
-44.499999999999993
20
-126.8
42
0.41421356237313667
10
-43.999999999999986
20
-126.29999999999998
0
LWPOLYLINE
5
116
100
AcDbEntity
8
0
100
AcDbPolyline
90
8
70
1
43
0.0
10
-40.999999999999943
20
-195.37999999999997
10
-43.000000000000007
20
-195.37999999999997
42
-0.41421356237309503
10
-43.499999999999979
20
-194.88
10
-43.500000000000014
20
-191.88
42
-0.41421356237309503
10
-43.000000000000007
20
-191.38
10
-40.999999999999979
20
-191.38
42
-0.41421356237309503
10
-40.499999999999972
20
-191.88
10
-40.500000000000007
20
-194.88
42
-0.41421356237307422
0
LWPOLYLINE
5
117
100
AcDbEntity
8
0
100
AcDbPolyline
90
4
70
1
43
0.0
10
-67.5
20
-191.17000000000002
10
-52.5
20
-191.17000000000002
10
-52.5
20
-194.16999999999999
10
-67.5
20
-194.16999999999999
0
LWPOLYLINE
5
118
100
AcDbEntity
8
0
100
AcDbPolyline
90
4
70
1
43
0.0
10
-44.999997198581703
20
-81.830000596046446
10
-38.999997198581688
20
-81.830000596046446
10
-38.999997198581688
20
-61.830000596046446
10
-44.999997198581703
20
-61.830000596046446
0
LINE
5
119
100
AcDbEntity
8
0
100
AcDbLine
10
-24.800000000000004
20
-202.00000000000003
30
0
11
-43.269999999999996
21
-202
31
0
0
LWPOLYLINE
5
120
100
AcDbEntity
8
0
100
AcDbPolyline
90
8
70
1
43
0.0
10
35
20
-110.83
42
0.41421356237309503
10
33.000000000000007
20
-108.83000000000001
10
29.000000000000021
20
-108.83000000000001
42
0.41421356237309503
10
27.000000000000028
20
-110.83
10
27.000000000000028
20
-122.83
42
0.41421356237309503
10
29.000000000000021
20
-124.82999999999998
10
33.000000000000007
20
-124.82999999999998
42
0.41421356237309503
10
35
20
-122.83
0
LWPOLYLINE
5
121
100
AcDbEntity
8
0
100
AcDbPolyline
90
8
70
1
43
0.0
10
105.5
20
-106.8
10
104.5
20
-106.8
42
0.41421356237313667
10
103.99999999999999
20
-107.30000000000001
10
103.99999999999999
20
-126.29999999999998
42
0.41421356237313667
10
104.5
20
-126.8
10
105.5
20
-126.8
42
0.41421356237313667
10
106.00000000000001
20
-126.29999999999998
10
106.00000000000001
20
-107.30000000000001
42
0.41421356237313667
0
LWPOLYLINE
5
122
100
AcDbEntity
8
0
100
AcDbPolyline
90
12
70
1
43
0.0
10
106.05829575007299
20
-201.79442202059292
42
0.1479289803138073
10
43.941704249927049
20
-201.79442202059292
42
-0.073564216967966611
10
42.551996979783162
20
-202
10
24.800000000000004
20
-202
42
-0.41421356237309936
10
20
20
-197.19999999999999
10
20.000000000000014
20
-42.954952840974173
42
-0.28658811517222865
10
22.693310950644037
20
-38.641965332375968
42
-0.23117435938195524
10
127.30668904935591
20
-38.64196533237596
42
-0.28658811517223121
10
130
20
-42.954952840974144
10
130
20
-197.19999999999999
42
-0.41421356237309725
10
125.19999999999999
20
-202.00000000000003
10
107.44800302021686
20
-202.00000000000003
42
-0.073564216967964044
0
LWPOLYLINE
5
123
100
AcDbEntity
8
0
100
AcDbPolyline
90
4
70
1
43
0.0
10
67.5
20
-194.16999999999999
10
67.5
20
-191.17000000000002
10
52.5
20
-191.17000000000002
10
52.5
20
-194.16999999999999
0
LWPOLYLINE
5
124
100
AcDbEntity
8
0
100
AcDbPolyline
90
4
70
1
43
0.0
10
38.999997198581688
20
-81.830000596046446
10
38.999997198581688
20
-61.830000596046446
10
44.999997198581703
20
-61.830000596046446
10
44.999997198581703
20
-81.830000596046446
0
LWPOLYLINE
5
125
100
AcDbEntity
8
0
100
AcDbPolyline
90
8
70
1
43
0.0
10
44.499999999999993
20
-106.8
10
45.500000000000007
20
-106.8
42
-0.41421356237313667
10
46.000000000000014
20
-107.30000000000001
10
46.000000000000014
20
-126.29999999999998
42
-0.41421356237313667
10
45.500000000000007
20
-126.8
10
44.499999999999993
20
-126.8
42
-0.41421356237313667
10
43.999999999999986
20
-126.29999999999998
10
43.999999999999986
20
-107.30000000000001
42
-0.41421356237313667
0
LWPOLYLINE
5
126
100
AcDbEntity
8
0
100
AcDbPolyline
90
4
70
1
43
0.0
10
82.5
20
-194.16999999999999
10
82.5
20
-191.17000000000002
10
97.5
20
-191.17000000000002
10
97.5
20
-194.16999999999999
0
LWPOLYLINE
5
127
100
AcDbEntity
8
0
100
AcDbPolyline
90
4
70
1
43
0.0
10
105.0000028014183
20
-180.16999940395354
10
105.0000028014183
20
-160.16999940395354
10
111.0000028014183
20
-160.16999940395354
10
111.0000028014183
20
-180.16999940395354
0
LWPOLYLINE
5
128
100
AcDbEntity
8
0
100
AcDbPolyline
90
8
70
1
43
0.0
10
117
20
-124.82999999999998
10
120.99999999999997
20
-124.82999999999998
42
0.41421356237309503
10
122.99999999999997
20
-122.83
10
122.99999999999997
20
-110.83
42
0.41421356237309503
10
120.99999999999997
20
-108.83000000000001
10
117
20
-108.83000000000001
42
0.41421356237309503
10
115
20
-110.83
10
115
20
-122.83
42
0.41421356237309503
0
LWPOLYLINE
5
129
100
AcDbEntity
8
0
100
AcDbPolyline
90
4
70
1
43
0.0
10
44.999997198581703
20
-160.16999940395354
10
38.999997198581688
20
-160.16999940395354
10
38.999997198581688
20
-180.16999940395354
10
44.999997198581703
20
-180.16999940395354
0
LINE
5
130
100
AcDbEntity
8
0
100
AcDbLine
10
24.800000000000004
20
-202
30
0
11
43.269999999999982
21
-202
31
0
0
LINE
5
131
100
AcDbEntity
8
0
100
AcDbLine
10
125.19999999999999
20
-202.00000000000003
30
0
11
106.73
21
-202
31
0
0
LWPOLYLINE
5
132
100
AcDbEntity
8
0
100
AcDbPolyline
90
4
70
1
43
0.0
10
111.0000028014183
20
-81.830000596046446
10
111.0000028014183
20
-61.830000596046446
10
105.0000028014183
20
-61.830000596046446
10
105.0000028014183
20
-81.830000596046446
0
LINE
5
133
100
AcDbEntity
8
0
100
AcDbLine
10
-100.08716344833374
20
-167.60552108287811
30
0
11
-99.978234805166721
21
-166.71760857105255
31
0
0
LINE
5
134
100
AcDbEntity
8
0
100
AcDbLine
10
-99.978234805166721
20
-166.71760857105255
30
0
11
-99.707973934710026
21
-163.63629043102264
31
0
0
LINE
5
135
100
AcDbEntity
8
0
100
AcDbLine
10
-99.707973934710026
20
-163.63629043102264
30
0
11
-99.572877772152424
21
-161.60552084445953
31
0
0
SPLINE
5
136
100
AcDbEntity
8
0
100
AcDbSpline
70
0
71
2
72
6
73
3
74
0
42
0.000000001
43
0.0000000001
44
0.0000000001
40
0
40
0
40
0
40
1
40
1
40
1
10
-99.572877772152424
20
-161.60552084445953
30
0
10
-98.761201985180378
20
-161.61431193351746
30
0
10
-98.297946490347385
20
-161.61431193351746
30
0
0
SPLINE
5
137
100
AcDbEntity
8
0
100
AcDbSpline
70
0
71
2
72
6
73
3
74
0
42
0.000000001
43
0.0000000001
44
0.0000000001
40
0
40
0
40
0
40
1
40
1
40
1
10
-98.297946490347385
20
-161.61431193351746
30
0
10
-97.914155013859272
20
-161.61431193351746
30
0
10
-97.124525792896748
20
-161.60552084445953
30
0
0
SPLINE
5
138
100
AcDbEntity
8
0
100
AcDbSpline
70
0
71
2
72
6
73
3
74
0
42
0.000000001
43
0.0000000001
44
0.0000000001
40
0
40
0
40
0
40
1
40
1
40
1
10
-97.124525792896748
20
-161.60552084445953
30
0
10
-97.067520506680012
20
-161.98354303836823
30
0
10
-97.028063125908375
20
-162.17914760112762
30
0
0
SPLINE
5
139
100
AcDbEntity
8
0
100
AcDbSpline
70
0
71
2
72
6
73
3
74
0
42
0.000000001
43
0.0000000001
44
0.0000000001
40
0
40
0
40
0
40
1
40
1
40
1
10
-97.028063125908375
20
-162.17914760112762
30
0
10
-96.988605447113514
20
-162.37475156784058
30
0
10
-96.832973845303059
20
-162.94398248195648
30
0
0
SPLINE
5
140
100
AcDbEntity
8
0
100
AcDbSpline
70
0
71
2
72
6
73
3
74
0
42
0.000000001
43
0.0000000001
44
0.0000000001
40
0
40
0
40
0
40
1
40
1
40
1
10
-96.832973845303059
20
-162.94398248195648
30
0
10
-96.677341945469379
20
-163.51321399211884
30
0
10
-96.583111174404621
20
-163.92859756946564
30
0
0
SPLINE
5
141
100
AcDbEntity
8
0
100
AcDbSpline
70
0
71
2
72
6
73
3
74
0
42
0.000000001
43
0.0000000001
44
0.0000000001
40
0
40
0
40
0
40
1
40
1
40
1
10
-96.583111174404621
20
-163.92859756946564
30
0
10
-96.488880403339863
20
-164.34398233890533
30
0
10
-96.300350017845631
20
-165.35057604312897
30
0
0
SPLINE
5
142
100
AcDbEntity
8
0
100
AcDbSpline
70
0
71
2
72
6
73
3
74
0
42
0.000000001
43
0.0000000001
44
0.0000000001
40
0
40
0
40
0
40
1
40
1
40
1
10
-96.300350017845631
20
-165.35057604312897
30
0
10
-96.106600053608418
20
-164.66046631336212
30
0
10
-95.948083586990833
20
-164.16376292705536
30
0
0
SPLINE
5
143
100
AcDbEntity
8
0
100
AcDbSpline
70
0
71
2
72
6
73
3
74
0
42
0.000000001
43
0.0000000001
44
0.0000000001
40
0
40
0
40
0
40
1
40
1
40
1
10
-95.948083586990833
20
-164.16376292705536
30
0
10
-95.789567120373249
20
-163.6670595407486
30
0
10
-95.551757998764515
20
-163.03409278392792
30
0
0
SPLINE
5
144
100
AcDbEntity
8
0
100
AcDbSpline
70
0
71
2
72
6
73
3
74
0
42
0.000000001
43
0.0000000001
44
0.0000000001
40
0
40
0
40
0
40
1
40
1
40
1
10
-95.551757998764515
20
-163.03409278392792
30
0
10
-95.313949175179005
20
-162.40112543106079
30
0
10
-95.250109620392323
20
-162.20552086830139
30
0
0
SPLINE
5
145
100
AcDbEntity
8
0
100
AcDbSpline
70
0
71
2
72
6
73
3
74
0
42
0.000000001
43
0.0000000001
44
0.0000000001
40
0
40
0
40
0
40
1
40
1
40
1
10
-95.250109620392323
20
-162.20552086830139
30
0
10
-95.186270661652088
20
-162.00991630554199
30
0
10
-95.076174326241016
20
-161.60552084445953
30
0
0
SPLINE
5
146
100
AcDbEntity
8
0
100
AcDbSpline
70
0
71
2
72
6
73
3
74
0
42
0.000000001
43
0.0000000001
44
0.0000000001
40
0
40
0
40
0
40
1
40
1
40
1
10
-95.076174326241016
20
-161.60552084445953
30
0
10
-94.416833706200123
20
-161.61431193351746
30
0
10
-93.783866949379444
20
-161.61431193351746
30
0
0
SPLINE
5
147
100
AcDbEntity
8
0
100
AcDbSpline
70
0
71
2
72
6
73
3
74
0
42
0.000000001
43
0.0000000001
44
0.0000000001
40
0
40
0
40
0
40
1
40
1
40
1
10
-93.783866949379444
20
-161.61431193351746
30
0
10
-93.353097625076771
20
-161.61431193351746
30
0
10
-92.588262148201466
20
-161.60552084445953
30
0
0
SPLINE
5
148
100
AcDbEntity
8
0
100
AcDbSpline
70
0
71
2
72
6
73
3
74
0
42
0.000000001
43
0.0000000001
44
0.0000000001
40
0
40
0
40
0
40
1
40
1
40
1
10
-92.588262148201466
20
-161.60552084445953
30
0
10
-92.671778984367847
20
-163.08683931827545
30
0
10
-92.698152251541615
20
-164.15057599544525
30
0
0
SPLINE
5
149
100
AcDbEntity
8
0
100
AcDbSpline
70
0
71
2
72
6
73
3
74
0
42
0.000000001
43
0.0000000001
44
0.0000000001
40
0
40
0
40
0
40
1
40
1
40
1
10
-92.698152251541615
20
-164.15057599544525
30
0
10
-92.755295224487782
20
-166.2340921163559
30
0
10
-92.755295224487782
20
-167.01651036739349
30
0
0
SPLINE
5
150
100
AcDbEntity
8
0
100
AcDbSpline
70
0
71
2
72
6
73
3
74
0
42
0.000000001
43
0.0000000001
44
0.0000000001
40
0
40
0
40
0
40
1
40
1
40
1
10
-92.755295224487782
20
-167.01651036739349
30
0
10
-92.755295224487782
20
-167.17914760112762
30
0
10
-92.746504135429859
20
-167.60552108287811
30
0
0
SPLINE
5
151
100
AcDbEntity
8
0
100
AcDbSpline
70
0
71
2
72
6
73
3
74
0
42
0.000000001
43
0.0000000001
44
0.0000000001
40
0
40
0
40
0
40
1
40
1
40
1
10
-92.746504135429859
20
-167.60552108287811
30
0
10
-93.326723761856556
20
-167.59672939777374
30
0
10
-93.559690900146961
20
-167.59672939777374
30
0
0
SPLINE
5
152
100
AcDbEntity
8
0
100
AcDbSpline
70
0
71
2
72
6
73
3
74
0
42
0.000000001
43
0.0000000001
44
0.0000000001
40
0
40
0
40
0
40
1
40
1
40
1
10
-93.559690900146961
20
-167.59672939777374
30
0
10
-93.89815229922533
20
-167.59672939777374
30
0
10
-94.390460439026356
20
-167.60552108287811
30
0
0
SPLINE
5
153
100
AcDbEntity
8
0
100
AcDbSpline
70
0
71
2
72
6
73
3
74
0
42
0.000000001
43
0.0000000001
44
0.0000000001
40
0
40
0
40
0
40
1
40
1
40
1
10
-94.390460439026356
20
-167.60552108287811
30
0
10
-94.354677386581898
20
-167.20991671085358
30
0
10
-94.301139898598194
20
-165.7220047712326
30
0
0
SPLINE
5
154
100
AcDbEntity
8
0
100
AcDbSpline
70
0
71
2
72
6
73
3
74
0
42
0.000000001
43
0.0000000001
44
0.0000000001
40
0
40
0
40
0
40
1
40
1
40
1
10
-94.301139898598194
20
-165.7220047712326
30
0
10
-94.247603006660938
20
-164.23409283161163
30
0
10
-94.247603006660938
20
-163.82090508937836
30
0
0
SPLINE
5
155
100
AcDbEntity
8
0
100
AcDbSpline
70
0
71
2
72
6
73
3
74
0
42
0.000000001
43
0.0000000001
44
0.0000000001
40
0
40
0
40
0
40
1
40
1
40
1
10
-94.247603006660938
20
-163.82090508937836
30
0
10
-94.247603006660938
20
-163.64068567752838
30
0
10
-94.256394095718861
20
-163.31980645656586
30
0
0
LINE
5
156
100
AcDbEntity
8
0
100
AcDbLine
10
-94.256394095718861
20
-163.31980645656586
30
0
11
-94.833111353218555
21
-165.10881721973419
31
0
0
LINE
5
157
100
AcDbEntity
8
0
100
AcDbLine
10
-94.833111353218555
20
-165.10881721973419
30
0
11
-95.660789497196674
21
-167.60552108287811
31
0
0
SPLINE
5
158
100
AcDbEntity
8
0
100
AcDbSpline
70
0
71
2
72
6
73
3
74
0
42
0.000000001
43
0.0000000001
44
0.0000000001
40
0
40
0
40
0
40
1
40
1
40
1
10
-95.660789497196674
20
-167.60552108287811
30
0
10
-96.232218332588673
20
-167.59672939777374
30
0
10
-96.447602696716785
20
-167.59672939777374
30
0
0
SPLINE
5
159
100
AcDbEntity
8
0
100
AcDbSpline
70
0
71
2
72
6
73
3
74
0
42
0.000000001
43
0.0000000001
44
0.0000000001
40
0
40
0
40
0
40
1
40
1
40
1
10
-96.447602696716785
20
-167.59672939777374
30
0
10
-96.720130331814289
20
-167.59672939777374
30
0
10
-97.282767780125141
20
-167.60552108287811
30
0
0
LINE
5
160
100
AcDbEntity
8
0
100
AcDbLine
10
-97.282767780125141
20
-167.60552108287811
30
0
11
-97.824663408100605
21
-165.18793880939484
31
0
0
LINE
5
161
100
AcDbEntity
8
0
100
AcDbLine
10
-97.824663408100605
20
-165.18793880939484
30
0
11
-98.141833730041981
21
-163.900026679039
31
0
0
SPLINE
5
162
100
AcDbEntity
8
0
100
AcDbSpline
70
0
71
2
72
6
73
3
74
0
42
0.000000001
43
0.0000000001
44
0.0000000001
40
0
40
0
40
0
40
1
40
1
40
1
10
-98.141833730041981
20
-163.900026679039
30
0
10
-98.159484900534153
20
-163.82530152797699
30
0
10
-98.181497193872929
20
-163.71541082859039
30
0
0
SPLINE
5
163
100
AcDbEntity
8
0
100
AcDbSpline
70
0
71
2
72
6
73
3
74
0
42
0.000000001
43
0.0000000001
44
0.0000000001
40
0
40
0
40
0
40
1
40
1
40
1
10
-98.181497193872929
20
-163.71541082859039
30
0
10
-98.203509636223316
20
-163.60552132129669
30
0
10
-98.251998610794544
20
-163.32859814167023
30
0
0
LINE
5
164
100
AcDbEntity
8
0
100
AcDbLine
10
-98.251998610794544
20
-163.32859814167023
30
0
11
-98.362781591713428
21
-164.54618036746979
31
0
0
LINE
5
165
100
AcDbEntity
8
0
100
AcDbLine
10
-98.362781591713428
20
-164.54618036746979
30
0
11
-98.509004153311253
21
-167.04288423061371
31
0
0
LINE
5
166
100
AcDbEntity
8
0
100
AcDbLine
10
-98.509004153311253
20
-167.04288423061371
30
0
11
-98.522328324615955
21
-167.60552108287811
31
0
0
SPLINE
5
167
100
AcDbEntity
8
0
100
AcDbSpline
70
0
71
2
72
6
73
3
74
0
42
0.000000001
43
0.0000000001
44
0.0000000001
40
0
40
0
40
0
40
1
40
1
40
1
10
-98.522328324615955
20
-167.60552108287811
30
0
10
-99.128921665251255
20
-167.59672939777374
30
0
10
-99.295954592525959
20
-167.59672939777374
30
0
0
SPLINE
5
168
100
AcDbEntity
8
0
100
AcDbSpline
70
0
71
2
72
6
73
3
74
0
42
0.000000001
43
0.0000000001
44
0.0000000001
40
0
40
0
40
0
40
1
40
1
40
1
10
-99.295954592525959
20
-167.59672939777374
30
0
10
-99.524526037275791
20
-167.59672939777374
30
0
10
-100.08716344833374
20
-167.60552108287811
30
0
0
SPLINE
5
169
100
AcDbEntity
8
0
100
AcDbSpline
70
0
71
2
72
6
73
3
74
0
42
0.000000001
43
0.0000000001
44
0.0000000001
40
0
40
0
40
0
40
1
40
1
40
1
10
-91.33551437407732
20
-164.39672887325287
30
0
10
-91.251998133957386
20
-163.96156489849091
30
0
10
-91.230020113289356
20
-163.79672944545746
30
0
0
SPLINE
5
170
100
AcDbEntity
8
0
100
AcDbSpline
70
0
71
2
72
6
73
3
74
0
42
0.000000001
43
0.0000000001
44
0.0000000001
40
0
40
0
40
0
40
1
40
1
40
1
10
-91.230020113289356
20
-163.79672944545746
30
0
10
-91.208042092621326
20
-163.63189399242401
30
0
10
-91.159690208733082
20
-163.28024566173553
30
0
0
SPLINE
5
171
100
AcDbEntity
8
0
100
AcDbSpline
70
0
71
2
72
6
73
3
74
0
42
0.000000001
43
0.0000000001
44
0.0000000001
40
0
40
0
40
0
40
1
40
1
40
1
10
-91.159690208733082
20
-163.28024566173553
30
0
10
-89.893756099045277
20
-163.00332248210907
30
0
10
-88.98365993052721
20
-163.00332248210907
30
0
0
SPLINE
5
172
100
AcDbEntity
8
0
100
AcDbSpline
70
0
71
2
72
6
73
3
74
0
42
0.000000001
43
0.0000000001
44
0.0000000001
40
0
40
0
40
0
40
1
40
1
40
1
10
-88.98365993052721
20
-163.00332248210907
30
0
10
-88.464909978210926
20
-163.00332248210907
30
0
10
-88.034037537872791
20
-163.11980664730072
30
0
0
SPLINE
5
173
100
AcDbEntity
8
0
100
AcDbSpline
70
0
71
2
72
6
73
3
74
0
42
0.000000001
43
0.0000000001
44
0.0000000001
40
0
40
0
40
0
40
1
40
1
40
1
10
-88.034037537872791
20
-163.11980664730072
30
0
10
-87.603165097534657
20
-163.23628962039948
30
0
10
-87.361372895538807
20
-163.4956306219101
30
0
0
SPLINE
5
174
100
AcDbEntity
8
0
100
AcDbSpline
70
0
71
2
72
6
73
3
74
0
42
0.000000001
43
0.0000000001
44
0.0000000001
40
0
40
0
40
0
40
1
40
1
40
1
10
-87.361372895538807
20
-163.4956306219101
30
0
10
-87.119579501450062
20
-163.75497162342072
30
0
10
-87.119579501450062
20
-164.23848807811737
30
0
0
SPLINE
5
175
100
AcDbEntity
8
0
100
AcDbSpline
70
0
71
2
72
6
73
3
74
0
42
0.000000001
43
0.0000000001
44
0.0000000001
40
0
40
0
40
0
40
1
40
1
40
1
10
-87.119579501450062
20
-164.23848807811737
30
0
10
-87.119579501450062
20
-164.48464095592499
30
0
10
-87.185342498123646
20
-165.34618079662323
30
0
0
SPLINE
5
176
100
AcDbEntity
8
0
100
AcDbSpline
70
0
71
2
72
6
73
3
74
0
42
0.000000001
43
0.0000000001
44
0.0000000001
40
0
40
0
40
0
40
1
40
1
40
1
10
-87.185342498123646
20
-165.34618079662323
30
0
10
-87.251104302704334
20
-166.20771825313568
30
0
10
-87.28620070964098
20
-167.60552108287811
30
0
0
SPLINE
5
177
100
AcDbEntity
8
0
100
AcDbSpline
70
0
71
2
72
6
73
3
74
0
42
0.000000001
43
0.0000000001
44
0.0000000001
40
0
40
0
40
0
40
1
40
1
40
1
10
-87.28620070964098
20
-167.60552108287811
30
0
10
-87.717175669968128
20
-167.59672939777374
30
0
10
-88.143824525177479
20
-167.59672939777374
30
0
0
SPLINE
5
178
100
AcDbEntity
8
0
100
AcDbSpline
70
0
71
2
72
6
73
3
74
0
42
0.000000001
43
0.0000000001
44
0.0000000001
40
0
40
0
40
0
40
1
40
1
40
1
10
-88.143824525177479
20
-167.59672939777374
30
0
10
-88.557217307388783
20
-167.59672939777374
30
0
10
-89.02342576533556
20
-167.60552108287811
30
0
0
SPLINE
5
179
100
AcDbEntity
8
0
100
AcDbSpline
70
0
71
2
72
6
73
3
74
0
42
0.000000001
43
0.0000000001
44
0.0000000001
40
0
40
0
40
0
40
1
40
1
40
1
10
-89.02342576533556
20
-167.60552108287811
30
0
10
-88.963399119675159
20
-167.12200462818146
30
0
10
-88.890459723770618
20
-165.60991704463959
30
0
0
SPLINE
5
180
100
AcDbEntity
8
0
100
AcDbSpline
70
0
71
2
72
6
73
3
74
0
42
0.000000001
43
0.0000000001
44
0.0000000001
40
0
40
0
40
0
40
1
40
1
40
1
10
-88.890459723770618
20
-165.60991704463959
30
0
10
-89.057079739868641
20
-165.68903744220734
30
0
10
-89.151380248367786
20
-165.72420179843903
30
0
0
SPLINE
5
181
100
AcDbEntity
8
0
100
AcDbSpline
70
0
71
2
72
6
73
3
74
0
42
0.000000001
43
0.0000000001
44
0.0000000001
40
0
40
0
40
0
40
1
40
1
40
1
10
-89.151380248367786
20
-165.72420179843903
30
0
10
-89.245679564774036
20
-165.75936734676361
30
0
10
-89.48245782405138
20
-165.82969605922699
30
0
0
SPLINE
5
182
100
AcDbEntity
8
0
100
AcDbSpline
70
0
71
2
72
6
73
3
74
0
42
0.000000001
43
0.0000000001
44
0.0000000001
40
0
40
0
40
0
40
1
40
1
40
1
10
-89.48245782405138
20
-165.82969605922699
30
0
10
-89.719237275421619
20
-165.90002715587616
30
0
10
-89.852993674576283
20
-165.94837844371796
30
0
0
SPLINE
5
183
100
AcDbEntity
8
0
100
AcDbSpline
70
0
71
2
72
6
73
3
74
0
42
0.000000001
43
0.0000000001
44
0.0000000001
40
0
40
0
40
0
40
1
40
1
40
1
10
-89.852993674576283
20
-165.94837844371796
30
0
10
-89.986750073730946
20
-165.99672973155975
30
0
10
-90.085411258041859
20
-166.07145488262177
30
0
0
SPLINE
5
184
100
AcDbEntity
8
0
100
AcDbSpline
70
0
71
2
72
6
73
3
74
0
42
0.000000001
43
0.0000000001
44
0.0000000001
40
0
40
0
40
0
40
1
40
1
40
1
10
-90.085411258041859
20
-166.07145488262177
30
0
10
-90.184072442352772
20
-166.14618003368378
30
0
10
-90.225727744400501
20
-166.22530162334442
30
0
0
SPLINE
5
185
100
AcDbEntity
8
0
100
AcDbSpline
70
0
71
2
72
6
73
3
74
0
42
0.000000001
43
0.0000000001
44
0.0000000001
40
0
40
0
40
0
40
1
40
1
40
1
10
-90.225727744400501
20
-166.22530162334442
30
0
10
-90.267381854355335
20
-166.30442202091217
30
0
10
-90.267381854355335
20
-166.40112578868866
30
0
0
SPLINE
5
186
100
AcDbEntity
8
0
100
AcDbSpline
70
0
71
2
72
6
73
3
74
0
42
0.000000001
43
0.0000000001
44
0.0000000001
40
0
40
0
40
0
40
1
40
1
40
1
10
-90.267381854355335
20
-166.40112578868866
30
0
10
-90.267381854355335
20
-166.55057609081268
30
0
10
-90.148700661957264
20
-166.65607035160065
30
0
0
SPLINE
5
187
100
AcDbEntity
8
0
100
AcDbSpline
70
0
71
2
72
6
73
3
74
0
42
0.000000001
43
0.0000000001
44
0.0000000001
40
0
40
0
40
0
40
1
40
1
40
1
10
-90.148700661957264
20
-166.65607035160065
30
0
10
-90.030019469559193
20
-166.76156461238861
30
0
10
-89.770679660141468
20
-166.76156461238861
30
0
0
SPLINE
5
188
100
AcDbEntity
8
0
100
AcDbSpline
70
0
71
2
72
6
73
3
74
0
42
0.000000001
43
0.0000000001
44
0.0000000001
40
0
40
0
40
0
40
1
40
1
40
1
10
-89.770679660141468
20
-166.76156461238861
30
0
10
-89.678371138870716
20
-166.76156461238861
30
0
10
-89.572876878082752
20
-166.74618065357208
30
0
0
SPLINE
5
189
100
AcDbEntity
8
0
100
AcDbSpline
70
0
71
2
72
6
73
3
74
0
42
0.000000001
43
0.0000000001
44
0.0000000001
40
0
40
0
40
0
40
1
40
1
40
1
10
-89.572876878082752
20
-166.74618065357208
30
0
10
-89.467382617294788
20
-166.73079550266266
30
0
10
-89.28276676684618
20
-166.66925728321075
30
0
0
SPLINE
5
190
100
AcDbEntity
8
0
100
AcDbSpline
70
0
71
2
72
6
73
3
74
0
42
0.000000001
43
0.0000000001
44
0.0000000001
40
0
40
0
40
0
40
1
40
1
40
1
10
-89.28276676684618
20
-166.66925728321075
30
0
10
-89.410239644348621
20
-167.00771868228912
30
0
10
-89.58606380969286
20
-167.65826880931854
30
0
0
SPLINE
5
191
100
AcDbEntity
8
0
100
AcDbSpline
70
0
71
2
72
6
73
3
74
0
42
0.000000001
43
0.0000000001
44
0.0000000001
40
0
40
0
40
0
40
1
40
1
40
1
10
-89.58606380969286
20
-167.65826880931854
30
0
10
-89.964086003601551
20
-167.71980702877045
30
0
10
-90.30254740267992
20
-167.71980702877045
30
0
0
SPLINE
5
192
100
AcDbEntity
8
0
100
AcDbSpline
70
0
71
2
72
6
73
3
74
0
42
0.000000001
43
0.0000000001
44
0.0000000001
40
0
40
0
40
0
40
1
40
1
40
1
10
-90.30254740267992
20
-167.71980702877045
30
0
10
-90.84760207682848
20
-167.71980702877045
30
0
10
-91.210239715874195
20
-167.56815850734711
30
0
0
SPLINE
5
193
100
AcDbEntity
8
0
100
AcDbSpline
70
0
71
2
72
6
73
3
74
0
42
0.000000001
43
0.0000000001
44
0.0000000001
40
0
40
0
40
0
40
1
40
1
40
1
10
-91.210239715874195
20
-167.56815850734711
30
0
10
-91.57287735491991
20
-167.41650998592377
30
0
10
-91.768481321632862
20
-167.0780485868454
30
0
0
SPLINE
5
194
100
AcDbEntity
8
0
100
AcDbSpline
70
0
71
2
72
6
73
3
74
0
42
0.000000001
43
0.0000000001
44
0.0000000001
40
0
40
0
40
0
40
1
40
1
40
1
10
-91.768481321632862
20
-167.0780485868454
30
0
10
-91.964085884392262
20
-166.73958718776703
30
0
10
-91.964085884392262
20
-166.40112578868866
30
0
0
SPLINE
5
195
100
AcDbEntity
8
0
100
AcDbSpline
70
0
71
2
72
6
73
3
74
0
42
0.000000001
43
0.0000000001
44
0.0000000001
40
0
40
0
40
0
40
1
40
1
40
1
10
-91.964085884392262
20
-166.40112578868866
30
0
10
-91.964085884392262
20
-166.19453132152557
30
0
10
-91.891592927277088
20
-165.99672973155975
30
0
0
SPLINE
5
196
100
AcDbEntity
8
0
100
AcDbSpline
70
0
71
2
72
6
73
3
74
0
42
0.000000001
43
0.0000000001
44
0.0000000001
40
0
40
0
40
0
40
1
40
1
40
1
10
-91.891592927277088
20
-165.99672973155975
30
0
10
-91.819099374115467
20
-165.79892814159393
30
0
10
-91.66532177478075
20
-165.60991704463959
30
0
0
SPLINE
5
197
100
AcDbEntity
8
0
100
AcDbSpline
70
0
71
2
72
6
73
3
74
0
42
0.000000001
43
0.0000000001
44
0.0000000001
40
0
40
0
40
0
40
1
40
1
40
1
10
-91.66532177478075
20
-165.60991704463959
30
0
10
-91.511544771492481
20
-165.42090594768524
30
0
10
-91.305020041763783
20
-165.28683960437775
30
0
0
SPLINE
5
198
100
AcDbEntity
8
0
100
AcDbSpline
70
0
71
2
72
6
73
3
74
0
42
0.000000001
43
0.0000000001
44
0.0000000001
40
0
40
0
40
0
40
1
40
1
40
1
10
-91.305020041763783
20
-165.28683960437775
30
0
10
-91.098495312035084
20
-165.15277326107025
30
0
10
-90.740390606224537
20
-165.03409206867218
30
0
0
SPLINE
5
199
100
AcDbEntity
8
0
100
AcDbSpline
70
0
71
2
72
6
73
3
74
0
42
0.000000001
43
0.0000000001
44
0.0000000001
40
0
40
0
40
0
40
1
40
1
40
1
10
-90.740390606224537
20
-165.03409206867218
30
0
10
-90.382286496460438
20
-164.91541087627411
30
0
10
-89.833041615784168
20
-164.80991661548615
30
0
0
SPLINE
5
200
100
AcDbEntity
8
0
100
AcDbSpline
70
0
71
2
72
6
73
3
74
0
42
0.000000001
43
0.0000000001
44
0.0000000001
40
0
40
0
40
0
40
1
40
1
40
1
10
-89.833041615784168
20
-164.80991661548615
30
0
10
-89.60453886538744
20
-164.76596057415009
30
0
10
-89.413398690521717
20
-164.71541106700897
30
0
0
SPLINE
5
201
100
AcDbEntity
8
0
100
AcDbSpline
70
0
71
2
72
6
73
3
74
0
42
0.000000001
43
0.0000000001
44
0.0000000001
40
0
40
0
40
0
40
1
40
1
40
1
10
-89.413398690521717
20
-164.71541106700897
30
0
10
-89.222258515655994
20
-164.66486155986786
30
0
10
-89.140974469482899
20
-164.62749898433685
30
0
0
SPLINE
5
202
100
AcDbEntity
8
0
100
AcDbSpline
70
0
71
2
72
6
73
3
74
0
42
0.000000001
43
0.0000000001
44
0.0000000001
40
0
40
0
40
0
40
1
40
1
40
1
10
-89.140974469482899
20
-164.62749898433685
30
0
10
-89.059690423309803
20
-164.59013640880585
30
0
10
-89.009175486862659
20
-164.53958690166473
30
0
0
SPLINE
5
203
100
AcDbEntity
8
0
100
AcDbSpline
70
0
71
2
72
6
73
3
74
0
42
0.000000001
43
0.0000000001
44
0.0000000001
40
0
40
0
40
0
40
1
40
1
40
1
10
-89.009175486862659
20
-164.53958690166473
30
0
10
-88.95865935832262
20
-164.48903739452362
30
0
10
-88.936681933701038
20
-164.43409144878387
30
0
0
SPLINE
5
204
100
AcDbEntity
8
0
100
AcDbSpline
70
0
71
2
72
6
73
3
74
0
42
0.000000001
43
0.0000000001
44
0.0000000001
40
0
40
0
40
0
40
1
40
1
40
1
10
-88.936681933701038
20
-164.43409144878387
30
0
10
-88.914703316986561
20
-164.37914669513702
30
0
10
-88.914703316986561
20
-164.31760847568512
30
0
0
SPLINE
5
205
100
AcDbEntity
8
0
100
AcDbSpline
70
0
71
2
72
6
73
3
74
0
42
0.000000001
43
0.0000000001
44
0.0000000001
40
0
40
0
40
0
40
1
40
1
40
1
10
-88.914703316986561
20
-164.31760847568512
30
0
10
-88.914703316986561
20
-164.15057599544525
30
0
10
-89.05529398471117
20
-164.06046569347382
30
0
0
SPLINE
5
206
100
AcDbEntity
8
0
100
AcDbSpline
70
0
71
2
72
6
73
3
74
0
42
0.000000001
43
0.0000000001
44
0.0000000001
40
0
40
0
40
0
40
1
40
1
40
1
10
-89.05529398471117
20
-164.06046569347382
30
0
10
-89.19588465243578
20
-163.97035539150238
30
0
10
-89.468275494873524
20
-163.97035539150238
30
0
0
SPLINE
5
207
100
AcDbEntity
8
0
100
AcDbSpline
70
0
71
2
72
6
73
3
74
0
42
0.000000001
43
0.0000000001
44
0.0000000001
40
0
40
0
40
0
40
1
40
1
40
1
10
-89.468275494873524
20
-163.97035539150238
30
0
10
-90.223975367844105
20
-163.97035539150238
30
0
10
-91.33551437407732
20
-164.39672887325287
30
0
0
SPLINE
5
208
100
AcDbEntity
8
0
100
AcDbSpline
70
0
71
2
72
6
73
3
74
0
42
0.000000001
43
0.0000000001
44
0.0000000001
40
0
40
0
40
0
40
1
40
1
40
1
10
-86.320129819214344
20
-167.60552108287811
30
0
10
-86.25900287181139
20
-167.04288423061371
30
0
10
-86.232835240662098
20
-166.69123589992523
30
0
0
SPLINE
5
209
100
AcDbEntity
8
0
100
AcDbSpline
70
0
71
2
72
6
73
3
74
0
42
0.000000001
43
0.0000000001
44
0.0000000001
40
0
40
0
40
0
40
1
40
1
40
1
10
-86.232835240662098
20
-166.69123589992523
30
0
10
-86.197877116501331
20
-166.21211469173431
30
0
10
-86.162986941635609
20
-165.49123466014862
30
0
0
LINE
5
210
100
AcDbEntity
8
0
100
AcDbLine
10
-86.162986941635609
20
-165.49123466014865
30
0
11
-86.114978976547718
21
-164.4494765996933
31
0
0
SPLINE
5
211
100
AcDbEntity
8
0
100
AcDbSpline
70
0
71
2
72
6
73
3
74
0
42
0.000000001
43
0.0000000001
44
0.0000000001
40
0
40
0
40
0
40
1
40
1
40
1
10
-86.114978976547718
20
-164.4494765996933
30
0
10
-86.084414906799793
20
-163.74178469181061
30
0
10
-86.071297116577625
20
-163.09563100337982
30
0
0
SPLINE
5
212
100
AcDbEntity
8
0
100
AcDbSpline
70
0
71
2
72
6
73
3
74
0
42
0.000000001
43
0.0000000001
44
0.0000000001
40
0
40
0
40
0
40
1
40
1
40
1
10
-86.071297116577625
20
-163.09563100337982
30
0
10
-86.053852029144764
20
-162.32200443744659
30
0
10
-86.053852029144764
20
-161.60552084445953
30
0
0
SPLINE
5
213
100
AcDbEntity
8
0
100
AcDbSpline
70
0
71
2
72
6
73
3
74
0
42
0.000000001
43
0.0000000001
44
0.0000000001
40
0
40
0
40
0
40
1
40
1
40
1
10
-86.053852029144764
20
-161.60552084445953
30
0
10
-85.437849946320057
20
-161.61431193351746
30
0
10
-85.129814334213734
20
-161.61431193351746
30
0
0
SPLINE
5
214
100
AcDbEntity
8
0
100
AcDbSpline
70
0
71
2
72
6
73
3
74
0
42
0.000000001
43
0.0000000001
44
0.0000000001
40
0
40
0
40
0
40
1
40
1
40
1
10
-85.129814334213734
20
-161.61431193351746
30
0
10
-84.773357100784779
20
-161.61431193351746
30
0
10
-84.284964986145496
20
-161.60552084445953
30
0
0
SPLINE
5
215
100
AcDbEntity
8
0
100
AcDbSpline
70
0
71
2
72
6
73
3
74
0
42
0.000000001
43
0.0000000001
44
0.0000000001
40
0
40
0
40
0
40
1
40
1
40
1
10
-84.284964986145496
20
-161.60552084445953
30
0
10
-84.386681504547596
20
-162.75716960430145
30
0
10
-84.470747895538807
20
-164.46705996990204
30
0
0
SPLINE
5
216
100
AcDbEntity
8
0
100
AcDbSpline
70
0
71
2
72
6
73
3
74
0
42
0.000000001
43
0.0000000001
44
0.0000000001
40
0
40
0
40
0
40
1
40
1
40
1
10
-84.470747895538807
20
-164.46705996990204
30
0
10
-84.554813094437122
20
-166.17694914340973
30
0
10
-84.554813094437122
20
-167.60552108287811
30
0
0
SPLINE
5
217
100
AcDbEntity
8
0
100
AcDbSpline
70
0
71
2
72
6
73
3
74
0
42
0.000000001
43
0.0000000001
44
0.0000000001
40
0
40
0
40
0
40
1
40
1
40
1
10
-84.554813094437122
20
-167.60552108287811
30
0
10
-85.064222998917103
20
-167.59672939777374
30
0
10
-85.415528006851673
20
-167.59672939777374
30
0
0
SPLINE
5
218
100
AcDbEntity
8
0
100
AcDbSpline
70
0
71
2
72
6
73
3
74
0
42
0.000000001
43
0.0000000001
44
0.0000000001
40
0
40
0
40
0
40
1
40
1
40
1
10
-85.415528006851673
20
-167.59672939777374
30
0
10
-85.819511599838734
20
-167.59672939777374
30
0
10
-86.320129819214344
20
-167.60552108287811
30
0
0
LINE
5
219
100
AcDbEntity
8
0
100
AcDbLine
10
-84.381668753921986
20
-165.08024632930756
30
0
11
-83.625624366104603
21
-163.99137198925018
31
0
0
LINE
5
220
100
AcDbEntity
8
0
100
AcDbLine
10
-83.625624366104603
20
-163.99137198925018
30
0
11
-83.058591075241566
21
-163.1176084280014
31
0
0
SPLINE
5
221
100
AcDbEntity
8
0
100
AcDbSpline
70
0
71
2
72
6
73
3
74
0
42
0.000000001
43
0.0000000001
44
0.0000000001
40
0
40
0
40
0
40
1
40
1
40
1
10
-83.058591075241566
20
-163.1176084280014
30
0
10
-82.451996989548206
20
-163.12640011310577
30
0
10
-82.139909453690052
20
-163.12640011310577
30
0
0
SPLINE
5
222
100
AcDbEntity
8
0
100
AcDbSpline
70
0
71
2
72
6
73
3
74
0
42
0.000000001
43
0.0000000001
44
0.0000000001
40
0
40
0
40
0
40
1
40
1
40
1
10
-82.139909453690052
20
-163.12640011310577
30
0
10
-81.709140725433826
20
-163.12640011310577
30
0
10
-81.120128817856312
20
-163.1176084280014
30
0
0
LINE
5
223
100
AcDbEntity
8
0
100
AcDbLine
10
-81.120128817856312
20
-163.1176084280014
30
0
11
-81.994854398071766
21
-164.25483405590057
31
0
0
SPLINE
5
224
100
AcDbEntity
8
0
100
AcDbSpline
70
0
71
2
72
6
73
3
74
0
42
0.000000001
43
0.0000000001
44
0.0000000001
40
0
40
0
40
0
40
1
40
1
40
1
10
-81.994854398071766
20
-164.25483405590057
30
0
10
-82.302546687424183
20
-164.64556157588959
30
0
10
-82.623425908386707
20
-165.0978285074234
30
0
0
SPLINE
5
225
100
AcDbEntity
8
0
100
AcDbSpline
70
0
71
2
72
6
73
3
74
0
42
0.000000001
43
0.0000000001
44
0.0000000001
40
0
40
0
40
0
40
1
40
1
40
1
10
-82.623425908386707
20
-165.0978285074234
30
0
10
-82.31573361903429
20
-165.66534221172333
30
0
10
-81.142107434570789
20
-167.60552108287811
30
0
0
SPLINE
5
226
100
AcDbEntity
8
0
100
AcDbSpline
70
0
71
2
72
6
73
3
74
0
42
0.000000001
43
0.0000000001
44
0.0000000001
40
0
40
0
40
0
40
1
40
1
40
1
10
-81.142107434570789
20
-167.60552108287811
30
0
10
-81.656392998993397
20
-167.59672939777374
30
0
10
-82.069580741226673
20
-167.59672939777374
30
0
0
SPLINE
5
227
100
AcDbEntity
8
0
100
AcDbSpline
70
0
71
2
72
6
73
3
74
0
42
0.000000001
43
0.0000000001
44
0.0000000001
40
0
40
0
40
0
40
1
40
1
40
1
10
-82.069580741226673
20
-167.59672939777374
30
0
10
-82.491557784378529
20
-167.59672939777374
30
0
10
-83.036613650619984
20
-167.60552108287811
30
0
0
LINE
5
228
100
AcDbEntity
8
0
100
AcDbLine
10
-83.036613650619984
20
-167.60552108287811
30
0
11
-83.309140391647816
21
-167.05558955669403
31
0
0
SPLINE
5
229
100
AcDbEntity
8
0
100
AcDbSpline
70
0
71
2
72
6
73
3
74
0
42
0.000000001
43
0.0000000001
44
0.0000000001
40
0
40
0
40
0
40
1
40
1
40
1
10
-83.309140391647816
20
-167.05558955669403
30
0
10
-83.454195447266102
20
-166.76960051059723
30
0
10
-83.559689708054066
20
-166.57605707645416
30
0
0
SPLINE
5
230
100
AcDbEntity
8
0
100
AcDbSpline
70
0
71
2
72
6
73
3
74
0
42
0.000000001
43
0.0000000001
44
0.0000000001
40
0
40
0
40
0
40
1
40
1
40
1
10
-83.559689708054066
20
-166.57605707645416
30
0
10
-83.599250502884388
20
-166.49686753749847
30
0
10
-84.161887355148792
20
-165.49817264080048
30
0
0
LINE
5
231
100
AcDbEntity
8
0
100
AcDbLine
10
-84.161887355148792
20
-165.49817264080048
30
0
11
-84.381668753921986
21
-165.08024632930756
31
0
0
SPLINE
5
232
100
AcDbEntity
8
0
100
AcDbSpline
70
0
71
2
72
6
73
3
74
0
42
0.000000001
43
0.0000000001
44
0.0000000001
40
0
40
0
40
0
40
1
40
1
40
1
10
-76.333315558731556
20
-166.27804815769196
30
0
10
-76.390457339584827
20
-166.54178440570831
30
0
10
-76.553096957504749
20
-167.55277335643768
30
0
0
SPLINE
5
233
100
AcDbEntity
8
0
100
AcDbSpline
70
0
71
2
72
6
73
3
74
0
42
0.000000001
43
0.0000000001
44
0.0000000001
40
0
40
0
40
0
40
1
40
1
40
1
10
-76.553096957504749
20
-167.55277335643768
30
0
10
-77.062986083328724
20
-167.65387237071991
30
0
10
-77.410237975418568
20
-167.68683969974518
30
0
0
SPLINE
5
234
100
AcDbEntity
8
0
100
AcDbSpline
70
0
71
2
72
6
73
3
74
0
42
0.000000001
43
0.0000000001
44
0.0000000001
40
0
40
0
40
0
40
1
40
1
40
1
10
-77.410237975418568
20
-167.68683969974518
30
0
10
-77.757492251694202
20
-167.71980702877045
30
0
10
-78.113534636795521
20
-167.71980702877045
30
0
0
SPLINE
5
235
100
AcDbEntity
8
0
100
AcDbSpline
70
0
71
2
72
6
73
3
74
0
42
0.000000001
43
0.0000000001
44
0.0000000001
40
0
40
0
40
0
40
1
40
1
40
1
10
-78.113534636795521
20
-167.71980702877045
30
0
10
-78.636613078415394
20
-167.71980702877045
30
0
10
-79.07617349177599
20
-167.6473480463028
30
0
0
SPLINE
5
236
100
AcDbEntity
8
0
100
AcDbSpline
70
0
71
2
72
6
73
3
74
0
42
0.000000001
43
0.0000000001
44
0.0000000001
40
0
40
0
40
0
40
1
40
1
40
1
10
-79.07617349177599
20
-167.6473480463028
30
0
10
-79.515733905136585
20
-167.57488906383514
30
0
10
-79.834413714706898
20
-167.39044487476349
30
0
0
SPLINE
5
237
100
AcDbEntity
8
0
100
AcDbSpline
70
0
71
2
72
6
73
3
74
0
42
0.000000001
43
0.0000000001
44
0.0000000001
40
0
40
0
40
0
40
1
40
1
40
1
10
-79.834413714706898
20
-167.39044487476349
30
0
10
-80.153095908463001
20
-167.20600187778473
30
0
10
-80.368480868637562
20
-166.93151652812958
30
0
0
SPLINE
5
238
100
AcDbEntity
8
0
100
AcDbSpline
70
0
71
2
72
6
73
3
74
0
42
0.000000001
43
0.0000000001
44
0.0000000001
40
0
40
0
40
0
40
1
40
1
40
1
10
-80.368480868637562
20
-166.93151652812958
30
0
10
-80.583865828812122
20
-166.65703237056732
30
0
10
-80.69595355540514
20
-166.27938807010651
30
0
0
SPLINE
5
239
100
AcDbEntity
8
0
100
AcDbSpline
70
0
71
2
72
6
73
3
74
0
42
0.000000001
43
0.0000000001
44
0.0000000001
40
0
40
0
40
0
40
1
40
1
40
1
10
-80.69595355540514
20
-166.27938807010651
30
0
10
-80.808041281998158
20
-165.90174376964569
30
0
10
-80.808041281998158
20
-165.50208747386932
30
0
0
SPLINE
5
240
100
AcDbEntity
8
0
100
AcDbSpline
70
0
71
2
72
6
73
3
74
0
42
0.000000001
43
0.0000000001
44
0.0000000001
40
0
40
0
40
0
40
1
40
1
40
1
10
-80.808041281998158
20
-165.50208747386932
30
0
10
-80.808041281998158
20
-164.93999898433685
30
0
10
-80.583865828812122
20
-164.40201818943024
30
0
0
SPLINE
5
241
100
AcDbEntity
8
0
100
AcDbSpline
70
0
71
2
72
6
73
3
74
0
42
0.000000001
43
0.0000000001
44
0.0000000001
40
0
40
0
40
0
40
1
40
1
40
1
10
-80.583865828812122
20
-164.40201818943024
30
0
10
-80.359690375626087
20
-163.86403739452362
30
0
10
-80.005843825638294
20
-163.56104910373688
30
0
0
SPLINE
5
242
100
AcDbEntity
8
0
100
AcDbSpline
70
0
71
2
72
6
73
3
74
0
42
0.000000001
43
0.0000000001
44
0.0000000001
40
0
40
0
40
0
40
1
40
1
40
1
10
-80.005843825638294
20
-163.56104910373688
30
0
10
-79.651997275650501
20
-163.25806200504303
30
0
10
-79.190459437668324
20
-163.1306928396225
30
0
0
SPLINE
5
243
100
AcDbEntity
8
0
100
AcDbSpline
70
0
71
2
72
6
73
3
74
0
42
0.000000001
43
0.0000000001
44
0.0000000001
40
0
40
0
40
0
40
1
40
1
40
1
10
-79.190459437668324
20
-163.1306928396225
30
0
10
-78.728919215500355
20
-163.00332248210907
30
0
10
-78.245403952896595
20
-163.00332248210907
30
0
0
SPLINE
5
244
100
AcDbEntity
8
0
100
AcDbSpline
70
0
71
2
72
6
73
3
74
0
42
0.000000001
43
0.0000000001
44
0.0000000001
40
0
40
0
40
0
40
1
40
1
40
1
10
-78.245403952896595
20
-163.00332248210907
30
0
10
-77.744305320084095
20
-163.00332248210907
30
0
10
-77.289359755814075
20
-163.11980664730072
30
0
0
SPLINE
5
245
100
AcDbEntity
8
0
100
AcDbSpline
70
0
71
2
72
6
73
3
74
0
42
0.000000001
43
0.0000000001
44
0.0000000001
40
0
40
0
40
0
40
1
40
1
40
1
10
-77.289359755814075
20
-163.11980664730072
30
0
10
-76.834414191544056
20
-163.23628962039948
30
0
10
-76.517930217087269
20
-163.52639973163605
30
0
0
SPLINE
5
246
100
AcDbEntity
8
0
100
AcDbSpline
70
0
71
2
72
6
73
3
74
0
42
0.000000001
43
0.0000000001
44
0.0000000001
40
0
40
0
40
0
40
1
40
1
40
1
10
-76.517930217087269
20
-163.52639973163605
30
0
10
-76.201448626816273
20
-163.81650984287262
30
0
10
-76.067381091415882
20
-164.1813451051712
30
0
0
SPLINE
5
247
100
AcDbEntity
8
0
100
AcDbSpline
70
0
71
2
72
6
73
3
74
0
42
0.000000001
43
0.0000000001
44
0.0000000001
40
0
40
0
40
0
40
1
40
1
40
1
10
-76.067381091415882
20
-164.1813451051712
30
0
10
-75.933315940201283
20
-164.54618036746979
30
0
10
-75.933315940201283
20
-164.96815860271454
30
0
0
SPLINE
5
248
100
AcDbEntity
8
0
100
AcDbSpline
70
0
71
2
72
6
73
3
74
0
42
0.000000001
43
0.0000000001
44
0.0000000001
40
0
40
0
40
0
40
1
40
1
40
1
10
-75.933315940201283
20
-164.96815860271454
30
0
10
-75.933315940201283
20
-165.21870791912079
30
0
10
-75.990457721054554
20
-165.52640020847321
30
0
0
LINE
5
249
100
AcDbEntity
8
0
100
AcDbLine
10
-75.990457721054554
20
-165.52640020847321
30
0
11
-79.071777053177357
21
-165.53079545497894
31
0
0
SPLINE
5
250
100
AcDbEntity
8
0
100
AcDbSpline
70
0
71
2
72
6
73
3
74
0
42
0.000000001
43
0.0000000001
44
0.0000000001
40
0
40
0
40
0
40
1
40
1
40
1
10
-79.071777053177357
20
-165.53079545497894
30
0
10
-79.07617349177599
20
-165.60078203678131
30
0
10
-79.07617349177599
20
-165.65771877765656
30
0
0
SPLINE
5
251
100
AcDbEntity
8
0
100
AcDbSpline
70
0
71
2
72
6
73
3
74
0
42
0.000000001
43
0.0000000001
44
0.0000000001
40
0
40
0
40
0
40
1
40
1
40
1
10
-79.07617349177599
20
-165.65771877765656
30
0
10
-79.07617349177599
20
-166.13045156002045
30
0
10
-78.73771209269762
20
-166.35370075702667
30
0
0
SPLINE
5
252
100
AcDbEntity
8
0
100
AcDbSpline
70
0
71
2
72
6
73
3
74
0
42
0.000000001
43
0.0000000001
44
0.0000000001
40
0
40
0
40
0
40
1
40
1
40
1
10
-78.73771209269762
20
-166.35370075702667
30
0
10
-78.399250693619251
20
-166.5769499540329
30
0
10
-77.911338992416859
20
-166.5769499540329
30
0
0
SPLINE
5
253
100
AcDbEntity
8
0
100
AcDbSpline
70
0
71
2
72
6
73
3
74
0
42
0.000000001
43
0.0000000001
44
0.0000000001
40
0
40
0
40
0
40
1
40
1
40
1
10
-77.911338992416859
20
-166.5769499540329
30
0
10
-77.621226496994495
20
-166.5769499540329
30
0
10
-77.249798960983753
20
-166.50881707668304
30
0
0
SPLINE
5
254
100
AcDbEntity
8
0
100
AcDbSpline
70
0
71
2
72
6
73
3
74
0
42
0.000000001
43
0.0000000001
44
0.0000000001
40
0
40
0
40
0
40
1
40
1
40
1
10
-77.249798960983753
20
-166.50881707668304
30
0
10
-76.878371424973011
20
-166.44068539142609
30
0
10
-76.333315558731556
20
-166.27804815769196
30
0
0
LINE
5
255
100
AcDbEntity
8
0
100
AcDbLine
10
-79.036612696945667
20
-164.85826790332794
30
0
11
-77.586062140762806
21
-164.85826790332794
31
0
0
SPLINE
5
256
100
AcDbEntity
8
0
100
AcDbSpline
70
0
71
2
72
6
73
3
74
0
42
0.000000001
43
0.0000000001
44
0.0000000001
40
0
40
0
40
0
40
1
40
1
40
1
10
-77.586062140762806
20
-164.85826790332794
30
0
10
-77.581668086349964
20
-164.78354275226593
30
0
10
-77.581668086349964
20
-164.7307962179184
30
0
0
SPLINE
5
257
100
AcDbEntity
8
0
100
AcDbSpline
70
0
71
2
72
6
73
3
74
0
42
0.000000001
43
0.0000000001
44
0.0000000001
40
0
40
0
40
0
40
1
40
1
40
1
10
-77.581668086349964
20
-164.7307962179184
30
0
10
-77.581668086349964
20
-164.50222432613373
30
0
10
-77.662985511124134
20
-164.3395870923996
30
0
0
SPLINE
5
258
100
AcDbEntity
8
0
100
AcDbSpline
70
0
71
2
72
6
73
3
74
0
42
0.000000001
43
0.0000000001
44
0.0000000001
40
0
40
0
40
0
40
1
40
1
40
1
10
-77.662985511124134
20
-164.3395870923996
30
0
10
-77.744305320084095
20
-164.17694985866547
30
0
10
-77.895953841507435
20
-164.10222470760345
30
0
0
SPLINE
5
259
100
AcDbEntity
8
0
100
AcDbSpline
70
0
71
2
72
6
73
3
74
0
42
0.000000001
43
0.0000000001
44
0.0000000001
40
0
40
0
40
0
40
1
40
1
40
1
10
-77.895953841507435
20
-164.10222470760345
30
0
10
-78.047602362930775
20
-164.02749836444855
30
0
10
-78.23661345988512
20
-164.02749836444855
30
0
0
SPLINE
5
260
100
AcDbEntity
8
0
100
AcDbSpline
70
0
71
2
72
6
73
3
74
0
42
0.000000001
43
0.0000000001
44
0.0000000001
40
0
40
0
40
0
40
1
40
1
40
1
10
-78.23661345988512
20
-164.02749836444855
30
0
10
-78.368480391800404
20
-164.02749836444855
30
0
10
-78.491556830704212
20
-164.06925737857819
30
0
0
SPLINE
5
261
100
AcDbEntity
8
0
100
AcDbSpline
70
0
71
2
72
6
73
3
74
0
42
0.000000001
43
0.0000000001
44
0.0000000001
40
0
40
0
40
0
40
1
40
1
40
1
10
-78.491556830704212
20
-164.06925737857819
30
0
10
-78.614635653793812
20
-164.11101520061493
30
0
10
-78.713536448776722
20
-164.19233381748199
30
0
0
SPLINE
5
262
100
AcDbEntity
8
0
100
AcDbSpline
70
0
71
2
72
6
73
3
74
0
42
0.000000001
43
0.0000000001
44
0.0000000001
40
0
40
0
40
0
40
1
40
1
40
1
10
-78.713536448776722
20
-164.19233381748199
30
0
10
-78.812437243759632
20
-164.27365243434906
30
0
10
-78.878371901810169
20
-164.37914669513702
30
0
0
SPLINE
5
263
100
AcDbEntity
8
0
100
AcDbSpline
70
0
71
2
72
6
73
3
74
0
42
0.000000001
43
0.0000000001
44
0.0000000001
40
0
40
0
40
0
40
1
40
1
40
1
10
-78.878371901810169
20
-164.37914669513702
30
0
10
-78.944304175674915
20
-164.48464095592499
30
0
10
-78.975074477493763
20
-164.58354294300079
30
0
0
SPLINE
5
264
100
AcDbEntity
8
0
100
AcDbSpline
70
0
71
2
72
6
73
3
74
0
42
0.000000001
43
0.0000000001
44
0.0000000001
40
0
40
0
40
0
40
1
40
1
40
1
10
-78.975074477493763
20
-164.58354294300079
30
0
10
-79.00584239512682
20
-164.6824437379837
30
0
10
-79.036612696945667
20
-164.85826790332794
30
0
0
SPLINE
5
265
100
AcDbEntity
8
0
100
AcDbSpline
70
0
71
2
72
6
73
3
74
0
42
0.000000001
43
0.0000000001
44
0.0000000001
40
0
40
0
40
0
40
1
40
1
40
1
10
-75.313534922897816
20
-167.60552108287811
30
0
10
-75.229742713272572
20
-166.83189451694489
30
0
10
-75.181255526840687
20
-166.21211469173431
30
0
0
SPLINE
5
266
100
AcDbEntity
8
0
100
AcDbSpline
70
0
71
2
72
6
73
3
74
0
42
0.000000001
43
0.0000000001
44
0.0000000001
40
0
40
0
40
0
40
1
40
1
40
1
10
-75.181255526840687
20
-166.21211469173431
30
0
10
-75.132765956223011
20
-165.59233367443085
30
0
10
-75.097496695816517
20
-164.77475106716156
30
0
0
SPLINE
5
267
100
AcDbEntity
8
0
100
AcDbSpline
70
0
71
2
72
6
73
3
74
0
42
0.000000001
43
0.0000000001
44
0.0000000001
40
0
40
0
40
0
40
1
40
1
40
1
10
-75.097496695816517
20
-164.77475106716156
30
0
10
-75.062229819595814
20
-163.95716845989227
30
0
10
-75.044613070785999
20
-163.04947674274445
30
0
0
SPLINE
5
268
100
AcDbEntity
8
0
100
AcDbSpline
70
0
71
2
72
6
73
3
74
0
42
0.000000001
43
0.0000000001
44
0.0000000001
40
0
40
0
40
0
40
1
40
1
40
1
10
-75.044613070785999
20
-163.04947674274445
30
0
10
-75.026996321976185
20
-162.14178442955017
30
0
10
-75.026996321976185
20
-161.60552084445953
30
0
0
SPLINE
5
269
100
AcDbEntity
8
0
100
AcDbSpline
70
0
71
2
72
6
73
3
74
0
42
0.000000001
43
0.0000000001
44
0.0000000001
40
0
40
0
40
0
40
1
40
1
40
1
10
-75.026996321976185
20
-161.60552084445953
30
0
10
-74.477615542709827
20
-161.61870718002319
30
0
10
-74.139220900833607
20
-161.61870718002319
30
0
0
SPLINE
5
270
100
AcDbEntity
8
0
100
AcDbSpline
70
0
71
2
72
6
73
3
74
0
42
0.000000001
43
0.0000000001
44
0.0000000001
40
0
40
0
40
0
40
1
40
1
40
1
10
-74.139220900833607
20
-161.61870718002319
30
0
10
-73.78764171153307
20
-161.61870718002319
30
0
10
-73.282215781509876
20
-161.59892737865448
30
0
0
SPLINE
5
271
100
AcDbEntity
8
0
100
AcDbSpline
70
0
71
2
72
6
73
3
74
0
42
0.000000001
43
0.0000000001
44
0.0000000001
40
0
40
0
40
0
40
1
40
1
40
1
10
-73.282215781509876
20
-161.59892737865448
30
0
10
-72.776789851486683
20
-161.57914698123932
30
0
10
-72.297737784683704
20
-161.57914698123932
30
0
0
SPLINE
5
272
100
AcDbEntity
8
0
100
AcDbSpline
70
0
71
2
72
6
73
3
74
0
42
0.000000001
43
0.0000000001
44
0.0000000001
40
0
40
0
40
0
40
1
40
1
40
1
10
-72.297737784683704
20
-161.57914698123932
30
0
10
-71.73517007380724
20
-161.57914698123932
30
0
10
-71.295676417648792
20
-161.62310302257538
30
0
0
SPLINE
5
273
100
AcDbEntity
8
0
100
AcDbSpline
70
0
71
2
72
6
73
3
74
0
42
0.000000001
43
0.0000000001
44
0.0000000001
40
0
40
0
40
0
40
1
40
1
40
1
10
-71.295676417648792
20
-161.62310302257538
30
0
10
-70.966077037155628
20
-161.65387213230133
30
0
10
-70.695779509842396
20
-161.75057530403137
30
0
0
SPLINE
5
274
100
AcDbEntity
8
0
100
AcDbSpline
70
0
71
2
72
6
73
3
74
0
42
0.000000001
43
0.0000000001
44
0.0000000001
40
0
40
0
40
0
40
1
40
1
40
1
10
-70.695779509842396
20
-161.75057530403137
30
0
10
-70.425484366714954
20
-161.84727907180786
30
0
10
-70.240903086960316
20
-161.98574066162109
30
0
0
SPLINE
5
275
100
AcDbEntity
8
0
100
AcDbSpline
70
0
71
2
72
6
73
3
74
0
42
0.000000001
43
0.0000000001
44
0.0000000001
40
0
40
0
40
0
40
1
40
1
40
1
10
-70.240903086960316
20
-161.98574066162109
30
0
10
-70.056324191391468
20
-162.12420165538788
30
0
10
-69.933281131088734
20
-162.29563057422638
30
0
0
SPLINE
5
276
100
AcDbEntity
8
0
100
AcDbSpline
70
0
71
2
72
6
73
3
74
0
42
0.000000001
43
0.0000000001
44
0.0000000001
40
0
40
0
40
0
40
1
40
1
40
1
10
-69.933281131088734
20
-162.29563057422638
30
0
10
-69.810238070785999
20
-162.46705889701843
30
0
10
-69.742105193436146
20
-162.69782841205597
30
0
0
SPLINE
5
277
100
AcDbEntity
8
0
100
AcDbSpline
70
0
71
2
72
6
73
3
74
0
42
0.000000001
43
0.0000000001
44
0.0000000001
40
0
40
0
40
0
40
1
40
1
40
1
10
-69.742105193436146
20
-162.69782841205597
30
0
10
-69.673974700272083
20
-162.92859733104706
30
0
10
-69.673974700272083
20
-163.19233357906342
30
0
0
SPLINE
5
278
100
AcDbEntity
8
0
100
AcDbSpline
70
0
71
2
72
6
73
3
74
0
42
0.000000001
43
0.0000000001
44
0.0000000001
40
0
40
0
40
0
40
1
40
1
40
1
10
-69.673974700272083
20
-163.19233357906342
30
0
10
-69.673974700272083
20
-163.48684012889862
30
0
10
-69.748699851334095
20
-163.74398171901703
30
0
0
SPLINE
5
279
100
AcDbEntity
8
0
100
AcDbSpline
70
0
71
2
72
6
73
3
74
0
42
0.000000001
43
0.0000000001
44
0.0000000001
40
0
40
0
40
0
40
1
40
1
40
1
10
-69.748699851334095
20
-163.74398171901703
30
0
10
-69.823425002396107
20
-164.00112569332123
30
0
10
-69.983864016830921
20
-164.22749936580658
30
0
0
SPLINE
5
280
100
AcDbEntity
8
0
100
AcDbSpline
70
0
71
2
72
6
73
3
74
0
42
0.000000001
43
0.0000000001
44
0.0000000001
40
0
40
0
40
0
40
1
40
1
40
1
10
-69.983864016830921
20
-164.22749936580658
30
0
10
-70.144303031265736
20
-164.45387303829193
30
0
10
-70.388260073959827
20
-164.61870729923248
30
0
0
SPLINE
5
281
100
AcDbEntity
8
0
100
AcDbSpline
70
0
71
2
72
6
73
3
74
0
42
0.000000001
43
0.0000000001
44
0.0000000001
40
0
40
0
40
0
40
1
40
1
40
1
10
-70.388260073959827
20
-164.61870729923248
30
0
10
-70.632214732468128
20
-164.78354275226593
30
0
10
-71.071777530014515
20
-164.95497167110443
30
0
0
LINE
5
282
100
AcDbEntity
8
0
100
AcDbLine
10
-71.071777530014501
20
-164.95497167110443
30
0
11
-70.843205638229847
21
-165.5132132768631
31
0
0
SPLINE
5
283
100
AcDbEntity
8
0
100
AcDbSpline
70
0
71
2
72
6
73
3
74
0
42
0.000000001
43
0.0000000001
44
0.0000000001
40
0
40
0
40
0
40
1
40
1
40
1
10
-70.843205638229847
20
-165.5132132768631
30
0
10
-70.746500678360462
20
-165.7461804151535
30
0
10
-70.636611171066761
20
-165.98793804645538
30
0
0
LINE
5
284
100
AcDbEntity
8
0
100
AcDbLine
10
-70.636611171066761
20
-165.98793804645538
30
0
11
-70.047600455582142
21
-167.27585017681122
31
0
0
SPLINE
5
285
100
AcDbEntity
8
0
100
AcDbSpline
70
0
71
2
72
6
73
3
74
0
42
0.000000001
43
0.0000000001
44
0.0000000001
40
0
40
0
40
0
40
1
40
1
40
1
10
-70.047600455582142
20
-167.27585017681122
30
0
10
-70.00803966075182
20
-167.3593670129776
30
0
10
-69.906940646469593
20
-167.60552108287811
30
0
0
SPLINE
5
286
100
AcDbEntity
8
0
100
AcDbSpline
70
0
71
2
72
6
73
3
74
0
42
0.000000001
43
0.0000000001
44
0.0000000001
40
0
40
0
40
0
40
1
40
1
40
1
10
-69.906940646469593
20
-167.60552108287811
30
0
10
-70.631735511124134
20
-167.59672939777374
30
0
10
-70.882077403366566
20
-167.59672939777374
30
0
0
SPLINE
5
287
100
AcDbEntity
8
0
100
AcDbSpline
70
0
71
2
72
6
73
3
74
0
42
0.000000001
43
0.0000000001
44
0.0000000001
40
0
40
0
40
0
40
1
40
1
40
1
10
-70.882077403366566
20
-167.59672939777374
30
0
10
-71.198356337845325
20
-167.59672939777374
30
0
10
-71.918754763901234
20
-167.60552108287811
30
0
0
SPLINE
5
288
100
AcDbEntity
8
0
100
AcDbSpline
70
0
71
2
72
6
73
3
74
0
42
0.000000001
43
0.0000000001
44
0.0000000001
40
0
40
0
40
0
40
1
40
1
40
1
10
-71.918754763901234
20
-167.60552108287811
30
0
10
-71.989152617752552
20
-167.37694919109344
30
0
10
-72.173974700272083
20
-166.75716936588287
30
0
0
SPLINE
5
289
100
AcDbEntity
8
0
100
AcDbSpline
70
0
71
2
72
6
73
3
74
0
42
0.000000001
43
0.0000000001
44
0.0000000001
40
0
40
0
40
0
40
1
40
1
40
1
10
-72.173974700272083
20
-166.75716936588287
30
0
10
-72.248768992722034
20
-166.49782836437225
30
0
10
-72.301583476364613
20
-166.3571697473526
30
0
0
SPLINE
5
290
100
AcDbEntity
8
0
100
AcDbSpline
70
0
71
2
72
6
73
3
74
0
42
0.000000001
43
0.0000000001
44
0.0000000001
40
0
40
0
40
0
40
1
40
1
40
1
10
-72.301583476364613
20
-166.3571697473526
30
0
10
-72.407217212021351
20
-166.04508101940155
30
0
10
-72.614083476364613
20
-165.48244416713715
30
0
0
LINE
5
291
100
AcDbEntity
8
0
100
AcDbLine
10
-72.614083476364613
20
-165.48244416713715
30
0
11
-73.067312426865101
21
-164.23848807811737
31
0
0
SPLINE
5
292
100
AcDbEntity
8
0
100
AcDbSpline
70
0
71
2
72
6
73
3
74
0
42
0.000000001
43
0.0000000001
44
0.0000000001
40
0
40
0
40
0
40
1
40
1
40
1
10
-73.067312426865101
20
-164.23848807811737
30
0
10
-72.829950042068958
20
-164.28244411945343
30
0
10
-72.60137815028429
20
-164.28244411945343
30
0
0
SPLINE
5
293
100
AcDbEntity
8
0
100
AcDbSpline
70
0
71
2
72
6
73
3
74
0
42
0.000000001
43
0.0000000001
44
0.0000000001
40
0
40
0
40
0
40
1
40
1
40
1
10
-72.60137815028429
20
-164.28244411945343
30
0
10
-72.28049773722887
20
-164.28244411945343
30
0
10
-72.018995471298695
20
-164.18574035167694
30
0
0
SPLINE
5
294
100
AcDbEntity
8
0
100
AcDbSpline
70
0
71
2
72
6
73
3
74
0
42
0.000000001
43
0.0000000001
44
0.0000000001
40
0
40
0
40
0
40
1
40
1
40
1
10
-72.018995471298695
20
-164.18574035167694
30
0
10
-71.757490821182728
20
-164.08903777599335
30
0
10
-71.623425669968128
20
-163.88683974742889
30
0
0
SPLINE
5
295
100
AcDbEntity
8
0
100
AcDbSpline
70
0
71
2
72
6
73
3
74
0
42
0.000000001
43
0.0000000001
44
0.0000000001
40
0
40
0
40
0
40
1
40
1
40
1
10
-71.623425669968128
20
-163.88683974742889
30
0
10
-71.489358134567738
20
-163.68464171886444
30
0
10
-71.489358134567738
20
-163.46046626567841
30
0
0
SPLINE
5
296
100
AcDbEntity
8
0
100
AcDbSpline
70
0
71
2
72
6
73
3
74
0
42
0.000000001
43
0.0000000001
44
0.0000000001
40
0
40
0
40
0
40
1
40
1
40
1
10
-71.489358134567738
20
-163.46046626567841
30
0
10
-71.489358134567738
20
-163.27145516872406
30
0
10
-71.590457148849964
20
-163.12859714031219
30
0
0
SPLINE
5
297
100
AcDbEntity
8
0
100
AcDbSpline
70
0
71
2
72
6
73
3
74
0
42
0.000000001
43
0.0000000001
44
0.0000000001
40
0
40
0
40
0
40
1
40
1
40
1
10
-71.590457148849964
20
-163.12859714031219
30
0
10
-71.691556163132191
20
-162.98574030399323
30
0
10
-71.909139342606068
20
-162.91541039943695
30
0
0
SPLINE
5
298
100
AcDbEntity
8
0
100
AcDbSpline
70
0
71
2
72
6
73
3
74
0
42
0.000000001
43
0.0000000001
44
0.0000000001
40
0
40
0
40
0
40
1
40
1
40
1
10
-71.909139342606068
20
-162.91541039943695
30
0
10
-72.126722522079945
20
-162.84508168697357
30
0
10
-72.579469867050648
20
-162.84508168697357
30
0
0
SPLINE
5
299
100
AcDbEntity
8
0
100
AcDbSpline
70
0
71
2
72
6
73
3
74
0
42
0.000000001
43
0.0000000001
44
0.0000000001
40
0
40
0
40
0
40
1
40
1
40
1
10
-72.579469867050648
20
-162.84508168697357
30
0
10
-72.733314223587513
20
-162.84508168697357
30
0
10
-72.89814967662096
20
-162.85167396068573
30
0
0
SPLINE
5
300
100
AcDbEntity
8
0
100
AcDbSpline
70
0
71
2
72
6
73
3
74
0
42
0.000000001
43
0.0000000001
44
0.0000000001
40
0
40
0
40
0
40
1
40
1
40
1
10
-72.89814967662096
20
-162.85167396068573
30
0
10
-73.062985129654408
20
-162.85826861858368
30
0
10
-73.282766528427601
20
-162.86266386508942
30
0
0
SPLINE
5
301
100
AcDbEntity
8
0
100
AcDbSpline
70
0
71
2
72
6
73
3
74
0
42
0.000000001
43
0.0000000001
44
0.0000000001
40
0
40
0
40
0
40
1
40
1
40
1
10
-73.282766528427601
20
-162.86266386508942
30
0
10
-73.339083380997181
20
-163.76376211643219
30
0
10
-73.382456488907337
20
-165.0604659318924
30
0
0
SPLINE
5
302
100
AcDbEntity
8
0
100
AcDbSpline
70
0
71
2
72
6
73
3
74
0
42
0.000000001
43
0.0000000001
44
0.0000000001
40
0
40
0
40
0
40
1
40
1
40
1
10
-73.382456488907337
20
-165.0604659318924
30
0
10
-73.425829596817493
20
-166.3571697473526
30
0
10
-73.438809104263783
20
-167.60552108287811
30
0
0
SPLINE
5
303
100
AcDbEntity
8
0
100
AcDbSpline
70
0
71
2
72
6
73
3
74
0
42
0.000000001
43
0.0000000001
44
0.0000000001
40
0
40
0
40
0
40
1
40
1
40
1
10
-73.438809104263783
20
-167.60552108287811
30
0
10
-74.173767752945423
20
-167.59672939777374
30
0
10
-74.393754191696644
20
-167.59672939777374
30
0
0
SPLINE
5
304
100
AcDbEntity
8
0
100
AcDbSpline
70
0
71
2
72
6
73
3
74
0
42
0.000000001
43
0.0000000001
44
0.0000000001
40
0
40
0
40
0
40
1
40
1
40
1
10
-74.393754191696644
20
-167.59672939777374
30
0
10
-74.649043269455433
20
-167.59672939777374
30
0
10
-75.313534922897816
20
-167.60552108287811
30
0
0
SPLINE
5
305
100
AcDbEntity
8
0
100
AcDbSpline
70
0
71
2
72
6
73
3
74
0
42
0.000000001
43
0.0000000001
44
0.0000000001
40
0
40
0
40
0
40
1
40
1
40
1
10
-66.434414573013783
20
-163.00332248210907
30
0
10
-65.889358706772327
20
-163.00332248210907
30
0
10
-65.386061854660511
20
-163.17035615444183
30
0
0
SPLINE
5
306
100
AcDbEntity
8
0
100
AcDbSpline
70
0
71
2
72
6
73
3
74
0
42
0.000000001
43
0.0000000001
44
0.0000000001
40
0
40
0
40
0
40
1
40
1
40
1
10
-65.386061854660511
20
-163.17035615444183
30
0
10
-64.882765002548695
20
-163.3373886346817
30
0
10
-64.535513110458851
20
-163.65167438983917
30
0
0
SPLINE
5
307
100
AcDbEntity
8
0
100
AcDbSpline
70
0
71
2
72
6
73
3
74
0
42
0.000000001
43
0.0000000001
44
0.0000000001
40
0
40
0
40
0
40
1
40
1
40
1
10
-64.535513110458851
20
-163.65167438983917
30
0
10
-64.188261218369007
20
-163.96596014499664
30
0
10
-64.023423381149769
20
-164.38574016094208
30
0
0
SPLINE
5
308
100
AcDbEntity
8
0
100
AcDbSpline
70
0
71
2
72
6
73
3
74
0
42
0.000000001
43
0.0000000001
44
0.0000000001
40
0
40
0
40
0
40
1
40
1
40
1
10
-64.023423381149769
20
-164.38574016094208
30
0
10
-63.858590312302113
20
-164.80552136898041
30
0
10
-63.858590312302113
20
-165.28903663158417
30
0
0
SPLINE
5
309
100
AcDbEntity
8
0
100
AcDbSpline
70
0
71
2
72
6
73
3
74
0
42
0.000000001
43
0.0000000001
44
0.0000000001
40
0
40
0
40
0
40
1
40
1
40
1
10
-63.858590312302113
20
-165.28903663158417
30
0
10
-63.858590312302113
20
-165.75936734676361
30
0
10
-64.00584239512682
20
-166.18354260921478
30
0
0
SPLINE
5
310
100
AcDbEntity
8
0
100
AcDbSpline
70
0
71
2
72
6
73
3
74
0
42
0.000000001
43
0.0000000001
44
0.0000000001
40
0
40
0
40
0
40
1
40
1
40
1
10
-64.00584239512682
20
-166.18354260921478
30
0
10
-64.153094477951527
20
-166.60771906375885
30
0
10
-64.504742808640003
20
-166.97914779186249
30
0
0
SPLINE
5
311
100
AcDbEntity
8
0
100
AcDbSpline
70
0
71
2
72
6
73
3
74
0
42
0.000000001
43
0.0000000001
44
0.0000000001
40
0
40
0
40
0
40
1
40
1
40
1
10
-64.504742808640003
20
-166.97914779186249
30
0
10
-64.85639113932848
20
-167.35057651996613
30
0
10
-65.399248786270618
20
-167.53519117832184
30
0
0
SPLINE
5
312
100
AcDbEntity
8
0
100
AcDbSpline
70
0
71
2
72
6
73
3
74
0
42
0.000000001
43
0.0000000001
44
0.0000000001
40
0
40
0
40
0
40
1
40
1
40
1
10
-65.399248786270618
20
-167.53519117832184
30
0
10
-65.942106433212757
20
-167.71980702877045
30
0
10
-66.548700518906116
20
-167.71980702877045
30
0
0
SPLINE
5
313
100
AcDbEntity
8
0
100
AcDbSpline
70
0
71
2
72
6
73
3
74
0
42
0.000000001
43
0.0000000001
44
0.0000000001
40
0
40
0
40
0
40
1
40
1
40
1
10
-66.548700518906116
20
-167.71980702877045
30
0
10
-67.106940932571888
20
-167.71980702877045
30
0
10
-67.621226496994495
20
-167.55716979503632
30
0
0
SPLINE
5
314
100
AcDbEntity
8
0
100
AcDbSpline
70
0
71
2
72
6
73
3
74
0
42
0.000000001
43
0.0000000001
44
0.0000000001
40
0
40
0
40
0
40
1
40
1
40
1
10
-67.621226496994495
20
-167.55716979503632
30
0
10
-68.135514445602894
20
-167.39453256130219
30
0
10
-68.480568118393421
20
-167.08244383335114
30
0
0
SPLINE
5
315
100
AcDbEntity
8
0
100
AcDbSpline
70
0
71
2
72
6
73
3
74
0
42
0.000000001
43
0.0000000001
44
0.0000000001
40
0
40
0
40
0
40
1
40
1
40
1
10
-68.480568118393421
20
-167.08244383335114
30
0
10
-68.82562417536974
20
-166.77035629749298
30
0
10
-68.999250121414661
20
-166.33519113063812
30
0
0
SPLINE
5
316
100
AcDbEntity
8
0
100
AcDbSpline
70
0
71
2
72
6
73
3
74
0
42
0.000000001
43
0.0000000001
44
0.0000000001
40
0
40
0
40
0
40
1
40
1
40
1
10
-68.999250121414661
20
-166.33519113063812
30
0
10
-69.172876067459583
20
-165.90002715587616
30
0
10
-69.172876067459583
20
-165.42090594768524
30
0
0
SPLINE
5
317
100
AcDbEntity
8
0
100
AcDbSpline
70
0
71
2
72
6
73
3
74
0
42
0.000000001
43
0.0000000001
44
0.0000000001
40
0
40
0
40
0
40
1
40
1
40
1
10
-69.172876067459583
20
-165.42090594768524
30
0
10
-69.172876067459583
20
-164.94178473949432
30
0
10
-69.003644175827503
20
-164.50661957263947
30
0
0
SPLINE
5
318
100
AcDbEntity
8
0
100
AcDbSpline
70
0
71
2
72
6
73
3
74
0
42
0.000000001
43
0.0000000001
44
0.0000000001
40
0
40
0
40
0
40
1
40
1
40
1
10
-69.003644175827503
20
-164.50661957263947
30
0
10
-68.834414668381214
20
-164.07145440578461
30
0
10
-68.467381186783314
20
-163.72420251369476
30
0
0
SPLINE
5
319
100
AcDbEntity
8
0
100
AcDbSpline
70
0
71
2
72
6
73
3
74
0
42
0.000000001
43
0.0000000001
44
0.0000000001
40
0
40
0
40
0
40
1
40
1
40
1
10
-68.467381186783314
20
-163.72420251369476
30
0
10
-68.100347705185413
20
-163.37694942951202
30
0
10
-67.559688277542591
20
-163.1901353597641
30
0
0
SPLINE
5
320
100
AcDbEntity
8
0
100
AcDbSpline
70
0
71
2
72
6
73
3
74
0
42
0.000000001
43
0.0000000001
44
0.0000000001
40
0
40
0
40
0
40
1
40
1
40
1
10
-67.559688277542591
20
-163.1901353597641
30
0
10
-67.019028849899769
20
-163.00332248210907
30
0
10
-66.434414573013783
20
-163.00332248210907
30
0
0
SPLINE
5
321
100
AcDbEntity
8
0
100
AcDbSpline
70
0
71
2
72
6
73
3
74
0
42
0.000000001
43
0.0000000001
44
0.0000000001
40
0
40
0
40
0
40
1
40
1
40
1
10
-66.465182490646839
20
-164.29563105106354
30
0
10
-66.746502108871937
20
-164.29563105106354
30
0
10
-66.966281123459339
20
-164.44068610668182
30
0
0
SPLINE
5
322
100
AcDbEntity
8
0
100
AcDbSpline
70
0
71
2
72
6
73
3
74
0
42
0.000000001
43
0.0000000001
44
0.0000000001
40
0
40
0
40
0
40
1
40
1
40
1
10
-66.966281123459339
20
-164.44068610668182
30
0
10
-67.186062522232533
20
-164.58573997020721
30
0
10
-67.29815024882555
20
-164.864861369133
30
0
0
SPLINE
5
323
100
AcDbEntity
8
0
100
AcDbSpline
70
0
71
2
72
6
73
3
74
0
42
0.000000001
43
0.0000000001
44
0.0000000001
40
0
40
0
40
0
40
1
40
1
40
1
10
-67.29815024882555
20
-164.864861369133
30
0
10
-67.410237975418568
20
-165.14398276805878
30
0
10
-67.410237975418568
20
-165.47365248203278
30
0
0
SPLINE
5
324
100
AcDbEntity
8
0
100
AcDbSpline
70
0
71
2
72
6
73
3
74
0
42
0.000000001
43
0.0000000001
44
0.0000000001
40
0
40
0
40
0
40
1
40
1
40
1
10
-67.410237975418568
20
-165.47365248203278
30
0
10
-67.410237975418568
20
-165.95716893672943
30
0
10
-67.168479152023792
20
-166.21431291103363
30
0
0
SPLINE
5
325
100
AcDbEntity
8
0
100
AcDbSpline
70
0
71
2
72
6
73
3
74
0
42
0.000000001
43
0.0000000001
44
0.0000000001
40
0
40
0
40
0
40
1
40
1
40
1
10
-67.168479152023792
20
-166.21431291103363
30
0
10
-66.926722712814808
20
-166.47145450115204
30
0
10
-66.561887450516224
20
-166.47145450115204
30
0
0
SPLINE
5
326
100
AcDbEntity
8
0
100
AcDbSpline
70
0
71
2
72
6
73
3
74
0
42
0.000000001
43
0.0000000001
44
0.0000000001
40
0
40
0
40
0
40
1
40
1
40
1
10
-66.561887450516224
20
-166.47145450115204
30
0
10
-66.284964270889759
20
-166.47145450115204
30
0
10
-66.065182872116566
20
-166.32420241832733
30
0
0
SPLINE
5
327
100
AcDbEntity
8
0
100
AcDbSpline
70
0
71
2
72
6
73
3
74
0
42
0.000000001
43
0.0000000001
44
0.0000000001
40
0
40
0
40
0
40
1
40
1
40
1
10
-66.065182872116566
20
-166.32420241832733
30
0
10
-65.845403857529163
20
-166.17694914340973
30
0
10
-65.733316130936146
20
-165.88903725147247
30
0
0
SPLINE
5
328
100
AcDbEntity
8
0
100
AcDbSpline
70
0
71
2
72
6
73
3
74
0
42
0.000000001
43
0.0000000001
44
0.0000000001
40
0
40
0
40
0
40
1
40
1
40
1
10
-65.733316130936146
20
-165.88903725147247
30
0
10
-65.621228404343128
20
-165.60112535953522
30
0
10
-65.621228404343128
20
-165.27145564556122
30
0
0
SPLINE
5
329
100
AcDbEntity
8
0
100
AcDbSpline
70
0
71
2
72
6
73
3
74
0
42
0.000000001
43
0.0000000001
44
0.0000000001
40
0
40
0
40
0
40
1
40
1
40
1
10
-65.621228404343128
20
-165.27145564556122
30
0
10
-65.621228404343128
20
-164.99892771244049
30
0
10
-65.709138102829456
20
-164.77914750576019
30
0
0
SPLINE
5
330
100
AcDbEntity
8
0
100
AcDbSpline
70
0
71
2
72
6
73
3
74
0
42
0.000000001
43
0.0000000001
44
0.0000000001
40
0
40
0
40
0
40
1
40
1
40
1
10
-65.709138102829456
20
-164.77914750576019
30
0
10
-65.797052569687366
20
-164.5593672990799
30
0
10
-65.997052378952503
20
-164.42749917507172
30
0
0
SPLINE
5
331
100
AcDbEntity
8
0
100
AcDbSpline
70
0
71
2
72
6
73
3
74
0
42
0.000000001
43
0.0000000001
44
0.0000000001
40
0
40
0
40
0
40
1
40
1
40
1
10
-65.997052378952503
20
-164.42749917507172
30
0
10
-66.19705218821764
20
-164.29563105106354
30
0
10
-66.465182490646839
20
-164.29563105106354
30
0
0
SPLINE
5
332
100
AcDbEntity
8
0
100
AcDbSpline
70
0
71
2
72
6
73
3
74
0
42
0.000000001
43
0.0000000001
44
0.0000000001
40
0
40
0
40
0
40
1
40
1
40
1
10
-63.225619979202747
20
-167.60552108287811
30
0
10
-63.102817721664906
20
-166.22090518474579
30
0
10
-63.010716624557972
20
-164.37914669513702
30
0
0
SPLINE
5
333
100
AcDbEntity
8
0
100
AcDbSpline
70
0
71
2
72
6
73
3
74
0
42
0.000000001
43
0.0000000001
44
0.0000000001
40
0
40
0
40
0
40
1
40
1
40
1
10
-63.010716624557972
20
-164.37914669513702
30
0
10
-62.918615527451038
20
-162.53738880157471
30
0
10
-62.918615527451038
20
-161.60552084445953
30
0
0
SPLINE
5
334
100
AcDbEntity
8
0
100
AcDbSpline
70
0
71
2
72
6
73
3
74
0
42
0.000000001
43
0.0000000001
44
0.0000000001
40
0
40
0
40
0
40
1
40
1
40
1
10
-62.918615527451038
20
-161.60552084445953
30
0
10
-62.408518977463245
20
-161.61431193351746
30
0
10
-61.964423842728138
20
-161.61431193351746
30
0
0
SPLINE
5
335
100
AcDbEntity
8
0
100
AcDbSpline
70
0
71
2
72
6
73
3
74
0
42
0.000000001
43
0.0000000001
44
0.0000000001
40
0
40
0
40
0
40
1
40
1
40
1
10
-61.964423842728138
20
-161.61431193351746
30
0
10
-61.529054827988148
20
-161.61431193351746
30
0
10
-61.111333556473255
20
-161.60552084445953
30
0
0
SPLINE
5
336
100
AcDbEntity
8
0
100
AcDbSpline
70
0
71
2
72
6
73
3
74
0
42
0.000000001
43
0.0000000001
44
0.0000000001
40
0
40
0
40
0
40
1
40
1
40
1
10
-61.111333556473255
20
-161.60552084445953
30
0
10
-61.207349486649036
20
-162.29123532772064
30
0
10
-61.251032538712025
20
-163.11321318149567
30
0
0
SPLINE
5
337
100
AcDbEntity
8
0
100
AcDbSpline
70
0
71
2
72
6
73
3
74
0
42
0.000000001
43
0.0000000001
44
0.0000000001
40
0
40
0
40
0
40
1
40
1
40
1
10
-61.251032538712025
20
-163.11321318149567
30
0
10
-60.851168818771839
20
-163.04727852344513
30
0
10
-60.635852999985218
20
-163.02530109882355
30
0
0
SPLINE
5
338
100
AcDbEntity
8
0
100
AcDbSpline
70
0
71
2
72
6
73
3
74
0
42
0.000000001
43
0.0000000001
44
0.0000000001
40
0
40
0
40
0
40
1
40
1
40
1
10
-60.635852999985218
20
-163.02530109882355
30
0
10
-60.420537181198597
20
-163.00332248210907
30
0
10
-60.209543891251087
20
-163.00332248210907
30
0
0
SPLINE
5
339
100
AcDbEntity
8
0
100
AcDbSpline
70
0
71
2
72
6
73
3
74
0
42
0.000000001
43
0.0000000001
44
0.0000000001
40
0
40
0
40
0
40
1
40
1
40
1
10
-60.209543891251087
20
-163.00332248210907
30
0
10
-59.53283566981554
20
-163.00332248210907
30
0
10
-59.051649756729603
20
-163.21650922298431
30
0
0
SPLINE
5
340
100
AcDbEntity
8
0
100
AcDbSpline
70
0
71
2
72
6
73
3
74
0
42
0.000000001
43
0.0000000001
44
0.0000000001
40
0
40
0
40
0
40
1
40
1
40
1
10
-59.051649756729603
20
-163.21650922298431
30
0
10
-58.570473380386829
20
-163.42969596385956
30
0
10
-58.269474692642689
20
-163.93519103527069
30
0
0
SPLINE
5
341
100
AcDbEntity
8
0
100
AcDbSpline
70
0
71
2
72
6
73
3
74
0
42
0.000000001
43
0.0000000001
44
0.0000000001
40
0
40
0
40
0
40
1
40
1
40
1
10
-58.269474692642689
20
-163.93519103527069
30
0
10
-57.968476004898548
20
-164.44068610668182
30
0
10
-57.968476004898548
20
-165.17035663127899
30
0
0
SPLINE
5
342
100
AcDbEntity
8
0
100
AcDbSpline
70
0
71
2
72
6
73
3
74
0
42
0.000000001
43
0.0000000001
44
0.0000000001
40
0
40
0
40
0
40
1
40
1
40
1
10
-57.968476004898548
20
-165.17035663127899
30
0
10
-57.968476004898548
20
-165.90002715587616
30
0
10
-58.254158683121204
20
-166.51321351528168
30
0
0
SPLINE
5
343
100
AcDbEntity
8
0
100
AcDbSpline
70
0
71
2
72
6
73
3
74
0
42
0.000000001
43
0.0000000001
44
0.0000000001
40
0
40
0
40
0
40
1
40
1
40
1
10
-58.254158683121204
20
-166.51321351528168
30
0
10
-58.539841361343861
20
-167.12639987468719
30
0
10
-59.018891043961048
20
-167.42310345172882
30
0
0
SPLINE
5
344
100
AcDbEntity
8
0
100
AcDbSpline
70
0
71
2
72
6
73
3
74
0
42
0.000000001
43
0.0000000001
44
0.0000000001
40
0
40
0
40
0
40
1
40
1
40
1
10
-59.018891043961048
20
-167.42310345172882
30
0
10
-59.497940726578236
20
-167.71980702877045
30
0
10
-60.135233588516712
20
-167.71980702877045
30
0
0
SPLINE
5
345
100
AcDbEntity
8
0
100
AcDbSpline
70
0
71
2
72
6
73
3
74
0
42
0.000000001
43
0.0000000001
44
0.0000000001
40
0
40
0
40
0
40
1
40
1
40
1
10
-60.135233588516712
20
-167.71980702877045
30
0
10
-60.372595973312855
20
-167.71980702877045
30
0
10
-60.587947554886341
20
-167.67145574092865
30
0
0
SPLINE
5
346
100
AcDbEntity
8
0
100
AcDbSpline
70
0
71
2
72
6
73
3
74
0
42
0.000000001
43
0.0000000001
44
0.0000000001
40
0
40
0
40
0
40
1
40
1
40
1
10
-60.587947554886341
20
-167.67145574092865
30
0
10
-60.803299136459827
20
-167.62310326099396
30
0
10
-60.979123301804066
20
-167.52859771251678
30
0
0
SPLINE
5
347
100
AcDbEntity
8
0
100
AcDbSpline
70
0
71
2
72
6
73
3
74
0
42
0.000000001
43
0.0000000001
44
0.0000000001
40
0
40
0
40
0
40
1
40
1
40
1
10
-60.979123301804066
20
-167.52859771251678
30
0
10
-61.154947467148304
20
-167.43409216403961
30
0
10
-61.273594088852406
20
-167.32859790325165
30
0
0
SPLINE
5
348
100
AcDbEntity
8
0
100
AcDbSpline
70
0
71
2
72
6
73
3
74
0
42
0.000000001
43
0.0000000001
44
0.0000000001
40
0
40
0
40
0
40
1
40
1
40
1
10
-61.273594088852406
20
-167.32859790325165
30
0
10
-61.392240710556507
20
-167.22310364246368
30
0
10
-61.546087451279163
20
-167.04288423061371
30
0
0
LINE
5
349
100
AcDbEntity
8
0
100
AcDbLine
10
-61.546087451279163
20
-167.04288423061371
30
0
11
-61.561882682144642
21
-167.60552108287811
31
0
0
SPLINE
5
350
100
AcDbEntity
8
0
100
AcDbSpline
70
0
71
2
72
6
73
3
74
0
42
0.000000001
43
0.0000000001
44
0.0000000001
40
0
40
0
40
0
40
1
40
1
40
1
10
-61.561882682144642
20
-167.60552108287811
30
0
10
-62.032830901443958
20
-167.59672939777374
30
0
10
-62.349727340042591
20
-167.59672939777374
30
0
0
SPLINE
5
351
100
AcDbEntity
8
0
100
AcDbSpline
70
0
71
2
72
6
73
3
74
0
42
0.000000001
43
0.0000000001
44
0.0000000001
40
0
40
0
40
0
40
1
40
1
40
1
10
-62.349727340042591
20
-167.59672939777374
30
0
10
-62.609410472214222
20
-167.59672939777374
30
0
10
-63.225619979202747
20
-167.60552108287811
30
0
0
SPLINE
5
352
100
AcDbEntity
8
0
100
AcDbSpline
70
0
71
2
72
6
73
3
74
0
42
0.000000001
43
0.0000000001
44
0.0000000001
40
0
40
0
40
0
40
1
40
1
40
1
10
-61.374657340347767
20
-164.34837758541107
30
0
10
-61.406319327652454
20
-165.07804811000824
30
0
10
-61.406319327652454
20
-165.24068534374237
30
0
0
SPLINE
5
353
100
AcDbEntity
8
0
100
AcDbSpline
70
0
71
2
72
6
73
3
74
0
42
0.000000001
43
0.0000000001
44
0.0000000001
40
0
40
0
40
0
40
1
40
1
40
1
10
-61.406319327652454
20
-165.24068534374237
30
0
10
-61.406319327652454
20
-165.65387189388275
30
0
10
-61.333759017288685
20
-165.89563071727753
30
0
0
SPLINE
5
354
100
AcDbEntity
8
0
100
AcDbSpline
70
0
71
2
72
6
73
3
74
0
42
0.000000001
43
0.0000000001
44
0.0000000001
40
0
40
0
40
0
40
1
40
1
40
1
10
-61.333759017288685
20
-165.89563071727753
30
0
10
-61.261196322739124
20
-166.1373895406723
30
0
10
-61.056766696274281
20
-166.28244340419769
30
0
0
SPLINE
5
355
100
AcDbEntity
8
0
100
AcDbSpline
70
0
71
2
72
6
73
3
74
0
42
0.000000001
43
0.0000000001
44
0.0000000001
40
0
40
0
40
0
40
1
40
1
40
1
10
-61.056766696274281
20
-166.28244340419769
30
0
10
-60.852337069809437
20
-166.42749845981598
30
0
10
-60.597322173416615
20
-166.42749845981598
30
0
0
SPLINE
5
356
100
AcDbEntity
8
0
100
AcDbSpline
70
0
71
2
72
6
73
3
74
0
42
0.000000001
43
0.0000000001
44
0.0000000001
40
0
40
0
40
0
40
1
40
1
40
1
10
-60.597322173416615
20
-166.42749845981598
30
0
10
-60.3335215523839
20
-166.42749845981598
30
0
10
-60.135643668472767
20
-166.28244340419769
30
0
0
SPLINE
5
357
100
AcDbEntity
8
0
100
AcDbSpline
70
0
71
2
72
6
73
3
74
0
42
0.000000001
43
0.0000000001
44
0.0000000001
40
0
40
0
40
0
40
1
40
1
40
1
10
-60.135643668472767
20
-166.28244340419769
30
0
10
-59.937775321304798
20
-166.1373895406723
30
0
10
-59.834444709122181
20
-165.85826814174652
30
0
0
SPLINE
5
358
100
AcDbEntity
8
0
100
AcDbSpline
70
0
71
2
72
6
73
3
74
0
42
0.000000001
43
0.0000000001
44
0.0000000001
40
0
40
0
40
0
40
1
40
1
40
1
10
-59.834444709122181
20
-165.85826814174652
30
0
10
-59.731114096939564
20
-165.57914674282074
30
0
10
-59.731114096939564
20
-165.27145564556122
30
0
0
SPLINE
5
359
100
AcDbEntity
8
0
100
AcDbSpline
70
0
71
2
72
6
73
3
74
0
42
0.000000001
43
0.0000000001
44
0.0000000001
40
0
40
0
40
0
40
1
40
1
40
1
10
-59.731114096939564
20
-165.27145564556122
30
0
10
-59.731114096939564
20
-164.80991661548615
30
0
10
-59.980080313980579
20
-164.53079521656036
30
0
0
SPLINE
5
360
100
AcDbEntity
8
0
100
AcDbSpline
70
0
71
2
72
6
73
3
74
0
42
0.000000001
43
0.0000000001
44
0.0000000001
40
0
40
0
40
0
40
1
40
1
40
1
10
-59.980080313980579
20
-164.53079521656036
30
0
10
-60.229056067764759
20
-164.25167500972748
30
0
10
-60.696087069809437
20
-164.25167500972748
30
0
0
SPLINE
5
361
100
AcDbEntity
8
0
100
AcDbSpline
70
0
71
2
72
6
73
3
74
0
42
0.000000001
43
0.0000000001
44
0.0000000001
40
0
40
0
40
0
40
1
40
1
40
1
10
-60.696087069809437
20
-164.25167500972748
30
0
10
-60.986883826553822
20
-164.25167500972748
30
0
10
-61.374657340347767
20
-164.34837758541107
30
0
0
SPLINE
5
362
100
AcDbEntity
8
0
100
AcDbSpline
70
0
71
2
72
6
73
3
74
0
42
0.000000001
43
0.0000000001
44
0.0000000001
40
0
40
0
40
0
40
1
40
1
40
1
10
-54.702542014420033
20
-163.00332248210907
30
0
10
-54.157488532364368
20
-163.00332248210907
30
0
10
-53.654196448624134
20
-163.17035615444183
30
0
0
SPLINE
5
363
100
AcDbEntity
8
0
100
AcDbSpline
70
0
71
2
72
6
73
3
74
0
42
0.000000001
43
0.0000000001
44
0.0000000001
40
0
40
0
40
0
40
1
40
1
40
1
10
-53.654196448624134
20
-163.17035615444183
30
0
10
-53.150894828140736
20
-163.3373886346817
30
0
10
-52.803642936050892
20
-163.65167438983917
30
0
0
SPLINE
5
364
100
AcDbEntity
8
0
100
AcDbSpline
70
0
71
2
72
6
73
3
74
0
42
0.000000001
43
0.0000000001
44
0.0000000001
40
0
40
0
40
0
40
1
40
1
40
1
10
-52.803642936050892
20
-163.65167438983917
30
0
10
-52.456391043961048
20
-163.96596014499664
30
0
10
-52.291557975113392
20
-164.38574016094208
30
0
0
SPLINE
5
365
100
AcDbEntity
8
0
100
AcDbSpline
70
0
71
2
72
6
73
3
74
0
42
0.000000001
43
0.0000000001
44
0.0000000001
40
0
40
0
40
0
40
1
40
1
40
1
10
-52.291557975113392
20
-164.38574016094208
30
0
10
-52.126715369522572
20
-164.80552136898041
30
0
10
-52.126715369522572
20
-165.28903663158417
30
0
0
SPLINE
5
366
100
AcDbEntity
8
0
100
AcDbSpline
70
0
71
2
72
6
73
3
74
0
42
0.000000001
43
0.0000000001
44
0.0000000001
40
0
40
0
40
0
40
1
40
1
40
1
10
-52.126715369522572
20
-165.28903663158417
30
0
10
-52.126715369522572
20
-165.75936734676361
30
0
10
-52.273972220718861
20
-166.18354260921478
30
0
0
SPLINE
5
367
100
AcDbEntity
8
0
100
AcDbSpline
70
0
71
2
72
6
73
3
74
0
42
0.000000001
43
0.0000000001
44
0.0000000001
40
0
40
0
40
0
40
1
40
1
40
1
10
-52.273972220718861
20
-166.18354260921478
30
0
10
-52.42122907191515
20
-166.60771906375885
30
0
10
-52.772877402603626
20
-166.97914779186249
30
0
0
SPLINE
5
368
100
AcDbEntity
8
0
100
AcDbSpline
70
0
71
2
72
6
73
3
74
0
42
0.000000001
43
0.0000000001
44
0.0000000001
40
0
40
0
40
0
40
1
40
1
40
1
10
-52.772877402603626
20
-166.97914779186249
30
0
10
-53.124525733292103
20
-167.35057651996613
30
0
10
-53.667376227676868
20
-167.53519117832184
30
0
0
SPLINE
5
369
100
AcDbEntity
8
0
100
AcDbSpline
70
0
71
2
72
6
73
3
74
0
42
0.000000001
43
0.0000000001
44
0.0000000001
40
0
40
0
40
0
40
1
40
1
40
1
10
-53.667376227676868
20
-167.53519117832184
30
0
10
-54.210236258804798
20
-167.71980702877045
30
0
10
-54.816830344498158
20
-167.71980702877045
30
0
0
SPLINE
5
370
100
AcDbEntity
8
0
100
AcDbSpline
70
0
71
2
72
6
73
3
74
0
42
0.000000001
43
0.0000000001
44
0.0000000001
40
0
40
0
40
0
40
1
40
1
40
1
10
-54.816830344498158
20
-167.71980702877045
30
0
10
-55.37507314234972
20
-167.71980702877045
30
0
10
-55.889361090958118
20
-167.55716979503632
30
0
0
SPLINE
5
371
100
AcDbEntity
8
0
100
AcDbSpline
70
0
71
2
72
6
73
3
74
0
42
0.000000001
43
0.0000000001
44
0.0000000001
40
0
40
0
40
0
40
1
40
1
40
1
10
-55.889361090958118
20
-167.55716979503632
30
0
10
-56.403639502823353
20
-167.39453256130219
30
0
10
-56.748697943985462
20
-167.08244383335114
30
0
0
SPLINE
5
372
100
AcDbEntity
8
0
100
AcDbSpline
70
0
71
2
72
6
73
3
74
0
42
0.000000001
43
0.0000000001
44
0.0000000001
40
0
40
0
40
0
40
1
40
1
40
1
10
-56.748697943985462
20
-167.08244383335114
30
0
10
-57.093756385147572
20
-166.77035629749298
30
0
10
-57.267382331192493
20
-166.33519113063812
30
0
0
SPLINE
5
373
100
AcDbEntity
8
0
100
AcDbSpline
70
0
71
2
72
6
73
3
74
0
42
0.000000001
43
0.0000000001
44
0.0000000001
40
0
40
0
40
0
40
1
40
1
40
1
10
-57.267382331192493
20
-166.33519113063812
30
0
10
-57.441008277237415
20
-165.90002715587616
30
0
10
-57.441008277237415
20
-165.42090594768524
30
0
0
SPLINE
5
374
100
AcDbEntity
8
0
100
AcDbSpline
70
0
71
2
72
6
73
3
74
0
42
0.000000001
43
0.0000000001
44
0.0000000001
40
0
40
0
40
0
40
1
40
1
40
1
10
-57.441008277237415
20
-165.42090594768524
30
0
10
-57.441008277237415
20
-164.94178473949432
30
0
10
-57.271778769791126
20
-164.50661957263947
30
0
0
SPLINE
5
375
100
AcDbEntity
8
0
100
AcDbSpline
70
0
71
2
72
6
73
3
74
0
42
0.000000001
43
0.0000000001
44
0.0000000001
40
0
40
0
40
0
40
1
40
1
40
1
10
-57.271778769791126
20
-164.50661957263947
30
0
10
-57.102539725601673
20
-164.07145440578461
30
0
10
-56.735508628189564
20
-163.72420251369476
30
0
0
SPLINE
5
376
100
AcDbEntity
8
0
100
AcDbSpline
70
0
71
2
72
6
73
3
74
0
42
0.000000001
43
0.0000000001
44
0.0000000001
40
0
40
0
40
0
40
1
40
1
40
1
10
-56.735508628189564
20
-163.72420251369476
30
0
10
-56.368477530777454
20
-163.37694942951202
30
0
10
-55.827820487320423
20
-163.1901353597641
30
0
0
SPLINE
5
377
100
AcDbEntity
8
0
100
AcDbSpline
70
0
71
2
72
6
73
3
74
0
42
0.000000001
43
0.0000000001
44
0.0000000001
40
0
40
0
40
0
40
1
40
1
40
1
10
-55.827820487320423
20
-163.1901353597641
30
0
10
-55.287163443863392
20
-163.00332248210907
30
0
10
-54.702542014420033
20
-163.00332248210907
30
0
0
SPLINE
5
378
100
AcDbEntity
8
0
100
AcDbSpline
70
0
71
2
72
6
73
3
74
0
42
0.000000001
43
0.0000000001
44
0.0000000001
40
0
40
0
40
0
40
1
40
1
40
1
10
-54.733317084610462
20
-164.29563105106354
30
0
10
-55.014631934463978
20
-164.29563105106354
30
0
10
-55.234415717422962
20
-164.44068610668182
30
0
0
SPLINE
5
379
100
AcDbEntity
8
0
100
AcDbSpline
70
0
71
2
72
6
73
3
74
0
42
0.000000001
43
0.0000000001
44
0.0000000001
40
0
40
0
40
0
40
1
40
1
40
1
10
-55.234415717422962
20
-164.44068610668182
30
0
10
-55.454189963638783
20
-164.58573997020721
30
0
10
-55.566284842789173
20
-164.864861369133
30
0
0
SPLINE
5
380
100
AcDbEntity
8
0
100
AcDbSpline
70
0
71
2
72
6
73
3
74
0
42
0.000000001
43
0.0000000001
44
0.0000000001
40
0
40
0
40
0
40
1
40
1
40
1
10
-55.566284842789173
20
-164.864861369133
30
0
10
-55.6783701851964
20
-165.14398276805878
30
0
10
-55.6783701851964
20
-165.47365248203278
30
0
0
SPLINE
5
381
100
AcDbEntity
8
0
100
AcDbSpline
70
0
71
2
72
6
73
3
74
0
42
0.000000001
43
0.0000000001
44
0.0000000001
40
0
40
0
40
0
40
1
40
1
40
1
10
-55.6783701851964
20
-165.47365248203278
30
0
10
-55.6783701851964
20
-165.95716893672943
30
0
10
-55.436613745987415
20
-166.21431291103363
30
0
0
SPLINE
5
382
100
AcDbEntity
8
0
100
AcDbSpline
70
0
71
2
72
6
73
3
74
0
42
0.000000001
43
0.0000000001
44
0.0000000001
40
0
40
0
40
0
40
1
40
1
40
1
10
-55.436613745987415
20
-166.21431291103363
30
0
10
-55.194847770035267
20
-166.47145450115204
30
0
10
-54.830019660294056
20
-166.47145450115204
30
0
0
SPLINE
5
383
100
AcDbEntity
8
0
100
AcDbSpline
70
0
71
2
72
6
73
3
74
0
42
0.000000001
43
0.0000000001
44
0.0000000001
40
0
40
0
40
0
40
1
40
1
40
1
10
-54.830019660294056
20
-166.47145450115204
30
0
10
-54.553091712296009
20
-166.47145450115204
30
0
10
-54.333317466080189
20
-166.32420241832733
30
0
0
SPLINE
5
384
100
AcDbEntity
8
0
100
AcDbSpline
70
0
71
2
72
6
73
3
74
0
42
0.000000001
43
0.0000000001
44
0.0000000001
40
0
40
0
40
0
40
1
40
1
40
1
10
-54.333317466080189
20
-166.32420241832733
30
0
10
-54.113533683121204
20
-166.17694914340973
30
0
10
-54.001448340713978
20
-165.88903725147247
30
0
0
SPLINE
5
385
100
AcDbEntity
8
0
100
AcDbSpline
70
0
71
2
72
6
73
3
74
0
42
0.000000001
43
0.0000000001
44
0.0000000001
40
0
40
0
40
0
40
1
40
1
40
1
10
-54.001448340713978
20
-165.88903725147247
30
0
10
-53.889353461563587
20
-165.60112535953522
30
0
10
-53.889353461563587
20
-165.27145564556122
30
0
0
SPLINE
5
386
100
AcDbEntity
8
0
100
AcDbSpline
70
0
71
2
72
6
73
3
74
0
42
0.000000001
43
0.0000000001
44
0.0000000001
40
0
40
0
40
0
40
1
40
1
40
1
10
-53.889353461563587
20
-165.27145564556122
30
0
10
-53.889353461563587
20
-164.99892771244049
30
0
10
-53.977272696793079
20
-164.77914750576019
30
0
0
SPLINE
5
387
100
AcDbEntity
8
0
100
AcDbSpline
70
0
71
2
72
6
73
3
74
0
42
0.000000001
43
0.0000000001
44
0.0000000001
40
0
40
0
40
0
40
1
40
1
40
1
10
-53.977272696793079
20
-164.77914750576019
30
0
10
-54.065182395279408
20
-164.5593672990799
30
0
10
-54.265177436172962
20
-164.42749917507172
30
0
0
SPLINE
5
388
100
AcDbEntity
8
0
100
AcDbSpline
70
0
71
2
72
6
73
3
74
0
42
0.000000001
43
0.0000000001
44
0.0000000001
40
0
40
0
40
0
40
1
40
1
40
1
10
-54.265177436172962
20
-164.42749917507172
30
0
10
-54.465182013809681
20
-164.29563105106354
30
0
10
-54.733317084610462
20
-164.29563105106354
30
0
0
SPLINE
5
389
100
AcDbEntity
8
0
100
AcDbSpline
70
0
71
2
72
6
73
3
74
0
42
0.000000001
43
0.0000000001
44
0.0000000001
40
0
40
0
40
0
40
1
40
1
40
1
10
-48.2058360055089
20
-166.31321370601654
30
0
10
-48.284962363541126
20
-166.68244421482086
30
0
10
-48.342106528580189
20
-167.03409254550934
30
0
0
LINE
5
390
100
AcDbEntity
8
0
100
AcDbLine
10
-48.342106528580189
20
-167.03409254550934
30
0
11
-48.438809104263783
21
-167.57035672664642
31
0
0
SPLINE
5
391
100
AcDbEntity
8
0
100
AcDbSpline
70
0
71
2
72
6
73
3
74
0
42
0.000000001
43
0.0000000001
44
0.0000000001
40
0
40
0
40
0
40
1
40
1
40
1
10
-48.438809104263783
20
-167.57035672664642
30
0
10
-48.873970694839954
20
-167.66705930233002
30
0
10
-49.117930121719837
20
-167.69343316555023
30
0
0
SPLINE
5
392
100
AcDbEntity
8
0
100
AcDbSpline
70
0
71
2
72
6
73
3
74
0
42
0.000000001
43
0.0000000001
44
0.0000000001
40
0
40
0
40
0
40
1
40
1
40
1
10
-49.117930121719837
20
-167.69343316555023
30
0
10
-49.361880011856556
20
-167.71980702877045
30
0
10
-49.590456672012806
20
-167.71980702877045
30
0
0
SPLINE
5
393
100
AcDbEntity
8
0
100
AcDbSpline
70
0
71
2
72
6
73
3
74
0
42
0.000000001
43
0.0000000001
44
0.0000000001
40
0
40
0
40
0
40
1
40
1
40
1
10
-49.590456672012806
20
-167.71980702877045
30
0
10
-49.964077658951283
20
-167.71980702877045
30
0
10
-50.254194922745228
20
-167.65607059001923
30
0
0
SPLINE
5
394
100
AcDbEntity
8
0
100
AcDbSpline
70
0
71
2
72
6
73
3
74
0
42
0.000000001
43
0.0000000001
44
0.0000000001
40
0
40
0
40
0
40
1
40
1
40
1
10
-50.254194922745228
20
-167.65607059001923
30
0
10
-50.544302649796009
20
-167.59233415126801
30
0
10
-50.737707801163197
20
-167.42310345172882
30
0
0
SPLINE
5
395
100
AcDbEntity
8
0
100
AcDbSpline
70
0
71
2
72
6
73
3
74
0
42
0.000000001
43
0.0000000001
44
0.0000000001
40
0
40
0
40
0
40
1
40
1
40
1
10
-50.737707801163197
20
-167.42310345172882
30
0
10
-50.931112952530384
20
-167.25387275218964
30
0
10
-51.001446433365345
20
-167.03409254550934
30
0
0
SPLINE
5
396
100
AcDbEntity
8
0
100
AcDbSpline
70
0
71
2
72
6
73
3
74
0
42
0.000000001
43
0.0000000001
44
0.0000000001
40
0
40
0
40
0
40
1
40
1
40
1
10
-51.001446433365345
20
-167.03409254550934
30
0
10
-51.071770377457142
20
-166.81431233882904
30
0
10
-51.071770377457142
20
-166.56815826892853
30
0
0
SPLINE
5
397
100
AcDbEntity
8
0
100
AcDbSpline
70
0
71
2
72
6
73
3
74
0
42
0.000000001
43
0.0000000001
44
0.0000000001
40
0
40
0
40
0
40
1
40
1
40
1
10
-51.071770377457142
20
-166.56815826892853
30
0
10
-51.071770377457142
20
-166.52420222759247
30
0
10
-51.067412085831165
20
-166.41211450099945
30
0
0
SPLINE
5
398
100
AcDbEntity
8
0
100
AcDbSpline
70
0
71
2
72
6
73
3
74
0
42
0.000000001
43
0.0000000001
44
0.0000000001
40
0
40
0
40
0
40
1
40
1
40
1
10
-51.067412085831165
20
-166.41211450099945
30
0
10
-51.063053794205189
20
-166.30002677440643
30
0
10
-51.036818213760853
20
-165.91321289539337
30
0
0
LINE
5
399
100
AcDbEntity
8
0
100
AcDbLine
10
-51.036818213760853
20
-165.91321289539337
30
0
11
-50.940725989639759
21
-164.39233362674713
31
0
0
LINE
5
400
100
AcDbEntity
8
0
100
AcDbLine
10
-50.940725989639759
20
-164.39233362674713
30
0
11
-51.625616736710072
21
-164.39233362674713
31
0
0
SPLINE
5
401
100
AcDbEntity
8
0
100
AcDbSpline
70
0
71
2
72
6
73
3
74
0
42
0.000000001
43
0.0000000001
44
0.0000000001
40
0
40
0
40
0
40
1
40
1
40
1
10
-51.625616736710072
20
-164.39233362674713
30
0
10
-51.60371083766222
20
-164.08903777599335
30
0
10
-51.586125083267689
20
-163.59233319759369
30
0
0
LINE
5
402
100
AcDbEntity
8
0
100
AcDbLine
10
-51.586125083267689
20
-163.59233319759369
30
0
11
-51.57293576747179
21
-163.18354308605194
31
0
0
LINE
5
403
100
AcDbEntity
8
0
100
AcDbLine
10
-51.57293576747179
20
-163.18354308605194
30
0
11
-50.844576545059681
21
-163.18354308605194
31
0
0
SPLINE
5
404
100
AcDbEntity
8
0
100
AcDbSpline
70
0
71
2
72
6
73
3
74
0
42
0.000000001
43
0.0000000001
44
0.0000000001
40
0
40
0
40
0
40
1
40
1
40
1
10
-50.844576545059681
20
-163.18354308605194
30
0
10
-50.818340964615345
20
-162.98134505748749
30
0
10
-50.779049582779408
20
-162.30002641677856
30
0
0
LINE
5
405
100
AcDbEntity
8
0
100
AcDbLine
10
-50.779049582779415
20
-162.30002641677859
30
0
11
-50.026581473648548
21
-162.14618027210236
31
0
0
SPLINE
5
406
100
AcDbEntity
8
0
100
AcDbSpline
70
0
71
2
72
6
73
3
74
0
42
0.000000001
43
0.0000000001
44
0.0000000001
40
0
40
0
40
0
40
1
40
1
40
1
10
-50.026581473648548
20
-162.14618027210236
30
0
10
-49.819777198135853
20
-162.10661947727203
30
0
10
-49.146502204239368
20
-161.9439822435379
30
0
0
SPLINE
5
407
100
AcDbEntity
8
0
100
AcDbSpline
70
0
71
2
72
6
73
3
74
0
42
0.000000001
43
0.0000000001
44
0.0000000001
40
0
40
0
40
0
40
1
40
1
40
1
10
-49.146502204239368
20
-161.9439822435379
30
0
10
-49.177334494888783
20
-162.51980662345886
30
0
10
-49.190590567886829
20
-163.18354308605194
30
0
0
LINE
5
408
100
AcDbEntity
8
0
100
AcDbLine
10
-49.190590567886829
20
-163.18354308605194
30
0
11
-48.188259787857533
21
-163.18354308605194
31
0
0
SPLINE
5
409
100
AcDbEntity
8
0
100
AcDbSpline
70
0
71
2
72
6
73
3
74
0
42
0.000000001
43
0.0000000001
44
0.0000000001
40
0
40
0
40
0
40
1
40
1
40
1
10
-48.188259787857533
20
-163.18354308605194
30
0
10
-48.223421759903431
20
-164.09782826900482
30
0
10
-48.223421759903431
20
-164.39233362674713
30
0
0
LINE
5
410
100
AcDbEntity
8
0
100
AcDbLine
10
-48.223421759903431
20
-164.39233362674716
30
0
11
-49.234755225479603
21
-164.39233362674713
31
0
0
LINE
5
411
100
AcDbEntity
8
0
100
AcDbLine
10
-49.234755225479603
20
-164.39233362674713
30
0
11
-49.287703223526478
21
-165.49123466014862
31
0
0
SPLINE
5
412
100
AcDbEntity
8
0
100
AcDbSpline
70
0
71
2
72
6
73
3
74
0
42
0.000000001
43
0.0000000001
44
0.0000000001
40
0
40
0
40
0
40
1
40
1
40
1
10
-49.287703223526478
20
-165.49123466014862
30
0
10
-49.296496100723743
20
-165.73738873004913
30
0
10
-49.296496100723743
20
-165.80771863460541
30
0
0
SPLINE
5
413
100
AcDbEntity
8
0
100
AcDbSpline
70
0
71
2
72
6
73
3
74
0
42
0.000000001
43
0.0000000001
44
0.0000000001
40
0
40
0
40
0
40
1
40
1
40
1
10
-49.296496100723743
20
-165.80771863460541
30
0
10
-49.296496100723743
20
-166.01870715618134
30
0
10
-49.250309653580189
20
-166.15936696529388
30
0
0
SPLINE
5
414
100
AcDbEntity
8
0
100
AcDbSpline
70
0
71
2
72
6
73
3
74
0
42
0.000000001
43
0.0000000001
44
0.0000000001
40
0
40
0
40
0
40
1
40
1
40
1
10
-49.250309653580189
20
-166.15936696529388
30
0
10
-49.204123206436634
20
-166.30002677440643
30
0
10
-49.087603278458118
20
-166.36156499385834
30
0
0
SPLINE
5
415
100
AcDbEntity
8
0
100
AcDbSpline
70
0
71
2
72
6
73
3
74
0
42
0.000000001
43
0.0000000001
44
0.0000000001
40
0
40
0
40
0
40
1
40
1
40
1
10
-49.087603278458118
20
-166.36156499385834
30
0
10
-48.971083350479603
20
-166.42310321331024
30
0
10
-48.830359168350697
20
-166.42310321331024
30
0
0
SPLINE
5
416
100
AcDbEntity
8
0
100
AcDbSpline
70
0
71
2
72
6
73
3
74
0
42
0.000000001
43
0.0000000001
44
0.0000000001
40
0
40
0
40
0
40
1
40
1
40
1
10
-48.830359168350697
20
-166.42310321331024
30
0
10
-48.724796958267689
20
-166.42310321331024
30
0
10
-48.610441870987415
20
-166.40771925449371
30
0
0
SPLINE
5
417
100
AcDbEntity
8
0
100
AcDbSpline
70
0
71
2
72
6
73
3
74
0
42
0.000000001
43
0.0000000001
44
0.0000000001
40
0
40
0
40
0
40
1
40
1
40
1
10
-48.610441870987415
20
-166.40771925449371
30
0
10
-48.496086783707142
20
-166.39233410358429
30
0
10
-48.2058360055089
20
-166.31321370601654
30
0
0
SPLINE
5
418
100
AcDbEntity
8
0
100
AcDbSpline
70
0
71
2
72
6
73
3
74
0
42
0.000000001
43
0.0000000001
44
0.0000000001
40
0
40
0
40
0
40
1
40
1
40
1
10
-85.616831965744495
20
-177.91761100292206
30
0
10
-85.599249787628651
20
-177.71122395992279
30
0
10
-85.588259883224964
20
-177.37083852291107
30
0
0
SPLINE
5
419
100
AcDbEntity
8
0
100
AcDbSpline
70
0
71
2
72
6
73
3
74
0
42
0.000000001
43
0.0000000001
44
0.0000000001
40
0
40
0
40
0
40
1
40
1
40
1
10
-85.588259883224964
20
-177.37083852291107
30
0
10
-85.577271170914173
20
-177.03045547008514
30
0
10
-85.559688992798328
20
-176.67475402355194
30
0
0
SPLINE
5
420
100
AcDbEntity
8
0
100
AcDbSpline
70
0
71
2
72
6
73
3
74
0
42
0.000000001
43
0.0000000001
44
0.0000000001
40
0
40
0
40
0
40
1
40
1
40
1
10
-85.559688992798328
20
-176.67475402355194
30
0
10
-85.102546401321888
20
-176.300989985466
30
0
10
-84.720127768814564
20
-175.94927251338959
30
0
0
SPLINE
5
421
100
AcDbEntity
8
0
100
AcDbSpline
70
0
71
2
72
6
73
3
74
0
42
0.000000001
43
0.0000000001
44
0.0000000001
40
0
40
0
40
0
40
1
40
1
40
1
10
-84.720127768814564
20
-175.94927251338959
30
0
10
-84.100347943603992
20
-175.37763774394989
30
0
10
-83.621226735413074
20
-174.87640082836151
30
0
0
SPLINE
5
422
100
AcDbEntity
8
0
100
AcDbSpline
70
0
71
2
72
6
73
3
74
0
42
0.000000001
43
0.0000000001
44
0.0000000001
40
0
40
0
40
0
40
1
40
1
40
1
10
-83.621226735413074
20
-174.87640082836151
30
0
10
-83.238809294998646
20
-174.47626531124115
30
0
10
-82.979469485580921
20
-174.14212882518768
30
0
0
SPLINE
5
423
100
AcDbEntity
8
0
100
AcDbSpline
70
0
71
2
72
6
73
3
74
0
42
0.000000001
43
0.0000000001
44
0.0000000001
40
0
40
0
40
0
40
1
40
1
40
1
10
-82.979469485580921
20
-174.14212882518768
30
0
10
-82.830017991364002
20
-173.94425809383392
30
0
10
-82.781666703522205
20
-173.8123220205307
30
0
0
SPLINE
5
424
100
AcDbEntity
8
0
100
AcDbSpline
70
0
71
2
72
6
73
3
74
0
42
0.000000001
43
0.0000000001
44
0.0000000001
40
0
40
0
40
0
40
1
40
1
40
1
10
-82.781666703522205
20
-173.8123220205307
30
0
10
-82.74650115519762
20
-173.72001349925995
30
0
10
-82.74650115519762
20
-173.62324178218842
30
0
0
SPLINE
5
425
100
AcDbEntity
8
0
100
AcDbSpline
70
0
71
2
72
6
73
3
74
0
42
0.000000001
43
0.0000000001
44
0.0000000001
40
0
40
0
40
0
40
1
40
1
40
1
10
-82.74650115519762
20
-173.62324178218842
30
0
10
-82.74650115519762
20
-173.49577128887177
30
0
10
-82.803645320236683
20
-173.40122878551483
30
0
0
SPLINE
5
426
100
AcDbEntity
8
0
100
AcDbSpline
70
0
71
2
72
6
73
3
74
0
42
0.000000001
43
0.0000000001
44
0.0000000001
40
0
40
0
40
0
40
1
40
1
40
1
10
-82.803645320236683
20
-173.40122878551483
30
0
10
-82.860787101089954
20
-173.30669105052948
30
0
10
-82.983864732086658
20
-173.24072062969208
30
0
0
SPLINE
5
427
100
AcDbEntity
8
0
100
AcDbSpline
70
0
71
2
72
6
73
3
74
0
42
0.000000001
43
0.0000000001
44
0.0000000001
40
0
40
0
40
0
40
1
40
1
40
1
10
-82.983864732086658
20
-173.24072062969208
30
0
10
-83.106941170990467
20
-173.17475259304047
30
0
10
-83.282765336334705
20
-173.13519179821014
30
0
0
SPLINE
5
428
100
AcDbEntity
8
0
100
AcDbSpline
70
0
71
2
72
6
73
3
74
0
42
0.000000001
43
0.0000000001
44
0.0000000001
40
0
40
0
40
0
40
1
40
1
40
1
10
-83.282765336334705
20
-173.13519179821014
30
0
10
-83.458589501678944
20
-173.09563338756561
30
0
10
-83.682766146957874
20
-173.09563338756561
30
0
0
SPLINE
5
429
100
AcDbEntity
8
0
100
AcDbSpline
70
0
71
2
72
6
73
3
74
0
42
0.000000001
43
0.0000000001
44
0.0000000001
40
0
40
0
40
0
40
1
40
1
40
1
10
-83.682766146957874
20
-173.09563338756561
30
0
10
-83.990458436310291
20
-173.09563338756561
30
0
10
-84.331116862595081
20
-173.14838111400604
30
0
0
SPLINE
5
430
100
AcDbEntity
8
0
100
AcDbSpline
70
0
71
2
72
6
73
3
74
0
42
0.000000001
43
0.0000000001
44
0.0000000001
40
0
40
0
40
0
40
1
40
1
40
1
10
-84.331116862595081
20
-173.14838111400604
30
0
10
-84.671776480972767
20
-173.20112645626068
30
0
10
-85.260787196457386
20
-173.3505767583847
30
0
0
LINE
5
431
100
AcDbEntity
8
0
100
AcDbLine
10
-85.260787196457386
20
-173.3505767583847
30
0
11
-85.146502442657948
21
-172.72200644016266
31
0
0
SPLINE
5
432
100
AcDbEntity
8
0
100
AcDbSpline
70
0
71
2
72
6
73
3
74
0
42
0.000000001
43
0.0000000001
44
0.0000000001
40
0
40
0
40
0
40
1
40
1
40
1
10
-85.146502442657948
20
-172.72200644016266
30
0
10
-85.106941647827625
20
-172.53299534320831
30
0
10
-85.032216496765614
20
-171.99673116207123
30
0
0
SPLINE
5
433
100
AcDbEntity
8
0
100
AcDbSpline
70
0
71
2
72
6
73
3
74
0
42
0.000000001
43
0.0000000001
44
0.0000000001
40
0
40
0
40
0
40
1
40
1
40
1
10
-85.032216496765614
20
-171.99673116207123
30
0
10
-83.876172490417957
20
-171.80332481861115
30
0
10
-82.865183539688587
20
-171.80332481861115
30
0
0
SPLINE
5
434
100
AcDbEntity
8
0
100
AcDbSpline
70
0
71
2
72
6
73
3
74
0
42
0.000000001
43
0.0000000001
44
0.0000000001
40
0
40
0
40
0
40
1
40
1
40
1
10
-82.865183539688587
20
-171.80332481861115
30
0
10
-82.403644509613514
20
-171.80332481861115
30
0
10
-81.981666274368763
20
-171.88684165477753
30
0
0
SPLINE
5
435
100
AcDbEntity
8
0
100
AcDbSpline
70
0
71
2
72
6
73
3
74
0
42
0.000000001
43
0.0000000001
44
0.0000000001
40
0
40
0
40
0
40
1
40
1
40
1
10
-81.981666274368763
20
-171.88684165477753
30
0
10
-81.559688039124012
20
-171.97035729885101
30
0
10
-81.22562188655138
20
-172.17035710811615
30
0
0
SPLINE
5
436
100
AcDbEntity
8
0
100
AcDbSpline
70
0
71
2
72
6
73
3
74
0
42
0.000000001
43
0.0000000001
44
0.0000000001
40
0
40
0
40
0
40
1
40
1
40
1
10
-81.22562188655138
20
-172.17035710811615
30
0
10
-80.891556926071644
20
-172.37035691738129
30
0
10
-80.72452325373888
20
-172.63629138469696
30
0
0
SPLINE
5
437
100
AcDbEntity
8
0
100
AcDbSpline
70
0
71
2
72
6
73
3
74
0
42
0.000000001
43
0.0000000001
44
0.0000000001
40
0
40
0
40
0
40
1
40
1
40
1
10
-80.72452325373888
20
-172.63629138469696
30
0
10
-80.557490773499012
20
-172.90222585201263
30
0
10
-80.557490773499012
20
-173.20991694927216
30
0
0
SPLINE
5
438
100
AcDbEntity
8
0
100
AcDbSpline
70
0
71
2
72
6
73
3
74
0
42
0.000000001
43
0.0000000001
44
0.0000000001
40
0
40
0
40
0
40
1
40
1
40
1
10
-80.557490773499012
20
-173.20991694927216
30
0
10
-80.557490773499012
20
-173.41211497783661
30
0
10
-80.605843253433704
20
-173.60991895198822
30
0
0
SPLINE
5
439
100
AcDbEntity
8
0
100
AcDbSpline
70
0
71
2
72
6
73
3
74
0
42
0.000000001
43
0.0000000001
44
0.0000000001
40
0
40
0
40
0
40
1
40
1
40
1
10
-80.605843253433704
20
-173.60991895198822
30
0
10
-80.654194541275501
20
-173.79893004894257
30
0
10
-80.786061473190784
20
-174.05387341976166
30
0
0
SPLINE
5
440
100
AcDbEntity
8
0
100
AcDbSpline
70
0
71
2
72
6
73
3
74
0
42
0.000000001
43
0.0000000001
44
0.0000000001
40
0
40
0
40
0
40
1
40
1
40
1
10
-80.786061473190784
20
-174.05387341976166
30
0
10
-80.953095145523548
20
-174.37035739421844
30
0
10
-81.199249215424061
20
-174.67805087566376
30
0
0
SPLINE
5
441
100
AcDbEntity
8
0
100
AcDbSpline
70
0
71
2
72
6
73
3
74
0
42
0.000000001
43
0.0000000001
44
0.0000000001
40
0
40
0
40
0
40
1
40
1
40
1
10
-81.199249215424061
20
-174.67805087566376
30
0
10
-81.564084477722645
20
-175.13958871364594
30
0
10
-82.043204493820667
20
-175.63189685344696
30
0
0
SPLINE
5
442
100
AcDbEntity
8
0
100
AcDbSpline
70
0
71
2
72
6
73
3
74
0
42
0.000000001
43
0.0000000001
44
0.0000000001
40
0
40
0
40
0
40
1
40
1
40
1
10
-82.043204493820667
20
-175.63189685344696
30
0
10
-82.500348277390003
20
-176.09783113002777
30
0
10
-83.142106719315052
20
-176.67805135250092
30
0
0
LINE
5
443
100
AcDbEntity
8
0
100
AcDbLine
10
-83.142106719315052
20
-176.67805135250092
30
0
11
-82.658589072525501
21
-176.68244540691376
31
0
0
SPLINE
5
444
100
AcDbEntity
8
0
100
AcDbSpline
70
0
71
2
72
6
73
3
74
0
42
0.000000001
43
0.0000000001
44
0.0000000001
40
0
40
0
40
0
40
1
40
1
40
1
10
-82.658589072525501
20
-176.68244540691376
30
0
10
-82.487161345779896
20
-176.68244540691376
30
0
10
-81.979468055069447
20
-176.67365491390228
30
0
0
SPLINE
5
445
100
AcDbEntity
8
0
100
AcDbSpline
70
0
71
2
72
6
73
3
74
0
42
0.000000001
43
0.0000000001
44
0.0000000001
40
0
40
0
40
0
40
1
40
1
40
1
10
-81.979468055069447
20
-176.67365491390228
30
0
10
-81.471775956451893
20
-176.66486442089081
30
0
10
-81.273974366486073
20
-176.65607154369354
30
0
0
SPLINE
5
446
100
AcDbEntity
8
0
100
AcDbSpline
70
0
71
2
72
6
73
3
74
0
42
0.000000001
43
0.0000000001
44
0.0000000001
40
0
40
0
40
0
40
1
40
1
40
1
10
-81.273974366486073
20
-176.65607154369354
30
0
10
-81.076171584427357
20
-176.64728105068207
30
0
10
-80.786061473190784
20
-176.61651313304901
30
0
0
SPLINE
5
447
100
AcDbEntity
8
0
100
AcDbSpline
70
0
71
2
72
6
73
3
74
0
42
0.000000001
43
0.0000000001
44
0.0000000001
40
0
40
0
40
0
40
1
40
1
40
1
10
-80.786061473190784
20
-176.61651313304901
30
0
10
-80.799248404800892
20
-176.82750165462494
30
0
10
-80.827820487320423
20
-177.14398562908173
30
0
0
SPLINE
5
448
100
AcDbEntity
8
0
100
AcDbSpline
70
0
71
2
72
6
73
3
74
0
42
0.000000001
43
0.0000000001
44
0.0000000001
40
0
40
0
40
0
40
1
40
1
40
1
10
-80.827820487320423
20
-177.14398562908173
30
0
10
-80.856392569839954
20
-177.46046721935272
30
0
10
-80.887160487473011
20
-177.91761100292206
30
0
0
SPLINE
5
449
100
AcDbEntity
8
0
100
AcDbSpline
70
0
71
2
72
6
73
3
74
0
42
0.000000001
43
0.0000000001
44
0.0000000001
40
0
40
0
40
0
40
1
40
1
40
1
10
-80.887160487473011
20
-177.91761100292206
30
0
10
-81.981666274368763
20
-177.90882050991058
30
0
10
-83.177271075546741
20
-177.90882050991058
30
0
0
SPLINE
5
450
100
AcDbEntity
8
0
100
AcDbSpline
70
0
71
2
72
6
73
3
74
0
42
0.000000001
43
0.0000000001
44
0.0000000001
40
0
40
0
40
0
40
1
40
1
40
1
10
-83.177271075546741
20
-177.90882050991058
30
0
10
-84.619029946625233
20
-177.90882050991058
30
0
10
-85.616831965744495
20
-177.91761100292206
30
0
0
SPLINE
5
451
100
AcDbEntity
8
0
100
AcDbSpline
70
0
71
2
72
6
73
3
74
0
42
0.000000001
43
0.0000000001
44
0.0000000001
40
0
40
0
40
0
40
1
40
1
40
1
10
-76.997049041092396
20
-171.80332481861115
30
0
10
-76.289358325302601
20
-171.80332481861115
30
0
10
-75.720126815140247
20
-172.08024799823761
30
0
0
SPLINE
5
452
100
AcDbEntity
8
0
100
AcDbSpline
70
0
71
2
72
6
73
3
74
0
42
0.000000001
43
0.0000000001
44
0.0000000001
40
0
40
0
40
0
40
1
40
1
40
1
10
-75.720126815140247
20
-172.08024799823761
30
0
10
-75.150897689163685
20
-172.35717117786407
30
0
10
-74.832215495407581
20
-173.02750051021576
30
0
0
SPLINE
5
453
100
AcDbEntity
8
0
100
AcDbSpline
70
0
71
2
72
6
73
3
74
0
42
0.000000001
43
0.0000000001
44
0.0000000001
40
0
40
0
40
0
40
1
40
1
40
1
10
-74.832215495407581
20
-173.02750051021576
30
0
10
-74.513533301651478
20
-173.69783103466034
30
0
10
-74.513533301651478
20
-174.60771977901459
30
0
0
SPLINE
5
454
100
AcDbEntity
8
0
100
AcDbSpline
70
0
71
2
72
6
73
3
74
0
42
0.000000001
43
0.0000000001
44
0.0000000001
40
0
40
0
40
0
40
1
40
1
40
1
10
-74.513533301651478
20
-174.60771977901459
30
0
10
-74.513533301651478
20
-175.31980931758881
30
0
10
-74.709139056503773
20
-176.01870954036713
30
0
0
SPLINE
5
455
100
AcDbEntity
8
0
100
AcDbSpline
70
0
71
2
72
6
73
3
74
0
42
0.000000001
43
0.0000000001
44
0.0000000001
40
0
40
0
40
0
40
1
40
1
40
1
10
-74.709139056503773
20
-176.01870954036713
30
0
10
-74.904742427170277
20
-176.71760976314545
30
0
10
-75.241005606949329
20
-177.14178740978241
30
0
0
SPLINE
5
456
100
AcDbEntity
8
0
100
AcDbSpline
70
0
71
2
72
6
73
3
74
0
42
0.000000001
43
0.0000000001
44
0.0000000001
40
0
40
0
40
0
40
1
40
1
40
1
10
-75.241005606949329
20
-177.14178740978241
30
0
10
-75.577271170914173
20
-177.56596267223358
30
0
10
-76.12672109156847
20
-177.79892861843109
30
0
0
SPLINE
5
457
100
AcDbEntity
8
0
100
AcDbSpline
70
0
71
2
72
6
73
3
74
0
42
0.000000001
43
0.0000000001
44
0.0000000001
40
0
40
0
40
0
40
1
40
1
40
1
10
-76.12672109156847
20
-177.79892861843109
30
0
10
-76.676171012222767
20
-178.03189694881439
30
0
10
-77.300346083939075
20
-178.03189694881439
30
0
0
SPLINE
5
458
100
AcDbEntity
8
0
100
AcDbSpline
70
0
71
2
72
6
73
3
74
0
42
0.000000001
43
0.0000000001
44
0.0000000001
40
0
40
0
40
0
40
1
40
1
40
1
10
-77.300346083939075
20
-178.03189694881439
30
0
10
-77.832215018570423
20
-178.03189694881439
30
0
10
-78.298149295151234
20
-177.86046922206879
30
0
0
SPLINE
5
459
100
AcDbEntity
8
0
100
AcDbSpline
70
0
71
2
72
6
73
3
74
0
42
0.000000001
43
0.0000000001
44
0.0000000001
40
0
40
0
40
0
40
1
40
1
40
1
10
-78.298149295151234
20
-177.86046922206879
30
0
10
-78.764083571732044
20
-177.68903911113739
30
0
10
-79.115731902420521
20
-177.30222642421722
30
0
0
SPLINE
5
460
100
AcDbEntity
8
0
100
AcDbSpline
70
0
71
2
72
6
73
3
74
0
42
0.000000001
43
0.0000000001
44
0.0000000001
40
0
40
0
40
0
40
1
40
1
40
1
10
-79.115731902420521
20
-177.30222642421722
30
0
10
-79.467380233108997
20
-176.91541373729706
30
0
10
-79.608040042221546
20
-176.38574302196503
30
0
0
SPLINE
5
461
100
AcDbEntity
8
0
100
AcDbSpline
70
0
71
2
72
6
73
3
74
0
42
0.000000001
43
0.0000000001
44
0.0000000001
40
0
40
0
40
0
40
1
40
1
40
1
10
-79.608040042221546
20
-176.38574302196503
30
0
10
-79.748699851334095
20
-175.856072306633
30
0
10
-79.748699851334095
20
-175.25387465953827
30
0
0
SPLINE
5
462
100
AcDbEntity
8
0
100
AcDbSpline
70
0
71
2
72
6
73
3
74
0
42
0.000000001
43
0.0000000001
44
0.0000000001
40
0
40
0
40
0
40
1
40
1
40
1
10
-79.748699851334095
20
-175.25387465953827
30
0
10
-79.748699851334095
20
-174.5242041349411
30
0
10
-79.5530940964818
20
-173.82090747356415
30
0
0
SPLINE
5
463
100
AcDbEntity
8
0
100
AcDbSpline
70
0
71
2
72
6
73
3
74
0
42
0.000000001
43
0.0000000001
44
0.0000000001
40
0
40
0
40
0
40
1
40
1
40
1
10
-79.5530940964818
20
-173.82090747356415
30
0
10
-79.357490725815296
20
-173.11761081218719
30
0
10
-79.00584239512682
20
-172.67365396022797
30
0
0
SPLINE
5
464
100
AcDbEntity
8
0
100
AcDbSpline
70
0
71
2
72
6
73
3
74
0
42
0.000000001
43
0.0000000001
44
0.0000000001
40
0
40
0
40
0
40
1
40
1
40
1
10
-79.00584239512682
20
-172.67365396022797
30
0
10
-78.654194064438343
20
-172.22969949245453
30
0
10
-78.122325129806995
20
-172.01651155948639
30
0
0
SPLINE
5
465
100
AcDbEntity
8
0
100
AcDbSpline
70
0
71
2
72
6
73
3
74
0
42
0.000000001
43
0.0000000001
44
0.0000000001
40
0
40
0
40
0
40
1
40
1
40
1
10
-78.122325129806995
20
-172.01651155948639
30
0
10
-77.590458579361439
20
-171.80332481861115
30
0
10
-76.997049041092396
20
-171.80332481861115
30
0
0
SPLINE
5
466
100
AcDbEntity
8
0
100
AcDbSpline
70
0
71
2
72
6
73
3
74
0
42
0.000000001
43
0.0000000001
44
0.0000000001
40
0
40
0
40
0
40
1
40
1
40
1
10
-77.027819342911243
20
-173.10442388057709
30
0
10
-77.234413810074329
20
-173.10442388057709
30
0
10
-77.39705104380846
20
-173.2275003194809
30
0
0
SPLINE
5
467
100
AcDbEntity
8
0
100
AcDbSpline
70
0
71
2
72
6
73
3
74
0
42
0.000000001
43
0.0000000001
44
0.0000000001
40
0
40
0
40
0
40
1
40
1
40
1
10
-77.39705104380846
20
-173.2275003194809
30
0
10
-77.594852633774281
20
-173.37695062160492
30
0
10
-77.709138579666615
20
-173.63629281520844
30
0
0
SPLINE
5
468
100
AcDbEntity
8
0
100
AcDbSpline
70
0
71
2
72
6
73
3
74
0
42
0.000000001
43
0.0000000001
44
0.0000000001
40
0
40
0
40
0
40
1
40
1
40
1
10
-77.709138579666615
20
-173.63629281520844
30
0
10
-77.849798388779163
20
-173.94838035106659
30
0
10
-77.920127101242542
20
-174.3527764081955
30
0
0
SPLINE
5
469
100
AcDbEntity
8
0
100
AcDbSpline
70
0
71
2
72
6
73
3
74
0
42
0.000000001
43
0.0000000001
44
0.0000000001
40
0
40
0
40
0
40
1
40
1
40
1
10
-77.920127101242542
20
-174.3527764081955
30
0
10
-77.999248690903187
20
-174.79673087596893
30
0
10
-77.999248690903187
20
-175.32859981060028
30
0
0
SPLINE
5
470
100
AcDbEntity
8
0
100
AcDbSpline
70
0
71
2
72
6
73
3
74
0
42
0.000000001
43
0.0000000001
44
0.0000000001
40
0
40
0
40
0
40
1
40
1
40
1
10
-77.999248690903187
20
-175.32859981060028
30
0
10
-77.999248690903187
20
-175.79453408718109
30
0
10
-77.911336608231068
20
-176.10002934932709
30
0
0
SPLINE
5
471
100
AcDbEntity
8
0
100
AcDbSpline
70
0
71
2
72
6
73
3
74
0
42
0.000000001
43
0.0000000001
44
0.0000000001
40
0
40
0
40
0
40
1
40
1
40
1
10
-77.911336608231068
20
-176.10002934932709
30
0
10
-77.823424525558949
20
-176.40552222728729
30
0
10
-77.645402140915394
20
-176.57255589962006
30
0
0
SPLINE
5
472
100
AcDbEntity
8
0
100
AcDbSpline
70
0
71
2
72
6
73
3
74
0
42
0.000000001
43
0.0000000001
44
0.0000000001
40
0
40
0
40
0
40
1
40
1
40
1
10
-77.645402140915394
20
-176.57255589962006
30
0
10
-77.467379756271839
20
-176.73958957195282
30
0
10
-77.230017371475697
20
-176.73958957195282
30
0
0
SPLINE
5
473
100
AcDbEntity
8
0
100
AcDbSpline
70
0
71
2
72
6
73
3
74
0
42
0.000000001
43
0.0000000001
44
0.0000000001
40
0
40
0
40
0
40
1
40
1
40
1
10
-77.230017371475697
20
-176.73958957195282
30
0
10
-77.098148055374622
20
-176.73958957195282
30
0
10
-76.972873397171497
20
-176.68244540691376
30
0
0
SPLINE
5
474
100
AcDbEntity
8
0
100
AcDbSpline
70
0
71
2
72
6
73
3
74
0
42
0.000000001
43
0.0000000001
44
0.0000000001
40
0
40
0
40
0
40
1
40
1
40
1
10
-76.972873397171497
20
-176.68244540691376
30
0
10
-76.847598738968372
20
-176.62530362606049
30
0
10
-76.709139533340931
20
-176.45387351512909
30
0
0
SPLINE
5
475
100
AcDbEntity
8
0
100
AcDbSpline
70
0
71
2
72
6
73
3
74
0
42
0.000000001
43
0.0000000001
44
0.0000000001
40
0
40
0
40
0
40
1
40
1
40
1
10
-76.709139533340931
20
-176.45387351512909
30
0
10
-76.570675559341908
20
-176.28244578838348
30
0
10
-76.465182490646839
20
-175.96156775951385
30
0
0
SPLINE
5
476
100
AcDbEntity
8
0
100
AcDbSpline
70
0
71
2
72
6
73
3
74
0
42
0.000000001
43
0.0000000001
44
0.0000000001
40
0
40
0
40
0
40
1
40
1
40
1
10
-76.465182490646839
20
-175.96156775951385
30
0
10
-76.359689421951771
20
-175.64068734645844
30
0
10
-76.311335749924183
20
-175.29123723506927
30
0
0
SPLINE
5
477
100
AcDbEntity
8
0
100
AcDbSpline
70
0
71
2
72
6
73
3
74
0
42
0.000000001
43
0.0000000001
44
0.0000000001
40
0
40
0
40
0
40
1
40
1
40
1
10
-76.311335749924183
20
-175.29123723506927
30
0
10
-76.262984462082386
20
-174.94178712368011
30
0
10
-76.262984462082386
20
-174.58134591579437
30
0
0
SPLINE
5
478
100
AcDbEntity
8
0
100
AcDbSpline
70
0
71
2
72
6
73
3
74
0
42
0.000000001
43
0.0000000001
44
0.0000000001
40
0
40
0
40
0
40
1
40
1
40
1
10
-76.262984462082386
20
-174.58134591579437
30
0
10
-76.262984462082386
20
-173.83409440517426
30
0
10
-76.469576545059681
20
-173.46925914287567
30
0
0
SPLINE
5
479
100
AcDbEntity
8
0
100
AcDbSpline
70
0
71
2
72
6
73
3
74
0
42
0.000000001
43
0.0000000001
44
0.0000000001
40
0
40
0
40
0
40
1
40
1
40
1
10
-76.469576545059681
20
-173.46925914287567
30
0
10
-76.676171012222767
20
-173.10442388057709
30
0
10
-77.027819342911243
20
-173.10442388057709
30
0
0
SPLINE
5
480
100
AcDbEntity
8
0
100
AcDbSpline
70
0
71
2
72
6
73
3
74
0
42
0.000000001
43
0.0000000001
44
0.0000000001
40
0
40
0
40
0
40
1
40
1
40
1
10
-73.889358229935169
20
-177.91761100292206
30
0
10
-73.87177724391222
20
-177.71122395992279
30
0
10
-73.860786147415638
20
-177.37083852291107
30
0
0
SPLINE
5
481
100
AcDbEntity
8
0
100
AcDbSpline
70
0
71
2
72
6
73
3
74
0
42
0.000000001
43
0.0000000001
44
0.0000000001
40
0
40
0
40
0
40
1
40
1
40
1
10
-73.860786147415638
20
-177.37083852291107
30
0
10
-73.849797435104847
20
-177.03045547008514
30
0
10
-73.832214064896107
20
-176.67475402355194
30
0
0
SPLINE
5
482
100
AcDbEntity
8
0
100
AcDbSpline
70
0
71
2
72
6
73
3
74
0
42
0.000000001
43
0.0000000001
44
0.0000000001
40
0
40
0
40
0
40
1
40
1
40
1
10
-73.832214064896107
20
-176.67475402355194
30
0
10
-73.375072665512562
20
-176.300989985466
30
0
10
-72.992656417191029
20
-175.94927251338959
30
0
0
SPLINE
5
483
100
AcDbEntity
8
0
100
AcDbSpline
70
0
71
2
72
6
73
3
74
0
42
0.000000001
43
0.0000000001
44
0.0000000001
40
0
40
0
40
0
40
1
40
1
40
1
10
-72.992656417191029
20
-175.94927251338959
30
0
10
-72.372873015701771
20
-175.37763774394989
30
0
10
-71.893754191696644
20
-174.87640082836151
30
0
0
SPLINE
5
484
100
AcDbEntity
8
0
100
AcDbSpline
70
0
71
2
72
6
73
3
74
0
42
0.000000001
43
0.0000000001
44
0.0000000001
40
0
40
0
40
0
40
1
40
1
40
1
10
-71.893754191696644
20
-174.87640082836151
30
0
10
-71.51133555918932
20
-174.47626531124115
30
0
10
-71.251995749771595
20
-174.14212882518768
30
0
0
SPLINE
5
485
100
AcDbEntity
8
0
100
AcDbSpline
70
0
71
2
72
6
73
3
74
0
42
0.000000001
43
0.0000000001
44
0.0000000001
40
0
40
0
40
0
40
1
40
1
40
1
10
-71.251995749771595
20
-174.14212882518768
30
0
10
-71.102545447647572
20
-173.94425809383392
30
0
10
-71.054194159805775
20
-173.8123220205307
30
0
0
SPLINE
5
486
100
AcDbEntity
8
0
100
AcDbSpline
70
0
71
2
72
6
73
3
74
0
42
0.000000001
43
0.0000000001
44
0.0000000001
40
0
40
0
40
0
40
1
40
1
40
1
10
-71.054194159805775
20
-173.8123220205307
30
0
10
-71.019027419388294
20
-173.72001349925995
30
0
10
-71.019027419388294
20
-173.62324178218842
30
0
0
SPLINE
5
487
100
AcDbEntity
8
0
100
AcDbSpline
70
0
71
2
72
6
73
3
74
0
42
0.000000001
43
0.0000000001
44
0.0000000001
40
0
40
0
40
0
40
1
40
1
40
1
10
-71.019027419388294
20
-173.62324178218842
30
0
10
-71.019027419388294
20
-173.49577128887177
30
0
10
-71.076171584427357
20
-173.40122878551483
30
0
0
SPLINE
5
488
100
AcDbEntity
8
0
100
AcDbSpline
70
0
71
2
72
6
73
3
74
0
42
0.000000001
43
0.0000000001
44
0.0000000001
40
0
40
0
40
0
40
1
40
1
40
1
10
-71.076171584427357
20
-173.40122878551483
30
0
10
-71.133313365280628
20
-173.30669105052948
30
0
10
-71.256392188370228
20
-173.24072062969208
30
0
0
SPLINE
5
489
100
AcDbEntity
8
0
100
AcDbSpline
70
0
71
2
72
6
73
3
74
0
42
0.000000001
43
0.0000000001
44
0.0000000001
40
0
40
0
40
0
40
1
40
1
40
1
10
-71.256392188370228
20
-173.24072062969208
30
0
10
-71.379468627274036
20
-173.17475259304047
30
0
10
-71.555292792618275
20
-173.13519179821014
30
0
0
SPLINE
5
490
100
AcDbEntity
8
0
100
AcDbSpline
70
0
71
2
72
6
73
3
74
0
42
0.000000001
43
0.0000000001
44
0.0000000001
40
0
40
0
40
0
40
1
40
1
40
1
10
-71.555292792618275
20
-173.13519179821014
30
0
10
-71.731116957962513
20
-173.09563338756561
30
0
10
-71.955292411148548
20
-173.09563338756561
30
0
0
SPLINE
5
491
100
AcDbEntity
8
0
100
AcDbSpline
70
0
71
2
72
6
73
3
74
0
42
0.000000001
43
0.0000000001
44
0.0000000001
40
0
40
0
40
0
40
1
40
1
40
1
10
-71.955292411148548
20
-173.09563338756561
30
0
10
-72.262985892593861
20
-173.09563338756561
30
0
10
-72.603643126785755
20
-173.14838111400604
30
0
0
SPLINE
5
492
100
AcDbEntity
8
0
100
AcDbSpline
70
0
71
2
72
6
73
3
74
0
42
0.000000001
43
0.0000000001
44
0.0000000001
40
0
40
0
40
0
40
1
40
1
40
1
10
-72.603643126785755
20
-173.14838111400604
30
0
10
-72.944302745163441
20
-173.20112645626068
30
0
10
-73.53331346064806
20
-173.3505767583847
30
0
0
LINE
5
493
100
AcDbEntity
8
0
100
AcDbLine
10
-73.533313460648046
20
-173.3505767583847
30
0
11
-73.419029898941517
21
-172.72200644016266
31
0
0
SPLINE
5
494
100
AcDbEntity
8
0
100
AcDbSpline
70
0
71
2
72
6
73
3
74
0
42
0.000000001
43
0.0000000001
44
0.0000000001
40
0
40
0
40
0
40
1
40
1
40
1
10
-73.419029898941517
20
-172.72200644016266
30
0
10
-73.379466719925404
20
-172.53299534320831
30
0
10
-73.304741568863392
20
-171.99673116207123
30
0
0
SPLINE
5
495
100
AcDbEntity
8
0
100
AcDbSpline
70
0
71
2
72
6
73
3
74
0
42
0.000000001
43
0.0000000001
44
0.0000000001
40
0
40
0
40
0
40
1
40
1
40
1
10
-73.304741568863392
20
-171.99673116207123
30
0
10
-72.148697562515736
20
-171.80332481861115
30
0
10
-71.137709803879261
20
-171.80332481861115
30
0
0
SPLINE
5
496
100
AcDbEntity
8
0
100
AcDbSpline
70
0
71
2
72
6
73
3
74
0
42
0.000000001
43
0.0000000001
44
0.0000000001
40
0
40
0
40
0
40
1
40
1
40
1
10
-71.137709803879261
20
-171.80332481861115
30
0
10
-70.676171965897083
20
-171.80332481861115
30
0
10
-70.254192538559437
20
-171.88684165477753
30
0
0
SPLINE
5
497
100
AcDbEntity
8
0
100
AcDbSpline
70
0
71
2
72
6
73
3
74
0
42
0.000000001
43
0.0000000001
44
0.0000000001
40
0
40
0
40
0
40
1
40
1
40
1
10
-70.254192538559437
20
-171.88684165477753
30
0
10
-69.832215495407581
20
-171.97035729885101
30
0
10
-69.498150534927845
20
-172.17035710811615
30
0
0
SPLINE
5
498
100
AcDbEntity
8
0
100
AcDbSpline
70
0
71
2
72
6
73
3
74
0
42
0.000000001
43
0.0000000001
44
0.0000000001
40
0
40
0
40
0
40
1
40
1
40
1
10
-69.498150534927845
20
-172.17035710811615
30
0
10
-69.164083190262318
20
-172.37035691738129
30
0
10
-68.997049517929554
20
-172.63629138469696
30
0
0
SPLINE
5
499
100
AcDbEntity
8
0
100
AcDbSpline
70
0
71
2
72
6
73
3
74
0
42
0.000000001
43
0.0000000001
44
0.0000000001
40
0
40
0
40
0
40
1
40
1
40
1
10
-68.997049517929554
20
-172.63629138469696
30
0
10
-68.83001584559679
20
-172.90222585201263
30
0
10
-68.83001584559679
20
-173.20991694927216
30
0
0
SPLINE
5
500
100
AcDbEntity
8
0
100
AcDbSpline
70
0
71
2
72
6
73
3
74
0
42
0.000000001
43
0.0000000001
44
0.0000000001
40
0
40
0
40
0
40
1
40
1
40
1
10
-68.83001584559679
20
-173.20991694927216
30
0
10
-68.83001584559679
20
-173.41211497783661
30
0
10
-68.878369517624378
20
-173.60991895198822
30
0
0
SPLINE
5
501
100
AcDbEntity
8
0
100
AcDbSpline
70
0
71
2
72
6
73
3
74
0
42
0.000000001
43
0.0000000001
44
0.0000000001
40
0
40
0
40
0
40
1
40
1
40
1
10
-68.878369517624378
20
-173.60991895198822
30
0
10
-68.926720805466175
20
-173.79893004894257
30
0
10
-69.058587737381458
20
-174.05387341976166
30
0
0
SPLINE
5
502
100
AcDbEntity
8
0
100
AcDbSpline
70
0
71
2
72
6
73
3
74
0
42
0.000000001
43
0.0000000001
44
0.0000000001
40
0
40
0
40
0
40
1
40
1
40
1
10
-69.058587737381458
20
-174.05387341976166
30
0
10
-69.225621409714222
20
-174.37035739421844
30
0
10
-69.47177667170763
20
-174.67805087566376
30
0
0
SPLINE
5
503
100
AcDbEntity
8
0
100
AcDbSpline
70
0
71
2
72
6
73
3
74
0
42
0.000000001
43
0.0000000001
44
0.0000000001
40
0
40
0
40
0
40
1
40
1
40
1
10
-69.47177667170763
20
-174.67805087566376
30
0
10
-69.836609549820423
20
-175.13958871364594
30
0
10
-70.315730758011341
20
-175.63189685344696
30
0
0
SPLINE
5
504
100
AcDbEntity
8
0
100
AcDbSpline
70
0
71
2
72
6
73
3
74
0
42
0.000000001
43
0.0000000001
44
0.0000000001
40
0
40
0
40
0
40
1
40
1
40
1
10
-70.315730758011341
20
-175.63189685344696
30
0
10
-70.772874541580677
20
-176.09783113002777
30
0
10
-71.414632983505726
20
-176.67805135250092
30
0
0
LINE
5
505
100
AcDbEntity
8
0
100
AcDbLine
10
-71.41463298350574
20
-176.67805135250092
30
0
11
-70.931117720901966
21
-176.68244540691376
31
0
0
SPLINE
5
506
100
AcDbEntity
8
0
100
AcDbSpline
70
0
71
2
72
6
73
3
74
0
42
0.000000001
43
0.0000000001
44
0.0000000001
40
0
40
0
40
0
40
1
40
1
40
1
10
-70.931117720901966
20
-176.68244540691376
30
0
10
-70.75968760997057
20
-176.68244540691376
30
0
10
-70.251996703445911
20
-176.67365491390228
30
0
0
SPLINE
5
507
100
AcDbEntity
8
0
100
AcDbSpline
70
0
71
2
72
6
73
3
74
0
42
0.000000001
43
0.0000000001
44
0.0000000001
40
0
40
0
40
0
40
1
40
1
40
1
10
-70.251996703445911
20
-176.67365491390228
30
0
10
-69.744303412735462
20
-176.66486442089081
30
0
10
-69.546501822769642
20
-176.65607154369354
30
0
0
SPLINE
5
508
100
AcDbEntity
8
0
100
AcDbSpline
70
0
71
2
72
6
73
3
74
0
42
0.000000001
43
0.0000000001
44
0.0000000001
40
0
40
0
40
0
40
1
40
1
40
1
10
-69.546501822769642
20
-176.65607154369354
30
0
10
-69.348697848618031
20
-176.64728105068207
30
0
10
-69.058587737381458
20
-176.61651313304901
30
0
0
SPLINE
5
509
100
AcDbEntity
8
0
100
AcDbSpline
70
0
71
2
72
6
73
3
74
0
42
0.000000001
43
0.0000000001
44
0.0000000001
40
0
40
0
40
0
40
1
40
1
40
1
10
-69.058587737381458
20
-176.61651313304901
30
0
10
-69.071774668991566
20
-176.82750165462494
30
0
10
-69.100346751511097
20
-177.14398562908173
30
0
0
SPLINE
5
510
100
AcDbEntity
8
0
100
AcDbSpline
70
0
71
2
72
6
73
3
74
0
42
0.000000001
43
0.0000000001
44
0.0000000001
40
0
40
0
40
0
40
1
40
1
40
1
10
-69.100346751511097
20
-177.14398562908173
30
0
10
-69.128918834030628
20
-177.46046721935272
30
0
10
-69.159686751663685
20
-177.91761100292206
30
0
0
SPLINE
5
511
100
AcDbEntity
8
0
100
AcDbSpline
70
0
71
2
72
6
73
3
74
0
42
0.000000001
43
0.0000000001
44
0.0000000001
40
0
40
0
40
0
40
1
40
1
40
1
10
-69.159686751663685
20
-177.91761100292206
30
0
10
-70.254192538559437
20
-177.90882050991058
30
0
10
-71.449797339737415
20
-177.90882050991058
30
0
0
SPLINE
5
512
100
AcDbEntity
8
0
100
AcDbSpline
70
0
71
2
72
6
73
3
74
0
42
0.000000001
43
0.0000000001
44
0.0000000001
40
0
40
0
40
0
40
1
40
1
40
1
10
-71.449797339737415
20
-177.90882050991058
30
0
10
-72.891557402908802
20
-177.90882050991058
30
0
10
-73.889358229935169
20
-177.91761100292206
30
0
0
SPLINE
5
513
100
AcDbEntity
8
0
100
AcDbSpline
70
0
71
2
72
6
73
3
74
0
42
0.000000001
43
0.0000000001
44
0.0000000001
40
0
40
0
40
0
40
1
40
1
40
1
10
-65.651993937790394
20
-177.91761100292206
30
0
10
-65.611746497452259
20
-177.52640187740326
30
0
10
-65.580394454300404
20
-177.08684146404266
30
0
0
SPLINE
5
514
100
AcDbEntity
8
0
100
AcDbSpline
70
0
71
2
72
6
73
3
74
0
42
0.000000001
43
0.0000000001
44
0.0000000001
40
0
40
0
40
0
40
1
40
1
40
1
10
-65.580394454300404
20
-177.08684146404266
30
0
10
-65.549040026962757
20
-176.64728105068207
30
0
10
-65.535648055374622
20
-176.38794124126434
30
0
0
LINE
5
515
100
AcDbEntity
8
0
100
AcDbLine
10
-65.535648055374622
20
-176.38794124126434
30
0
11
-66.015181727707386
21
-176.39233529567719
31
0
0
LINE
5
516
100
AcDbEntity
8
0
100
AcDbLine
10
-66.015181727707386
20
-176.39233529567719
30
0
11
-66.375897116959095
21
-176.39233529567719
31
0
0
LINE
5
517
100
AcDbEntity
8
0
100
AcDbLine
10
-66.375897116959095
20
-176.39233529567719
30
0
11
-68.030016608536243
21
-176.4187091588974
31
0
0
LINE
5
518
100
AcDbEntity
8
0
100
AcDbLine
10
-68.030016608536243
20
-176.4187091588974
30
0
11
-68.016829676926136
21
-176.28244578838348
31
0
0
SPLINE
5
519
100
AcDbEntity
8
0
100
AcDbSpline
70
0
71
2
72
6
73
3
74
0
42
0.000000001
43
0.0000000001
44
0.0000000001
40
0
40
0
40
0
40
1
40
1
40
1
10
-68.016829676926136
20
-176.28244578838348
30
0
10
-68.012435622513294
20
-176.23409450054169
30
0
10
-68.003642745316029
20
-175.99673211574554
30
0
0
LINE
5
520
100
AcDbEntity
8
0
100
AcDbLine
10
-68.003642745316029
20
-175.99673211574554
30
0
11
-67.968478389084339
21
-175.16156613826752
31
0
0
SPLINE
5
521
100
AcDbEntity
8
0
100
AcDbSpline
70
0
71
2
72
6
73
3
74
0
42
0.000000001
43
0.0000000001
44
0.0000000001
40
0
40
0
40
0
40
1
40
1
40
1
10
-67.968478389084339
20
-175.16156613826752
30
0
10
-67.964081950485706
20
-175.04728019237518
30
0
10
-67.964081950485706
20
-174.91980969905853
30
0
0
SPLINE
5
522
100
AcDbEntity
8
0
100
AcDbSpline
70
0
71
2
72
6
73
3
74
0
42
0.000000001
43
0.0000000001
44
0.0000000001
40
0
40
0
40
0
40
1
40
1
40
1
10
-67.964081950485706
20
-174.91980969905853
30
0
10
-67.516143508255482
20
-174.37915027141571
30
0
10
-66.929810233414173
20
-173.57255637645721
30
0
0
SPLINE
5
523
100
AcDbEntity
8
0
100
AcDbSpline
70
0
71
2
72
6
73
3
74
0
42
0.000000001
43
0.0000000001
44
0.0000000001
40
0
40
0
40
0
40
1
40
1
40
1
10
-66.929810233414173
20
-173.57255637645721
30
0
10
-66.343476958572865
20
-172.76596248149872
30
0
10
-65.812089629471302
20
-171.91761076450348
30
0
0
SPLINE
5
524
100
AcDbEntity
8
0
100
AcDbSpline
70
0
71
2
72
6
73
3
74
0
42
0.000000001
43
0.0000000001
44
0.0000000001
40
0
40
0
40
0
40
1
40
1
40
1
10
-65.812089629471302
20
-171.91761076450348
30
0
10
-65.13461846858263
20
-171.92640244960785
30
0
10
-64.593477435410023
20
-171.92640244960785
30
0
0
SPLINE
5
525
100
AcDbEntity
8
0
100
AcDbSpline
70
0
71
2
72
6
73
3
74
0
42
0.000000001
43
0.0000000001
44
0.0000000001
40
0
40
0
40
0
40
1
40
1
40
1
10
-64.593477435410023
20
-171.92640244960785
30
0
10
-64.083175845444202
20
-171.92640244960785
30
0
10
-63.546500392258167
20
-171.91761076450348
30
0
0
SPLINE
5
526
100
AcDbEntity
8
0
100
AcDbSpline
70
0
71
2
72
6
73
3
74
0
42
0.000000001
43
0.0000000001
44
0.0000000001
40
0
40
0
40
0
40
1
40
1
40
1
10
-63.546500392258167
20
-171.91761076450348
30
0
10
-63.620469756424427
20
-172.849480509758
30
0
10
-63.661780543625355
20
-173.73958766460419
30
0
0
SPLINE
5
527
100
AcDbEntity
8
0
100
AcDbSpline
70
0
71
2
72
6
73
3
74
0
42
0.000000001
43
0.0000000001
44
0.0000000001
40
0
40
0
40
0
40
1
40
1
40
1
10
-63.661780543625355
20
-173.73958766460419
30
0
10
-63.703093715012074
20
-174.62969958782196
30
0
10
-63.707421012222767
20
-175.08684098720551
30
0
0
SPLINE
5
528
100
AcDbEntity
8
0
100
AcDbSpline
70
0
71
2
72
6
73
3
74
0
42
0.000000001
43
0.0000000001
44
0.0000000001
40
0
40
0
40
0
40
1
40
1
40
1
10
-63.707421012222767
20
-175.08684098720551
30
0
10
-63.496842570602894
20
-175.09563386440277
30
0
10
-63.21161050349474
20
-175.09563386440277
30
0
0
SPLINE
5
529
100
AcDbEntity
8
0
100
AcDbSpline
70
0
71
2
72
6
73
3
74
0
42
0.000000001
43
0.0000000001
44
0.0000000001
40
0
40
0
40
0
40
1
40
1
40
1
10
-63.21161050349474
20
-175.09563386440277
30
0
10
-62.987845130264759
20
-175.09563386440277
30
0
10
-62.952749915421009
20
-175.09343564510345
30
0
0
SPLINE
5
530
100
AcDbEntity
8
0
100
AcDbSpline
70
0
71
2
72
6
73
3
74
0
42
0.000000001
43
0.0000000001
44
0.0000000001
40
0
40
0
40
0
40
1
40
1
40
1
10
-62.952749915421009
20
-175.09343564510345
30
0
10
-62.917652316391468
20
-175.09123742580414
30
0
10
-62.78166551142931
20
-175.08244693279266
30
0
0
SPLINE
5
531
100
AcDbEntity
8
0
100
AcDbSpline
70
0
71
2
72
6
73
3
74
0
42
0.000000001
43
0.0000000001
44
0.0000000001
40
0
40
0
40
0
40
1
40
1
40
1
10
-62.78166551142931
20
-175.08244693279266
30
0
10
-62.799246497452259
20
-175.60991942882538
30
0
10
-62.799246497452259
20
-176.19453370571136
30
0
0
LINE
5
532
100
AcDbEntity
8
0
100
AcDbLine
10
-62.799246497452259
20
-176.19453370571139
30
0
11
-62.799246497452259
21
-176.40112817287445
31
0
0
SPLINE
5
533
100
AcDbEntity
8
0
100
AcDbSpline
70
0
71
2
72
6
73
3
74
0
42
0.000000001
43
0.0000000001
44
0.0000000001
40
0
40
0
40
0
40
1
40
1
40
1
10
-62.799246497452259
20
-176.40112817287445
30
0
10
-63.062570281326771
20
-176.38354480266571
30
0
10
-63.576169200241566
20
-176.38354480266571
30
0
0
LINE
5
534
100
AcDbEntity
8
0
100
AcDbLine
10
-63.576169200241566
20
-176.38354480266571
30
0
11
-63.75611562281847
21
-176.38794124126434
31
0
0
SPLINE
5
535
100
AcDbEntity
8
0
100
AcDbSpline
70
0
71
2
72
6
73
3
74
0
42
0.000000001
43
0.0000000001
44
0.0000000001
40
0
40
0
40
0
40
1
40
1
40
1
10
-63.75611562281847
20
-176.38794124126434
30
0
10
-63.792927451431751
20
-176.81431472301483
30
0
10
-63.792927451431751
20
-177.91761100292206
30
0
0
SPLINE
5
536
100
AcDbEntity
8
0
100
AcDbSpline
70
0
71
2
72
6
73
3
74
0
42
0.000000001
43
0.0000000001
44
0.0000000001
40
0
40
0
40
0
40
1
40
1
40
1
10
-63.792927451431751
20
-177.91761100292206
30
0
10
-64.228024668991566
20
-177.90882050991058
30
0
10
-64.693889804184437
20
-177.90882050991058
30
0
0
SPLINE
5
537
100
AcDbEntity
8
0
100
AcDbSpline
70
0
71
2
72
6
73
3
74
0
42
0.000000001
43
0.0000000001
44
0.0000000001
40
0
40
0
40
0
40
1
40
1
40
1
10
-64.693889804184437
20
-177.90882050991058
30
0
10
-65.128987021744251
20
-177.90882050991058
30
0
10
-65.651993937790394
20
-177.91761100292206
30
0
0
LINE
5
538
100
AcDbEntity
8
0
100
AcDbLine
10
-65.285098738968372
20
-175.15277564525604
30
0
11
-65.190525241196156
21
-173.16884696483612
31
0
0
SPLINE
5
539
100
AcDbEntity
8
0
100
AcDbSpline
70
0
71
2
72
6
73
3
74
0
42
0.000000001
43
0.0000000001
44
0.0000000001
40
0
40
0
40
0
40
1
40
1
40
1
10
-65.190525241196156
20
-173.16884696483612
30
0
10
-65.481457896530628
20
-173.62193763256073
30
0
10
-65.666589923202991
20
-173.89027535915375
30
0
0
SPLINE
5
540
100
AcDbEntity
8
0
100
AcDbSpline
70
0
71
2
72
6
73
3
74
0
42
0.000000001
43
0.0000000001
44
0.0000000001
40
0
40
0
40
0
40
1
40
1
40
1
10
-65.666589923202991
20
-173.89027535915375
30
0
10
-65.851719565689564
20
-174.15861308574677
30
0
10
-65.935511775314808
20
-174.27296817302704
30
0
0
LINE
5
541
100
AcDbEntity
8
0
100
AcDbLine
10
-65.935511775314808
20
-174.27296817302704
30
0
11
-66.574659533798695
21
-175.15277564525604
31
0
0
LINE
5
542
100
AcDbEntity
8
0
100
AcDbLine
10
-66.574659533798695
20
-175.15277564525604
30
0
11
-65.285098738968372
21
-175.15277564525604
31
0
0
LWPOLYLINE
5
543
100
AcDbEntity
8
0
100
AcDbPolyline
90
8
70
1
43
0.0
10
-75.856087953385156
20
-68.636019614280315
10
-73.268740017398386
20
-68.636019614280315
10
-73.26874001739867
20
-73.054112776432021
10
-75.85608795338544
20
-73.054112776432021
10
-75.856087953385156
20
-72.99248871819799
10
-75.856087953385156
20
-71.763139826091873
10
-75.856087953385156
20
-69.926992564620463
10
-75.856087953385156
20
-68.697643672514204
0
LWPOLYLINE
5
544
100
AcDbEntity
8
0
100
AcDbPolyline
90
5
70
1
43
0.0
10
-69.527558195471499
20
-70.734817010067133
10
-69.527558195471499
20
-70.727349490671685
10
-69.828415245892472
20
-69.934998017784125
10
-69.835882765287352
20
-69.934998017784125
10
-70.131133501754164
20
-70.734817010067133
0
LINE
5
545
100
AcDbEntity
8
0
100
AcDbLine
10
-68.271784725614282
20
-70.738553039527687
30
0
11
-68.271784725614282
21
-71.794333175348299
31
0
0
LINE
5
546
100
AcDbEntity
8
0
100
AcDbLine
10
-68.271784725614282
20
-71.794333175348299
30
0
11
-67.905535810820368
21
-71.794333175348299
31
0
0
SPLINE
5
547
100
AcDbEntity
8
0
100
AcDbSpline
70
0
71
3
72
8
73
4
74
0
42
0.000000001
43
0.0000000001
44
0.0000000001
40
62.650999999999954
40
62.650999999999954
40
62.650999999999954
40
62.650999999999954
40
63.650999999999954
40
63.650999999999954
40
63.650999999999954
40
63.650999999999954
10
-67.905535810820368
20
-71.794333175348299
30
0
10
-67.636432741052488
20
-71.794333175348299
30
0
10
-67.455827720290529
20
-71.717115847130088
30
0
10
-67.363629958026365
20
-71.562635795439604
30
0
0
SPLINE
5
548
100
AcDbEntity
8
0
100
AcDbSpline
70
0
71
3
72
8
73
4
74
0
42
0.000000001
43
0.0000000001
44
0.0000000001
40
63.650999999999954
40
63.650999999999954
40
63.650999999999954
40
63.650999999999954
40
64.650999999999954
40
64.650999999999954
40
64.650999999999954
40
64.650999999999954
10
-67.363629958026365
20
-71.562635795439604
30
0
10
-67.302596038103673
20
-71.476679880694718
30
0
10
-67.272045031701566
20
-71.380124173981443
30
0
10
-67.272045031701566
20
-71.272945977671185
30
0
0
LINE
5
549
100
AcDbEntity
8
0
100
AcDbLine
10
-67.272045031701566
20
-71.272945977671185
30
0
11
-67.272045031701566
21
-71.259917539577202
31
0
0
SPLINE
5
550
100
AcDbEntity
8
0
100
AcDbSpline
70
0
71
3
72
8
73
4
74
0
42
0.000000001
43
0.0000000001
44
0.0000000001
40
65.224999999999966
40
65.224999999999966
40
65.224999999999966
40
65.224999999999966
40
66.224999999999966
40
66.224999999999966
40
66.224999999999966
40
66.224999999999966
10
-67.272045031701566
20
-71.259917539577202
30
0
10
-67.272045031701566
20
-71.006975180476104
30
0
10
-67.410341675097527
20
-70.837582787621614
30
0
10
-67.686889566633397
20
-70.751626872876727
30
0
0
LINE
5
551
100
AcDbEntity
8
0
100
AcDbLine
10
-67.686889566633397
20
-70.751626872876727
30
0
11
-67.884971760448423
21
-70.738553039527687
31
0
0
LINE
5
552
100
AcDbEntity
8
0
100
AcDbLine
10
-67.884971760448423
20
-70.738553039527687
30
0
11
-68.271784725614282
21
-70.738553039527687
31
0
0
SPLINE
5
553
100
AcDbEntity
8
0
100
AcDbSpline
70
0
71
3
72
8
73
4
74
0
42
0.000000001
43
0.0000000001
44
0.0000000001
40
1
40
1
40
1
40
1
40
2
40
2
40
2
40
2
10
-75.856087953385156
20
-69.926992564620463
30
0
10
-75.349840073146481
20
-69.926992564620463
30
0
10
-74.937991625022562
20
-70.33881831511664
30
0
10
-74.937991625022562
20
-70.845066195356168
30
0
0
SPLINE
5
554
100
AcDbEntity
8
0
100
AcDbSpline
70
0
71
3
72
8
73
4
74
0
42
0.000000001
43
0.0000000001
44
0.0000000001
40
2
40
2
40
2
40
2
40
3
40
3
40
3
40
3
10
-74.937991625022562
20
-70.845066195356168
30
0
10
-74.937991625022562
20
-71.351314075595837
30
0
10
-75.349840073146481
20
-71.763139826091873
30
0
10
-75.856087953385156
20
-71.763139826091873
30
0
0
SPLINE
5
555
100
AcDbEntity
8
0
100
AcDbSpline
70
0
71
3
72
8
73
4
74
0
42
0.000000001
43
0.0000000001
44
0.0000000001
40
386.23376741822449
40
386.23376741822449
40
386.23376741822449
40
386.23376741822449
40
387.23376741822449
40
387.23376741822449
40
387.23376741822449
40
387.23376741822449
10
-75.430711719366457
20
-72.99248871819799
30
0
10
-75.35601382778367
20
-72.99248871819799
30
0
10
-75.293822328865474
20
-72.934723256612273
30
0
10
-75.287739364737547
20
-72.860275038929814
30
0
0
LINE
5
556
100
AcDbEntity
8
0
100
AcDbLine
10
-75.287739364737547
20
-72.860275038929814
30
0
11
-75.252921204395307
21
-72.43355964489723
31
0
0
SPLINE
5
557
100
AcDbEntity
8
0
100
AcDbSpline
70
0
71
3
72
8
73
4
74
0
42
0.000000001
43
0.0000000001
44
0.0000000001
40
406.09624753087138
40
406.09624753087138
40
406.09624753087138
40
406.09624753087138
40
407.09624753087138
40
407.09624753087138
40
407.09624753087138
40
407.09624753087138
10
-75.252921204395022
20
-72.43355964489723
30
0
10
-75.071521766676312
20
-72.366329272709748
30
0
10
-74.904716903339192
20
-72.268956451412265
30
0
10
-74.758566880882142
20
-72.147637633268005
30
0
0
LINE
5
558
100
AcDbEntity
8
0
100
AcDbLine
10
-74.758566880882142
20
-72.147637633268005
30
0
11
-74.371436148934436
21
-72.330852881174081
31
0
0
SPLINE
5
559
100
AcDbEntity
8
0
100
AcDbSpline
70
0
71
3
72
8
73
4
74
0
42
0.000000001
43
0.0000000001
44
0.0000000001
40
425.96591419459389
40
425.96591419459389
40
425.96591419459389
40
425.96591419459389
40
426.96591419459389
40
426.96591419459389
40
426.96591419459389
40
426.96591419459389
10
-74.37143614893472
20
-72.330852881174081
30
0
10
-74.303910707591569
20
-72.362811140472161
30
0
10
-74.223175247136339
20
-72.337594076494725
30
0
10
-74.185837650157112
20
-72.272905838569557
30
0
0
LINE
5
560
100
AcDbEntity
8
0
100
AcDbLine
10
-74.185837650157112
20
-72.272905838569557
30
0
11
-73.772967808804424
21
-71.557794391527381
31
0
0
SPLINE
5
561
100
AcDbEntity
8
0
100
AcDbSpline
70
0
71
3
72
8
73
4
74
0
42
0.000000001
43
0.0000000001
44
0.0000000001
40
463.34591056622651
40
463.34591056622651
40
463.34591056622651
40
463.34591056622651
40
464.34591056622651
40
464.34591056622651
40
464.34591056622651
40
464.34591056622651
10
-73.772967808804708
20
-71.557794391527381
30
0
10
-73.735630220728297
20
-71.493106169025253
30
0
10
-73.754174164522794
20
-71.410577619939062
30
0
10
-73.815616650579443
20
-71.368087622201699
30
0
0
LINE
5
562
100
AcDbEntity
8
0
100
AcDbLine
10
-73.815616650579443
20
-71.368087622201699
30
0
11
-74.16799731506643
21
-71.124383197429069
31
0
0
SPLINE
5
563
100
AcDbEntity
8
0
100
AcDbSpline
70
0
71
3
72
8
73
4
74
0
42
0.000000001
43
0.0000000001
44
0.0000000001
40
483.22205408125632
40
483.22205408125632
40
483.22205408125632
40
483.22205408125632
40
484.22205408125632
40
484.22205408125632
40
484.22205408125632
40
484.22205408125632
10
-74.16799731506643
20
-71.124383197429069
30
0
10
-74.152313254574267
20
-71.031549901599504
30
0
10
-74.143688156183032
20
-70.936333354899119
30
0
10
-74.143688156183032
20
-70.839051324110613
30
0
0
SPLINE
5
564
100
AcDbEntity
8
0
100
AcDbSpline
70
0
71
3
72
8
73
4
74
0
42
0.000000001
43
0.0000000001
44
0.0000000001
40
484.22205408125632
40
484.22205408125632
40
484.22205408125632
40
484.22205408125632
40
485.22205408125632
40
485.22205408125632
40
485.22205408125632
40
485.22205408125632
10
-74.143688156183032
20
-70.839051324110613
30
0
10
-74.143688156183032
20
-70.741769293322108
30
0
10
-74.152313254574267
20
-70.646552746621722
30
0
10
-74.16799731506643
20
-70.553742148419758
30
0
0
LINE
5
565
100
AcDbEntity
8
0
100
AcDbLine
10
-74.16799731506643
20
-70.553742148419758
30
0
11
-73.815616650579443
21
-70.310015026019386
31
0
0
SPLINE
5
566
100
AcDbEntity
8
0
100
AcDbSpline
70
0
71
3
72
8
73
4
74
0
42
0.000000001
43
0.0000000001
44
0.0000000001
40
504.09876642742483
40
504.09876642742483
40
504.09876642742483
40
504.09876642742483
40
505.09876642742483
40
505.09876642742483
40
505.09876642742483
40
505.09876642742483
10
-73.815616650579443
20
-70.310015026019386
30
0
10
-73.754174173365925
20
-70.267547765262179
30
0
10
-73.735630211826617
20
-70.18501919224633
30
0
10
-73.772967808804708
20
-70.12033095432102
30
0
0
LINE
5
567
100
AcDbEntity
8
0
100
AcDbLine
10
-73.772967808804708
20
-70.12033095432102
30
0
11
-74.185837650157396
21
-69.405242204906159
31
0
0
SPLINE
5
568
100
AcDbEntity
8
0
100
AcDbSpline
70
0
71
3
72
8
73
4
74
0
42
0.000000001
43
0.0000000001
44
0.0000000001
40
541.47789677711864
40
541.47789677711864
40
541.47789677711864
40
541.47789677711864
40
542.47789677711864
40
542.47789677711864
40
542.47789677711864
40
542.47789677711864
10
-74.185837650157112
20
-69.405242204906159
30
0
10
-74.223175247136339
20
-69.340553966981417
30
0
10
-74.303910707591569
20
-69.315359600631155
30
0
10
-74.37143614893472
20
-69.347317859929234
30
0
0
LINE
5
569
100
AcDbEntity
8
0
100
AcDbLine
10
-74.37143614893472
20
-69.347317859929234
30
0
11
-74.758566880882427
21
-69.530578503089799
31
0
0
SPLINE
5
570
100
AcDbEntity
8
0
100
AcDbSpline
70
0
71
3
72
8
73
4
74
0
42
0.000000001
43
0.0000000001
44
0.0000000001
40
561.34841908043609
40
561.34841908043609
40
561.34841908043609
40
561.34841908043609
40
562.34841908043609
40
562.34841908043609
40
562.34841908043609
40
562.34841908043609
10
-74.758566880882142
20
-69.530578503089799
30
0
10
-74.904716903339192
20
-69.409259684945681
30
0
10
-75.071521766676312
20
-69.312000351784775
30
0
10
-75.252921204395022
20
-69.244769979597294
30
0
0
LINE
5
571
100
AcDbEntity
8
0
100
AcDbLine
10
-75.252921204395022
20
-69.244769979597294
30
0
11
-75.287739364737263
21
-68.823842480536683
31
0
0
SPLINE
5
572
100
AcDbEntity
8
0
100
AcDbSpline
70
0
71
3
72
8
73
4
74
0
42
0.000000001
43
0.0000000001
44
0.0000000001
40
580.95675541123148
40
580.95675541123148
40
580.95675541123148
40
580.95675541123148
40
581.95675541123148
40
581.95675541123148
40
581.95675541123148
40
581.95675541123148
10
-75.287739364737547
20
-68.823842480536683
30
0
10
-75.293822328865474
20
-68.749394262854508
30
0
10
-75.35601382778367
20
-68.697643672514204
30
0
10
-75.430711719366457
20
-68.697643672514204
30
0
0
LINE
5
573
100
AcDbEntity
8
0
100
AcDbLine
10
-75.430711719366457
20
-68.697643672514204
30
0
11
-75.856087953385156
21
-68.697643672514204
31
0
0
LINE
5
574
100
AcDbEntity
8
0
100
AcDbLine
10
-75.856087953385156
20
-72.99248871819799
30
0
11
-75.430711719366172
21
-72.99248871819799
31
0
0
SPLINE
5
575
100
AcDbEntity
8
0
100
AcDbSpline
70
0
71
3
72
8
73
4
74
0
42
0.000000001
43
0.0000000001
44
0.0000000001
40
2
40
2
40
2
40
2
40
3
40
3
40
3
40
3
10
-86.622911761785133
20
-69.387420027916846
30
0
10
-86.170661536993123
20
-69.387420027916846
30
0
10
-85.792587158354934
20
-69.596692152011741
30
0
10
-85.488597835361304
20
-70.015281795456161
30
0
0
SPLINE
5
576
100
AcDbEntity
8
0
100
AcDbSpline
70
0
71
3
72
8
73
4
74
0
42
0.000000001
43
0.0000000001
44
0.0000000001
40
3
40
3
40
3
40
3
40
4
40
4
40
4
40
4
10
-85.488597835361304
20
-70.015281795456161
30
0
10
-85.351594956724455
20
-70.253266418138622
30
0
10
-85.283048122150547
20
-70.493044153381277
30
0
10
-85.283048122150547
20
-70.734751186947591
30
0
0
SPLINE
5
577
100
AcDbEntity
8
0
100
AcDbSpline
70
0
71
3
72
8
73
4
74
0
42
0.000000001
43
0.0000000001
44
0.0000000001
40
4
40
4
40
4
40
4
40
5
40
5
40
5
40
5
10
-85.283048122150547
20
-70.734751186947591
30
0
10
-85.283048122150547
20
-71.181985236097916
30
0
10
-85.485488260415821
20
-71.553885860099342
30
0
10
-85.890368536944663
20
-71.850339570815152
30
0
0
SPLINE
5
578
100
AcDbEntity
8
0
100
AcDbSpline
70
0
71
3
72
8
73
4
74
0
42
0.000000001
43
0.0000000001
44
0.0000000001
40
5
40
5
40
5
40
5
40
6
40
6
40
6
40
6
10
-85.890368536944663
20
-71.850339570815152
30
0
10
-86.119591875473418
20
-71.996081035979245
30
0
10
-86.359415005969993
20
-72.06898581500198
30
0
10
-86.609815230809488
20
-72.06898581500198
30
0
0
LINE
5
579
100
AcDbEntity
8
0
100
AcDbLine
10
-86.609815230809488
20
-72.06898581500198
30
0
11
-86.637846800577734
21
-72.06898581500198
31
0
0
SPLINE
5
580
100
AcDbEntity
8
0
100
AcDbSpline
70
0
71
3
72
8
73
4
74
0
42
0.000000001
43
0.0000000001
44
0.0000000001
40
7.2349999999999985
40
7.2349999999999985
40
7.2349999999999985
40
7.2349999999999985
40
8.2349999999999994
40
8.2349999999999994
40
8.2349999999999994
40
8.2349999999999994
10
-86.637846800577734
20
-72.06898581500198
30
0
10
-87.098767519014189
20
-72.06898581500198
30
0
10
-87.475003389837696
20
-71.854697515264832
30
0
10
-87.766509017793339
20
-71.426189008672338
30
0
0
SPLINE
5
581
100
AcDbEntity
8
0
100
AcDbSpline
70
0
71
3
72
8
73
4
74
0
42
0.000000001
43
0.0000000001
44
0.0000000001
40
8.2349999999999994
40
8.2349999999999994
40
8.2349999999999994
40
8.2349999999999994
40
9.2349999999999994
40
9.2349999999999994
40
9.2349999999999994
40
9.2349999999999994
10
-87.766509017793339
20
-71.426189008672338
30
0
10
-87.898586511297196
20
-71.209426667554681
30
0
10
-87.964591211608365
20
-70.974597015072476
30
0
10
-87.964591211608365
20
-70.721654655971378
30
0
0
SPLINE
5
582
100
AcDbEntity
8
0
100
AcDbSpline
70
0
71
3
72
8
73
4
74
0
42
0.000000001
43
0.0000000001
44
0.0000000001
40
9.2349999999999994
40
9.2349999999999994
40
9.2349999999999994
40
9.2349999999999994
40
10.234999999999999
40
10.234999999999999
40
10.234999999999999
40
10.234999999999999
10
-87.964591211608365
20
-70.721654655971378
30
0
10
-87.964591211608365
20
-70.294371821255197
30
0
10
-87.776495973823501
20
-69.934319358726498
30
0
10
-87.400260102999425
20
-69.64154266363991
30
0
0
SPLINE
5
583
100
AcDbEntity
8
0
100
AcDbSpline
70
0
71
3
72
8
73
4
74
0
42
0.000000001
43
0.0000000001
44
0.0000000001
40
10.234999999999999
40
10.234999999999999
40
10.234999999999999
40
10.234999999999999
40
11.234999999999999
40
11.234999999999999
40
11.234999999999999
40
11.234999999999999
10
-87.400260102999425
20
-69.64154266363991
30
0
10
-87.156101725680344
20
-69.472127573158104
30
0
10
-86.896962914315452
20
-69.387420027916846
30
0
10
-86.622911761785133
20
-69.387420027916846
30
0
0
SPLINE
5
584
100
AcDbEntity
8
0
100
AcDbSpline
70
0
71
3
72
8
73
4
74
0
42
0.000000001
43
0.0000000001
44
0.0000000001
40
0
40
0
40
0
40
0
40
1
40
1
40
1
40
1
10
-87.689904525513782
20
-70.742218706343323
30
0
10
-87.689904525513782
20
-71.083545626315043
30
0
10
-87.53916958233475
20
-71.370761402702385
30
0
10
-87.23769969597555
20
-71.603661756860362
30
0
0
SPLINE
5
585
100
AcDbEntity
8
0
100
AcDbSpline
70
0
71
3
72
8
73
4
74
0
42
0.000000001
43
0.0000000001
44
0.0000000001
40
1
40
1
40
1
40
1
40
2
40
2
40
2
40
2
10
-87.23769969597555
20
-71.603661756860362
30
0
10
-87.049581760563512
20
-71.73074577234928
30
0
10
-86.849638361306631
20
-71.794276431279798
30
0
10
-86.637846800577734
20
-71.794276431279798
30
0
0
LINE
5
586
100
AcDbEntity
8
0
100
AcDbLine
10
-86.637846800577734
20
-71.794276431279798
30
0
11
-86.602347711413756
21
-71.794276431279798
31
0
0
SPLINE
5
587
100
AcDbEntity
8
0
100
AcDbSpline
70
0
71
3
72
8
73
4
74
0
42
0.000000001
43
0.0000000001
44
0.0000000001
40
3.5640000000000067
40
3.5640000000000067
40
3.5640000000000067
40
3.5640000000000067
40
4.5640000000000063
40
4.5640000000000063
40
4.5640000000000063
40
4.5640000000000063
10
-86.602347711413756
20
-71.794276431279798
30
0
10
-86.268488310837768
20
-71.794276431279798
30
0
10
-85.986334105347453
20
-71.646038227108306
30
0
10
-85.755817002060155
20
-71.349539121137866
30
0
0
SPLINE
5
588
100
AcDbEntity
8
0
100
AcDbSpline
70
0
71
3
72
8
73
4
74
0
42
0.000000001
43
0.0000000001
44
0.0000000001
40
4.5640000000000063
40
4.5640000000000063
40
4.5640000000000063
40
4.5640000000000063
40
5.5640000000000072
40
5.5640000000000072
40
5.5640000000000072
40
5.5640000000000072
10
-85.755817002060155
20
-71.349539121137866
30
0
10
-85.623807601438386
20
-71.158924446718004
30
0
10
-85.557734808245129
20
-70.951536225692706
30
0
10
-85.557734808245129
20
-70.727260969924686
30
0
0
SPLINE
5
589
100
AcDbEntity
8
0
100
AcDbSpline
70
0
71
3
72
8
73
4
74
0
42
0.000000001
43
0.0000000001
44
0.0000000001
40
5.5640000000000072
40
5.5640000000000072
40
5.5640000000000072
40
5.5640000000000072
40
6.5640000000000081
40
6.5640000000000081
40
6.5640000000000081
40
6.5640000000000081
10
-85.557734808245129
20
-70.727260969924686
30
0
10
-85.557734808245129
20
-70.342331907829134
30
0
10
-85.734049977439497
20
-70.037094215332019
30
0
10
-86.086566827690092
20
-69.811593287687828
30
0
0
SPLINE
5
590
100
AcDbEntity
8
0
100
AcDbSpline
70
0
71
3
72
8
73
4
74
0
42
0.000000001
43
0.0000000001
44
0.0000000001
40
6.5640000000000081
40
6.5640000000000081
40
6.5640000000000081
40
6.5640000000000081
40
7.5640000000000081
40
7.5640000000000081
40
7.5640000000000081
40
7.5640000000000081
10
-86.086566827690092
20
-69.811593287687828
30
0
10
-86.261020791442604
20
-69.711950703655248
30
0
10
-86.439787304389313
20
-69.662106714011998
30
0
10
-86.622911761785133
20
-69.662106714011998
30
0
0
SPLINE
5
591
100
AcDbEntity
8
0
100
AcDbSpline
70
0
71
3
72
8
73
4
74
0
42
0.000000001
43
0.0000000001
44
0.0000000001
40
7.5640000000000081
40
7.5640000000000081
40
7.5640000000000081
40
7.5640000000000081
40
8.5640000000000089
40
8.5640000000000089
40
8.5640000000000089
40
8.5640000000000089
10
-86.622911761785133
20
-69.662106714011998
30
0
10
-86.975451309664606
20
-69.662106714011998
30
0
10
-87.267592471185651
20
-69.815338396198854
30
0
10
-87.499312548721662
20
-70.121801760572851
30
0
0
SPLINE
5
592
100
AcDbEntity
8
0
100
AcDbSpline
70
0
71
3
72
8
73
4
74
0
42
0.000000001
43
0.0000000001
44
0.0000000001
40
8.5640000000000089
40
8.5640000000000089
40
8.5640000000000089
40
8.5640000000000089
40
9.5640000000000089
40
9.5640000000000089
40
9.5640000000000089
40
9.5640000000000089
10
-87.499312548721662
20
-70.121801760572851
30
0
10
-87.626373866582696
20
-70.304948915596839
30
0
10
-87.689904525513782
20
-70.511746998311224
30
0
10
-87.689904525513782
20
-70.742218706343323
30
0
0
LINE
5
593
100
AcDbEntity
8
0
100
AcDbLine
10
-84.849527979440325
20
-69.381795555861885
30
0
11
-84.202963366971062
21
-69.381795555861885
31
0
0
SPLINE
5
594
100
AcDbEntity
8
0
100
AcDbSpline
70
0
71
3
72
8
73
4
74
0
42
0.000000001
43
0.0000000001
44
0.0000000001
40
134.70400000000001
40
134.70400000000001
40
134.70400000000001
40
134.70400000000001
40
135.70400000000001
40
135.70400000000001
40
135.70400000000001
40
135.70400000000001
10
-84.202963366971346
20
-69.381795555861885
30
0
10
-83.951337470256533
20
-69.381795555861885
30
0
10
-83.736436334581583
20
-69.512011843923887
30
0
10
-83.558282657572533
20
-69.77235362953806
30
0
0
SPLINE
5
595
100
AcDbEntity
8
0
100
AcDbSpline
70
0
71
3
72
8
73
4
74
0
42
0.000000001
43
0.0000000001
44
0.0000000001
40
135.70400000000001
40
135.70400000000001
40
135.70400000000001
40
135.70400000000001
40
136.70400000000001
40
136.70400000000001
40
136.70400000000001
40
136.70400000000001
10
-83.558282657572533
20
-69.77235362953806
30
0
10
-83.49223256200645
20
-69.905702190173571
30
0
10
-83.459230211851434
20
-70.025886126950212
30
0
10
-83.459230211851434
20
-70.132996230378097
30
0
0
LINE
5
596
100
AcDbEntity
8
0
100
AcDbLine
10
-83.459230211851434
20
-70.132996230378097
30
0
11
-83.459230211851434
21
-70.183453055959575
31
0
0
SPLINE
5
597
100
AcDbEntity
8
0
100
AcDbSpline
70
0
71
3
72
8
73
4
74
0
42
0.000000001
43
0.0000000001
44
0.0000000001
40
138.92700000000011
40
138.92700000000011
40
138.92700000000011
40
138.92700000000011
40
139.92700000000011
40
139.92700000000011
40
139.92700000000011
40
139.92700000000011
10
-83.459230211851434
20
-70.183453055959575
30
0
10
-83.459230211851434
20
-70.41894093963478
30
0
10
-83.565750176968265
20
-70.621993913837287
30
0
10
-83.77879010720136
20
-70.792680071450604
30
0
0
SPLINE
5
598
100
AcDbEntity
8
0
100
AcDbSpline
70
0
71
3
72
8
73
4
74
0
42
0.000000001
43
0.0000000001
44
0.0000000001
40
139.92700000000011
40
139.92700000000011
40
139.92700000000011
40
139.92700000000011
40
140.92700000000011
40
140.92700000000011
40
140.92700000000011
40
140.92700000000011
10
-83.77879010720136
20
-70.792680071450604
30
0
10
-83.923305900489424
20
-70.892345353109931
30
0
10
-84.064689421203695
20
-70.942166645126008
30
0
10
-84.202963366971346
20
-70.942166645126008
30
0
0
LINE
5
599
100
AcDbEntity
8
0
100
AcDbLine
10
-84.202963366971346
20
-70.942166645126008
30
0
11
-84.692551188742584
21
-70.942166645126008
31
0
0
LINE
5
600
100
AcDbEntity
8
0
100
AcDbLine
10
-84.692551188742584
20
-70.942166645126008
30
0
11
-84.692551188742584
21
-71.941929036666039
31
0
0
SPLINE
5
601
100
AcDbEntity
8
0
100
AcDbSpline
70
0
71
3
72
8
73
4
74
0
42
0.000000001
43
0.0000000001
44
0.0000000001
40
206.54400000000007
40
206.54400000000007
40
206.54400000000007
40
206.54400000000007
40
207.54400000000007
40
207.54400000000007
40
207.54400000000007
40
207.54400000000007
10
-84.692551188742584
20
-71.941929036666039
30
0
10
-84.692551188742584
20
-72.010475871239663
30
0
10
-84.737401700370185
20
-72.052784248605093
30
0
10
-84.827102723626524
20
-72.068990354527784
30
0
0
LINE
5
602
100
AcDbEntity
8
0
100
AcDbLine
10
-84.827102723626524
20
-72.068990354527784
30
0
11
-84.834570243022256
21
-72.068990354527784
31
0
0
SPLINE
5
603
100
AcDbEntity
8
0
100
AcDbSpline
70
0
71
3
72
8
73
4
74
0
42
0.000000001
43
0.0000000001
44
0.0000000001
40
207.87300000000008
40
207.87300000000008
40
207.87300000000008
40
207.87300000000008
40
208.87300000000008
40
208.87300000000008
40
208.87300000000008
40
208.87300000000008
10
-84.834570243022256
20
-72.068990354527784
30
0
10
-84.906839488479307
20
-72.068990354527784
30
0
10
-84.951690000107476
20
-72.021688499146848
30
0
10
-84.969121777906196
20
-71.92697130024797
30
0
0
LINE
5
604
100
AcDbEntity
8
0
100
AcDbLine
10
-84.969121777906196
20
-71.92697130024797
30
0
11
-84.969121777906196
21
-69.538772346560336
31
0
0
SPLINE
5
605
100
AcDbEntity
8
0
100
AcDbSpline
70
0
71
3
72
8
73
4
74
0
42
0.000000001
43
0.0000000001
44
0.0000000001
40
314.09100000000012
40
314.09100000000012
40
314.09100000000012
40
314.09100000000012
40
315.09100000000012
40
315.09100000000012
40
315.09100000000012
40
315.09100000000012
10
-84.969121777906196
20
-69.538772346560336
30
0
10
-84.95790914999958
20
-69.434136284513102
30
0
10
-84.918052116387628
20
-69.381795555861885
30
0
10
-84.849527979440325
20
-69.381795555861885
30
0
0
LINE
5
606
100
AcDbEntity
8
0
100
AcDbLine
10
-84.692551188742584
20
-69.658366145026207
30
0
11
-84.692551188742584
21
-70.665596055961686
31
0
0
LINE
5
607
100
AcDbEntity
8
0
100
AcDbLine
10
-84.692551188742584
20
-70.665596055961686
30
0
11
-84.253420192553676
21
-70.665596055961686
31
0
0
SPLINE
5
608
100
AcDbEntity
8
0
100
AcDbSpline
70
0
71
3
72
8
73
4
74
0
42
0.000000001
43
0.0000000001
44
0.0000000001
40
63.722999999999978
40
63.722999999999978
40
63.722999999999978
40
63.722999999999978
40
64.722999999999985
40
64.722999999999985
40
64.722999999999985
40
64.722999999999985
10
-84.253420192553392
20
-70.665596055961686
30
0
10
-84.016729334629474
20
-70.665596055961686
30
0
10
-83.85353339403963
20
-70.552244105015092
30
0
10
-83.763832370783291
20
-70.325517505493735
30
0
0
SPLINE
5
609
100
AcDbEntity
8
0
100
AcDbSpline
70
0
71
3
72
8
73
4
74
0
42
0.000000001
43
0.0000000001
44
0.0000000001
40
64.722999999999985
40
64.722999999999985
40
64.722999999999985
40
64.722999999999985
40
65.722999999999985
40
65.722999999999985
40
65.722999999999985
40
65.722999999999985
10
-83.763832370783291
20
-70.325517505493735
30
0
10
-83.745152223480375
20
-70.278170254858452
30
0
10
-83.735800801015614
20
-70.221494279385155
30
0
10
-83.735800801015614
20
-70.155421486191898
30
0
0
SPLINE
5
610
100
AcDbEntity
8
0
100
AcDbSpline
70
0
71
3
72
8
73
4
74
0
42
0.000000001
43
0.0000000001
44
0.0000000001
40
65.722999999999985
40
65.722999999999985
40
65.722999999999985
40
65.722999999999985
40
66.722999999999985
40
66.722999999999985
40
66.722999999999985
40
66.722999999999985
10
-83.735800801015614
20
-70.155421486191898
30
0
10
-83.735800801015614
20
-69.947397731601058
30
0
10
-83.842320766132445
20
-69.793575911103574
30
0
10
-84.055337998738366
20
-69.693865234189474
30
0
0
SPLINE
5
611
100
AcDbEntity
8
0
100
AcDbSpline
70
0
71
3
72
8
73
4
74
0
42
0.000000001
43
0.0000000001
44
0.0000000001
40
66.722999999999985
40
66.722999999999985
40
66.722999999999985
40
66.722999999999985
40
67.722999999999985
40
67.722999999999985
40
67.722999999999985
40
67.722999999999985
10
-84.055337998738366
20
-69.693865234189474
30
0
10
-84.107656029762268
20
-69.670237004126108
30
0
10
-84.168689949685529
20
-69.658366145026207
30
0
10
-84.238462456135323
20
-69.658366145026207
30
0
0
LINE
5
612
100
AcDbEntity
8
0
100
AcDbLine
10
-84.238462456135323
20
-69.658366145026207
30
0
11
-84.692551188742584
21
-69.658366145026207
31
0
0
LINE
5
613
100
AcDbEntity
8
0
100
AcDbLine
10
-83.003289352853642
20
-69.374330306229126
30
0
11
-82.967790263689665
21
-69.381797825624574
31
0
0
LINE
5
614
100
AcDbEntity
8
0
100
AcDbLine
10
-82.967790263689665
20
-69.381797825624574
30
0
11
-81.577515193728516
21
-69.381797825624574
31
0
0
LINE
5
615
100
AcDbEntity
8
0
100
AcDbLine
10
-81.577515193728516
20
-69.381797825624574
30
0
11
-81.549483623960555
21
-69.374330306229126
31
0
0
SPLINE
5
616
100
AcDbEntity
8
0
100
AcDbSpline
70
0
71
3
72
8
73
4
74
0
42
0.000000001
43
0.0000000001
44
0.0000000001
40
64.128300535754718
40
64.128300535754718
40
64.128300535754718
40
64.128300535754718
40
65.128300535754718
40
65.128300535754718
40
65.128300535754718
40
65.128300535754718
10
-81.549483623960271
20
-69.374330306229126
30
0
10
-81.468498489603292
20
-69.374330306229126
30
0
10
-81.421173936594471
20
-69.426058198941689
30
0
10
-81.407419174425684
20
-69.529423193857696
30
0
0
SPLINE
5
617
100
AcDbEntity
8
0
100
AcDbSpline
70
0
71
3
72
8
73
4
74
0
42
0.000000001
43
0.0000000001
44
0.0000000001
40
65.128300535754718
40
65.128300535754718
40
65.128300535754718
40
65.128300535754718
40
66.128300535754718
40
66.128300535754718
40
66.128300535754718
40
66.128300535754718
10
-81.407419174425684
20
-69.529423193857696
30
0
10
-81.426122019355205
20
-69.615379108602582
30
0
10
-81.477827214441447
20
-69.658368414788896
30
0
10
-81.56255745730931
20
-69.658368414788896
30
0
0
LINE
5
618
100
AcDbEntity
8
0
100
AcDbLine
10
-81.56255745730931
20
-69.658368414788896
30
0
11
-82.861270298573402
21
-69.658368414788896
31
0
0
LINE
5
619
100
AcDbEntity
8
0
100
AcDbLine
10
-82.861270298573402
20
-69.658368414788896
30
0
11
-82.861270298573402
21
-70.615141500142897
31
0
0
LINE
5
620
100
AcDbEntity
8
0
100
AcDbLine
10
-82.861270298573402
20
-70.615141500142897
30
0
11
-82.011039875963263
21
-70.615141500142897
31
0
0
LINE
5
621
100
AcDbEntity
8
0
100
AcDbLine
10
-82.011039875963263
20
-70.615141500142897
30
0
11
-81.910126224800024
21
-70.607673980747307
31
0
0
SPLINE
5
622
100
AcDbEntity
8
0
100
AcDbSpline
70
0
71
3
72
8
73
4
74
0
42
0.000000001
43
0.0000000001
44
0.0000000001
40
207.41645676899731
40
207.41645676899731
40
207.41645676899731
40
207.41645676899731
40
208.41645676899731
40
208.41645676899731
40
208.41645676899731
40
208.41645676899731
10
-81.910126224800308
20
-70.607673980747307
30
0
10
-81.846595565869222
20
-70.607673980747307
30
0
10
-81.804241793248309
20
-70.655021231383301
30
0
10
-81.783064906938137
20
-70.749693035027121
30
0
0
SPLINE
5
623
100
AcDbEntity
8
0
100
AcDbSpline
70
0
71
3
72
8
73
4
74
0
42
0.000000001
43
0.0000000001
44
0.0000000001
40
208.41645676899731
40
208.41645676899731
40
208.41645676899731
40
208.41645676899731
40
209.41645676899731
40
209.41645676899731
40
209.41645676899731
40
209.41645676899731
10
-81.783064906938137
20
-70.749693035027121
30
0
10
-81.783064906938137
20
-70.811998022081468
30
0
10
-81.82106073510937
20
-70.859299877462121
30
0
10
-81.897052391450131
20
-70.891712089307219
30
0
0
LINE
5
624
100
AcDbEntity
8
0
100
AcDbLine
10
-81.897052391450131
20
-70.891712089307219
30
0
11
-82.039071445731224
21
-70.88424456991163
31
0
0
LINE
5
625
100
AcDbEntity
8
0
100
AcDbLine
10
-82.039071445731224
20
-70.88424456991163
30
0
11
-82.861270298573686
21
-70.88424456991163
31
0
0
LINE
5
626
100
AcDbEntity
8
0
100
AcDbLine
10
-82.861270298573686
20
-70.88424456991163
30
0
11
-82.861270298573402
21
-71.792444732753324
31
0
0
LINE
5
627
100
AcDbEntity
8
0
100
AcDbLine
10
-82.861270298573402
20
-71.792444732753324
30
0
11
-81.528919573588041
21
-71.792444732753324
31
0
0
SPLINE
5
628
100
AcDbEntity
8
0
100
AcDbSpline
70
0
71
3
72
8
73
4
74
0
42
0.000000001
43
0.0000000001
44
0.0000000001
40
350.61910039116407
40
350.61910039116407
40
350.61910039116407
40
350.61910039116407
40
351.61910039116407
40
351.61910039116407
40
351.61910039116407
40
351.61910039116407
10
-81.528919573588325
20
-71.792444732753324
30
0
10
-81.462892175649415
20
-71.792444732753324
30
0
10
-81.422376910844321
20
-71.842288722396859
30
0
10
-81.407419174425684
20
-71.941931306429012
30
0
0
SPLINE
5
629
100
AcDbEntity
8
0
100
AcDbSpline
70
0
71
3
72
8
73
4
74
0
42
0.000000001
43
0.0000000001
44
0.0000000001
40
351.61910039116407
40
351.61910039116407
40
351.61910039116407
40
351.61910039116407
40
352.61910039116407
40
352.61910039116407
40
352.61910039116407
40
352.61910039116407
10
-81.407419174425684
20
-71.941931306429012
30
0
10
-81.432386564502224
20
-72.026616154042244
30
0
10
-81.474694941867654
20
-72.068992624290473
30
0
10
-81.534525887541065
20
-72.068992624290473
30
0
0
LINE
5
630
100
AcDbEntity
8
0
100
AcDbLine
10
-81.534525887541065
20
-72.068992624290473
30
0
11
-83.003289352853358
21
-72.068992624290473
31
0
0
SPLINE
5
631
100
AcDbEntity
8
0
100
AcDbSpline
70
0
71
3
72
8
73
4
74
0
42
0.000000001
43
0.0000000001
44
0.0000000001
40
417.3291003911641
40
417.3291003911641
40
417.3291003911641
40
417.3291003911641
40
418.3291003911641
40
418.3291003911641
40
418.3291003911641
40
418.3291003911641
10
-83.003289352853642
20
-72.068992624290473
30
0
10
-83.092990376109412
20
-72.052786518367924
30
0
10
-83.137840887737582
20
-72.007936006739754
30
0
10
-83.137840887737582
20
-71.934463787033422
30
0
0
LINE
5
632
100
AcDbEntity
8
0
100
AcDbLine
10
-83.137840887737582
20
-71.934463787033422
30
0
11
-83.137840887737582
21
-69.51634936050894
31
0
0
SPLINE
5
633
100
AcDbEntity
8
0
100
AcDbSpline
70
0
71
3
72
8
73
4
74
0
42
0.000000001
43
0.0000000001
44
0.0000000001
40
524.86510039116411
40
524.86510039116411
40
524.86510039116411
40
524.86510039116411
40
525.86510039116411
40
525.86510039116411
40
525.86510039116411
40
525.86510039116411
10
-83.137840887737582
20
-69.51634936050894
30
0
10
-83.124154218450315
20
-69.426648337252885
30
0
10
-83.079303706822145
20
-69.381797825624574
30
0
10
-83.003289352853642
20
-69.381797825624574
30
0
0
LINE
5
634
100
AcDbEntity
8
0
100
AcDbLine
10
-83.003289352853642
20
-69.381797825624574
30
0
11
-83.003289352853642
21
-69.374330306229126
31
0
0
LINE
5
635
100
AcDbEntity
8
0
100
AcDbLine
10
-81.020613018549454
20
-69.394887547312862
30
0
11
-80.992581448781209
21
-69.394887547312862
31
0
0
SPLINE
5
636
100
AcDbEntity
8
0
100
AcDbSpline
70
0
71
3
72
8
73
4
74
0
42
0.000000001
43
0.0000000001
44
0.0000000001
40
1.2350000000000141
40
1.2350000000000141
40
1.2350000000000141
40
1.2350000000000141
40
2.2350000000000141
40
2.2350000000000141
40
2.2350000000000141
40
2.2350000000000141
10
-80.992581448781209
20
-69.394887547312862
30
0
10
-80.932795898362144
20
-69.394887547312862
30
0
10
-80.88109070327647
20
-69.441599264382603
30
0
10
-80.837488561152497
20
-69.535045396150537
30
0
0
SPLINE
5
637
100
AcDbEntity
8
0
100
AcDbSpline
70
0
71
3
72
8
73
4
74
0
42
0.000000001
43
0.0000000001
44
0.0000000001
40
2.2350000000000141
40
2.2350000000000141
40
2.2350000000000141
40
2.2350000000000141
40
3.2350000000000136
40
3.2350000000000136
40
3.2350000000000136
40
3.2350000000000136
10
-80.837488561152497
20
-69.535045396150537
30
0
10
-80.767716054702134
20
-69.613511093872518
30
0
10
-80.256338510683634
20
-70.268224154556833
30
0
10
-79.303287836213769
20
-71.49902569481327
30
0
0
SPLINE
5
638
100
AcDbEntity
8
0
100
AcDbSpline
70
0
71
3
72
8
73
4
74
0
42
0.000000001
43
0.0000000001
44
0.0000000001
40
3.2350000000000136
40
3.2350000000000136
40
3.2350000000000136
40
3.2350000000000136
40
4.2350000000000136
40
4.2350000000000136
40
4.2350000000000136
40
4.2350000000000136
10
-79.303287836213769
20
-71.49902569481327
30
0
10
-79.293346275437386
20
-71.49902569481327
30
0
10
-79.288330099795701
20
-71.505857680643174
30
0
10
-79.288330099795701
20
-71.51961244281253
30
0
0
LINE
5
639
100
AcDbEntity
8
0
100
AcDbLine
10
-79.288330099795701
20
-71.51961244281253
30
0
11
-79.282723785841824
21
-71.52707996220812
31
0
0
LINE
5
640
100
AcDbEntity
8
0
100
AcDbLine
10
-79.282723785841824
20
-71.52707996220812
30
0
11
-79.275256266446377
21
-71.52707996220812
31
0
0
LINE
5
641
100
AcDbEntity
8
0
100
AcDbLine
10
-79.275256266446377
20
-71.52707996220812
30
0
11
-79.275256266446092
21
-69.521948865174323
31
0
0
SPLINE
5
642
100
AcDbEntity
8
0
100
AcDbSpline
70
0
71
3
72
8
73
4
74
0
42
0.000000001
43
0.0000000001
44
0.0000000001
40
93.316400048614483
40
93.316400048614483
40
93.316400048614483
40
93.316400048614483
40
94.316400048614483
40
94.316400048614483
40
94.316400048614483
40
94.316400048614483
10
-79.275256266446092
20
-69.521948865174323
30
0
10
-79.259118253405347
20
-69.437264017560807
30
0
10
-79.216719085530656
20
-69.394887547312862
30
0
10
-79.148194948584489
20
-69.394887547312862
30
0
0
LINE
5
643
100
AcDbEntity
8
0
100
AcDbLine
10
-79.148194948584489
20
-69.394887547312862
30
0
11
-79.127630898212544
21
-69.394887547312862
31
0
0
SPLINE
5
644
100
AcDbEntity
8
0
100
AcDbSpline
70
0
71
3
72
8
73
4
74
0
42
0.000000001
43
0.0000000001
44
0.0000000001
40
95.222400048614446
40
95.222400048614446
40
95.222400048614446
40
95.222400048614446
40
96.222400048614446
40
96.222400048614446
40
96.222400048614446
40
96.222400048614446
10
-79.127630898212544
20
-69.394887547312862
30
0
10
-79.057903787017665
20
-69.394887547312862
30
0
10
-79.015504619142405
20
-69.439125223002662
30
0
10
-79.00056958035151
20
-69.527555179127631
30
0
0
LINE
5
645
100
AcDbEntity
8
0
100
AcDbLine
10
-79.00056958035151
20
-69.527555179127631
30
0
11
-79.00056958035151
21
-71.928805268536848
31
0
0
SPLINE
5
646
100
AcDbEntity
8
0
100
AcDbSpline
70
0
71
3
72
8
73
4
74
0
42
0.000000001
43
0.0000000001
44
0.0000000001
40
202.0154000486144
40
202.0154000486144
40
202.0154000486144
40
202.0154000486144
40
203.0154000486144
40
203.0154000486144
40
203.0154000486144
40
203.0154000486144
10
-79.00056958035151
20
-71.928805268536848
30
0
10
-79.00056958035151
20
-72.006090689637006
30
0
10
-79.049823431683706
20
-72.052779709079999
30
0
10
-79.148194948584489
20
-72.069008512629722
30
0
0
SPLINE
5
647
100
AcDbEntity
8
0
100
AcDbSpline
70
0
71
3
72
8
73
4
74
0
42
0.000000001
43
0.0000000001
44
0.0000000001
40
203.0154000486144
40
203.0154000486144
40
203.0154000486144
40
203.0154000486144
40
204.0154000486144
40
204.0154000486144
40
204.0154000486144
40
204.0154000486144
10
-79.148194948584489
20
-72.069008512629722
30
0
10
-79.201784046739192
20
-72.069008512629722
30
0
10
-79.283994852972057
20
-71.986775008768831
30
0
10
-79.394850064911395
20
-71.82233069867479
30
0
0
LINE
5
648
100
AcDbEntity
8
0
100
AcDbLine
10
-79.394850064911395
20
-71.82233069867479
30
0
11
-80.865520130919322
21
-69.94426091950217
31
0
0
LINE
5
649
100
AcDbEntity
8
0
100
AcDbLine
10
-80.865520130919322
20
-69.94426091950217
30
0
11
-80.865520130919037
21
-71.934456977745214
31
0
0
SPLINE
5
650
100
AcDbEntity
8
0
100
AcDbSpline
70
0
71
3
72
8
73
4
74
0
42
0.000000001
43
0.0000000001
44
0.0000000001
40
396.79200825101663
40
396.79200825101663
40
396.79200825101663
40
396.79200825101663
40
397.79200825101663
40
397.79200825101663
40
397.79200825101663
40
397.79200825101663
10
-80.865520130919037
20
-71.934456977745214
30
0
10
-80.865520130919037
20
-72.004206786567693
30
0
10
-80.910370642547775
20
-72.046583256815495
30
0
10
-81.000048968177509
20
-72.061518295606248
30
0
0
LINE
5
651
100
AcDbEntity
8
0
100
AcDbLine
10
-81.000048968177509
20
-72.061518295606248
30
0
11
-81.005655282130533
21
-72.061518295606248
31
0
0
SPLINE
5
652
100
AcDbEntity
8
0
100
AcDbSpline
70
0
71
3
72
8
73
4
74
0
42
0.000000001
43
0.0000000001
44
0.0000000001
40
398.03900825101664
40
398.03900825101664
40
398.03900825101664
40
398.03900825101664
40
399.03900825101664
40
399.03900825101664
40
399.03900825101664
40
399.03900825101664
10
-81.005655282130249
20
-72.061518295606248
30
0
10
-81.07794722521561
20
-72.061518295606248
30
0
10
-81.122797736843211
20
-72.014783880908766
30
0
10
-81.140206817014189
20
-71.921337749141259
30
0
0
LINE
5
653
100
AcDbEntity
8
0
100
AcDbLine
10
-81.140206817014189
20
-71.921337749141259
30
0
11
-81.140206817014189
21
-69.549980434941716
31
0
0
SPLINE
5
654
100
AcDbEntity
8
0
100
AcDbSpline
70
0
71
3
72
8
73
4
74
0
42
0.000000001
43
0.0000000001
44
0.0000000001
40
503.51500825101664
40
503.51500825101664
40
503.51500825101664
40
503.51500825101664
40
504.51500825101664
40
504.51500825101664
40
504.51500825101664
40
504.51500825101664
10
-81.140206817014189
20
-69.549980434941716
30
0
10
-81.128994189107573
20
-69.44661544002571
30
0
10
-81.089159853122226
20
-69.394887547312862
30
0
10
-81.020613018549454
20
-69.394887547312862
30
0
0
LINE
5
655
100
AcDbEntity
8
0
100
AcDbLine
10
-72.222152420650616
20
-69.374400668873761
30
0
11
-72.186653331487491
21
-69.381868188269351
31
0
0
LINE
5
656
100
AcDbEntity
8
0
100
AcDbLine
10
-72.186653331487491
20
-69.381868188269351
30
0
11
-70.796378261525206
21
-69.381868188269351
31
0
0
LINE
5
657
100
AcDbEntity
8
0
100
AcDbLine
10
-70.796378261525206
20
-69.381868188269351
30
0
11
-70.768346691758381
21
-69.374400668873761
31
0
0
SPLINE
5
658
100
AcDbEntity
8
0
100
AcDbSpline
70
0
71
3
72
8
73
4
74
0
42
0.000000001
43
0.0000000001
44
0.0000000001
40
64.128300535754889
40
64.128300535754889
40
64.128300535754889
40
64.128300535754889
40
65.128300535754889
40
65.128300535754889
40
65.128300535754889
40
65.128300535754889
10
-70.768346691758381
20
-69.374400668873761
30
0
10
-70.687361557401402
20
-69.374400668873761
30
0
10
-70.64003700439315
20
-69.426128561586751
30
0
10
-70.626282242223226
20
-69.529493556502899
30
0
0
SPLINE
5
659
100
AcDbEntity
8
0
100
AcDbSpline
70
0
71
3
72
8
73
4
74
0
42
0.000000001
43
0.0000000001
44
0.0000000001
40
65.128300535754889
40
65.128300535754889
40
65.128300535754889
40
65.128300535754889
40
66.128300535754889
40
66.128300535754889
40
66.128300535754889
40
66.128300535754889
10
-70.626282242223226
20
-69.529493556502899
30
0
10
-70.644985087153316
20
-69.615449471247501
30
0
10
-70.696690282239558
20
-69.658438777433673
30
0
10
-70.781420525107421
20
-69.658438777433673
30
0
0
LINE
5
660
100
AcDbEntity
8
0
100
AcDbLine
10
-70.781420525107421
20
-69.658438777433673
30
0
11
-72.080133366371513
21
-69.658438777433673
31
0
0
LINE
5
661
100
AcDbEntity
8
0
100
AcDbLine
10
-72.080133366371513
20
-69.658438777433673
30
0
11
-72.080133366371513
21
-70.615211862787675
31
0
0
LINE
5
662
100
AcDbEntity
8
0
100
AcDbLine
10
-72.080133366371513
20
-70.615211862787675
30
0
11
-71.229902943761658
21
-70.615211862787675
31
0
0
LINE
5
663
100
AcDbEntity
8
0
100
AcDbLine
10
-71.229902943761658
20
-70.615211862787675
30
0
11
-71.128989292597566
21
-70.607744343392227
31
0
0
SPLINE
5
664
100
AcDbEntity
8
0
100
AcDbSpline
70
0
71
3
72
8
73
4
74
0
42
0.000000001
43
0.0000000001
44
0.0000000001
40
207.41645676899768
40
207.41645676899768
40
207.41645676899768
40
207.41645676899768
40
208.41645676899768
40
208.41645676899768
40
208.41645676899768
40
208.41645676899768
10
-71.128989292597851
20
-70.607744343392227
30
0
10
-71.065458633667333
20
-70.607744343392227
30
0
10
-71.02310486104642
20
-70.655091594027937
30
0
10
-71.001927974736816
20
-70.749763397672183
30
0
0
SPLINE
5
665
100
AcDbEntity
8
0
100
AcDbSpline
70
0
71
3
72
8
73
4
74
0
42
0.000000001
43
0.0000000001
44
0.0000000001
40
208.41645676899768
40
208.41645676899768
40
208.41645676899768
40
208.41645676899768
40
209.41645676899768
40
209.41645676899768
40
209.41645676899768
40
209.41645676899768
10
-71.001927974736816
20
-70.749763397672183
30
0
10
-71.001927974736816
20
-70.812068384726103
30
0
10
-71.039923802907481
20
-70.859370240107324
30
0
10
-71.115915459248242
20
-70.891782451951713
30
0
0
LINE
5
666
100
AcDbEntity
8
0
100
AcDbLine
10
-71.115915459248242
20
-70.891782451951713
30
0
11
-71.257934513528198
21
-70.884314932556265
31
0
0
LINE
5
667
100
AcDbEntity
8
0
100
AcDbLine
10
-71.257934513528198
20
-70.884314932556265
30
0
11
-72.080133366371513
21
-70.884314932556265
31
0
0
LINE
5
668
100
AcDbEntity
8
0
100
AcDbLine
10
-72.080133366371513
20
-70.884314932556265
30
0
11
-72.080133366371513
21
-71.891499448237539
31
0
0
LINE
5
669
100
AcDbEntity
8
0
100
AcDbLine
10
-72.080133366371513
20
-71.891499448237539
30
0
11
-72.072665846975781
21
-71.934443359168654
31
0
0
SPLINE
5
670
100
AcDbEntity
8
0
100
AcDbSpline
70
0
71
3
72
8
73
4
74
0
42
0.000000001
43
0.0000000001
44
0.0000000001
40
298.20049227825422
40
298.20049227825422
40
298.20049227825422
40
298.20049227825422
40
299.20049227825422
40
299.20049227825422
40
299.20049227825422
40
299.20049227825422
10
-72.072665846975781
20
-71.934443359168654
30
0
10
-72.093842733286522
20
-72.024144382424851
30
0
10
-72.138693244914691
20
-72.068994894053162
30
0
10
-72.207194684232547
20
-72.068994894053162
30
0
0
LINE
5
671
100
AcDbEntity
8
0
100
AcDbLine
10
-72.207194684232547
20
-72.068994894053162
30
0
11
-72.222152420650616
21
-72.068994894053162
31
0
0
SPLINE
5
672
100
AcDbEntity
8
0
100
AcDbSpline
70
0
71
3
72
8
73
4
74
0
42
0.000000001
43
0.0000000001
44
0.0000000001
40
299.85949227825421
40
299.85949227825421
40
299.85949227825421
40
299.85949227825421
40
300.85949227825421
40
300.85949227825421
40
300.85949227825421
40
300.85949227825421
10
-72.222152420650616
20
-72.068994894053162
30
0
10
-72.311853443907523
20
-72.052856881012843
30
0
10
-72.356703955535693
20
-72.008006369384816
30
0
10
-72.356703955535693
20
-71.934443359168654
30
0
0
LINE
5
673
100
AcDbEntity
8
0
100
AcDbLine
10
-72.356703955535693
20
-71.934443359168654
30
0
11
-72.356703955535693
21
-69.516419723153717
31
0
0
SPLINE
5
674
100
AcDbEntity
8
0
100
AcDbSpline
70
0
71
3
72
8
73
4
74
0
42
0.000000001
43
0.0000000001
44
0.0000000001
40
407.39149227825419
40
407.39149227825419
40
407.39149227825419
40
407.39149227825419
40
408.39149227825419
40
408.39149227825419
40
408.39149227825419
40
408.39149227825419
10
-72.356703955535693
20
-69.516419723153717
30
0
10
-72.343017286248426
20
-69.426718699897236
30
0
10
-72.298166774620256
20
-69.381868188269351
30
0
10
-72.222152420650616
20
-69.381868188269351
30
0
0
LINE
5
675
100
AcDbEntity
8
0
100
AcDbLine
10
-72.222152420650616
20
-69.381868188269351
30
0
11
-72.222152420650616
21
-69.374400668873761
31
0
0
SPLINE
5
676
100
AcDbEntity
8
0
100
AcDbSpline
70
0
71
3
72
8
73
4
74
0
42
0.000000001
43
0.0000000001
44
0.0000000001
40
2
40
2
40
2
40
2
40
3
40
3
40
3
40
3
10
-69.835882765287067
20
-69.400559684385712
30
0
10
-69.749926850542749
20
-69.400559684385712
30
0
10
-69.686396191612232
20
-69.487151132695857
30
0
10
-69.645290788495515
20
-69.660311331689542
30
0
0
SPLINE
5
677
100
AcDbEntity
8
0
100
AcDbSpline
70
0
71
3
72
8
73
4
74
0
42
0.000000001
43
0.0000000001
44
0.0000000001
40
3
40
3
40
3
40
3
40
4
40
4
40
4
40
4
10
-69.645290788495515
20
-69.660311331689542
30
0
10
-69.079711310383516
20
-71.132842603139324
30
0
10
-68.794402134692234
20
-71.88649462140873
30
0
10
-68.789408656677722
20
-71.9214035722608
30
0
0
LINE
5
678
100
AcDbEntity
8
0
100
AcDbLine
10
-68.789408656677722
20
-71.9214035722608
30
0
11
-68.789408656677722
21
-71.94192222737783
31
0
0
SPLINE
5
679
100
AcDbEntity
8
0
100
AcDbSpline
70
0
71
3
72
8
73
4
74
0
42
0.000000001
43
0.0000000001
44
0.0000000001
40
4.9039999999999955
40
4.9039999999999955
40
4.9039999999999955
40
4.9039999999999955
40
5.9039999999999964
40
5.9039999999999964
40
5.9039999999999964
40
5.9039999999999964
10
-68.789408656677722
20
-71.94192222737783
30
0
10
-68.789408656677722
20
-72.01174012908254
30
0
10
-68.833646332366527
20
-72.054048506448254
30
0
10
-68.922076288492633
20
-72.069006242866891
30
0
0
LINE
5
680
100
AcDbEntity
8
0
100
AcDbLine
10
-68.922076288492633
20
-72.069006242866891
30
0
11
-68.929543807887512
21
-72.069006242866891
31
0
0
SPLINE
5
681
100
AcDbEntity
8
0
100
AcDbSpline
70
0
71
3
72
8
73
4
74
0
42
0.000000001
43
0.0000000001
44
0.0000000001
40
6.2329999999999472
40
6.2329999999999472
40
6.2329999999999472
40
6.2329999999999472
40
7.2329999999999472
40
7.2329999999999472
40
7.2329999999999472
40
7.2329999999999472
10
-68.929543807887228
20
-72.069006242866891
30
0
10
-69.011777311748403
20
-72.069006242866891
30
0
10
-69.070359887918755
20
-71.989314873268313
30
0
10
-69.105200745888453
20
-71.829818645935291
30
0
0
LINE
5
682
100
AcDbEntity
8
0
100
AcDbLine
10
-69.105200745888453
20
-71.829818645935291
30
0
11
-69.421038230354384
21
-71.009503696161858
31
0
0
LINE
5
683
100
AcDbEntity
8
0
100
AcDbLine
10
-69.421038230354384
20
-71.009503696161858
30
0
11
-70.243259780824587
21
-71.009503696161858
31
0
0
LINE
5
684
100
AcDbEntity
8
0
100
AcDbLine
10
-70.243259780824587
20
-71.009503696161858
30
0
11
-70.628188842920281
21
-72.026062331935208
31
0
0
SPLINE
5
685
100
AcDbEntity
8
0
100
AcDbSpline
70
0
71
3
72
8
73
4
74
0
42
0.000000001
43
0.0000000001
44
0.0000000001
40
130.07556298010701
40
130.07556298010701
40
130.07556298010701
40
130.07556298010701
40
131.07556298010701
40
131.07556298010701
40
131.07556298010701
40
131.07556298010701
10
-70.628188842920565
20
-72.026062331935208
30
0
10
-70.665571835152434
20
-72.054684040013939
30
0
10
-70.698596882936897
20
-72.069006242866891
30
0
10
-70.727241288641665
20
-72.069006242866891
30
0
0
LINE
5
686
100
AcDbEntity
8
0
100
AcDbLine
10
-70.727241288641665
20
-72.069006242866891
30
0
11
-70.74217632743256
21
-72.069006242866891
31
0
0
SPLINE
5
687
100
AcDbEntity
8
0
100
AcDbSpline
70
0
71
3
72
8
73
4
74
0
42
0.000000001
43
0.0000000001
44
0.0000000001
40
131.733562980107
40
131.733562980107
40
131.733562980107
40
131.733562980107
40
132.733562980107
40
132.733562980107
40
132.733562980107
40
132.733562980107
10
-70.74217632743256
20
-72.069006242866891
30
0
10
-70.830651678812444
20
-72.052845532199115
30
0
10
-70.874843959247471
20
-72.00863055413663
30
0
10
-70.874843959247471
20
-71.936361308679295
30
0
0
LINE
5
688
100
AcDbEntity
8
0
100
AcDbLine
10
-70.874843959247471
20
-71.936361308679295
30
0
11
-70.874843959247471
21
-71.928893789283705
31
0
0
LINE
5
689
100
AcDbEntity
8
0
100
AcDbLine
10
-70.874843959247471
20
-71.928893789283705
30
0
11
-70.635656362315729
21
-71.282329176814727
31
0
0
SPLINE
5
690
100
AcDbEntity
8
0
100
AcDbSpline
70
0
71
3
72
8
73
4
74
0
42
0.000000001
43
0.0000000001
44
0.0000000001
40
163.43527507501219
40
163.43527507501219
40
163.43527507501219
40
163.43527507501219
40
164.43527507501219
40
164.43527507501219
40
164.43527507501219
40
164.43527507501219
10
-70.635656362315729
20
-71.282329176814727
30
0
10
-70.218315088376073
20
-70.194749665087812
30
0
10
-69.991611186482316
20
-69.59117435880529
30
0
10
-69.955476563753507
20
-69.471580560339277
30
0
0
SPLINE
5
691
100
AcDbEntity
8
0
100
AcDbSpline
70
0
71
3
72
8
73
4
74
0
42
0.000000001
43
0.0000000001
44
0.0000000001
40
164.43527507501219
40
164.43527507501219
40
164.43527507501219
40
164.43527507501219
40
165.43527507501219
40
165.43527507501219
40
165.43527507501219
40
165.43527507501219
10
-69.955476563753507
20
-69.471580560339277
30
0
10
-69.913122791132594
20
-69.42425600733074
30
0
10
-69.873265757520073
20
-69.400559684385712
30
0
10
-69.835882765287067
20
-69.400559684385712
30
0
0
LINE
5
692
100
AcDbEntity
8
0
100
AcDbLine
10
-68.271784725614282
20
-69.6733760859874
30
0
11
-68.271784725614282
21
-70.463866353432678
31
0
0
LINE
5
693
100
AcDbEntity
8
0
100
AcDbLine
10
-68.271784725614282
20
-70.463866353432678
30
0
11
-68.01203307831031
21
-70.463866353432678
31
0
0
SPLINE
5
694
100
AcDbEntity
8
0
100
AcDbSpline
70
0
71
3
72
8
73
4
74
0
42
0.000000001
43
0.0000000001
44
0.0000000001
40
58.043999999999983
40
58.043999999999983
40
58.043999999999983
40
58.043999999999983
40
59.043999999999983
40
59.043999999999983
40
59.043999999999983
40
59.043999999999983
10
-68.012033078310594
20
-70.463866353432678
30
0
10
-67.781561370277643
20
-70.463866353432678
30
0
10
-67.633345863733609
20
-70.381632849572213
30
0
10
-67.567295768168663
20
-70.217165841851141
30
0
0
SPLINE
5
695
100
AcDbEntity
8
0
100
AcDbSpline
70
0
71
3
72
8
73
4
74
0
42
0.000000001
43
0.0000000001
44
0.0000000001
40
59.043999999999983
40
59.043999999999983
40
59.043999999999983
40
59.043999999999983
40
60.043999999999983
40
60.043999999999983
40
60.043999999999983
40
60.043999999999983
10
-67.567295768168663
20
-70.217165841851141
30
0
10
-67.548615620865746
20
-70.169841288842605
30
0
10
-67.539264198400417
20
-70.122539433461668
30
0
10
-67.539264198400417
20
-70.075146787571185
30
0
0
LINE
5
696
100
AcDbEntity
8
0
100
AcDbLine
10
-67.539264198400417
20
-70.075146787571185
30
0
11
-67.539264198400417
21
-70.05458273719924
31
0
0
SPLINE
5
697
100
AcDbEntity
8
0
100
AcDbSpline
70
0
71
3
72
8
73
4
74
0
42
0.000000001
43
0.0000000001
44
0.0000000001
40
60.949999999999932
40
60.949999999999932
40
60.949999999999932
40
60.949999999999932
40
61.949999999999932
40
61.949999999999932
40
61.949999999999932
40
61.949999999999932
10
-67.539264198400417
20
-70.05458273719924
30
0
10
-67.539264198400417
20
-69.872729346933795
30
0
10
-67.645148629951279
20
-69.748142070452417
30
0
10
-67.856940190681314
20
-69.680866303010305
30
0
0
LINE
5
698
100
AcDbEntity
8
0
100
AcDbLine
10
-67.856940190681314
20
-69.680866303010305
30
0
11
-68.004565558914578
21
-69.6733760859874
31
0
0
LINE
5
699
100
AcDbEntity
8
0
100
AcDbLine
10
-68.004565558914578
20
-69.6733760859874
30
0
11
-68.271784725614282
21
-69.6733760859874
31
0
0
LINE
5
700
100
AcDbEntity
8
0
100
AcDbLine
10
-68.41194257445153
20
-69.393083085939082
30
0
11
-68.378304690730545
21
-69.398689399892817
31
0
0
LINE
5
701
100
AcDbEntity
8
0
100
AcDbLine
10
-68.378304690730545
20
-69.398689399892817
30
0
11
-67.948502419379508
21
-69.398689399892817
31
0
0
LINE
5
702
100
AcDbEntity
8
0
100
AcDbLine
10
-67.948502419379508
20
-69.398689399892817
30
0
11
-67.920470849611263
21
-69.393083085939082
31
0
0
SPLINE
5
703
100
AcDbEntity
8
0
100
AcDbSpline
70
0
71
3
72
8
73
4
74
0
42
0.000000001
43
0.0000000001
44
0.0000000001
40
21.69790016484118
40
21.69790016484118
40
21.69790016484118
40
21.69790016484118
40
22.69790016484118
40
22.69790016484118
40
22.69790016484118
40
22.69790016484118
10
-67.920470849611263
20
-69.393083085939082
30
0
10
-67.706227945129456
20
-69.393083085939082
30
0
10
-67.523080790105325
20
-69.493996737102464
30
0
10
-67.371097477422097
20
-69.695801341801626
30
0
0
SPLINE
5
704
100
AcDbEntity
8
0
100
AcDbSpline
70
0
71
3
72
8
73
4
74
0
42
0.000000001
43
0.0000000001
44
0.0000000001
40
22.69790016484118
40
22.69790016484118
40
22.69790016484118
40
22.69790016484118
40
23.69790016484118
40
23.69790016484118
40
23.69790016484118
40
23.69790016484118
10
-67.371097477422097
20
-69.695801341801626
30
0
10
-67.295105821080767
20
-69.807927620871766
30
0
10
-67.257109992910102
20
-69.93006355359995
30
0
10
-67.257109992910102
20
-70.062072954222145
30
0
0
LINE
5
705
100
AcDbEntity
8
0
100
AcDbLine
10
-67.257109992910102
20
-70.062072954222145
30
0
11
-67.257109992910102
21
-70.082614306966633
31
0
0
SPLINE
5
706
100
AcDbEntity
8
0
100
AcDbSpline
70
0
71
3
72
8
73
4
74
0
42
0.000000001
43
0.0000000001
44
0.0000000001
40
24.60290016484127
40
24.60290016484127
40
24.60290016484127
40
24.60290016484127
40
25.60290016484127
40
25.60290016484127
40
25.60290016484127
40
25.60290016484127
10
-67.257109992910102
20
-70.082614306966633
30
0
10
-67.257109992910102
20
-70.243336206176394
30
0
10
-67.32064065184062
20
-70.395955052425023
30
0
10
-67.447701969701654
20
-70.540470845712804
30
0
0
SPLINE
5
707
100
AcDbEntity
8
0
100
AcDbSpline
70
0
71
3
72
8
73
4
74
0
42
0.000000001
43
0.0000000001
44
0.0000000001
40
25.60290016484127
40
25.60290016484127
40
25.60290016484127
40
25.60290016484127
40
26.60290016484127
40
26.60290016484127
40
26.60290016484127
40
26.60290016484127
10
-67.447701969701654
20
-70.540470845712804
30
0
10
-67.14248697483157
20
-70.708660264318013
30
0
10
-66.989890826210683
20
-70.952818641637663
30
0
10
-66.989890826210683
20
-71.272945977671185
30
0
0
SPLINE
5
708
100
AcDbEntity
8
0
100
AcDbSpline
70
0
71
3
72
8
73
4
74
0
42
0.000000001
43
0.0000000001
44
0.0000000001
40
26.60290016484127
40
26.60290016484127
40
26.60290016484127
40
26.60290016484127
40
27.60290016484127
40
27.60290016484127
40
27.60290016484127
40
27.60290016484127
10
-66.989890826210683
20
-71.272945977671185
30
0
10
-66.989890826210683
20
-71.594367078463819
30
0
10
-67.156831875312548
20
-71.841022194791151
30
0
10
-67.490691275888537
20
-72.012934024280923
30
0
0
SPLINE
5
709
100
AcDbEntity
8
0
100
AcDbSpline
70
0
71
3
72
8
73
4
74
0
42
0.000000001
43
0.0000000001
44
0.0000000001
40
27.60290016484127
40
27.60290016484127
40
27.60290016484127
40
27.60290016484127
40
28.60290016484127
40
28.60290016484127
40
28.60290016484127
40
28.60290016484127
10
-67.490691275888537
20
-72.012934024280923
30
0
10
-67.597846774570769
20
-72.050317016513503
30
0
10
-67.693744250090333
20
-72.068997163815709
30
0
10
-67.778451795332728
20
-72.068997163815709
30
0
0
LINE
5
710
100
AcDbEntity
8
0
100
AcDbLine
10
-67.778451795332728
20
-72.068997163815709
30
0
11
-68.41194257445153
21
-72.068997163815709
31
0
0
SPLINE
5
711
100
AcDbEntity
8
0
100
AcDbSpline
70
0
71
3
72
8
73
4
74
0
42
0.000000001
43
0.0000000001
44
0.0000000001
40
56.51290016484122
40
56.51290016484122
40
56.51290016484122
40
56.51290016484122
40
57.51290016484122
40
57.51290016484122
40
57.51290016484122
40
57.51290016484122
10
-68.41194257445153
20
-72.068997163815709
30
0
10
-68.501620900080695
20
-72.052859150775532
30
0
10
-68.546471411708296
20
-72.008008639147505
30
0
10
-68.546471411708296
20
-71.934445628931343
30
0
0
LINE
5
712
100
AcDbEntity
8
0
100
AcDbLine
10
-68.546471411708296
20
-71.934445628931343
30
0
11
-68.546471411708296
21
-69.533240934776899
31
0
0
SPLINE
5
713
100
AcDbEntity
8
0
100
AcDbSpline
70
0
71
3
72
8
73
4
74
0
42
0.000000001
43
0.0000000001
44
0.0000000001
40
163.3039001648412
40
163.3039001648412
40
163.3039001648412
40
163.3039001648412
40
164.3039001648412
40
164.3039001648412
40
164.3039001648412
40
164.3039001648412
10
-68.546471411708296
20
-69.533240934776899
30
0
10
-68.532807440049339
20
-69.443539911520702
30
0
10
-68.487956928420033
20
-69.398689399892817
30
0
10
-68.41194257445153
20
-69.398689399892817
30
0
0
LINE
5
714
100
AcDbEntity
8
0
100
AcDbLine
10
-68.41194257445153
20
-69.398689399892817
30
0
11
-68.41194257445153
21
-69.393083085939082
31
0
0
LINE
5
715
100
AcDbEntity
8
0
100
AcDbLine
10
-75.856087953385156
20
-68.697643672514204
30
0
11
-76.25642870444608
21
-68.697643672514204
31
0
0
SPLINE
5
716
100
AcDbEntity
8
0
100
AcDbSpline
70
0
71
3
72
8
73
4
74
0
42
0.000000001
43
0.0000000001
44
0.0000000001
40
251.73707823723208
40
251.73707823723208
40
251.73707823723208
40
251.73707823723208
40
252.73707823723208
40
252.73707823723208
40
252.73707823723208
40
252.73707823723208
10
-76.256428704446364
20
-68.697643672514204
30
0
10
-76.331103898402546
20
-68.697643672514204
30
0
10
-76.393295397319605
20
-68.749394262854508
30
0
10
-76.399378361447532
20
-68.823842480536683
30
0
0
LINE
5
717
100
AcDbEntity
8
0
100
AcDbLine
10
-76.399378361447532
20
-68.823842480536683
30
0
11
-76.434196521790625
21
-69.247561787760219
31
0
0
SPLINE
5
718
100
AcDbEntity
8
0
100
AcDbSpline
70
0
71
3
72
8
73
4
74
0
42
0.000000001
43
0.0000000001
44
0.0000000001
40
271.46799866309465
40
271.46799866309465
40
271.46799866309465
40
271.46799866309465
40
272.46799866309465
40
272.46799866309465
40
272.46799866309465
40
272.46799866309465
10
-76.434196521790625
20
-69.247561787760219
30
0
10
-76.615595959508198
20
-69.314792159947842
30
0
10
-76.782400822846455
20
-69.410644240213628
30
0
10
-76.928550845302368
20
-69.531985755985204
30
0
0
LINE
5
719
100
AcDbEntity
8
0
100
AcDbLine
10
-76.928550845302368
20
-69.531985755985204
30
0
11
-77.315704274878669
21
-69.347998788749265
31
0
0
SPLINE
5
720
100
AcDbEntity
8
0
100
AcDbSpline
70
0
71
3
72
8
73
4
74
0
42
0.000000001
43
0.0000000001
44
0.0000000001
40
291.35313792654733
40
291.35313792654733
40
291.35313792654733
40
291.35313792654733
40
292.35313792654733
40
292.35313792654733
40
292.35313792654733
40
292.35313792654733
10
-77.315704274878669
20
-69.347998788749265
30
0
10
-77.383207018593509
20
-69.316040529451897
30
0
10
-77.463942479049308
20
-69.340894431391433
30
0
10
-77.501302773654572
20
-69.405582669316459
30
0
0
LINE
5
721
100
AcDbEntity
8
0
100
AcDbLine
10
-77.501302773654572
20
-69.405582669316459
30
0
11
-77.914149917381508
21
-70.120512535339827
31
0
0
SPLINE
5
722
100
AcDbEntity
8
0
100
AcDbSpline
70
0
71
3
72
8
73
4
74
0
42
0.000000001
43
0.0000000001
44
0.0000000001
40
328.72570623014667
40
328.72570623014667
40
328.72570623014667
40
328.72570623014667
40
329.72570623014667
40
329.72570623014667
40
329.72570623014667
40
329.72570623014667
10
-77.914149917381508
20
-70.120512535339827
30
0
10
-77.95148751435903
20
-70.185200773264995
30
0
10
-77.932943552820291
20
-70.267615858144268
30
0
10
-77.871523773233378
20
-70.310105816528932
30
0
0
LINE
5
723
100
AcDbEntity
8
0
100
AcDbLine
10
-77.871523773233378
20
-70.310105816528932
30
0
11
-77.519120411118081
21
-70.553787543674673
31
0
0
SPLINE
5
724
100
AcDbEntity
8
0
100
AcDbSpline
70
0
71
3
72
8
73
4
74
0
42
0.000000001
43
0.0000000001
44
0.0000000001
40
348.60210344995528
40
348.60210344995528
40
348.60210344995528
40
348.60210344995528
40
349.60210344995528
40
349.60210344995528
40
349.60210344995528
40
349.60210344995528
10
-77.519120411118081
20
-70.553787543674673
30
0
10
-77.53480447161138
20
-70.646598141876211
30
0
10
-77.543429570001479
20
-70.741791990949281
30
0
10
-77.543429570001479
20
-70.839074021737787
30
0
0
SPLINE
5
725
100
AcDbEntity
8
0
100
AcDbSpline
70
0
71
3
72
8
73
4
74
0
42
0.000000001
43
0.0000000001
44
0.0000000001
40
349.60210344995528
40
349.60210344995528
40
349.60210344995528
40
349.60210344995528
40
350.60210344995528
40
350.60210344995528
40
350.60210344995528
40
350.60210344995528
10
-77.543429570001479
20
-70.839074021737787
30
0
10
-77.543429570001479
20
-70.936356052526293
30
0
10
-77.53480447161138
20
-71.031572599226678
30
0
10
-77.519120411118081
20
-71.124383197429069
30
0
0
LINE
5
726
100
AcDbEntity
8
0
100
AcDbLine
10
-77.519120411118081
20
-71.124383197429069
30
0
11
-77.871523773233378
21
-71.368087622201699
31
0
0
SPLINE
5
727
100
AcDbEntity
8
0
100
AcDbSpline
70
0
71
3
72
8
73
4
74
0
42
0.000000001
43
0.0000000001
44
0.0000000001
40
369.4790694402833
40
369.4790694402833
40
369.4790694402833
40
369.4790694402833
40
370.4790694402833
40
370.4790694402833
40
370.4790694402833
40
370.4790694402833
10
-77.871523773233378
20
-71.368087622201699
30
0
10
-77.932943552820291
20
-71.410577580586079
30
0
10
-77.95148751435903
20
-71.493106153602355
30
0
10
-77.914149917381508
20
-71.557794391527381
30
0
0
LINE
5
728
100
AcDbEntity
8
0
100
AcDbLine
10
-77.914149917381508
20
-71.557794391527381
30
0
11
-77.501302773654572
21
-72.272883140942099
31
0
0
SPLINE
5
729
100
AcDbEntity
8
0
100
AcDbSpline
70
0
71
3
72
8
73
4
74
0
42
0.000000001
43
0.0000000001
44
0.0000000001
40
406.85769978833235
40
406.85769978833235
40
406.85769978833235
40
406.85769978833235
40
407.85769978833235
40
407.85769978833235
40
407.85769978833235
40
407.85769978833235
10
-77.501302773654572
20
-72.272883140942099
30
0
10
-77.463942479049308
20
-72.337571378867267
30
0
10
-77.383207018593509
20
-72.362765745217388
30
0
10
-77.315704274878669
20
-72.330807485919308
30
0
0
LINE
5
730
100
AcDbEntity
8
0
100
AcDbLine
10
-77.315704274878669
20
-72.330807485919308
30
0
11
-76.928550845302368
21
-72.147524145131428
31
0
0
SPLINE
5
731
100
AcDbEntity
8
0
100
AcDbSpline
70
0
71
3
72
8
73
4
74
0
42
0.000000001
43
0.0000000001
44
0.0000000001
40
426.72955380430017
40
426.72955380430017
40
426.72955380430017
40
426.72955380430017
40
427.72955380430017
40
427.72955380430017
40
427.72955380430017
40
427.72955380430017
10
-76.928550845302368
20
-72.147524145131428
30
0
10
-76.782400822846455
20
-72.268865660902719
30
0
10
-76.615595959508198
20
-72.366102296436594
30
0
10
-76.434196521790625
20
-72.433332668624075
30
0
0
LINE
5
732
100
AcDbEntity
8
0
100
AcDbLine
10
-76.434196521790625
20
-72.433332668624075
30
0
11
-76.399378361447532
21
-72.860275038929814
31
0
0
SPLINE
5
733
100
AcDbEntity
8
0
100
AcDbSpline
70
0
71
3
72
8
73
4
74
0
42
0.000000001
43
0.0000000001
44
0.0000000001
40
446.60200081045167
40
446.60200081045167
40
446.60200081045167
40
446.60200081045167
40
447.60200081045167
40
447.60200081045167
40
447.60200081045167
40
447.60200081045167
10
-76.399378361447532
20
-72.860275038929814
30
0
10
-76.393295397319605
20
-72.934723256612273
30
0
10
-76.331103898402546
20
-72.99248871819799
30
0
10
-76.256428704446364
20
-72.99248871819799
30
0
0
LINE
5
734
100
AcDbEntity
8
0
100
AcDbLine
10
-76.256428704446364
20
-72.99248871819799
30
0
11
-75.856087953385156
21
-72.99248871819799
31
0
0
SPLINE
5
735
100
AcDbEntity
8
0
100
AcDbSpline
70
0
71
3
72
8
73
4
74
0
42
0.000000001
43
0.0000000001
44
0.0000000001
40
465.51825408556101
40
465.51825408556101
40
465.51825408556101
40
465.51825408556101
40
466.51825408556101
40
466.51825408556101
40
466.51825408556101
40
466.51825408556101
10
-75.856087953385156
20
-71.763139826091873
30
0
10
-76.362313135997226
20
-71.763139826091873
30
0
10
-76.774161584121714
20
-71.351314075595837
30
0
10
-76.774161584121714
20
-70.845066195356168
30
0
0
SPLINE
5
736
100
AcDbEntity
8
0
100
AcDbSpline
70
0
71
3
72
8
73
4
74
0
42
0.000000001
43
0.0000000001
44
0.0000000001
40
466.51825408556101
40
466.51825408556101
40
466.51825408556101
40
466.51825408556101
40
467.51825408556101
40
467.51825408556101
40
467.51825408556101
40
467.51825408556101
10
-76.774161584121714
20
-70.845066195356168
30
0
10
-76.774161584121714
20
-70.33881831511664
30
0
10
-76.362313135997226
20
-69.926992564620463
30
0
10
-75.856087953385156
20
-69.926992564620463
30
0
0
LINE
5
737
100
AcDbEntity
8
0
100
AcDbLine
10
87.789930657721385
20
46.440435274959668
30
0
11
80.289930657721385
21
46.440435274959668
31
0
0
LINE
5
738
100
AcDbEntity
8
0
100
AcDbLine
10
117.78993065772138
20
18.440435274959668
30
0
11
110.28993065772138
21
18.440435274959668
31
0
0
LINE
5
739
100
AcDbEntity
8
0
100
AcDbLine
10
57.789930657721378
20
18.440435274959668
30
0
11
65.289930657721385
21
18.440435274959668
31
0
0
LINE
5
740
100
AcDbEntity
8
0
100
AcDbLine
10
65.289930657721385
20
49.440435274959668
30
0
11
65.289930657721385
21
46.440435274959668
31
0
0
LINE
5
741
100
AcDbEntity
8
0
100
AcDbLine
10
80.289930657721385
20
18.440435274959668
30
0
11
87.789930657721385
21
18.440435274959668
31
0
0
LINE
5
742
100
AcDbEntity
8
0
100
AcDbLine
10
65.289930657721385
20
15.440435274959672
30
0
11
80.289930657721385
21
15.440435274959672
31
0
0
LINE
5
743
100
AcDbEntity
8
0
100
AcDbLine
10
110.28993065772138
20
15.44043527495967
30
0
11
95.289930657721385
21
15.44043527495967
31
0
0
LINE
5
744
100
AcDbEntity
8
0
100
AcDbLine
10
110.28993065772138
20
18.440435274959668
30
0
11
110.28993065772138
21
15.44043527495967
31
0
0
LINE
5
745
100
AcDbEntity
8
0
100
AcDbLine
10
65.289930657721385
20
18.440435274959668
30
0
11
65.289930657721385
21
15.440435274959672
31
0
0
LINE
5
746
100
AcDbEntity
8
0
100
AcDbLine
10
117.78993065772138
20
46.440435274959668
30
0
11
117.78993065772138
21
18.440435274959668
31
0
0
LWPOLYLINE
5
747
100
AcDbEntity
8
0
100
AcDbPolyline
90
4
70
1
43
0.0
10
66.289930657721371
20
26.440435274959668
10
66.289930657721371
20
38.440435274959668
10
85.289930657721385
20
38.440435274959668
10
85.289930657721385
20
26.440435274959668
0
CIRCLE
5
748
100
AcDbEntity
8
0
100
AcDbCircle
10
102.78993065772138
20
32.440435274959668
30
0
40
6.0000000000000009
210
0
220
0
230
1
0
CIRCLE
5
749
100
AcDbEntity
8
0
100
AcDbCircle
10
40.333636661292132
20
44.868798933313059
30
0
40
5
210
0
220
0
230
1
0
CIRCLE
5
750
100
AcDbEntity
8
0
100
AcDbCircle
10
40.333636661292132
20
44.868798933313059
30
0
40
1.6000000000000014
210
0
220
0
230
1
0
LINE
5
751
100
AcDbEntity
8
0
100
AcDbLine
10
110.28993065772138
20
46.440435274959668
30
0
11
117.78993065772138
21
46.440435274959668
31
0
0
LINE
5
752
100
AcDbEntity
8
0
100
AcDbLine
10
95.289930657721385
20
18.440435274959668
30
0
11
87.789930657721385
21
18.440435274959668
31
0
0
LINE
5
753
100
AcDbEntity
8
0
100
AcDbLine
10
57.789930657721378
20
46.440435274959668
30
0
11
57.789930657721378
21
18.440435274959668
31
0
0
LINE
5
754
100
AcDbEntity
8
0
100
AcDbLine
10
80.289930657721385
20
46.440435274959668
30
0
11
80.289930657721385
21
49.440435274959668
31
0
0
LINE
5
755
100
AcDbEntity
8
0
100
AcDbLine
10
80.289930657721385
20
15.440435274959672
30
0
11
80.289930657721385
21
18.440435274959668
31
0
0
LINE
5
756
100
AcDbEntity
8
0
100
AcDbLine
10
95.289930657721385
20
46.440435274959668
30
0
11
95.289930657721385
21
49.440435274959668
31
0
0
LINE
5
757
100
AcDbEntity
8
0
100
AcDbLine
10
80.289930657721385
20
49.440435274959668
30
0
11
65.289930657721385
21
49.440435274959668
31
0
0
LINE
5
758
100
AcDbEntity
8
0
100
AcDbLine
10
110.28993065772138
20
49.440435274959668
30
0
11
110.28993065772138
21
46.440435274959668
31
0
0
LINE
5
759
100
AcDbEntity
8
0
100
AcDbLine
10
65.289930657721385
20
46.440435274959668
30
0
11
57.789930657721378
21
46.440435274959668
31
0
0
LINE
5
760
100
AcDbEntity
8
0
100
AcDbLine
10
87.789930657721385
20
46.440435274959668
30
0
11
95.289930657721385
21
46.440435274959668
31
0
0
LINE
5
761
100
AcDbEntity
8
0
100
AcDbLine
10
95.289930657721385
20
49.440435274959668
30
0
11
110.28993065772138
21
49.440435274959668
31
0
0
LINE
5
762
100
AcDbEntity
8
0
100
AcDbLine
10
95.289930657721385
20
15.44043527495967
30
0
11
95.289930657721385
21
18.440435274959668
31
0
0
ENDSEC
0
SECTION
2
OBJECTS
0
DICTIONARY
5
C
100
AcDbDictionary
3
ACAD_GROUP
350
D
3
ACAD_MLINESTYLE
350
17
0
DICTIONARY
5
D
100
AcDbDictionary
0
DICTIONARY
5
1A
330
C
100
AcDbDictionary
0
DICTIONARY
5
17
100
AcDbDictionary
0
ENDSEC
0
EOF
