  0
SECTION
  2
HEADER
  9
$ACADVER
  1
AC1015
  9
$ACADMAINTVER
 70
     6
  9
$DWGCODEPAGE
  3
ANSI_1252
  9
$INSBASE
 10
0.0
 20
0.0
 30
0.0
  9
$EXTMIN
 10
1.000000E+20
 20
1.000000E+20
 30
1.000000E+20
  9
$EXTMAX
 10
-1.000000E+20
 20
-1.000000E+20
 30
-1.000000E+20
  9
$LIMMIN
 10
0.0
 20
0.0
  9
$LIMMAX
 10
420.0
 20
297.0
  9
$ORTHOMODE
 70
     0
  9
$REGENMODE
 70
     1
  9
$FILLMODE
 70
     1
  9
$QTEXTMODE
 70
     0
  9
$MIRRTEXT
 70
     1
  9
$LTSCALE
 40
1.0
  9
$ATTMODE
 70
     1
  9
$TEXTSIZE
 40
2.5
  9
$TRACEWID
 40
1.0
  9
$TEXTSTYLE
  7
Standard
  9
$CLAYER
  8
0
  9
$CELTYPE
  6
ByLayer
  9
$CECOLOR
 62
   256
  9
$CELTSCALE
 40
1.0
  9
$DISPSILH
 70
     0
  9
$DIMSCALE
 40
1.0
  9
$DIMASZ
 40
2.5
  9
$DIMEXO
 40
0.625
  9
$DIMDLI
 40
3.75
  9
$DIMRND
 40
0.0
  9
$DIMDLE
 40
0.0
  9
$DIMEXE
 40
1.25
  9
$DIMTP
 40
0.0
  9
$DIMTM
 40
0.0
  9
$DIMTXT
 40
2.5
  9
$DIMCEN
 40
2.5
  9
$DIMTSZ
 40
0.0
  9
$DIMTOL
 70
     0
  9
$DIMLIM
 70
     0
  9
$DIMTIH
 70
     0
  9
$DIMTOH
 70
     0
  9
$DIMSE1
 70
     0
  9
$DIMSE2
 70
     0
  9
$DIMTAD
 70
     1
  9
$DIMZIN
 70
     8
  9
$DIMBLK
  1

  9
$DIMASO
 70
     1
  9
$DIMSHO
 70
     1
  9
$DIMPOST
  1

  9
$DIMAPOST
  1

  9
$DIMALT
 70
     0
  9
$DIMALTD
 70
     3
  9
$DIMALTF
 40
0.03937
  9
$DIMLFAC
 40
1.0
  9
$DIMTOFL
 70
     1
  9
$DIMTVP
 40
0.0
  9
$DIMTIX
 70
     0
  9
$DIMSOXD
 70
     0
  9
$DIMSAH
 70
     0
  9
$DIMBLK1
  1

  9
$DIMBLK2
  1

  9
$DIMSTYLE
  2
ISO-25
  9
$DIMCLRD
 70
     0
  9
$DIMCLRE
 70
     0
  9
$DIMCLRT
 70
     0
  9
$DIMTFAC
 40
1.0
  9
$DIMGAP
 40
0.625
  9
$DIMJUST
 70
     0
  9
$DIMSD1
 70
     0
  9
$DIMSD2
 70
     0
  9
$DIMTOLJ
 70
     0
  9
$DIMTZIN
 70
     8
  9
$DIMALTZ
 70
     0
  9
$DIMALTTZ
 70
     0
  9
$DIMUPT
 70
     0
  9
$DIMDEC
 70
     2
  9
$DIMTDEC
 70
     2
  9
$DIMALTU
 70
     2
  9
$DIMALTTD
 70
     3
  9
$DIMTXSTY
  7
Standard
  9
$DIMAUNIT
 70
     0
  9
$DIMADEC
 70
     0
  9
$DIMALTRND
 40
0.0
  9
$DIMAZIN
 70
     0
  9
$DIMDSEP
 70
    44
  9
$DIMATFIT
 70
     3
  9
$DIMFRAC
 70
     0
  9
$DIMLDRBLK
  1

  9
$DIMLUNIT
 70
     2
  9
$DIMLWD
 70
    -2
  9
$DIMLWE
 70
    -2
  9
$DIMTMOVE
 70
     0
  9
$LUNITS
 70
     2
  9
$LUPREC
 70
     4
  9
$SKETCHINC
 40
1.0
  9
$FILLETRAD
 40
10.0
  9
$AUNITS
 70
     0
  9
$AUPREC
 70
     0
  9
$MENU
  1
.
  9
$ELEVATION
 40
0.0
  9
$PELEVATION
 40
0.0
  9
$THICKNESS
 40
0.0
  9
$LIMCHECK
 70
     0
  9
$CHAMFERA
 40
10.0
  9
$CHAMFERB
 40
10.0
  9
$CHAMFERC
 40
20.0
  9
$CHAMFERD
 40
0.0
  9
$SKPOLY
 70
     0
  9
$TDCREATE
 40
2455270.177155301
  9
$TDUCREATE
 40
2455269.635488635
  9
$TDUPDATE
 40
2455270.177155313
  9
$TDUUPDATE
 40
2455269.635488646
  9
$TDINDWG
 40
0.0000000116
  9
$TDUSRTIMER
 40
0.0000000116
  9
$USRTIMER
 70
     1
  9
$ANGBASE
 50
0.0
  9
$ANGDIR
 70
     0
  9
$PDMODE
 70
     3
  9
$PDSIZE
 40
-0.7
  9
$PLINEWID
 40
0.0
  9
$SPLFRAME
 70
     0
  9
$SPLINETYPE
 70
     6
  9
$SPLINESEGS
 70
     8
  9
$HANDSEED
  5
57
  9
$SURFTAB1
 70
     6
  9
$SURFTAB2
 70
     6
  9
$SURFTYPE
 70
     6
  9
$SURFU
 70
     6
  9
$SURFV
 70
     6
  9
$UCSBASE
  2

  9
$UCSNAME
  2

  9
$UCSORG
 10
0.0
 20
0.0
 30
0.0
  9
$UCSXDIR
 10
1.0
 20
0.0
 30
0.0
  9
$UCSYDIR
 10
0.0
 20
1.0
 30
0.0
  9
$UCSORTHOREF
  2

  9
$UCSORTHOVIEW
 70
     0
  9
$UCSORGTOP
 10
0.0
 20
0.0
 30
0.0
  9
$UCSORGBOTTOM
 10
0.0
 20
0.0
 30
0.0
  9
$UCSORGLEFT
 10
0.0
 20
0.0
 30
0.0
  9
$UCSORGRIGHT
 10
0.0
 20
0.0
 30
0.0
  9
$UCSORGFRONT
 10
0.0
 20
0.0
 30
0.0
  9
$UCSORGBACK
 10
0.0
 20
0.0
 30
0.0
  9
$PUCSBASE
  2

  9
$PUCSNAME
  2

  9
$PUCSORG
 10
0.0
 20
0.0
 30
0.0
  9
$PUCSXDIR
 10
1.0
 20
0.0
 30
0.0
  9
$PUCSYDIR
 10
0.0
 20
1.0
 30
0.0
  9
$PUCSORTHOREF
  2

  9
$PUCSORTHOVIEW
 70
     0
  9
$PUCSORGTOP
 10
0.0
 20
0.0
 30
0.0
  9
$PUCSORGBOTTOM
 10
0.0
 20
0.0
 30
0.0
  9
$PUCSORGLEFT
 10
0.0
 20
0.0
 30
0.0
  9
$PUCSORGRIGHT
 10
0.0
 20
0.0
 30
0.0
  9
$PUCSORGFRONT
 10
0.0
 20
0.0
 30
0.0
  9
$PUCSORGBACK
 10
0.0
 20
0.0
 30
0.0
  9
$USERI1
 70
     0
  9
$USERI2
 70
     0
  9
$USERI3
 70
     0
  9
$USERI4
 70
     0
  9
$USERI5
 70
     0
  9
$USERR1
 40
0.0
  9
$USERR2
 40
0.0
  9
$USERR3
 40
0.0
  9
$USERR4
 40
0.0
  9
$USERR5
 40
0.0
  9
$WORLDVIEW
 70
     1
  9
$SHADEDGE
 70
     3
  9
$SHADEDIF
 70
    70
  9
$TILEMODE
 70
     1
  9
$MAXACTVP
 70
    64
  9
$PINSBASE
 10
0.0
 20
0.0
 30
0.0
  9
$PLIMCHECK
 70
     0
  9
$PEXTMIN
 10
1.000000E+20
 20
1.000000E+20
 30
1.000000E+20
  9
$PEXTMAX
 10
-1.000000E+20
 20
-1.000000E+20
 30
-1.000000E+20
  9
$PLIMMIN
 10
0.0
 20
0.0
  9
$PLIMMAX
 10
420.0
 20
297.0
  9
$UNITMODE
 70
     0
  9
$VISRETAIN
 70
     1
  9
$PLINEGEN
 70
     0
  9
$PSLTSCALE
 70
     1
  9
$TREEDEPTH
 70
  3020
  9
$CMLSTYLE
  2
Standard
  9
$CMLJUST
 70
     1
  9
$CMLSCALE
 40
1.0
  9
$PROXYGRAPHICS
 70
     1
  9
$MEASUREMENT
 70
     1
  9
$CELWEIGHT
370
    -1
  9
$ENDCAPS
280
     0
  9
$JOINSTYLE
280
     0
  9
$LWDISPLAY
290
     0
  9
$INSUNITS
 70
     4
  9
$HYPERLINKBASE
  1

  9
$STYLESHEET
  1

  9
$XEDIT
290
     1
  9
$CEPSNTYPE
380
     0
  9
$PSTYLEMODE
290
     1
  9
$FINGERPRINTGUID
  2
{FAEB1C30-E019-11D5-929B-00C0DF256EC4}
  9
$VERSIONGUID
  2
{FAEB1C32-E019-11D5-929B-00C0DF256EC4}
  9
$EXTNAMES
290
     1
  9
$PSVPSCALE
 40
0.0
  9
$OLESTARTUP
290
     0
  0
ENDSEC
  0
SECTION
  2
CLASSES
  0
CLASS
  1
ACDBDICTIONARYWDFLT
  2
AcDbDictionaryWithDefault
  3
ObjectDBX Classes
 90
        0
280
     0
281
     0
  0
CLASS
  1
ACDBPLACEHOLDER
  2
AcDbPlaceHolder
  3
ObjectDBX Classes
 90
        0
280
     0
281
     0
  0
CLASS
  1
LAYOUT
  2
AcDbLayout
  3
ObjectDBX Classes
 90
        0
280
     0
281
     0
  0
ENDSEC
  0
SECTION
  2
TABLES
  0
TABLE
  2
VPORT
  5
8
330
0
100
AcDbSymbolTable
 70
     2
  0
VPORT
  5
29
330
8
100
AcDbSymbolTableRecord
100
AcDbViewportTableRecord
  2
*Active
 70
     0
 10
0.0
 20
0.0
 11
1.0
 21
1.0
 12
50.0
 22
50.0
 13
0.0
 23
0.0
 14
10.0
 24
10.0
 15
10.0
 25
10.0
 16
0.0
 26
0.0
 36
1.0
 17
0.0
 27
0.0
 37
0.0
 40
103.921569
 41
1.0
 42
50.0
 43
0.0
 44
0.0
 50
0.0
 51
0.0
 71
     0
 72
   100
 73
     1
 74
     3
 75
     0
 76
     0
 77
     0
 78
     0
281
     0
 65
     1
110
0.0
120
0.0
130
0.0
111
1.0
121
0.0
131
0.0
112
0.0
122
1.0
132
0.0
 79
     0
146
0.0
  0
ENDTAB
  0
TABLE
  2
LTYPE
  5
5
330
0
100
AcDbSymbolTable
 70
     1
  0
LTYPE
  5
14
330
5
100
AcDbSymbolTableRecord
100
AcDbLinetypeTableRecord
  2
ByBlock
 70
     0
  3

 72
    65
 73
     0
 40
0.0
  0
LTYPE
  5
15
330
5
100
AcDbSymbolTableRecord
100
AcDbLinetypeTableRecord
  2
ByLayer
 70
     0
  3

 72
    65
 73
     0
 40
0.0
  0
LTYPE
  5
16
330
5
100
AcDbSymbolTableRecord
100
AcDbLinetypeTableRecord
  2
Continuous
 70
     0
  3

 72
    65
 73
     0
 40
0.0
  0
ENDTAB
  0
TABLE
  2
LAYER
  5
2
330
0
100
AcDbSymbolTable
 70
     1
  0
LAYER
  5
10
330
2
100
AcDbSymbolTableRecord
100
AcDbLayerTableRecord
  2
0
 70
     0
 62
     7
  6
Continuous
370
    -3
390
F
  0
ENDTAB
  0
TABLE
  2
STYLE
  5
3
330
0
100
AcDbSymbolTable
 70
     1
  0
STYLE
  5
11
330
3
100
AcDbSymbolTableRecord
100
AcDbTextStyleTableRecord
  2
Standard
 70
     0
 40
1.0
 41
1.0
 50
0.0
 71
     0
 42
2.5
  3
RomanS
  4

  0
ENDTAB
  0
TABLE
  2
VIEW
  5
6
330
0
100
AcDbSymbolTable
 70
     0
  0
ENDTAB
  0
TABLE
  2
UCS
  5
7
330
0
100
AcDbSymbolTable
 70
     0
  0
ENDTAB
  0
TABLE
  2
APPID
  5
9
330
0
100
AcDbSymbolTable
 70
     1
  0
APPID
  5
12
330
9
100
AcDbSymbolTableRecord
100
AcDbRegAppTableRecord
  2
ACAD
 70
     0
  0
ENDTAB
  0
TABLE
  2
DIMSTYLE
  5
A
330
0
100
AcDbSymbolTable
 70
     1
100
AcDbDimStyleTable
  0
DIMSTYLE
105
27
330
A
100
AcDbSymbolTableRecord
100
AcDbDimStyleTableRecord
  2
ISO-25
 70
     0
 41
2.5
 42
0.625
 44
1.25
 73
     0
 74
     0
 77
     1
 78
     8
 79
     2
140
2.5
141
2.5
146
0.0
147
0.625
271
     2
272
     0
273
     0
274
     0
278
    44
283
     0
289
     0
340
11
  0
ENDTAB
  0
TABLE
  2
BLOCK_RECORD
  5
1
330
0
100
AcDbSymbolTable
 70
     1
  0
BLOCK_RECORD
  5
1F
330
1
100
AcDbSymbolTableRecord
100
AcDbBlockTableRecord
  2
*Model_Space
340
22
  0
BLOCK_RECORD
  5
1B
330
1
100
AcDbSymbolTableRecord
100
AcDbBlockTableRecord
  2
*Paper_Space
340
1E
  0
BLOCK_RECORD
  5
23
330
1
100
AcDbSymbolTableRecord
100
AcDbBlockTableRecord
  2
*Paper_Space0
340
26
  0
ENDTAB
  0
ENDSEC
  0
SECTION
  2
BLOCKS
  0
BLOCK
  5
20
330
1F
100
AcDbEntity
  8
0
100
AcDbBlockBegin
  2
*Model_Space
 70
     0
 71
     0
 10
0.0
 20
0.0
 30
0.0
  3
*Model_Space
  1

  0
ENDBLK
  5
21
330
1F
100
AcDbEntity
  8
0
100
AcDbBlockEnd
  0
BLOCK
  5
1C
330
1B
100
AcDbEntity
 67
     1
  8
0
100
AcDbBlockBegin
  2
*Paper_Space
 70
     0
 71
     0
 10
0.0
 20
0.0
 30
0.0
  3
*Paper_Space
  1

  0
ENDBLK
  5
1D
330
1B
100
AcDbEntity
 67
     1
  8
0
100
AcDbBlockEnd
  0
BLOCK
  5
24
330
23
100
AcDbEntity
  8
0
100
AcDbBlockBegin
  2
*Paper_Space0
 70
     0
 71
     0
 10
0.0
 20
0.0
 30
0.0
  3
*Paper_Space0
  1

  0
ENDBLK
  5
25
330
23
100
AcDbEntity
  8
0
100
AcDbBlockEnd
  0
ENDSEC
  0
SECTION
  2
ENTITIES
  0
LWPOLYLINE
  5
2A
330
1F
100
AcDbEntity
  8
0
100
AcDbPolyline
 90
      211
 70
   128
 43
0.0
 10
526.497793
 20
292.904643
 10
526.29205
 20
293.018263
 10
526.099209
 20
293.145734
 10
525.91919
 20
293.287194
 10
525.751907
 20
293.442782
 10
525.597279
 20
293.612634
 10
525.455223
 20
293.796891
 10
525.325657
 20
293.99569
 10
525.208497
 20
294.209168
 10
525.103661
 20
294.437466
 10
525.011065
 20
294.68072
 10
524.930628
 20
294.93907
 10
524.862265
 20
295.212654
 10
524.805896
 20
295.50161
 10
524.761436
 20
295.806076
 10
524.728803
 20
296.12619
 10
524.689462
 20
296.694511
 10
524.686131
 20
296.921846
 10
524.694134
 20
297.038359
 42
-0.454833
 10
525.054572
 20
297.311504
 10
530.501676
 20
296.177533
 10
530.909295
 20
298.135554
 10
525.077334
 20
299.349644
 42
-0.342619
 10
524.838784
 20
299.629788
 10
524.823311
 20
299.971789
 10
524.818082
 20
300.186764
 10
524.797861
 20
300.421684
 10
524.778201
 20
300.543427
 10
524.750082
 20
300.66632
 10
524.711931
 20
300.789084
 10
524.662178
 20
300.910441
 10
524.599252
 20
301.029111
 10
524.521583
 20
301.143817
 10
524.427599
 20
301.25328
 10
524.31573
 20
301.35622
 10
524.184406
 20
301.451359
 10
524.032054
 20
301.537418
 10
523.857105
 20
301.613119
 10
523.657988
 20
301.677182
 10
503.411238
 20
307.665794
 10
503.199362
 20
307.764023
 10
502.994235
 20
307.885566
 10
502.90036
 20
307.952781
 10
502.815561
 20
308.023067
 10
502.7423
 20
308.095503
 10
502.68304
 20
308.169171
 10
502.593973
 20
308.32409
 10
502.53055
 20
308.492722
 10
502.491491
 20
308.672316
 10
502.475517
 20
308.86012
 10
502.481349
 20
309.053381
 10
502.507711
 20
309.249347
 10
502.556525
 20
309.440958
 10
502.623368
 20
309.622385
 10
502.708396
 20
309.790599
 10
502.811766
 20
309.942567
 10
502.933635
 20
310.075259
 10
503.074161
 20
310.185645
 10
503.156665
 20
310.231816
 10
503.251695
 20
310.27161
 10
503.356622
 20
310.305096
 10
503.468819
 20
310.332341
 10
503.704511
 20
310.368382
 10
503.937747
 20
310.380275
 10
524.955208
 20
308.36516
 10
525.163837
 20
308.350136
 10
525.354401
 20
308.354941
 10
525.527879
 20
308.377801
 10
525.685249
 20
308.416944
 10
525.827491
 20
308.470596
 10
525.955583
 20
308.536984
 10
526.070504
 20
308.614335
 10
526.173233
 20
308.700874
 10
526.264749
 20
308.79483
 10
526.34603
 20
308.894429
 10
526.418055
 20
308.997897
 10
526.481804
 20
309.103462
 10
526.588386
 20
309.313787
 10
526.673606
 20
309.511218
 10
526.815818
 20
309.822634
 42
-0.342619
 10
527.141805
 20
309.993279
 10
533.00476
 20
308.938989
 10
533.358728
 20
310.907417
 10
527.882673
 20
311.892133
 42
-0.454833
 10
527.650491
 20
312.280225
 10
527.686628
 20
312.391281
 10
527.774709
 20
312.600885
 10
528.02367
 20
313.113286
 10
528.173615
 20
313.397987
 10
528.328678
 20
313.663753
 10
528.488989
 20
313.910681
 10
528.654677
 20
314.138868
 10
528.825868
 20
314.348411
 10
529.002692
 20
314.539408
 10
529.185278
 20
314.711956
 10
529.373753
 20
314.866153
 10
529.568247
 20
315.002096
 10
529.768888
 20
315.119882
 10
529.975804
 20
315.219608
 10
530.189124
 20
315.301373
 10
530.408976
 20
315.365273
 10
530.635489
 20
315.411405
 10
530.868791
 20
315.439867
 10
531.109011
 20
315.450757
 10
537.522917
 20
315.110849
 10
539.15836
 20
315.002649
 10
540.440728
 20
314.908194
 10
541.418049
 20
314.820266
 10
541.807324
 20
314.776492
 10
542.138349
 20
314.731641
 10
542.417125
 20
314.684812
 10
542.649656
 20
314.635101
 10
542.841946
 20
314.581607
 10
542.999998
 20
314.523425
 10
543.129815
 20
314.459654
 10
543.237402
 20
314.389391
 10
543.328761
 20
314.311734
 10
543.409896
 20
314.22578
 10
543.494001
 20
314.114155
 10
543.570319
 20
313.984709
 10
543.638579
 20
313.840009
 10
543.698513
 20
313.68262
 10
543.749852
 20
313.51511
 10
543.792327
 20
313.340045
 10
543.825669
 20
313.159992
 10
543.849611
 20
312.977517
 10
543.863882
 20
312.795187
 10
543.868213
 20
312.615569
 10
543.862337
 20
312.441228
 10
543.845984
 20
312.274733
 10
543.828572
 20
312.174442
 42
-0.381532
 10
543.515291
 20
311.92628
 10
537.365981
 20
312.28978
 10
537.247963
 20
310.293266
 10
543.21944
 20
309.940277
 42
-0.317424
 10
543.489863
 20
309.724368
 10
543.499116
 20
309.692465
 10
543.522173
 20
309.522662
 10
543.522794
 20
309.322187
 10
543.506221
 20
309.087817
 10
543.442466
 20
308.5045
 10
543.36491
 20
307.906282
 10
543.276662
 20
307.388875
 10
543.245434
 20
307.241526
 42
-0.38663
 10
542.917899
 20
307.005664
 10
536.578096
 20
307.729995
 10
536.35107
 20
305.742921
 10
542.673782
 20
305.020543
 42
-0.416112
 10
542.937562
 20
304.686499
 10
542.8963
 20
304.344974
 10
542.820735
 20
303.86489
 10
542.730116
 20
303.382615
 10
542.63368
 20
302.951638
 10
542.583063
 20
302.774134
 42
-0.389186
 10
542.23744
 20
302.56189
 10
534.637302
 20
304.036035
 10
534.446888
 20
303.054331
 10
534.256473
 20
302.072627
 10
541.856611
 20
300.598482
 42
-0.389186
 10
542.097823
 20
300.272414
 10
542.078407
 20
300.088858
 10
542.006724
 20
299.65308
 10
541.910469
 20
299.171898
 10
541.801069
 20
298.698377
 10
541.711656
 20
298.366191
 42
-0.416112
 10
541.342118
 20
298.154987
 10
535.20783
 20
299.848805
 10
534.675505
 20
297.920949
 10
540.826375
 20
296.222552
 42
-0.38663
 10
541.041979
 20
295.88134
 10
541.015855
 20
295.733002
 10
540.904265
 20
295.220122
 10
540.752547
 20
294.636289
 10
540.5936
 20
294.071436
 10
540.521349
 20
293.847865
 10
540.445824
 20
293.66216
 10
540.360956
 20
293.51329
 10
540.340446
 20
293.48716
 42
-0.317424
 10
540.008913
 20
293.388008
 10
534.33849
 20
295.293117
 10
533.701532
 20
293.397257
 10
539.540822
 20
291.435413
 42
-0.381532
 10
539.738608
 20
291.088124
 10
539.717263
 20
290.988595
 10
539.670184
 20
290.82806
 10
539.610454
 20
290.664165
 10
539.539285
 20
290.499191
 10
539.457883
 20
290.335418
 10
539.367457
 20
290.175126
 10
539.269218
 20
290.020595
 10
539.164373
 20
289.874104
 10
539.054132
 20
289.737935
 10
538.939703
 20
289.614366
 10
538.822295
 20
289.505679
 10
538.703116
 20
289.414152
 10
538.583378
 20
289.342065
 10
538.475992
 20
289.292677
 10
538.362225
 20
289.254807
 10
538.236171
 20
289.229862
 10
538.091926
 20
289.219248
 10
537.923583
 20
289.224375
 10
537.725238
 20
289.24665
 10
537.490984
 20
289.287478
 10
537.214916
 20
289.348268
 10
536.891127
 20
289.430426
 10
536.513715
 20
289.535361
 10
535.574392
 20
289.819191
 10
534.349702
 20
290.211012
 10
532.792401
 20
290.722086
 10
526.716522
 20
292.804734
 10
526.497793
 20
292.904643
  0
LWPOLYLINE
  5
2B
330
1F
100
AcDbEntity
  8
0
100
AcDbPolyline
 90
      251
 70
   128
 43
0.0
 10
511.229756
 20
282.011703
 10
511.591111
 20
282.016516
 10
511.951221
 20
282.037001
 10
512.309851
 20
282.072988
 10
512.666767
 20
282.124308
 10
513.021736
 20
282.190791
 10
513.374524
 20
282.272269
 10
513.724896
 20
282.368572
 10
514.07262
 20
282.47953
 10
514.417462
 20
282.604975
 10
514.759187
 20
282.744736
 10
515.097562
 20
282.898645
 10
515.432353
 20
283.066533
 10
515.763327
 20
283.24823
 10
516.090249
 20
283.443566
 10
516.412885
 20
283.652372
 10
516.731003
 20
283.87448
 10
517.044367
 20
284.109719
 10
517.352745
 20
284.35792
 10
517.655902
 20
284.618915
 10
517.953605
 20
284.892533
 10
518.24562
 20
285.178606
 10
518.531713
 20
285.476964
 10
518.81165
 20
285.787437
 10
519.085198
 20
286.109857
 10
519.352123
 20
286.444054
 10
519.61219
 20
286.789859
 10
519.865167
 20
287.147102
 10
520.110818
 20
287.515614
 10
520.348912
 20
287.895226
 10
520.579213
 20
288.285768
 10
520.801488
 20
288.687071
 10
521.015503
 20
289.098967
 10
521.201337
 20
289.499286
 10
521.362881
 20
289.911946
 10
521.500121
 20
290.335337
 10
521.613046
 20
290.767847
 10
521.701644
 20
291.207867
 10
521.765903
 20
291.653787
 10
521.805811
 20
292.103996
 10
521.821357
 20
292.556885
 10
521.812527
 20
293.010842
 10
521.779311
 20
293.464259
 10
521.721697
 20
293.915523
 10
521.639672
 20
294.363027
 10
521.533224
 20
294.805158
 10
521.402342
 20
295.240307
 10
521.247014
 20
295.666865
 10
521.067228
 20
296.083219
 10
520.905592
 20
296.411586
 10
520.73081
 20
296.733506
 10
520.54304
 20
297.048882
 10
520.34244
 20
297.357615
 10
520.129168
 20
297.659605
 10
519.903381
 20
297.954755
 10
519.665237
 20
298.242965
 10
519.414895
 20
298.524137
 10
519.152512
 20
298.798172
 10
518.878246
 20
299.064971
 10
518.592256
 20
299.324436
 10
518.294698
 20
299.576467
 10
517.985731
 20
299.820967
 10
517.665513
 20
300.057837
 10
517.334201
 20
300.286977
 10
516.991954
 20
300.508289
 10
516.638929
 20
300.721675
 10
516.275284
 20
300.927035
 10
515.901178
 20
301.124271
 10
515.516768
 20
301.313284
 10
515.122211
 20
301.493975
 10
514.717667
 20
301.666247
 10
514.303292
 20
301.829999
 10
513.879244
 20
301.985133
 10
513.445683
 20
302.131552
 10
513.002764
 20
302.269155
 10
512.550647
 20
302.397844
 10
512.08949
 20
302.51752
 10
511.619449
 20
302.628086
 10
511.140683
 20
302.729441
 10
510.65335
 20
302.821487
 10
510.157608
 20
302.904126
 10
509.784163
 20
302.957044
 10
509.431894
 20
302.996086
 10
509.100741
 20
303.021239
 10
508.790644
 20
303.032489
 10
508.501542
 20
303.029821
 10
508.233376
 20
303.013221
 10
507.986085
 20
302.982674
 10
507.759608
 20
302.938166
 10
507.553887
 20
302.879683
 10
507.368861
 20
302.807211
 10
507.204469
 20
302.720735
 10
507.060652
 20
302.620241
 10
506.93735
 20
302.505714
 10
506.834501
 20
302.37714
 10
506.752047
 20
302.234505
 10
506.689927
 20
302.077795
 10
506.639767
 20
301.896236
 10
506.609155
 20
301.725282
 10
506.599496
 20
301.563446
 10
506.612199
 20
301.409239
 10
506.64867
 20
301.261174
 10
506.710315
 20
301.117763
 10
506.798541
 20
300.977518
 10
506.914755
 20
300.838951
 10
507.060363
 20
300.700574
 10
507.236772
 20
300.560899
 10
507.445389
 20
300.418438
 10
507.68762
 20
300.271704
 10
507.964872
 20
300.119208
 10
508.278552
 20
299.959462
 10
509.020821
 20
299.612271
 10
509.855531
 20
299.225911
 10
510.60721
 20
298.851896
 10
510.952483
 20
298.668727
 10
511.277681
 20
298.487698
 10
511.583032
 20
298.308491
 10
511.868765
 20
298.130791
 10
512.135107
 20
297.954282
 10
512.382287
 20
297.778649
 10
512.610531
 20
297.603576
 10
512.820068
 20
297.428746
 10
513.011125
 20
297.253845
 10
513.183931
 20
297.078556
 10
513.338714
 20
296.902564
 10
513.4757
 20
296.725552
 10
513.595119
 20
296.547206
 10
513.697198
 20
296.367209
 10
513.782164
 20
296.185245
 10
513.850245
 20
296.000999
 10
513.90167
 20
295.814155
 10
513.936667
 20
295.624398
 10
513.955462
 20
295.43141
 10
513.958284
 20
295.234878
 10
513.945361
 20
295.034484
 10
513.916921
 20
294.829913
 10
513.873191
 20
294.62085
 10
513.814399
 20
294.406978
 10
513.740774
 20
294.187981
 10
513.652542
 20
293.963545
 10
513.549933
 20
293.733353
 10
513.433173
 20
293.49709
 10
513.256732
 20
293.148925
 10
513.190083
 20
293.003728
 10
513.139162
 20
292.87354
 10
513.122342
 20
292.815304
 42
0.28659
 10
513.209269
 20
292.509618
 10
515.685264
 20
290.269038
 10
514.343308
 20
288.786084
 10
512.021091
 20
290.887506
 42
0.300727
 10
511.693928
 20
290.93738
 10
511.619994
 20
290.903207
 10
511.297028
 20
290.71985
 10
510.883833
 20
290.460875
 10
510.630055
 20
290.305649
 10
510.385881
 20
290.16841
 10
510.14997
 20
290.04901
 10
509.920982
 20
289.947297
 10
509.697578
 20
289.863123
 10
509.478415
 20
289.796337
 10
509.262155
 20
289.746789
 10
509.047456
 20
289.71433
 10
508.832978
 20
289.69881
 10
508.617381
 20
289.700079
 10
508.399324
 20
289.717987
 10
508.177467
 20
289.752384
 10
507.950469
 20
289.80312
 10
507.71699
 20
289.870046
 10
507.475689
 20
289.953012
 10
507.225227
 20
290.051868
 10
507.004558
 20
290.156493
 10
506.762353
 20
290.294017
 10
506.501442
 20
290.46184
 10
506.224654
 20
290.657359
 10
505.93482
 20
290.877973
 10
505.634767
 20
291.121081
 10
505.327327
 20
291.384082
 10
505.015328
 20
291.664374
 10
504.7016
 20
291.959356
 10
504.388972
 20
292.266426
 10
504.080275
 20
292.582983
 10
503.778337
 20
292.906426
 10
503.485988
 20
293.234153
 10
503.206058
 20
293.563563
 10
502.941375
 20
293.892054
 10
502.694771
 20
294.217026
 10
502.462047
 20
294.52189
 10
502.242849
 20
294.783674
 10
502.036273
 20
295.003128
 10
501.841419
 20
295.181
 10
501.657384
 20
295.318041
 10
501.569142
 20
295.371484
 10
501.483267
 20
295.414999
 10
501.399647
 20
295.448682
 10
501.318167
 20
295.472625
 10
501.238716
 20
295.486922
 10
501.161181
 20
295.491667
 10
501.010896
 20
295.482481
 10
500.864862
 20
295.455526
 10
500.723832
 20
295.411706
 10
500.588556
 20
295.351925
 10
500.459785
 20
295.277085
 10
500.338271
 20
295.188092
 10
500.224765
 20
295.085849
 10
500.120018
 20
294.97126
 10
500.024781
 20
294.845228
 10
499.939805
 20
294.708657
 10
499.865842
 20
294.562451
 10
499.803642
 20
294.407514
 10
499.753956
 20
294.244749
 10
499.717537
 20
294.075061
 10
499.695134
 20
293.899353
 10
499.6875
 20
293.718529
 10
499.695755
 20
293.534127
 10
499.72014
 20
293.333862
 10
499.76008
 20
293.11869
 10
499.815003
 20
292.889565
 10
499.884337
 20
292.647441
 10
499.967507
 20
292.393273
 10
500.063942
 20
292.128016
 10
500.173067
 20
291.852625
 10
500.4271
 20
291.275256
 10
500.725022
 20
290.668804
 10
501.06225
 20
290.040905
 10
501.434199
 20
289.399195
 10
501.836286
 20
288.751313
 10
502.263927
 20
288.104893
 10
502.712539
 20
287.467573
 10
503.177537
 20
286.846991
 10
503.654339
 20
286.250781
 10
504.138361
 20
285.686582
 10
504.381646
 20
285.418873
 10
504.625018
 20
285.16203
 10
504.867902
 20
284.917008
 10
505.109727
 20
284.684761
 10
505.484005
 20
284.34508
 10
505.853826
 20
284.03084
 10
506.220381
 20
283.741521
 10
506.584859
 20
283.476604
 10
506.94845
 20
283.235568
 10
507.312344
 20
283.017893
 10
507.677731
 20
282.823061
 10
508.045801
 20
282.650551
 10
508.417745
 20
282.499844
 10
508.794752
 20
282.370419
 10
509.178011
 20
282.261757
 10
509.568714
 20
282.173339
 10
509.96805
 20
282.104644
 10
510.377209
 20
282.055153
 10
510.797381
 20
282.024346
 10
511.229756
 20
282.011703
  0
LWPOLYLINE
  5
2C
330
1F
100
AcDbEntity
  8
0
100
AcDbPolyline
 90
      226
 70
   128
 43
0.0
 10
527.071875
 20
258.895628
 10
527.580803
 20
258.9696
 10
528.069857
 20
259.063411
 10
528.539854
 20
259.177567
 10
528.99161
 20
259.312573
 10
529.425944
 20
259.468935
 10
529.843673
 20
259.647159
 10
530.245614
 20
259.847751
 10
530.632584
 20
260.071218
 10
531.005401
 20
260.318065
 10
531.364882
 20
260.588797
 10
531.711845
 20
260.883922
 10
532.047107
 20
261.203944
 10
532.371485
 20
261.549371
 10
532.685797
 20
261.920707
 10
532.990859
 20
262.318458
 10
533.28749
 20
262.743132
 10
533.619825
 20
263.262673
 10
533.931714
 20
263.794672
 10
534.222648
 20
264.337392
 10
534.492121
 20
264.889098
 10
534.739626
 20
265.448053
 10
534.964656
 20
266.01252
 10
535.166704
 20
266.580764
 10
535.345263
 20
267.151048
 10
535.499825
 20
267.721635
 10
535.629885
 20
268.29079
 10
535.734935
 20
268.856775
 10
535.814467
 20
269.417855
 10
535.867976
 20
269.972293
 10
535.894953
 20
270.518353
 10
535.894892
 20
271.054298
 10
535.867287
 20
271.578393
 10
535.812102
 20
272.086484
 10
535.729552
 20
272.581021
 10
535.620184
 20
273.061665
 10
535.484548
 20
273.528074
 10
535.323191
 20
273.979907
 10
535.136661
 20
274.416824
 10
534.925506
 20
274.838483
 10
534.690276
 20
275.244545
 10
534.431517
 20
275.634667
 10
534.149778
 20
276.00851
 10
533.845607
 20
276.365732
 10
533.519553
 20
276.705993
 10
533.172163
 20
277.028952
 10
532.803986
 20
277.334268
 10
532.41557
 20
277.6216
 10
532.007463
 20
277.890608
 10
531.580213
 20
278.140951
 10
531.134369
 20
278.372287
 10
530.670478
 20
278.584276
 10
530.189089
 20
278.776578
 10
529.69075
 20
278.948851
 10
529.176008
 20
279.100755
 10
528.645414
 20
279.231949
 10
528.099513
 20
279.342092
 10
527.538855
 20
279.430843
 10
526.963988
 20
279.497861
 10
526.37546
 20
279.542807
 10
525.773819
 20
279.565338
 10
525.159613
 20
279.565114
 10
524.53339
 20
279.541794
 10
523.8957
 20
279.495038
 10
523.247089
 20
279.424504
 10
522.733312
 20
279.35493
 10
522.253691
 20
279.280113
 10
521.807693
 20
279.199829
 10
521.394786
 20
279.113852
 10
521.014437
 20
279.021958
 10
520.666112
 20
278.92392
 10
520.34928
 20
278.819515
 10
520.063407
 20
278.708516
 10
519.807961
 20
278.590699
 10
519.582409
 20
278.465838
 10
519.386219
 20
278.333708
 10
519.218856
 20
278.194084
 10
519.07979
 20
278.046741
 10
518.968487
 20
277.891454
 10
518.884413
 20
277.727996
 10
518.827038
 20
277.556144
 10
518.794848
 20
277.38244
 10
518.787599
 20
277.217203
 10
518.805297
 20
277.06043
 10
518.847944
 20
276.912118
 10
518.915546
 20
276.772265
 10
519.008107
 20
276.640867
 10
519.12563
 20
276.517922
 10
519.268119
 20
276.403426
 10
519.435579
 20
276.297377
 10
519.628014
 20
276.199771
 10
519.845428
 20
276.110606
 10
520.087826
 20
276.029879
 10
520.35521
 20
275.957587
 10
520.647586
 20
275.893727
 10
520.964958
 20
275.838295
 10
521.307329
 20
275.79129
 10
522.251934
 20
275.664297
 10
522.692549
 20
275.594506
 10
523.112429
 20
275.520202
 10
523.511865
 20
275.441146
 10
523.891149
 20
275.357103
 10
524.250572
 20
275.267833
 10
524.590428
 20
275.173101
 10
524.911007
 20
275.072668
 10
525.212601
 20
274.966297
 10
525.495503
 20
274.853751
 10
525.760005
 20
274.734791
 10
526.006397
 20
274.609182
 10
526.234972
 20
274.476685
 10
526.446022
 20
274.337062
 10
526.639838
 20
274.190077
 10
526.816713
 20
274.035493
 10
526.976938
 20
273.87307
 10
527.120806
 20
273.702573
 10
527.248607
 20
273.523763
 10
527.360635
 20
273.336404
 10
527.45718
 20
273.140257
 10
527.538535
 20
272.935086
 10
527.604991
 20
272.720653
 10
527.656841
 20
272.49672
 10
527.694375
 20
272.26305
 10
527.717887
 20
272.019406
 10
527.727668
 20
271.76555
 10
527.724009
 20
271.501245
 10
527.707204
 20
271.226253
 10
527.677542
 20
270.940337
 10
527.635317
 20
270.64326
 10
527.5854
 20
270.311941
 10
527.570837
 20
270.144414
 42
0.330649
 10
527.758383
 20
269.839853
 10
530.2628
 20
268.839033
 10
529.520624
 20
266.981837
 10
527.167245
 20
267.922299
 42
0.36197
 10
526.802026
 20
267.803528
 10
526.752735
 20
267.725218
 10
526.641895
 20
267.567779
 10
526.341336
 20
267.176583
 10
525.970083
 20
266.726788
 10
525.569508
 20
266.270187
 10
525.267119
 20
265.944884
 10
525.008593
 20
265.692253
 10
524.889857
 20
265.590367
 10
524.774983
 20
265.503262
 10
524.661602
 20
265.429811
 10
524.547345
 20
265.368883
 10
524.429844
 20
265.31935
 10
524.306732
 20
265.280084
 10
524.175639
 20
265.249956
 10
524.034198
 20
265.227837
 10
523.710798
 20
265.20311
 10
523.317584
 20
265.196875
 10
522.937589
 20
265.209826
 10
522.754383
 20
265.227451
 10
522.572252
 20
265.253783
 10
522.388609
 20
265.28978
 10
522.200863
 20
265.336398
 10
522.006427
 20
265.394594
 10
521.802712
 20
265.465325
 10
521.587129
 20
265.549548
 10
521.357089
 20
265.648218
 10
520.843283
 20
265.892731
 10
520.240585
 20
266.206516
 10
519.528285
 20
266.597227
 10
518.930996
 20
266.948551
 10
518.29118
 20
267.335709
 10
517.965773
 20
267.525543
 10
517.642273
 20
267.703714
 10
517.324858
 20
267.86335
 10
517.017708
 20
267.997578
 10
516.890432
 20
268.039107
 10
516.749862
 20
268.073401
 10
516.476966
 20
268.133568
 10
516.334024
 20
268.156634
 10
516.19187
 20
268.155179
 10
516.052019
 20
268.130981
 10
515.915987
 20
268.085818
 10
515.785288
 20
268.021468
 10
515.661438
 20
267.93971
 10
515.545951
 20
267.842322
 10
515.440343
 20
267.731083
 10
515.346129
 20
267.607771
 10
515.264823
 20
267.474164
 10
515.197942
 20
267.332041
 10
515.146998
 20
267.18318
 10
515.113509
 20
267.029359
 10
515.098989
 20
266.872356
 10
515.104952
 20
266.713951
 10
515.132915
 20
266.555922
 10
515.179234
 20
266.404095
 10
515.244588
 20
266.240119
 10
515.328101
 20
266.064868
 10
515.428894
 20
265.879217
 10
515.54609
 20
265.684041
 10
515.678811
 20
265.480214
 10
515.987317
 20
265.050104
 10
516.34739
 20
264.595885
 10
516.752008
 20
264.124552
 10
517.194151
 20
263.643102
 10
517.666796
 20
263.158532
 10
518.162921
 20
262.677837
 10
518.675505
 20
262.208014
 10
519.197526
 20
261.75606
 10
519.721962
 20
261.32897
 10
520.241792
 20
260.933741
 10
520.749993
 20
260.577369
 10
520.997539
 20
260.415941
 10
521.239545
 20
260.26685
 10
521.475133
 20
260.130972
 10
521.703425
 20
260.009182
 10
521.985459
 20
259.874428
 10
522.291771
 20
259.744805
 10
522.618687
 20
259.621076
 10
522.962532
 20
259.504002
 10
523.319633
 20
259.394345
 10
523.686317
 20
259.292868
 10
524.058908
 20
259.200333
 10
524.433733
 20
259.117501
 10
524.807118
 20
259.045135
 10
525.175389
 20
258.983996
 10
525.534871
 20
258.934848
 10
525.881892
 20
258.898452
 10
526.212777
 20
258.875569
 10
526.523852
 20
258.866963
 10
526.811442
 20
258.873395
 10
527.071875
 20
258.895628
  0
LWPOLYLINE
  5
2D
330
1F
100
AcDbEntity
  8
0
100
AcDbPolyline
 90
      234
 70
   128
 43
0.0
 10
512.47719
 20
259.332626
 10
513.176993
 20
259.349453
 10
513.7337
 20
259.37433
 10
514.16924
 20
259.412217
 10
514.348425
 20
259.437589
 10
514.505542
 20
259.468073
 10
514.643331
 20
259.504289
 10
514.764534
 20
259.546858
 10
514.871892
 20
259.596399
 10
514.968146
 20
259.653533
 10
515.056037
 20
259.718878
 10
515.138306
 20
259.793056
 10
515.296943
 20
259.970388
 10
515.392512
 20
260.100206
 10
515.472397
 20
260.233382
 10
515.53674
 20
260.368923
 10
515.585682
 20
260.505839
 10
515.619363
 20
260.643138
 10
515.637926
 20
260.779828
 10
515.641511
 20
260.914917
 10
515.63026
 20
261.047415
 10
515.604313
 20
261.176328
 10
515.563811
 20
261.300666
 10
515.508896
 20
261.419438
 10
515.439709
 20
261.53165
 10
515.35639
 20
261.636312
 10
515.259082
 20
261.732433
 10
515.147925
 20
261.81902
 10
515.023059
 20
261.895082
 10
514.884693
 20
261.959642
 10
514.671941
 20
262.046302
 10
514.065836
 20
262.270774
 10
513.289857
 20
262.538206
 10
512.429118
 20
262.818303
 10
511.92221
 20
262.984928
 10
511.464501
 20
263.15024
 10
511.053717
 20
263.316828
 10
510.68758
 20
263.487279
 10
510.363814
 20
263.664181
 10
510.217109
 20
263.75586
 10
510.080143
 20
263.850122
 10
509.952633
 20
263.94729
 10
509.834292
 20
264.047689
 10
509.724837
 20
264.151641
 10
509.623983
 20
264.25947
 10
509.531446
 20
264.371499
 10
509.446941
 20
264.488053
 10
509.370184
 20
264.609453
 10
509.30089
 20
264.736025
 10
509.238774
 20
264.868091
 10
509.183553
 20
265.005974
 10
509.134941
 20
265.149999
 10
509.092654
 20
265.300488
 10
509.025917
 20
265.622155
 10
508.981066
 20
265.973562
 10
508.955825
 20
266.357296
 10
508.947917
 20
266.775947
 10
508.945917
 20
267.328229
 10
508.931918
 20
267.748258
 10
508.921364
 20
267.864554
 42
0.278197
 10
508.738022
 20
268.114345
 10
506.288498
 20
269.135444
 10
507.058028
 20
270.981474
 10
509.470553
 20
269.975797
 42
0.328066
 10
509.815871
 20
270.059955
 10
509.933803
 20
270.200613
 10
510.168468
 20
270.504259
 10
510.447339
 20
270.850018
 10
510.726585
 20
271.154676
 10
510.867096
 20
271.291691
 10
511.008598
 20
271.418549
 10
511.151388
 20
271.535291
 10
511.295766
 20
271.641957
 10
511.442031
 20
271.738585
 10
511.590481
 20
271.825216
 10
511.741415
 20
271.901889
 10
511.895132
 20
271.968645
 10
512.05193
 20
272.025523
 10
512.212109
 20
272.072563
 10
512.375967
 20
272.109805
 10
512.543803
 20
272.137288
 10
512.715916
 20
272.155052
 10
512.892604
 20
272.163137
 10
513.074167
 20
272.161582
 10
513.260902
 20
272.150428
 10
513.45311
 20
272.129715
 10
513.651087
 20
272.099481
 10
513.855135
 20
272.059767
 10
514.06555
 20
272.010613
 10
514.50668
 20
271.884141
 10
514.976868
 20
271.720385
 10
515.478504
 20
271.519663
 10
516.013978
 20
271.282292
 10
516.750888
 20
270.953451
 10
517.077379
 20
270.817766
 10
517.377823
 20
270.700899
 10
517.653668
 20
270.602596
 10
517.906361
 20
270.522602
 10
518.137349
 20
270.460663
 10
518.34808
 20
270.416525
 10
518.540001
 20
270.389934
 10
518.714558
 20
270.380635
 10
518.873201
 20
270.388375
 10
519.017375
 20
270.412899
 10
519.148528
 20
270.453952
 10
519.268107
 20
270.511282
 10
519.37756
 20
270.584632
 10
519.478333
 20
270.67375
 10
519.558608
 20
270.760725
 10
519.628249
 20
270.85058
 10
519.687188
 20
270.94342
 10
519.735358
 20
271.039352
 10
519.772691
 20
271.138479
 10
519.799121
 20
271.240906
 10
519.814579
 20
271.346739
 10
519.818999
 20
271.456083
 10
519.812313
 20
271.569042
 10
519.794452
 20
271.685721
 10
519.765351
 20
271.806227
 10
519.724942
 20
271.930662
 10
519.673156
 20
272.059133
 10
519.609927
 20
272.191745
 10
519.535187
 20
272.328602
 10
519.448869
 20
272.46981
 10
519.241227
 20
272.765696
 10
518.986464
 20
273.080244
 10
518.684038
 20
273.414294
 10
518.333411
 20
273.768685
 10
517.934042
 20
274.144258
 10
517.485393
 20
274.541852
 10
516.986924
 20
274.962307
 10
516.438094
 20
275.406463
 10
515.956636
 20
275.780317
 10
515.493237
 20
276.121411
 10
515.044645
 20
276.430951
 10
514.607607
 20
276.71014
 10
514.17887
 20
276.960185
 10
513.75518
 20
277.182289
 10
513.333285
 20
277.377659
 10
512.909931
 20
277.547498
 10
512.481866
 20
277.693012
 10
512.045835
 20
277.815405
 10
511.598586
 20
277.915883
 10
511.136866
 20
277.995651
 10
510.657421
 20
278.055913
 10
510.156998
 20
278.097874
 10
509.632345
 20
278.12274
 10
509.080208
 20
278.131714
 10
508.55379
 20
278.126271
 10
508.060789
 20
278.106369
 10
507.598215
 20
278.070773
 10
507.163074
 20
278.018249
 10
506.752377
 20
277.947561
 10
506.36313
 20
277.857473
 10
505.992342
 20
277.746751
 10
505.637021
 20
277.614158
 10
505.294175
 20
277.458459
 10
504.960814
 20
277.27842
 10
504.633944
 20
277.072803
 10
504.310574
 20
276.840376
 10
503.987713
 20
276.579901
 10
503.662368
 20
276.290143
 10
503.331548
 20
275.969868
 10
502.992261
 20
275.617839
 10
502.731615
 20
275.328655
 10
502.48262
 20
275.030851
 10
502.245257
 20
274.724388
 10
502.019508
 20
274.409229
 10
501.805355
 20
274.085337
 10
501.602779
 20
273.752675
 10
501.411762
 20
273.411204
 10
501.232285
 20
273.060889
 10
501.064331
 20
272.701691
 10
500.907881
 20
272.333572
 10
500.762917
 20
271.956497
 10
500.629421
 20
271.570427
 10
500.507373
 20
271.175326
 10
500.396757
 20
270.771155
 10
500.297554
 20
270.357877
 10
500.209745
 20
269.935455
 10
500.163816
 20
269.670797
 10
500.127536
 20
269.405102
 10
500.10082
 20
269.138603
 10
500.083582
 20
268.871533
 10
500.075735
 20
268.604125
 10
500.077194
 20
268.336611
 10
500.087873
 20
268.069224
 10
500.107686
 20
267.802196
 10
500.136548
 20
267.535761
 10
500.174371
 20
267.270151
 10
500.221071
 20
267.005599
 10
500.276561
 20
266.742337
 10
500.340756
 20
266.480598
 10
500.413569
 20
266.220615
 10
500.494915
 20
265.96262
 10
500.584708
 20
265.706846
 10
500.682862
 20
265.453525
 10
500.789291
 20
265.202891
 10
500.903909
 20
264.955176
 10
501.02663
 20
264.710613
 10
501.157369
 20
264.469434
 10
501.296039
 20
264.231872
 10
501.442554
 20
263.99816
 10
501.59683
 20
263.76853
 10
501.758779
 20
263.543215
 10
501.928316
 20
263.322448
 10
502.105355
 20
263.106462
 10
502.28981
 20
262.895488
 10
502.481595
 20
262.68976
 10
502.680625
 20
262.48951
 10
502.886812
 20
262.294972
 10
503.100073
 20
262.106377
 10
503.561442
 20
261.728476
 10
504.027759
 20
261.381302
 10
504.501526
 20
261.064115
 10
504.741986
 20
260.916535
 10
504.985248
 20
260.776173
 10
505.231623
 20
260.642939
 10
505.481425
 20
260.516738
 10
505.734966
 20
260.397479
 10
505.99256
 20
260.285068
 10
506.254519
 20
260.179414
 10
506.521156
 20
260.080424
 10
506.792784
 20
259.988005
 10
507.069716
 20
259.902065
 10
507.352265
 20
259.822511
 10
507.640742
 20
259.74925
 10
508.236737
 20
259.621241
 10
508.860203
 20
259.517295
 10
509.513643
 20
259.436674
 10
510.199559
 20
259.378637
 10
510.920453
 20
259.342443
 10
511.67883
 20
259.327353
 10
512.47719
 20
259.332626
  0
LWPOLYLINE
  5
2E
330
1F
100
AcDbEntity
  8
0
100
AcDbPolyline
 90
      302
 70
   128
 43
0.0
 10
455.189884
 20
284.457568
 42
0.380444
 10
455.2251
 20
284.85482
 10
452.188333
 20
288.945014
 10
453.794133
 20
290.137242
 10
456.846222
 20
286.02641
 42
0.428087
 10
457.277076
 20
285.973067
 10
457.540304
 20
286.18846
 10
457.883902
 20
286.496364
 10
458.092583
 20
286.70182
 10
458.267068
 20
286.900453
 10
458.341026
 20
286.998699
 10
458.405883
 20
287.097022
 10
458.461454
 20
287.196018
 10
458.507555
 20
287.296281
 10
458.544002
 20
287.398405
 10
458.570611
 20
287.502986
 10
458.587197
 20
287.610617
 10
458.593577
 20
287.721893
 10
458.589567
 20
287.837409
 10
458.574981
 20
287.957759
 10
458.549637
 20
288.083537
 10
458.51335
 20
288.215339
 10
458.465935
 20
288.353758
 10
458.407209
 20
288.499389
 10
458.255087
 20
288.814665
 10
458.055509
 20
289.165923
 10
457.807003
 20
289.557919
 10
457.508095
 20
289.995408
 10
457.157313
 20
290.483148
 10
456.294232
 20
291.628399
 10
456.109035
 20
291.883861
 10
455.948348
 20
292.135967
 10
455.812225
 20
292.384579
 10
455.700726
 20
292.629557
 10
455.613905
 20
292.870763
 10
455.55182
 20
293.108056
 10
455.514527
 20
293.341299
 10
455.502083
 20
293.570352
 10
455.612612
 20
294.730216
 10
455.904802
 20
297.524048
 10
456.797784
 20
305.947516
 10
457.280388
 20
310.5441
 10
457.708273
 20
314.708551
 10
458.022345
 20
317.924342
 10
458.118234
 20
319.015077
 10
458.16351
 20
319.674949
 10
458.243408
 20
321.072447
 10
458.358139
 20
323.309332
 10
458.493681
 20
326.131103
 10
458.636017
 20
329.283256
 10
458.771126
 20
332.511287
 10
458.88499
 20
335.560695
 10
458.963589
 20
338.176975
 10
458.985283
 20
339.24316
 10
458.992904
 20
340.105625
 10
458.28148
 20
340.856319
 10
458.235457
 20
340.878621
 10
458.10939
 20
340.927103
 10
457.883742
 20
340.992781
 10
457.538974
 20
341.066667
 10
457.055549
 20
341.139777
 10
456.755734
 20
341.173232
 10
456.413928
 20
341.203123
 10
456.027689
 20
341.228327
 10
455.594574
 20
341.247721
 10
455.112142
 20
341.26018
 10
454.577949
 20
341.264583
 10
449.813542
 20
340.538556
 10
440.553125
 20
338.017027
 10
437.510417
 20
336.971894
 10
436.057585
 20
336.458915
 10
434.351126
 20
335.834787
 10
432.603739
 20
335.178371
 10
431.028125
 20
334.568526
 10
429.881317
 20
334.120016
 10
429.39472
 20
333.938186
 10
428.947801
 20
333.781801
 10
428.526911
 20
333.648729
 10
428.118407
 20
333.536842
 10
427.708641
 20
333.444009
 10
427.283967
 20
333.3681
 10
426.830739
 20
333.306985
 10
426.335311
 20
333.258536
 10
425.784037
 20
333.220621
 10
425.16327
 20
333.19111
 10
423.658676
 20
333.148785
 10
421.712358
 20
333.11452
 10
415.836174
 20
333.018747
 10
405.892708
 20
333.574504
 10
404.85133
 20
333.714201
 10
403.742413
 20
333.840798
 10
402.589821
 20
333.964649
 10
401.417414
 20
334.096111
 10
400.249055
 20
334.245538
 10
399.67385
 20
334.330224
 10
399.108604
 20
334.423285
 10
398.556301
 20
334.526014
 10
398.019924
 20
334.639707
 10
397.502455
 20
334.765657
 10
397.006876
 20
334.90516
 10
396.882031
 20
334.956198
 10
396.755053
 20
335.032376
 10
396.626565
 20
335.13074
 10
396.497191
 20
335.248338
 10
396.367556
 20
335.382215
 10
396.238283
 20
335.52942
 10
395.983318
 20
335.852
 10
395.505186
 20
336.527153
 10
395.292
 20
336.832479
 10
395.102723
 20
337.084804
 10
394.440989
 20
337.90043
 10
393.902733
 20
338.549284
 10
393.470253
 20
339.049249
 10
393.125848
 20
339.418209
 10
392.981141
 20
339.559151
 10
392.851815
 20
339.674047
 10
392.735657
 20
339.765134
 10
392.630454
 20
339.834647
 10
392.533993
 20
339.884821
 10
392.444062
 20
339.917892
 10
392.358449
 20
339.936096
 10
392.274939
 20
339.941667
 10
392.13137
 20
339.929911
 10
391.981272
 20
339.895987
 10
391.826825
 20
339.841908
 10
391.670207
 20
339.769691
 10
391.513597
 20
339.681349
 10
391.359174
 20
339.578897
 10
391.209116
 20
339.46435
 10
391.065604
 20
339.339722
 10
390.930815
 20
339.207028
 10
390.806929
 20
339.068282
 10
390.696124
 20
338.9255
 10
390.60058
 20
338.780696
 10
390.522475
 20
338.635884
 10
390.463988
 20
338.493079
 10
390.427298
 20
338.354296
 10
390.414583
 20
338.22155
 10
390.424055
 20
338.142279
 10
390.451972
 20
338.040787
 10
390.49759
 20
337.918315
 10
390.560164
 20
337.776102
 10
390.733199
 20
337.437409
 10
390.965115
 20
337.034628
 10
391.249952
 20
336.577676
 10
391.581747
 20
336.076471
 10
391.95454
 20
335.54093
 10
392.362371
 20
334.98097
 10
392.582797
 20
334.668546
 10
392.80682
 20
334.328087
 10
393.271631
 20
333.610719
 10
393.515408
 20
333.257637
 10
393.768759
 20
332.924176
 10
393.899492
 20
332.768526
 10
394.033178
 20
332.622248
 10
394.170004
 20
332.486832
 10
394.310158
 20
332.363768
 10
394.513966
 20
332.212476
 10
394.742495
 20
332.069696
 10
394.989386
 20
331.936121
 10
395.248281
 20
331.812443
 10
395.512821
 20
331.699357
 10
395.776648
 20
331.597554
 10
396.276727
 20
331.43057
 10
396.87763
 20
331.263211
 10
397.505134
 20
331.113089
 10
398.155615
 20
330.978546
 10
398.825451
 20
330.857923
 10
399.51102
 20
330.749561
 10
400.208697
 20
330.651802
 10
401.625889
 20
330.481452
 10
403.048044
 20
330.333605
 10
404.446179
 20
330.194988
 10
405.791312
 20
330.052331
 10
406.434945
 20
329.97534
 10
407.05446
 20
329.892362
 10
410.045459
 20
329.622081
 10
410.786815
 20
329.56432
 10
411.75009
 20
329.503734
 10
412.894777
 20
329.442126
 10
414.180369
 20
329.381303
 10
417.012232
 20
329.269229
 10
418.477489
 20
329.22159
 10
419.92162
 20
329.181955
 10
420.72623
 20
329.151113
 10
421.579886
 20
329.103355
 10
423.368264
 20
328.996417
 10
424.269951
 20
328.956898
 10
425.154611
 20
328.939787
 10
425.585395
 20
328.942706
 10
426.005727
 20
328.954914
 10
426.413545
 20
328.977639
 10
426.806782
 20
329.012111
 10
427.135452
 20
329.056119
 10
427.481491
 20
329.118472
 10
427.838601
 20
329.195549
 10
428.200484
 20
329.283724
 10
428.913385
 20
329.478879
 10
429.569815
 20
329.674952
 10
430.090462
 20
329.83891
 10
430.627004
 20
330.016727
 10
431.738317
 20
330.407127
 10
432.884834
 20
330.832528
 10
434.047639
 20
331.279303
 10
436.346438
 20
332.182484
 10
437.444596
 20
332.61164
 10
438.483369
 20
333.007674
 10
441.37033
 20
333.820161
 10
442.025811
 20
333.997223
 10
442.783364
 20
334.189182
 10
443.615967
 20
334.389921
 10
444.496596
 20
334.593326
 10
445.398228
 20
334.793279
 10
446.293839
 20
334.983666
 10
447.156406
 20
335.158369
 10
447.958905
 20
335.311274
 10
448.848005
 20
335.485389
 10
449.805443
 20
335.679443
 10
450.765016
 20
335.859069
 10
451.224913
 20
335.932732
 10
451.660518
 20
335.989901
 10
451.924037
 20
336.010959
 10
452.208977
 20
336.022294
 10
452.758762
 20
336.037698
 10
453.07209
 20
336.046912
 10
453.350274
 20
336.043289
 10
453.595375
 20
336.023222
 10
453.809451
 20
335.983106
 10
453.9055
 20
335.954404
 10
453.994565
 20
335.919338
 10
454.076903
 20
335.877457
 10
454.152774
 20
335.828311
 10
454.222433
 20
335.771449
 10
454.286139
 20
335.706421
 10
454.344149
 20
335.632775
 10
454.39672
 20
335.550061
 10
454.44411
 20
335.45783
 10
454.486577
 20
335.355629
 10
454.55777
 20
335.119517
 10
454.612358
 20
334.838121
 10
454.652402
 20
334.507836
 10
454.679962
 20
334.125057
 10
454.697097
 20
333.686179
 10
454.708333
 20
332.625703
 10
454.702169
 20
331.986446
 10
454.683668
 20
331.300001
 10
454.652815
 20
330.566232
 10
454.609598
 20
329.785001
 10
454.554002
 20
328.956172
 10
454.486014
 20
328.079608
 10
454.405621
 20
327.15517
 10
454.312809
 20
326.182723
 10
454.089872
 20
324.09325
 10
453.817096
 20
321.810092
 10
453.494369
 20
319.332152
 10
453.121585
 20
316.658333
 10
452.807256
 20
314.68365
 10
452.472062
 20
312.554473
 10
452.128652
 20
310.426705
 10
451.957819
 20
309.412069
 10
451.789675
 20
308.45625
 10
451.599862
 20
307.470453
 10
451.358066
 20
306.312147
 10
451.073583
 20
305.012299
 10
450.755706
 20
303.601876
 10
450.056948
 20
300.573168
 10
449.336148
 20
297.473757
 10
448.667662
 20
294.551372
 10
448.376272
 20
293.233982
 10
448.125844
 20
292.053747
 10
447.925671
 20
291.041636
 10
447.785048
 20
290.228613
 10
447.739973
 20
289.906438
 10
447.713271
 20
289.645647
 10
447.706103
 20
289.450111
 10
447.719632
 20
289.323702
 10
447.759228
 20
289.225184
 10
447.827592
 20
289.111705
 10
447.921881
 20
288.984714
 10
448.039251
 20
288.845658
 10
448.331863
 20
288.537144
 10
448.682681
 20
288.197744
 10
449.46795
 20
287.47262
 10
449.856907
 20
287.11006
 10
450.213085
 20
286.762946
 10
451.438161
 20
285.508334
 10
452.465072
 20
284.459245
 10
452.880941
 20
284.053994
 10
453.21934
 20
283.75079
 10
453.356579
 20
283.642733
 10
453.470958
 20
283.566521
 10
453.561316
 20
283.524265
 10
453.597122
 20
283.516531
 10
453.626486
 20
283.518077
 10
453.761239
 20
283.557486
 10
453.905149
 20
283.612196
 10
454.055755
 20
283.680234
 10
454.210591
 20
283.759628
 10
454.523107
 20
283.944595
 10
454.82299
 20
284.151319
 10
455.090535
 20
284.364025
 10
455.189884
 20
284.457568
  0
LWPOLYLINE
  5
2F
330
1F
100
AcDbEntity
  8
0
100
AcDbPolyline
 90
      259
 70
   128
 43
0.0
 10
488.631221
 20
258.464229
 10
488.893726
 20
258.467348
 10
489.15735
 20
258.482535
 10
489.421765
 20
258.509567
 10
489.686645
 20
258.548224
 10
489.951667
 20
258.598285
 10
490.216503
 20
258.659528
 10
490.480828
 20
258.731731
 10
490.744317
 20
258.814674
 10
491.006644
 20
258.908135
 10
491.267482
 20
259.011893
 10
491.526508
 20
259.125727
 10
491.783394
 20
259.249414
 10
492.037815
 20
259.382735
 10
492.289446
 20
259.525467
 10
492.537961
 20
259.67739
 10
492.783035
 20
259.838282
 10
493.024341
 20
260.007921
 10
493.261554
 20
260.186087
 10
493.494348
 20
260.372559
 10
493.722399
 20
260.567114
 10
493.945379
 20
260.769531
 10
494.162964
 20
260.97959
 10
494.374827
 20
261.197069
 10
494.580644
 20
261.421746
 10
494.780089
 20
261.653401
 10
494.972835
 20
261.891812
 10
495.158557
 20
262.136758
 10
495.33693
 20
262.388017
 10
495.507628
 20
262.645368
 10
495.670326
 20
262.908591
 10
495.824697
 20
263.177462
 10
495.970416
 20
263.451762
 10
496.096186
 20
263.711129
 10
496.219276
 20
263.990185
 10
496.339456
 20
264.287374
 10
496.456492
 20
264.601138
 10
496.570151
 20
264.929922
 10
496.680203
 20
265.272167
 10
496.888552
 20
265.990818
 10
497.07968
 20
266.744636
 10
497.251728
 20
267.521167
 10
497.402839
 20
268.307959
 10
497.531154
 20
269.092555
 10
497.634814
 20
269.862503
 10
497.711961
 20
270.605348
 10
497.760736
 20
271.308637
 10
497.779281
 20
271.959914
 10
497.776637
 20
272.262157
 10
497.765738
 20
272.546727
 10
497.746353
 20
272.812067
 10
497.718249
 20
273.05662
 10
497.681193
 20
273.27883
 10
497.634953
 20
273.47714
 10
497.579298
 20
273.649994
 10
497.513995
 20
273.795833
 10
497.426351
 20
273.937998
 10
497.321423
 20
274.069951
 10
497.201953
 20
274.189724
 10
497.070682
 20
274.295346
 10
496.930351
 20
274.384849
 10
496.783702
 20
274.456261
 10
496.633476
 20
274.507615
 10
496.482416
 20
274.53694
 10
496.276727
 20
274.550059
 10
496.186098
 20
274.544651
 10
496.10191
 20
274.529434
 10
496.022886
 20
274.503033
 10
495.947748
 20
274.464077
 10
495.875219
 20
274.41119
 10
495.804021
 20
274.343
 10
495.732877
 20
274.258133
 10
495.66051
 20
274.155216
 10
495.506996
 20
273.889735
 10
495.33326
 20
273.53557
 10
495.129084
 20
273.081732
 10
494.832425
 20
272.377349
 10
494.52297
 20
271.594089
 10
494.237364
 20
270.827406
 10
494.012255
 20
270.172748
 10
493.82435
 20
269.633013
 10
493.622377
 20
269.136965
 10
493.516016
 20
268.905252
 10
493.406017
 20
268.684373
 10
493.292341
 20
268.4743
 10
493.174947
 20
268.275004
 10
493.053796
 20
268.086456
 10
492.928846
 20
267.908626
 10
492.800058
 20
267.741486
 10
492.667392
 20
267.585006
 10
492.530807
 20
267.439158
 10
492.390264
 20
267.303912
 10
492.245721
 20
267.179239
 10
492.097139
 20
267.065111
 10
491.944477
 20
266.961498
 10
491.787696
 20
266.86837
 10
491.626755
 20
266.7857
 10
491.461614
 20
266.713458
 10
491.292232
 20
266.651615
 10
491.11857
 20
266.600141
 10
490.940587
 20
266.559009
 10
490.758244
 20
266.528188
 10
490.571499
 20
266.50765
 10
490.380313
 20
266.497365
 10
490.184645
 20
266.497305
 10
489.984456
 20
266.507441
 10
489.779705
 20
266.527743
 10
489.570351
 20
266.558182
 10
489.356355
 20
266.598729
 10
489.137677
 20
266.649356
 10
488.794227
 20
266.731922
 10
488.517693
 20
266.787053
 10
488.384074
 20
266.803004
 42
0.269992
 10
488.106955
 20
266.683023
 10
486.46266
 20
264.450397
 10
484.852274
 20
265.636421
 10
486.293927
 20
267.593901
 42
0.329945
 10
486.292999
 20
267.950962
 10
486.256591
 20
267.999862
 10
486.004544
 20
268.295166
 10
485.6585
 20
268.673704
 10
485.382572
 20
268.983703
 10
485.155077
 20
269.264545
 10
484.972428
 20
269.523241
 10
484.831034
 20
269.766805
 10
484.774687
 20
269.885103
 10
484.727308
 20
270.002249
 10
484.688449
 20
270.119117
 10
484.657661
 20
270.236586
 10
484.618505
 20
270.476828
 10
484.60625
 20
270.729989
 10
484.610632
 20
270.980277
 10
484.625083
 20
271.218193
 10
484.651566
 20
271.447601
 10
484.69204
 20
271.672365
 10
484.748466
 20
271.89635
 10
484.822804
 20
272.123419
 10
484.917015
 20
272.357437
 10
485.03306
 20
272.602269
 10
485.172899
 20
272.861778
 10
485.338493
 20
273.139828
 10
485.531801
 20
273.440284
 10
485.754786
 20
273.76701
 10
486.297625
 20
274.514729
 10
486.982694
 20
275.413898
 10
487.210349
 20
275.688724
 10
487.466457
 20
275.972162
 10
488.00967
 20
276.562227
 10
488.269596
 20
276.867527
 10
488.390694
 20
277.022455
 10
488.503617
 20
277.17879
 10
488.606666
 20
277.336449
 10
488.698142
 20
277.49535
 10
488.776348
 20
277.655411
 10
488.839583
 20
277.816547
 10
488.857995
 20
277.921837
 10
488.855949
 20
278.038965
 10
488.84572
 20
278.157451
 10
488.839583
 20
278.266815
 10
488.833437
 20
278.385627
 10
488.815267
 20
278.499211
 10
488.785483
 20
278.607229
 10
488.744489
 20
278.709346
 10
488.692694
 20
278.805226
 10
488.630504
 20
278.894532
 10
488.558325
 20
278.976928
 10
488.476565
 20
279.052078
 10
488.38563
 20
279.119646
 10
488.285927
 20
279.179296
 10
488.177863
 20
279.230691
 10
488.061844
 20
279.273496
 10
487.938279
 20
279.307374
 10
487.807572
 20
279.331988
 10
487.670132
 20
279.347004
 10
487.526364
 20
279.352083
 10
487.370792
 20
279.339382
 10
487.196018
 20
279.302032
 10
487.003344
 20
279.241167
 10
486.794069
 20
279.157921
 10
486.569495
 20
279.053426
 10
486.330923
 20
278.928815
 10
486.079654
 20
278.785223
 10
485.816989
 20
278.623781
 10
485.544228
 20
278.445623
 10
485.262674
 20
278.251882
 10
484.678385
 20
277.822185
 10
484.07453
 20
277.343754
 10
483.461518
 20
276.825655
 10
482.849755
 20
276.276952
 10
482.249648
 20
275.706712
 10
481.671607
 20
275.123999
 10
481.126037
 20
274.537879
 10
480.623348
 20
273.957416
 10
480.391335
 20
273.672139
 10
480.173945
 20
273.391676
 10
479.972479
 20
273.11716
 10
479.788238
 20
272.849724
 10
479.622522
 20
272.590501
 10
479.476633
 20
272.340625
 10
479.19038
 20
271.795918
 10
478.937637
 20
271.256443
 10
478.718407
 20
270.722227
 10
478.532692
 20
270.193297
 10
478.452403
 20
269.930823
 10
478.380493
 20
269.669681
 10
478.316963
 20
269.409874
 10
478.261812
 20
269.151406
 10
478.215042
 20
268.89428
 10
478.176652
 20
268.638499
 10
478.146642
 20
268.384067
 10
478.125014
 20
268.130988
 10
478.111766
 20
267.879264
 10
478.106899
 20
267.628899
 10
478.110414
 20
267.379898
 10
478.122311
 20
267.132262
 10
478.142589
 20
266.885995
 10
478.17125
 20
266.641102
 10
478.208293
 20
266.397584
 10
478.253719
 20
266.155447
 10
478.307527
 20
265.914692
 10
478.369719
 20
265.675324
 10
478.440294
 20
265.437346
 10
478.519253
 20
265.200762
 10
478.606596
 20
264.965574
 10
478.702322
 20
264.731786
 10
478.806433
 20
264.499402
 10
478.918929
 20
264.268425
 10
479.069108
 20
263.990735
 10
479.237093
 20
263.714529
 10
479.422092
 20
263.44028
 10
479.623314
 20
263.168461
 10
479.839967
 20
262.899546
 10
480.071261
 20
262.634007
 10
480.316404
 20
262.372316
 10
480.574605
 20
262.114947
 10
480.845072
 20
261.862374
 10
481.127013
 20
261.615067
 10
481.419639
 20
261.373502
 10
481.722156
 20
261.138149
 10
482.033775
 20
260.909484
 10
482.353703
 20
260.687977
 10
482.681149
 20
260.474103
 10
483.015322
 20
260.268334
 10
483.355431
 20
260.071143
 10
483.700684
 20
259.883003
 10
484.05029
 20
259.704387
 10
484.403457
 20
259.535768
 10
484.759395
 20
259.377618
 10
485.117311
 20
259.230411
 10
485.476416
 20
259.09462
 10
485.835916
 20
258.970717
 10
486.195021
 20
258.859176
 10
486.55294
 20
258.760468
 10
486.90888
 20
258.675068
 10
487.262052
 20
258.603449
 10
487.611663
 20
258.546082
 10
487.956923
 20
258.503441
 10
488.297039
 20
258.475999
 10
488.631221
 20
258.464229
  0
LWPOLYLINE
  5
30
330
1F
100
AcDbEntity
  8
0
100
AcDbPolyline
 90
      350
 70
   128
 43
0.0
 10
442.215269
 20
281.479106
 10
442.359779
 20
281.52057
 10
442.60543
 20
281.614359
 10
442.915109
 20
281.744709
 10
443.251704
 20
281.89585
 10
443.590715
 20
282.058052
 42
0.469497
 10
443.703419
 20
282.505722
 10
440.884082
 20
286.36226
 10
442.498646
 20
287.542592
 10
445.361643
 20
283.626332
 42
0.454947
 10
445.812303
 20
283.587656
 10
446.126771
 20
283.891555
 10
446.4537
 20
284.232631
 10
446.770275
 20
284.584862
 10
447.040708
 20
284.90969
 10
447.147438
 20
285.04978
 10
447.229212
 20
285.16856
 10
447.281558
 20
285.261211
 10
447.3
 20
285.322913
 10
447.289216
 20
285.438551
 10
447.257675
 20
285.575578
 10
447.206594
 20
285.731976
 10
447.137189
 20
285.905727
 10
447.050677
 20
286.094814
 10
446.948276
 20
286.297219
 10
446.700669
 20
286.733912
 10
446.404103
 20
287.199664
 10
446.06831
 20
287.678331
 10
445.703025
 20
288.153773
 10
445.317982
 20
288.609846
 10
444.930862
 20
289.05184
 10
444.635229
 20
289.410721
 10
444.518548
 20
289.56616
 10
444.420931
 20
289.709419
 10
444.341108
 20
289.843365
 10
444.277812
 20
289.970862
 10
444.229772
 20
290.094777
 10
444.19572
 20
290.217975
 10
444.174387
 20
290.343324
 10
444.164502
 20
290.473689
 10
444.164798
 20
290.611935
 10
444.174004
 20
290.76093
 10
444.214073
 20
291.102626
 10
444.281444
 20
291.644727
 10
444.319256
 20
291.925459
 10
444.363359
 20
292.184375
 10
444.573176
 20
293.180977
 10
444.808967
 20
294.208887
 10
445.067238
 20
295.263586
 10
445.344493
 20
296.340555
 10
445.94198
 20
298.543233
 10
446.573473
 20
300.780772
 10
447.211015
 20
303.017025
 10
447.826652
 20
305.215842
 10
448.117519
 20
306.289917
 10
448.392427
 20
307.341078
 10
448.64788
 20
308.364806
 10
448.880384
 20
309.356582
 10
449.027148
 20
310.060333
 10
449.169974
 20
310.82211
 10
449.434957
 20
312.292708
 10
450.351564
 20
317.185083
 10
450.820043
 20
319.724277
 10
451.241383
 20
322.082292
 10
451.387018
 20
322.971499
 10
451.556327
 20
324.090144
 10
451.736037
 20
325.343393
 10
451.912874
 20
326.636411
 10
452.073564
 20
327.874366
 10
452.204834
 20
328.962424
 10
452.29341
 20
329.805751
 10
452.317539
 20
330.106005
 10
452.326018
 20
330.309514
 10
452.320582
 20
330.729697
 10
452.302809
 20
331.090618
 10
452.271395
 20
331.397983
 10
452.225035
 20
331.657501
 10
452.162426
 20
331.874878
 10
452.124621
 20
331.969547
 10
452.082264
 20
332.05582
 10
452.035193
 20
332.134412
 10
451.983244
 20
332.206035
 10
451.864063
 20
332.33123
 10
451.77025
 20
332.402295
 10
451.658205
 20
332.466009
 10
451.528233
 20
332.52236
 10
451.380641
 20
332.571341
 10
451.215734
 20
332.612941
 10
451.033818
 20
332.64715
 10
450.8352
 20
332.67396
 10
450.620186
 20
332.69336
 10
450.389081
 20
332.705341
 10
450.142191
 20
332.709893
 10
449.602283
 20
332.696674
 10
449.002909
 20
332.653626
 10
448.346518
 20
332.580673
 10
447.635558
 20
332.477738
 10
446.872477
 20
332.344745
 10
446.059724
 20
332.181617
 10
445.199746
 20
331.988278
 10
444.294993
 20
331.764651
 10
443.347912
 20
331.510661
 10
442.360951
 20
331.22623
 10
441.336559
 20
330.911283
 10
440.296357
 20
330.571563
 10
439.283505
 20
330.222046
 10
438.298927
 20
329.865784
 10
437.343545
 20
329.505829
 10
436.418281
 20
329.14523
 10
435.524059
 20
328.78704
 10
433.832426
 20
328.09009
 10
432.276028
 20
327.439389
 10
430.862246
 20
326.859345
 10
430.211141
 20
326.603448
 10
429.598458
 20
326.37437
 10
429.025119
 20
326.17516
 10
428.492046
 20
326.008872
 10
427.843487
 20
325.833723
 10
427.160234
 20
325.673776
 10
426.445225
 20
325.528431
 10
425.701399
 20
325.397085
 10
424.931692
 20
325.279139
 10
424.139042
 20
325.173991
 10
423.326389
 20
325.081041
 10
422.496668
 20
324.999689
 10
421.652819
 20
324.929332
 10
420.797779
 20
324.869371
 10
419.934486
 20
324.819205
 10
419.065878
 20
324.778232
 10
418.194892
 20
324.745853
 10
417.324467
 20
324.721466
 10
415.59705
 20
324.694267
 10
413.90713
 20
324.691827
 10
412.278209
 20
324.709341
 10
410.733791
 20
324.742002
 10
409.297377
 20
324.785005
 10
406.842577
 20
324.88281
 10
405.101833
 20
324.964305
 10
404.662508
 20
324.991839
 10
404.104516
 20
325.038746
 10
402.696219
 20
325.182514
 10
401.004322
 20
325.379273
 10
399.156203
 20
325.612685
 10
397.279239
 20
325.866416
 10
395.50081
 20
326.124128
 10
393.948293
 20
326.369485
 10
393.296558
 20
326.482425
 10
392.749068
 20
326.58615
 10
392.345664
 20
326.67676
 10
391.952227
 20
326.783938
 10
391.568868
 20
326.906784
 10
391.195698
 20
327.0444
 10
390.832829
 20
327.195884
 10
390.480371
 20
327.360337
 10
390.138436
 20
327.536858
 10
389.807135
 20
327.724546
 10
389.486579
 20
327.922503
 10
389.176879
 20
328.129827
 10
388.878146
 20
328.345619
 10
388.590492
 20
328.568978
 10
388.314027
 20
328.799004
 10
388.048864
 20
329.034797
 10
387.795112
 20
329.275457
 10
387.552884
 20
329.520084
 10
386.818803
 20
330.321334
 10
386.483077
 20
330.695737
 10
386.168442
 20
331.033793
 10
385.875058
 20
331.321353
 10
385.736386
 20
331.441777
 10
385.603088
 20
331.544271
 10
385.475183
 20
331.627067
 10
385.352691
 20
331.688397
 10
385.235633
 20
331.726492
 10
385.124029
 20
331.739583
 10
385.022744
 20
331.725101
 10
384.91039
 20
331.683564
 10
384.789396
 20
331.617837
 10
384.662191
 20
331.530786
 10
384.531205
 20
331.425275
 10
384.398864
 20
331.30417
 10
384.2676
 20
331.170336
 10
384.139841
 20
331.026637
 10
384.018016
 20
330.87594
 10
383.904553
 20
330.721108
 10
383.801882
 20
330.565007
 10
383.712432
 20
330.410502
 10
383.638631
 20
330.260458
 10
383.582909
 20
330.11774
 10
383.547695
 20
329.985213
 10
383.535417
 20
329.865743
 10
383.542835
 20
329.763576
 10
383.564636
 20
329.64985
 10
383.600143
 20
329.525394
 10
383.648676
 20
329.391036
 10
383.782105
 20
329.095933
 10
383.959496
 20
328.77117
 10
384.175418
 20
328.423379
 10
384.424443
 20
328.059189
 10
384.701141
 20
327.685232
 10
385.000082
 20
327.308137
 10
385.315838
 20
326.934536
 10
385.642978
 20
326.571059
 10
385.976074
 20
326.224337
 10
386.309697
 20
325.901
 10
386.638416
 20
325.607678
 10
386.956803
 20
325.351003
 10
387.259428
 20
325.137605
 10
387.403133
 20
325.049206
 10
387.540862
 20
324.974114
 10
387.928787
 20
324.789412
 10
388.364571
 20
324.604055
 10
388.84678
 20
324.41854
 10
389.373981
 20
324.233364
 10
389.94474
 20
324.049025
 10
390.557622
 20
323.866021
 10
391.211194
 20
323.684848
 10
391.904021
 20
323.506003
 10
392.634671
 20
323.329985
 10
393.401708
 20
323.15729
 10
394.203699
 20
322.988417
 10
395.039211
 20
322.823861
 10
395.906809
 20
322.664122
 10
396.805059
 20
322.509695
 10
397.732528
 20
322.361079
 10
398.687781
 20
322.21877
 10
399.669385
 20
322.083267
 10
400.675905
 20
321.955066
 10
401.705909
 20
321.834665
 10
402.757961
 20
321.722562
 10
403.830628
 20
321.619253
 10
404.922476
 20
321.525235
 10
406.032072
 20
321.441008
 10
407.157981
 20
321.367067
 10
408.298769
 20
321.30391
 10
409.453002
 20
321.252034
 10
410.619247
 20
321.211937
 10
411.79607
 20
321.184117
 10
412.982036
 20
321.16907
 10
414.175712
 20
321.167294
 10
415.375665
 20
321.179286
 10
416.580459
 20
321.205544
 10
418.530901
 20
321.268226
 10
420.632743
 20
321.356844
 10
421.692588
 20
321.411815
 10
422.73286
 20
321.474393
 10
423.734419
 20
321.544952
 10
424.678125
 20
321.623867
 10
424.91705
 20
321.650522
 10
425.214585
 20
321.692145
 10
425.959586
 20
321.818304
 10
426.861332
 20
321.998359
 10
427.354797
 20
322.107352
 10
427.868024
 20
322.228326
 10
428.394539
 20
322.360782
 10
428.927868
 20
322.504222
 10
429.461535
 20
322.658148
 10
429.989066
 20
322.822063
 10
430.503986
 20
322.995467
 10
430.999821
 20
323.177864
 10
431.470097
 20
323.368755
 10
431.908339
 20
323.567643
 10
433.314404
 20
324.232913
 10
434.76374
 20
324.890261
 10
435.497952
 20
325.211692
 10
436.234966
 20
325.526015
 10
436.972106
 20
325.83152
 10
437.706702
 20
326.126499
 10
438.436081
 20
326.409243
 10
439.15757
 20
326.678042
 10
439.868498
 20
326.931188
 10
440.56619
 20
327.16697
 10
441.247976
 20
327.38368
 10
441.911183
 20
327.579609
 10
442.553137
 20
327.753048
 10
443.171167
 20
327.902287
 10
443.986968
 20
328.068577
 10
444.87089
 20
328.225355
 10
445.756515
 20
328.373733
 10
446.577421
 20
328.514826
 10
446.853993
 20
328.484012
 10
446.966904
 20
328.465107
 10
447.064595
 20
328.441159
 10
447.14834
 20
328.410136
 10
447.219411
 20
328.370006
 10
447.27908
 20
328.318735
 10
447.328621
 20
328.254292
 10
447.369306
 20
328.174644
 10
447.402408
 20
328.077757
 10
447.4292
 20
327.961601
 10
447.450954
 20
327.824142
 10
447.48444
 20
327.477184
 10
447.513048
 20
327.020625
 10
447.515329
 20
326.66056
 10
447.490507
 20
326.176784
 10
447.441051
 20
325.590459
 10
447.369432
 20
324.922746
 10
447.278121
 20
324.194808
 10
447.169588
 20
323.427804
 10
447.046304
 20
322.642898
 10
446.910738
 20
321.86125
 10
446.65146
 20
320.479712
 10
446.382489
 20
319.131584
 10
446.100526
 20
317.805633
 10
445.802275
 20
316.490628
 10
445.484439
 20
315.175337
 10
445.143722
 20
313.848529
 10
444.776826
 20
312.498972
 10
444.380455
 20
311.115435
 10
443.951311
 20
309.686685
 10
443.486097
 20
308.201492
 10
442.981518
 20
306.648623
 10
442.434275
 20
305.016847
 10
441.841071
 20
303.294933
 10
441.198611
 20
301.471648
 10
440.503597
 20
299.535762
 10
439.752732
 20
297.476042
 10
438.102262
 20
292.978125
 10
437.834619
 20
292.418026
 10
437.532937
 20
291.830105
 10
437.213553
 20
291.221994
 10
436.892804
 20
290.601327
 10
436.587028
 20
289.975735
 10
436.444861
 20
289.663477
 10
436.312563
 20
289.35285
 10
436.192178
 20
289.044809
 10
436.085747
 20
288.740306
 10
435.995312
 20
288.440296
 10
435.922917
 20
288.145734
 10
435.907098
 20
288.004379
 10
435.908856
 20
287.85001
 10
435.922917
 20
287.551297
 10
435.937494
 20
287.500568
 10
435.980013
 20
287.42267
 10
436.141591
 20
287.192816
 10
436.393088
 20
286.876634
 10
436.719938
 20
286.489023
 10
437.541438
 20
285.559106
 10
438.489574
 20
284.522254
 10
439.447829
 20
283.497653
 10
440.299685
 20
282.604493
 10
440.928625
 20
281.961961
 10
441.123089
 20
281.771927
 10
441.218131
 20
281.689245
 10
441.368344
 20
281.608826
 10
441.510874
 20
281.548948
 10
441.645911
 20
281.507076
 10
441.773642
 20
281.480675
 10
441.894255
 20
281.467213
 10
442.007938
 20
281.464153
 10
442.215269
 20
281.479106
  0
LWPOLYLINE
  5
31
330
1F
100
AcDbEntity
  8
0
100
AcDbPolyline
 90
      318
 70
   128
 43
0.0
 10
545.651099
 20
221.286716
 10
547.650985
 20
221.265368
 10
547.757835
 20
231.27502
 10
547.493517
 20
239.267708
 10
547.469711
 20
240.732544
 10
547.437839
 20
242.090657
 10
547.396851
 20
243.350325
 10
547.345695
 20
244.519825
 10
547.283322
 20
245.607435
 10
547.208682
 20
246.621433
 10
547.120725
 20
247.570096
 10
547.018399
 20
248.461702
 10
546.900655
 20
249.304528
 10
546.766443
 20
250.106852
 10
546.614712
 20
250.876952
 10
546.444411
 20
251.623104
 10
546.254492
 20
252.353588
 10
546.043903
 20
253.07668
 10
545.811593
 20
253.800658
 10
545.556514
 20
254.533799
 10
544.860428
 20
256.465625
 10
543.15531
 20
260.169792
 10
542.796284
 20
260.964942
 10
542.440773
 20
261.782128
 10
542.090344
 20
262.616824
 10
541.746566
 20
263.464505
 10
541.411005
 20
264.320644
 10
541.085229
 20
265.180717
 10
540.770806
 20
266.040196
 10
540.469304
 20
266.894557
 10
540.182289
 20
267.739274
 10
539.91133
 20
268.56982
 10
539.657995
 20
269.381671
 10
539.42385
 20
270.1703
 10
539.210464
 20
270.931181
 10
539.019404
 20
271.659789
 10
538.852238
 20
272.351599
 10
538.710533
 20
273.002083
 10
538.616132
 20
273.509649
 10
538.537854
 20
274.028562
 10
538.475472
 20
274.557825
 10
538.428758
 20
275.096438
 10
538.397485
 20
275.643399
 10
538.381425
 20
276.197711
 10
538.38035
 20
276.758373
 10
538.394034
 20
277.324386
 10
538.422248
 20
277.89475
 10
538.464766
 20
278.468464
 10
538.52136
 20
279.044531
 10
538.591803
 20
279.621949
 10
538.675866
 20
280.199719
 10
538.773323
 20
280.776842
 10
538.883946
 20
281.352318
 10
539.007508
 20
281.925147
 10
539.143781
 20
282.494329
 10
539.292538
 20
283.058866
 10
539.453551
 20
283.617756
 10
539.626593
 20
284.170001
 10
539.811436
 20
284.7146
 10
540.007854
 20
285.250555
 10
540.215617
 20
285.776864
 10
540.4345
 20
286.29253
 10
540.664275
 20
286.796552
 10
540.904713
 20
287.287929
 10
541.155589
 20
287.765664
 10
541.416673
 20
288.228756
 10
541.68774
 20
288.676204
 10
541.968561
 20
289.107011
 10
542.258908
 20
289.520175
 10
542.558556
 20
289.914698
 10
542.866535
 20
290.285605
 10
543.175434
 20
290.621564
 10
543.483103
 20
290.921831
 10
543.787391
 20
291.185663
 10
544.086148
 20
291.412318
 10
544.377225
 20
291.601052
 10
544.65847
 20
291.751123
 10
544.794734
 20
291.811428
 10
544.927734
 20
291.861788
 10
545.057201
 20
291.902111
 10
545.182866
 20
291.932304
 10
545.304461
 20
291.952273
 10
545.421717
 20
291.961927
 10
545.534365
 20
291.961172
 10
545.642135
 20
291.949916
 10
545.744761
 20
291.928065
 10
545.841972
 20
291.895526
 10
545.933499
 20
291.852208
 10
546.019075
 20
291.798016
 10
546.09843
 20
291.732859
 10
546.171296
 20
291.656642
 10
546.237404
 20
291.569275
 10
546.296484
 20
291.470662
 10
546.348269
 20
291.360712
 10
546.392489
 20
291.239332
 10
546.416728
 20
291.136535
 10
546.426292
 20
291.02347
 10
546.420137
 20
290.89795
 10
546.39722
 20
290.757789
 10
546.356497
 20
290.6008
 10
546.296925
 20
290.424798
 10
546.21746
 20
290.227595
 10
546.117058
 20
290.007005
 10
545.994676
 20
289.760842
 10
545.84927
 20
289.486919
 10
545.485212
 20
288.847048
 10
545.016535
 20
288.069899
 10
544.434891
 20
287.137982
 10
544.192297
 20
286.736801
 10
543.96252
 20
286.322377
 10
543.745601
 20
285.895282
 10
543.541581
 20
285.456084
 10
543.350503
 20
285.005354
 10
543.172406
 20
284.54366
 10
543.007333
 20
284.071574
 10
542.855324
 20
283.589665
 10
542.716422
 20
283.098502
 10
542.590666
 20
282.598655
 10
542.478099
 20
282.090694
 10
542.378762
 20
281.575189
 10
542.292696
 20
281.05271
 10
542.219942
 20
280.523826
 10
542.160541
 20
279.989108
 10
542.114536
 20
279.449124
 10
542.081966
 20
278.904445
 10
542.062874
 20
278.355641
 10
542.057301
 20
277.803281
 10
542.065287
 20
277.247934
 10
542.086875
 20
276.690172
 10
542.122105
 20
276.130564
 10
542.171019
 20
275.569678
 10
542.233658
 20
275.008086
 10
542.310064
 20
274.446357
 10
542.400277
 20
273.885061
 10
542.504339
 20
273.324767
 10
542.622291
 20
272.766045
 10
542.754174
 20
272.209466
 10
542.90003
 20
271.655598
 10
543.0599
 20
271.105012
 10
543.233826
 20
270.558277
 10
543.913982
 20
268.511345
 10
546.263554
 20
263.766287
 10
546.762714
 20
262.747557
 10
547.227967
 20
261.775264
 10
547.660835
 20
260.84524
 10
548.06284
 20
259.953318
 10
548.435505
 20
259.095329
 10
548.780351
 20
258.267106
 10
549.098902
 20
257.46448
 10
549.392678
 20
256.683284
 10
549.663202
 20
255.919351
 10
549.911996
 20
255.168511
 10
550.140583
 20
254.426598
 10
550.350484
 20
253.689443
 10
550.543222
 20
252.952879
 10
550.720319
 20
252.212738
 10
550.883296
 20
251.464852
 10
551.033677
 20
250.705053
 10
551.157409
 20
250.089045
 10
551.298514
 20
249.471335
 10
551.458296
 20
248.859284
 10
551.63806
 20
248.260255
 10
551.839111
 20
247.68161
 10
551.948026
 20
247.402232
 10
552.062753
 20
247.130711
 10
552.183454
 20
246.867966
 10
552.310292
 20
246.61492
 10
552.44343
 20
246.37249
 10
552.583031
 20
246.141599
 10
552.723909
 20
245.969431
 10
552.869241
 20
245.805988
 10
553.018661
 20
245.650849
 10
553.1718
 20
245.50359
 10
553.487774
 20
245.231024
 10
553.814227
 20
244.984909
 10
554.148224
 20
244.761865
 10
554.486829
 20
244.558511
 10
554.827108
 20
244.371467
 10
555.166125
 20
244.197351
 10
555.73003
 20
243.898885
 10
555.99753
 20
243.744534
 10
556.255445
 20
243.586697
 10
556.503816
 20
243.425317
 10
556.742679
 20
243.260338
 10
556.972073
 20
243.091705
 10
557.192037
 20
242.919361
 10
557.402609
 20
242.74325
 10
557.603829
 20
242.563315
 10
557.795733
 20
242.379502
 10
557.978361
 20
242.191754
 10
558.151751
 20
242.000014
 10
558.315941
 20
241.804227
 10
558.470971
 20
241.604337
 10
558.616878
 20
241.400287
 10
558.753701
 20
241.192021
 10
558.881478
 20
240.979484
 10
559.000249
 20
240.762619
 10
559.11005
 20
240.54137
 10
559.210921
 20
240.315681
 10
559.302901
 20
240.085497
 10
559.386027
 20
239.85076
 10
559.460338
 20
239.611415
 10
559.525873
 20
239.367405
 10
559.582669
 20
239.118676
 10
559.630767
 20
238.86517
 10
559.670203
 20
238.606831
 10
559.701016
 20
238.343604
 10
559.723246
 20
238.075433
 10
559.736929
 20
237.80226
 10
559.742106
 20
237.524031
 10
559.738423
 20
237.240945
 10
559.725292
 20
236.961884
 10
559.702438
 20
236.686449
 10
559.66959
 20
236.414236
 10
559.626473
 20
236.144845
 10
559.572815
 20
235.877874
 10
559.508342
 20
235.612922
 10
559.432782
 20
235.349587
 10
559.345862
 20
235.087468
 10
559.247307
 20
234.826162
 10
559.136845
 20
234.565269
 10
559.014203
 20
234.304388
 10
558.879107
 20
234.043116
 10
558.731285
 20
233.781052
 10
558.570464
 20
233.517796
 10
558.39637
 20
233.252944
 10
558.208729
 20
232.986096
 10
558.00727
 20
232.71685
 10
557.791718
 20
232.444805
 10
557.561801
 20
232.16956
 10
557.317246
 20
231.890712
 10
557.057779
 20
231.60786
 10
556.783127
 20
231.320603
 10
556.493017
 20
231.02854
 10
555.86533
 20
230.428387
 10
555.172534
 20
229.80419
 10
554.412444
 20
229.152737
 10
553.582873
 20
228.470815
 10
553.324862
 20
228.255047
 10
553.08349
 20
228.037231
 10
552.858019
 20
227.816087
 10
552.647711
 20
227.590334
 10
552.451829
 20
227.358695
 10
552.269635
 20
227.119889
 10
552.100392
 20
226.872636
 10
551.943362
 20
226.615657
 10
551.797808
 20
226.347672
 10
551.662992
 20
226.067403
 10
551.538177
 20
225.773568
 10
551.422625
 20
225.464889
 10
551.315598
 20
225.140086
 10
551.216359
 20
224.797879
 10
551.12417
 20
224.436989
 10
551.038295
 20
224.056136
 10
550.730142
 20
222.602897
 10
550.480417
 20
219.331155
 10
550.407587
 20
218.446437
 10
550.333348
 20
217.699338
 10
550.254445
 20
217.072987
 10
550.167624
 20
216.550514
 10
550.06963
 20
216.115049
 10
550.015425
 20
215.924672
 10
549.957207
 20
215.749721
 10
549.894568
 20
215.588087
 10
549.827101
 20
215.437661
 10
549.7544
 20
215.296334
 10
549.676058
 20
215.161998
 10
549.487403
 20
214.865781
 10
549.400075
 20
214.745936
 10
549.310748
 20
214.64318
 10
549.214422
 20
214.556199
 10
549.106097
 20
214.483679
 10
548.980774
 20
214.424304
 10
548.833453
 20
214.37676
 10
548.659135
 20
214.339733
 10
548.45282
 20
214.311908
 10
548.209508
 20
214.29197
 10
547.9242
 20
214.278605
 10
547.207598
 20
214.266336
 10
546.263017
 20
214.264583
 10
545.328681
 20
214.266382
 10
544.617166
 20
214.277246
 10
544.090685
 20
214.30538
 10
543.885023
 20
214.328486
 10
543.711448
 20
214.358985
 10
543.565236
 20
214.397904
 10
543.441665
 20
214.446266
 10
543.336011
 20
214.505098
 10
543.243549
 20
214.575424
 10
543.159557
 20
214.658271
 10
543.07931
 20
214.754664
 10
542.911159
 20
214.992188
 10
542.417708
 20
215.719792
 10
542.338064
 20
221.85758
 10
542.313327
 20
223.884331
 10
542.304428
 20
225.412404
 10
542.308535
 20
226.013418
 10
542.319742
 20
226.518539
 10
542.339094
 20
226.937361
 10
542.36764
 20
227.279475
 10
542.406424
 20
227.554474
 10
542.456495
 20
227.771951
 10
542.518898
 20
227.941498
 10
542.59468
 20
228.072707
 10
542.684887
 20
228.175171
 10
542.790567
 20
228.258483
 10
542.912766
 20
228.332234
 10
543.052529
 20
228.406017
 10
543.23377
 20
228.488508
 10
543.44484
 20
228.565465
 10
543.678117
 20
228.635203
 10
543.92598
 20
228.696038
 10
544.180806
 20
228.746287
 10
544.434974
 20
228.784264
 10
544.680861
 20
228.808285
 10
545.417532
 20
228.835134
 42
-0.428078
 10
545.728441
 20
228.53213
 10
545.651099
 20
221.286716
  0
LWPOLYLINE
  5
32
330
1F
100
AcDbEntity
  8
0
100
AcDbPolyline
 90
      197
 70
   128
 43
0.0
 10
504.49419
 20
237.075991
 10
535.664167
 20
237.150499
 42
0.496698
 10
535.952128
 20
237.532136
 10
534.911801
 20
241.210804
 10
536.836323
 20
241.755058
 10
537.973766
 20
237.732984
 42
0.385262
 10
538.3149
 20
237.519244
 10
538.514679
 20
237.554722
 10
538.852154
 20
237.620123
 10
539.210277
 20
237.702359
 10
539.565311
 20
237.804913
 10
539.734251
 20
237.864896
 10
539.893517
 20
237.931266
 10
540.040142
 20
238.004455
 10
540.171157
 20
238.084901
 10
540.283597
 20
238.173037
 10
540.374493
 20
238.2693
 10
540.440879
 20
238.374125
 10
540.463953
 20
238.429884
 10
540.479787
 20
238.487947
 10
540.491828
 20
238.583336
 10
540.492405
 20
238.685156
 10
540.469965
 20
238.899763
 10
540.434053
 20
239.11513
 10
540.406256
 20
239.314617
 10
537.997776
 20
247.998958
 10
537.472115
 20
248.862201
 10
537.266127
 20
249.176955
 10
537.054706
 20
249.452157
 10
536.94653
 20
249.574957
 10
536.836482
 20
249.687907
 10
536.724391
 20
249.79102
 10
536.610086
 20
249.884307
 10
536.493395
 20
249.967782
 10
536.374148
 20
250.041457
 10
536.252173
 20
250.105345
 10
536.127299
 20
250.159458
 10
535.999354
 20
250.203808
 10
535.868168
 20
250.238409
 10
535.73357
 20
250.263273
 10
535.595387
 20
250.278412
 10
535.45345
 20
250.283839
 10
535.307586
 20
250.279567
 10
535.157625
 20
250.265608
 10
535.003396
 20
250.241975
 10
534.844726
 20
250.20868
 10
534.681446
 20
250.165736
 10
534.513383
 20
250.113156
 10
534.340367
 20
250.050951
 10
533.978791
 20
249.89772
 10
533.595346
 20
249.706144
 10
533.188663
 20
249.476324
 10
532.757374
 20
249.208359
 10
532.413997
 20
248.992018
 10
532.077006
 20
248.790242
 10
531.754967
 20
248.607444
 10
531.456448
 20
248.448037
 10
531.190012
 20
248.316433
 10
530.964228
 20
248.217045
 10
530.78766
 20
248.154284
 10
530.72051
 20
248.138018
 10
530.668876
 20
248.132564
 10
530.549242
 20
248.143925
 10
530.42015
 20
248.177544
 10
530.281192
 20
248.233801
 10
530.131961
 20
248.313078
 10
529.972052
 20
248.415755
 10
529.801056
 20
248.542212
 10
529.618568
 20
248.69283
 10
529.424181
 20
248.867989
 10
529.217488
 20
249.068069
 10
528.998083
 20
249.293452
 10
528.519508
 20
249.821647
 10
527.985202
 20
250.455616
 10
527.391913
 20
251.198403
 10
527.071193
 20
251.59199
 10
526.721534
 20
251.991322
 10
526.354199
 20
252.385361
 10
525.980447
 20
252.763068
 10
525.611539
 20
253.113405
 10
525.258735
 20
253.425331
 10
524.933296
 20
253.687809
 10
524.646482
 20
253.889799
 10
524.303996
 20
254.09859
 10
523.943485
 20
254.299838
 10
523.56454
 20
254.4936
 10
523.166756
 20
254.679939
 10
522.749726
 20
254.858913
 10
522.313043
 20
255.030583
 10
521.8563
 20
255.19501
 10
521.37909
 20
255.352252
 10
520.881007
 20
255.50237
 10
520.361645
 20
255.645425
 10
519.820595
 20
255.781475
 10
519.257451
 20
255.910583
 10
518.671808
 20
256.032806
 10
518.063257
 20
256.148206
 10
517.431392
 20
256.256843
 10
516.775807
 20
256.358776
 10
516.096094
 20
256.454067
 10
515.391847
 20
256.542774
 10
514.662659
 20
256.624957
 10
513.908123
 20
256.700678
 10
513.127832
 20
256.769996
 10
512.321381
 20
256.832971
 10
511.488361
 20
256.889664
 10
510.628367
 20
256.940133
 10
508.825826
 20
257.022645
 10
506.910505
 20
257.080987
 10
504.87915
 20
257.115639
 10
502.728506
 20
257.127083
 10
501.281726
 20
257.125215
 10
500.518625
 20
257.118214
 10
499.729681
 20
257.103023
 10
498.915369
 20
257.076529
 10
498.076162
 20
257.035625
 10
497.212534
 20
256.977198
 10
496.324959
 20
256.89814
 10
495.144819
 20
256.771741
 10
493.911582
 20
256.624489
 10
492.643733
 20
256.45826
 10
491.359757
 20
256.274935
 10
490.078137
 20
256.07639
 10
488.817359
 20
255.864505
 10
487.595905
 20
255.641157
 10
486.432261
 20
255.408226
 10
485.832186
 20
255.276651
 10
485.243268
 20
255.1365
 10
484.665475
 20
254.987908
 10
484.098774
 20
254.831011
 10
483.543131
 20
254.665943
 10
482.998513
 20
254.492841
 10
482.464887
 20
254.31184
 10
481.942221
 20
254.123075
 10
481.430481
 20
253.926681
 10
480.929633
 20
253.722795
 10
480.439646
 20
253.511551
 10
479.960485
 20
253.293085
 10
479.492117
 20
253.067532
 10
479.03451
 20
252.835028
 10
478.58763
 20
252.595708
 10
478.151445
 20
252.349708
 10
477.72592
 20
252.097163
 10
477.311024
 20
251.838208
 10
476.906722
 20
251.572979
 10
476.512982
 20
251.301612
 10
476.129771
 20
251.024241
 10
475.757055
 20
250.741002
 10
475.394802
 20
250.452031
 10
475.042978
 20
250.157464
 10
474.70155
 20
249.857434
 10
474.370485
 20
249.552079
 10
474.049751
 20
249.241532
 10
473.739313
 20
248.925931
 10
473.439138
 20
248.60541
 10
473.149195
 20
248.280104
 10
472.869448
 20
247.950149
 10
472.599867
 20
247.615681
 10
472.292495
 20
247.213969
 10
472.003171
 20
246.814462
 10
471.731938
 20
246.417494
 10
471.478837
 20
246.0234
 10
471.243912
 20
245.632515
 10
471.027204
 20
245.245173
 10
470.828756
 20
244.861708
 10
470.64861
 20
244.482454
 10
470.486808
 20
244.107747
 10
470.343393
 20
243.73792
 10
470.218407
 20
243.373307
 10
470.111892
 20
243.014244
 10
470.02389
 20
242.661065
 10
469.954445
 20
242.314103
 10
469.903597
 20
241.973693
 10
469.87139
 20
241.640171
 10
469.857865
 20
241.313869
 10
469.863066
 20
240.995123
 10
469.887034
 20
240.684267
 10
469.929811
 20
240.381636
 10
469.991441
 20
240.087563
 10
470.071964
 20
239.802383
 10
470.171425
 20
239.52643
 10
470.289864
 20
239.260039
 10
470.427324
 20
239.003545
 10
470.583847
 20
238.757281
 10
470.759476
 20
238.521583
 10
470.954254
 20
238.296784
 10
471.168221
 20
238.083218
 10
471.401422
 20
237.881221
 10
471.653897
 20
237.691127
 10
471.925689
 20
237.513269
 10
472.199216
 20
237.35558
 10
472.504854
 20
237.201193
 10
472.660684
 20
237.132943
 10
472.813706
 20
237.074763
 10
472.960307
 20
237.029735
 10
473.096875
 20
237.000941
 10
504.49419
 20
237.075991
  0
LWPOLYLINE
  5
33
330
1F
100
AcDbEntity
  8
0
100
AcDbPolyline
 90
      186
 70
   128
 43
0.0
 10
406.686458
 20
295.507413
 10
406.148191
 20
295.52193
 10
405.639141
 20
295.560826
 10
405.157948
 20
295.624944
 10
404.927372
 20
295.666724
 10
404.703251
 20
295.715124
 10
404.485413
 20
295.77025
 10
404.273689
 20
295.832208
 10
404.067909
 20
295.901102
 10
403.867903
 20
295.977037
 10
403.673501
 20
296.060119
 10
403.484532
 20
296.150452
 10
403.300826
 20
296.248143
 10
403.122215
 20
296.353295
 10
402.948527
 20
296.466015
 10
402.779592
 20
296.586407
 10
402.615241
 20
296.714577
 10
402.455303
 20
296.85063
 10
402.299608
 20
296.99467
 10
402.147987
 20
297.146804
 10
402.000269
 20
297.307136
 10
401.856284
 20
297.475771
 10
401.715862
 20
297.652815
 10
401.578833
 20
297.838372
 10
401.314275
 20
298.235449
 10
401.061248
 20
298.667843
 10
400.818392
 20
299.136396
 10
400.655819
 20
299.494686
 10
400.514835
 20
299.859696
 10
400.395068
 20
300.230429
 10
400.296149
 20
300.605893
 10
400.217708
 20
300.985092
 10
400.159375
 20
301.367032
 10
400.12078
 20
301.750718
 10
400.101554
 20
302.135157
 10
400.101325
 20
302.519354
 10
400.119724
 20
302.902313
 10
400.156382
 20
303.283042
 10
400.210928
 20
303.660545
 10
400.282992
 20
304.033829
 10
400.372205
 20
304.401898
 10
400.478196
 20
304.763758
 10
400.600595
 20
305.118415
 10
400.739033
 20
305.464874
 10
400.893139
 20
305.802142
 10
401.062544
 20
306.129223
 10
401.246878
 20
306.445123
 10
401.44577
 20
306.748848
 10
401.658851
 20
307.039404
 10
401.885751
 20
307.315795
 10
402.1261
 20
307.577028
 10
402.379527
 20
307.822108
 10
402.645663
 20
308.05004
 10
402.924139
 20
308.259831
 10
403.214583
 20
308.450486
 10
403.516626
 20
308.62101
 10
403.829898
 20
308.770409
 10
404.15403
 20
308.897689
 10
404.488651
 20
309.001855
 10
404.853516
 20
309.086615
 10
405.249631
 20
309.152322
 10
405.672343
 20
309.199427
 10
406.117002
 20
309.228382
 10
406.578957
 20
309.239638
 10
407.053557
 20
309.233646
 10
407.536151
 20
309.210858
 10
408.022087
 20
309.171724
 10
408.506716
 20
309.116696
 10
408.985386
 20
309.046225
 10
409.453446
 20
308.960762
 10
409.906245
 20
308.860759
 10
410.339133
 20
308.746666
 10
410.747457
 20
308.618936
 10
411.126568
 20
308.478018
 10
411.471814
 20
308.324365
 10
411.722269
 20
308.197162
 10
411.955207
 20
308.069398
 10
412.170673
 20
307.941355
 10
412.368711
 20
307.813318
 10
412.549364
 20
307.685569
 10
412.712677
 20
307.558392
 10
412.858692
 20
307.432069
 10
412.987455
 20
307.306885
 10
413.099008
 20
307.183123
 10
413.193397
 20
307.061065
 10
413.270664
 20
306.940995
 10
413.330853
 20
306.823196
 10
413.374009
 20
306.707952
 10
413.400175
 20
306.595545
 10
413.409395
 20
306.486259
 10
413.401713
 20
306.380378
 10
413.377173
 20
306.278183
 10
413.335818
 20
306.17996
 10
413.277693
 20
306.08599
 10
413.202842
 20
305.996558
 10
413.111307
 20
305.911946
 10
413.003134
 20
305.832438
 10
412.878366
 20
305.758316
 10
412.737046
 20
305.689865
 10
412.57922
 20
305.627367
 10
412.40493
 20
305.571106
 10
412.21422
 20
305.521365
 10
412.007135
 20
305.478427
 10
411.783717
 20
305.442575
 10
411.544012
 20
305.414093
 10
411.288063
 20
305.393264
 10
411.015914
 20
305.380371
 10
410.437614
 20
305.3526
 10
410.194196
 20
305.330969
 10
409.978403
 20
305.302286
 10
409.788093
 20
305.265134
 10
409.621118
 20
305.218095
 10
409.475334
 20
305.159752
 10
409.348595
 20
305.088688
 10
409.238756
 20
305.003487
 10
409.143672
 20
304.902731
 10
409.061197
 20
304.785003
 10
408.989185
 20
304.648886
 10
408.925493
 20
304.492963
 10
408.867974
 20
304.315817
 10
408.814482
 20
304.116031
 10
408.762873
 20
303.892188
 10
408.707174
 20
303.665061
 10
408.690742
 20
303.615093
 42
-0.319603
 10
408.410469
 20
303.408849
 10
404.950956
 20
303.354492
 10
404.982378
 20
301.354738
 10
408.340852
 20
301.407508
 42
-0.314389
 10
408.62547
 20
301.215495
 10
408.63094
 20
301.201312
 10
408.700511
 20
300.964855
 10
408.764359
 20
300.739465
 10
408.830798
 20
300.536967
 10
408.901615
 20
300.35621
 10
408.978599
 20
300.19604
 10
409.063535
 20
300.055306
 10
409.158213
 20
299.932856
 10
409.264418
 20
299.827536
 10
409.383938
 20
299.738195
 10
409.51856
 20
299.66368
 10
409.670072
 20
299.602839
 10
409.840261
 20
299.55452
 10
410.030913
 20
299.51757
 10
410.243817
 20
299.490837
 10
410.48076
 20
299.473169
 10
410.743529
 20
299.463413
 10
411.03391
 20
299.460417
 10
411.360226
 20
299.455332
 10
411.661728
 20
299.44003
 10
411.938541
 20
299.414439
 10
412.190789
 20
299.378486
 10
412.418594
 20
299.332099
 10
412.622083
 20
299.275205
 10
412.801378
 20
299.207733
 10
412.956603
 20
299.12961
 10
413.087884
 20
299.040764
 10
413.195343
 20
298.941123
 10
413.279104
 20
298.830613
 10
413.339293
 20
298.709164
 10
413.376032
 20
298.576702
 10
413.389446
 20
298.433156
 10
413.379658
 20
298.278453
 10
413.346794
 20
298.112521
 10
413.30477
 20
297.981336
 10
413.247168
 20
297.85146
 10
413.174473
 20
297.723085
 10
413.087173
 20
297.5964
 10
412.985752
 20
297.471595
 10
412.870698
 20
297.34886
 10
412.742496
 20
297.228386
 10
412.601633
 20
297.110363
 10
412.448594
 20
296.99498
 10
412.283867
 20
296.882429
 10
412.107936
 20
296.772899
 10
411.921288
 20
296.66658
 10
411.72441
 20
296.563662
 10
411.517787
 20
296.464336
 10
411.077251
 20
296.27722
 10
410.603572
 20
296.106752
 10
410.100637
 20
295.954454
 10
409.572335
 20
295.821847
 10
409.022557
 20
295.710451
 10
408.455191
 20
295.621789
 10
407.874126
 20
295.557381
 10
407.283252
 20
295.518749
 10
406.686458
 20
295.507413
  0
LWPOLYLINE
  5
34
330
1F
100
AcDbEntity
  8
0
100
AcDbPolyline
 90
      347
 70
   128
 43
0.0
 10
427.482914
 20
277.795275
 10
427.546848
 20
277.792987
 10
427.637021
 20
277.804148
 10
427.879326
 20
277.860483
 10
428.176311
 20
277.951607
 10
428.494459
 20
278.064848
 10
428.775293
 20
278.177517
 42
0.453447
 10
428.924882
 20
278.603341
 10
426.50784
 20
282.888107
 10
428.249798
 20
283.870747
 10
430.678641
 20
279.565063
 42
0.382299
 10
431.057706
 20
279.436542
 10
431.106394
 20
279.457324
 10
431.259933
 20
279.532462
 10
431.608925
 20
279.727711
 10
431.981185
 20
279.966137
 10
432.195515
 20
280.123526
 10
432.379045
 20
280.283545
 10
432.531555
 20
280.448549
 10
432.596107
 20
280.533656
 10
432.652821
 20
280.620892
 10
432.701669
 20
280.710552
 10
432.742624
 20
280.802931
 10
432.775656
 20
280.898322
 10
432.80074
 20
280.99702
 10
432.817847
 20
281.099319
 10
432.826948
 20
281.205514
 10
432.828018
 20
281.3159
 10
432.821028
 20
281.43077
 10
432.782756
 20
281.675141
 10
432.711912
 20
281.940985
 10
432.608274
 20
282.230655
 10
432.471619
 20
282.546507
 10
432.301728
 20
282.890896
 10
432.098377
 20
283.266178
 10
431.861346
 20
283.674708
 10
431.590412
 20
284.118841
 10
430.366667
 20
286.085272
 10
430.366667
 20
286.719125
 10
430.372889
 20
286.796142
 10
430.391109
 20
286.895443
 10
430.46087
 20
287.154773
 10
430.570605
 20
287.484877
 10
430.714965
 20
287.873517
 10
430.888605
 20
288.308456
 10
431.086177
 20
288.777454
 10
431.302335
 20
289.268273
 10
431.531731
 20
289.768677
 10
432.733579
 20
292.374681
 10
434.010251
 20
295.192421
 10
436.450593
 20
300.633648
 10
437.36887
 20
302.660284
 10
438.36086
 20
304.844013
 10
438.856248
 20
305.947926
 10
439.336166
 20
307.034878
 10
439.789313
 20
308.086125
 10
440.204392
 20
309.082921
 10
440.68775
 20
310.279039
 10
441.193092
 20
311.550377
 10
441.708982
 20
312.873336
 10
442.223985
 20
314.224316
 10
442.726668
 20
315.579718
 10
443.205594
 20
316.915942
 10
443.649329
 20
318.209389
 10
444.04644
 20
319.436458
 10
444.140109
 20
319.765553
 10
444.230173
 20
320.123379
 10
444.397605
 20
320.814916
 10
444.471769
 20
321.131561
 10
444.527396
 20
321.428022
 10
444.564129
 20
321.705207
 10
444.581611
 20
321.964023
 10
444.579488
 20
322.205379
 10
444.557401
 20
322.430184
 10
444.514994
 20
322.639344
 10
444.451912
 20
322.833769
 10
444.367797
 20
323.014365
 10
444.262294
 20
323.182042
 10
444.135045
 20
323.337708
 10
443.985695
 20
323.482269
 10
443.813887
 20
323.616635
 10
443.619265
 20
323.741714
 10
443.401471
 20
323.858413
 10
443.160151
 20
323.967641
 10
442.850769
 20
324.087997
 10
442.706481
 20
324.13441
 10
442.563801
 20
324.171445
 10
442.418733
 20
324.198947
 10
442.267282
 20
324.216765
 10
442.105453
 20
324.224746
 10
441.92925
 20
324.222737
 10
441.734678
 20
324.210585
 10
441.517742
 20
324.188139
 10
441.000793
 20
324.111751
 10
440.34644
 20
323.992352
 10
439.522721
 20
323.828722
 10
438.790457
 20
323.674851
 10
438.072991
 20
323.512358
 10
437.365154
 20
323.339425
 10
436.661776
 20
323.154233
 10
435.957685
 20
322.954963
 10
435.247712
 20
322.739796
 10
434.526686
 20
322.506915
 10
433.789438
 20
322.254499
 10
433.030796
 20
321.980732
 10
432.245591
 20
321.683793
 10
431.428653
 20
321.361864
 10
430.57481
 20
321.013128
 10
429.678893
 20
320.635764
 10
428.735731
 20
320.227954
 10
427.740155
 20
319.78788
 10
426.686994
 20
319.313723
 10
425.460287
 20
318.746352
 10
424.813452
 20
318.44759
 10
424.154756
 20
318.150734
 10
423.492048
 20
317.864751
 10
422.833173
 20
317.598608
 10
422.185977
 20
317.361274
 10
421.869212
 20
317.256213
 10
421.558308
 20
317.161716
 10
421.059602
 20
317.024664
 10
420.502932
 20
316.886291
 10
419.942738
 20
316.764562
 10
419.678332
 20
316.715553
 10
419.433459
 20
316.677441
 10
418.999136
 20
316.623304
 10
418.52879
 20
316.574826
 10
418.024149
 20
316.531948
 10
417.486939
 20
316.494611
 10
416.321724
 20
316.436328
 10
415.046965
 20
316.399511
 10
413.67648
 20
316.383691
 10
412.224087
 20
316.388402
 10
410.703607
 20
316.413177
 10
409.128857
 20
316.457547
 10
407.513656
 20
316.521046
 10
405.871824
 20
316.603207
 10
404.217179
 20
316.703561
 10
402.563539
 20
316.821643
 10
400.924724
 20
316.956984
 10
399.314553
 20
317.109117
 10
397.746844
 20
317.277575
 10
396.235417
 20
317.461891
 10
392.134375
 20
317.99464
 10
391.138538
 20
318.122117
 10
390.62298
 20
318.194066
 10
390.147944
 20
318.279153
 10
389.7307
 20
318.379493
 10
389.346957
 20
318.49598
 10
388.994076
 20
318.628194
 10
388.669423
 20
318.775716
 10
388.37036
 20
318.938126
 10
388.094251
 20
319.115005
 10
387.838461
 20
319.305934
 10
387.600353
 20
319.510492
 10
387.377291
 20
319.728261
 10
387.166638
 20
319.95882
 10
386.965759
 20
320.20175
 10
386.772016
 20
320.456631
 10
386.395398
 20
321.000571
 10
386.015692
 20
321.587282
 10
385.818949
 20
321.885463
 10
385.627036
 20
322.156909
 10
385.439271
 20
322.402033
 10
385.254975
 20
322.62125
 10
385.073468
 20
322.814974
 10
384.894069
 20
322.983617
 10
384.716099
 20
323.127594
 10
384.538878
 20
323.247319
 10
384.361725
 20
323.343205
 10
384.18396
 20
323.415666
 10
384.004904
 20
323.465115
 10
383.823877
 20
323.491967
 10
383.640197
 20
323.496635
 10
383.453186
 20
323.479534
 10
383.262164
 20
323.441076
 10
383.06645
 20
323.381675
 10
382.826268
 20
323.286485
 10
382.618706
 20
323.179999
 10
382.527173
 20
323.121907
 10
382.443814
 20
323.060255
 10
382.368634
 20
322.994798
 10
382.301639
 20
322.925289
 10
382.242836
 20
322.851484
 10
382.192231
 20
322.773137
 10
382.14983
 20
322.690002
 10
382.115639
 20
322.601835
 10
382.089664
 20
322.50839
 10
382.071912
 20
322.40942
 10
382.062387
 20
322.304682
 10
382.061097
 20
322.193928
 10
382.068048
 20
322.076915
 10
382.083245
 20
321.953396
 10
382.138403
 20
321.685859
 10
382.226621
 20
321.389354
 10
382.347947
 20
321.061917
 10
382.50243
 20
320.701585
 10
382.69012
 20
320.306394
 10
382.911064
 20
319.87438
 10
383.165312
 20
319.40358
 10
383.56524
 20
318.689762
 10
383.902241
 20
318.121547
 10
384.054115
 20
317.88412
 10
384.198623
 20
317.673587
 10
384.338552
 20
317.486781
 10
384.476691
 20
317.320531
 10
384.615829
 20
317.17167
 10
384.758753
 20
317.037028
 10
384.908252
 20
316.913438
 10
385.067115
 20
316.797729
 10
385.238129
 20
316.686734
 10
385.424083
 20
316.577283
 10
385.851964
 20
316.350339
 10
386.266206
 20
316.155228
 10
386.732882
 20
315.963256
 10
387.251828
 20
315.774456
 10
387.822879
 20
315.588865
 10
388.445871
 20
315.406516
 10
389.12064
 20
315.227446
 10
389.847022
 20
315.051688
 10
390.624854
 20
314.879278
 10
391.45397
 20
314.71025
 10
392.334206
 20
314.544639
 10
393.265399
 20
314.382481
 10
394.247385
 20
314.22381
 10
395.279998
 20
314.068661
 10
396.363076
 20
313.917068
 10
397.496454
 20
313.769067
 10
398.679968
 20
313.624693
 10
400.391247
 20
313.430009
 10
401.916146
 20
313.275433
 10
403.339934
 20
313.156592
 10
404.040559
 20
313.109205
 10
404.747882
 20
313.069113
 10
406.225257
 20
313.008622
 10
407.85733
 20
312.970747
 10
409.72937
 20
312.951116
 10
411.926647
 20
312.945354
 10
412.802432
 20
312.936541
 10
413.731502
 20
312.915278
 10
415.677824
 20
312.865278
 10
416.65924
 20
312.851474
 10
417.622268
 20
312.855093
 10
418.091286
 20
312.865768
 10
418.548988
 20
312.8836
 10
418.993134
 20
312.90952
 10
419.421484
 20
312.944463
 10
419.655492
 20
312.972509
 10
419.902214
 20
313.011864
 10
420.416344
 20
313.112964
 10
420.928957
 20
313.224698
 10
421.405135
 20
313.323998
 10
422.082541
 20
313.461204
 10
422.708578
 20
313.610665
 10
423.021268
 20
313.696844
 10
423.343838
 20
313.79431
 10
423.683861
 20
313.905806
 10
424.048911
 20
314.034071
 10
424.88439
 20
314.351874
 10
425.910865
 20
314.769651
 10
427.188927
 20
315.30933
 10
428.779167
 20
315.992841
 10
429.887121
 20
316.459296
 10
431.243928
 20
317.003575
 10
431.963308
 20
317.279596
 10
432.682087
 20
317.54471
 10
433.37933
 20
317.788795
 10
434.034098
 20
318.001731
 10
434.938851
 20
318.266791
 10
435.919427
 20
318.534281
 10
437.812714
 20
319.039583
 10
438.080035
 20
319.027034
 10
438.198108
 20
319.010258
 10
438.305596
 20
318.985515
 10
438.402355
 20
318.952078
 10
438.48824
 20
318.909223
 10
438.563105
 20
318.856223
 10
438.626807
 20
318.792353
 10
438.6792
 20
318.716888
 10
438.72014
 20
318.629102
 10
438.749481
 20
318.528269
 10
438.767079
 20
318.413665
 10
438.77279
 20
318.284562
 10
438.766467
 20
318.140237
 10
438.747967
 20
317.979963
 10
438.717144
 20
317.803015
 10
438.673854
 20
317.608667
 10
438.617952
 20
317.396193
 10
438.467733
 20
316.913969
 10
438.265327
 20
316.350537
 10
438.009577
 20
315.700093
 10
437.699324
 20
314.956833
 10
437.333408
 20
314.114953
 10
436.429958
 20
312.112115
 10
435.657155
 20
310.455629
 10
434.70177
 20
308.453315
 10
433.685242
 20
306.357546
 10
432.729007
 20
304.420697
 10
431.668547
 20
302.264569
 10
431.113313
 20
301.148723
 10
430.582076
 20
300.121875
 10
430.193618
 20
299.416016
 10
429.76294
 20
298.661742
 10
428.925937
 20
297.211458
 10
427.287286
 20
294.273672
 10
426.415502
 20
292.697935
 10
425.643675
 20
291.313791
 10
425.00591
 20
290.198162
 10
424.308593
 20
289.00124
 10
422.958776
 20
286.69712
 10
422.685195
 20
286.260804
 10
422.456906
 20
285.858765
 10
422.359972
 20
285.668672
 10
422.274634
 20
285.484838
 10
422.200981
 20
285.306491
 10
422.139106
 20
285.13286
 10
422.089098
 20
284.963176
 10
422.051049
 20
284.796667
 10
422.02505
 20
284.632564
 10
422.01119
 20
284.470095
 10
422.009562
 20
284.308491
 10
422.020256
 20
284.14698
 10
422.043363
 20
283.984793
 10
422.078973
 20
283.821159
 10
422.127178
 20
283.655307
 10
422.188068
 20
283.486467
 10
422.261734
 20
283.313869
 10
422.348268
 20
283.136741
 10
422.447759
 20
282.954314
 10
422.560299
 20
282.765817
 10
422.824889
 20
282.36753
 10
423.142764
 20
281.935718
 10
423.51465
 20
281.464216
 10
423.941276
 20
280.946861
 10
424.423366
 20
280.377488
 10
424.956929
 20
279.759218
 10
425.239615
 20
279.44513
 10
425.532392
 20
279.136039
 10
425.834871
 20
278.838172
 10
426.146669
 20
278.557753
 10
426.467399
 20
278.301008
 10
426.630992
 20
278.183459
 10
426.796674
 20
278.074163
 10
426.972555
 20
277.982019
 10
427.178965
 20
277.895768
 10
427.36579
 20
277.828993
 10
427.482914
 20
277.795275
  0
LWPOLYLINE
  5
35
330
1F
100
AcDbEntity
  8
0
100
AcDbPolyline
 90
      210
 70
   128
 43
0.0
 10
409.514043
 20
273.839586
 42
0.477797
 10
409.965939
 20
273.956568
 10
412.105552
 20
278.671189
 10
413.926778
 20
277.844671
 10
411.719584
 20
272.981134
 42
0.423716
 10
411.877687
 20
272.580107
 10
412.092569
 20
272.490849
 10
412.414488
 20
272.388858
 10
412.760205
 20
272.306932
 10
413.112301
 20
272.250528
 10
413.285299
 20
272.233603
 10
413.453359
 20
272.225104
 10
413.613779
 20
272.234776
 10
413.776562
 20
272.270849
 10
413.941164
 20
272.33217
 10
414.107041
 20
272.417583
 10
414.273652
 20
272.525935
 10
414.440453
 20
272.656071
 10
414.6069
 20
272.806836
 10
414.772452
 20
272.977076
 10
414.936564
 20
273.165637
 10
415.098694
 20
273.371363
 10
415.258299
 20
273.593102
 10
415.414836
 20
273.829697
 10
415.567762
 20
274.079994
 10
415.716534
 20
274.34284
 10
415.860608
 20
274.617079
 10
415.999442
 20
274.901557
 10
416.132493
 20
275.19512
 10
416.259218
 20
275.496613
 10
416.379073
 20
275.804882
 10
416.491516
 20
276.118771
 10
416.596004
 20
276.437128
 10
416.691993
 20
276.758796
 10
416.778941
 20
277.082622
 10
416.856305
 20
277.407451
 10
416.923541
 20
277.732129
 10
416.980107
 20
278.055502
 10
417.025459
 20
278.376414
 10
417.059055
 20
278.693711
 10
417.080351
 20
279.006239
 10
417.088805
 20
279.312843
 10
417.083874
 20
279.612369
 10
417.065014
 20
279.903662
 10
417.02435
 20
280.401111
 10
417.013363
 20
280.612061
 10
417.010397
 20
280.803406
 10
417.016798
 20
280.979333
 10
417.03391
 20
281.144025
 10
417.063077
 20
281.301668
 10
417.105644
 20
281.456446
 10
417.162956
 20
281.612544
 10
417.236357
 20
281.774147
 10
417.327191
 20
281.945439
 10
417.436803
 20
282.130606
 10
417.717739
 20
282.559301
 10
418.08992
 20
283.09371
 10
418.339954
 20
283.457303
 10
418.558189
 20
283.795486
 10
418.744928
 20
284.112769
 10
418.90047
 20
284.413661
 10
419.025117
 20
284.702671
 10
419.11917
 20
284.984307
 10
419.182929
 20
285.263078
 10
419.203542
 20
285.402799
 10
419.216696
 20
285.543494
 10
419.220771
 20
285.830064
 10
419.195456
 20
286.127297
 10
419.141051
 20
286.439701
 10
419.057857
 20
286.771785
 10
418.946176
 20
287.12806
 10
418.806308
 20
287.513032
 10
418.638554
 20
287.931213
 10
418.443215
 20
288.38711
 10
418.234673
 20
288.877244
 10
418.067075
 20
289.306666
 10
417.938454
 20
289.683752
 10
417.846841
 20
290.016878
 10
417.790268
 20
290.314418
 10
417.766767
 20
290.58475
 10
417.766804
 20
290.71233
 10
417.774371
 20
290.836249
 10
417.81111
 20
291.077291
 10
417.989958
 20
291.919792
 10
423.576887
 20
300.915625
 10
424.59231
 20
302.425088
 10
424.907969
 20
302.879345
 10
425.055092
 20
303.076181
 10
425.199118
 20
303.256034
 10
425.343077
 20
303.421314
 10
425.489998
 20
303.574428
 10
425.642913
 20
303.717787
 10
425.80485
 20
303.853799
 10
425.978839
 20
303.984874
 10
426.167912
 20
304.11342
 10
426.375097
 20
304.241847
 10
426.603424
 20
304.372563
 10
427.135628
 20
304.650501
 10
427.788763
 20
304.966506
 10
428.252516
 20
305.19695
 10
428.722371
 20
305.450921
 10
429.186145
 20
305.720565
 10
429.631653
 20
305.998026
 10
430.046712
 20
306.275448
 10
430.419138
 20
306.544975
 10
430.736747
 20
306.79875
 10
430.987355
 20
307.028919
 10
431.248296
 20
307.301295
 10
431.494372
 20
307.574567
 10
431.725526
 20
307.848214
 10
431.941703
 20
308.121718
 10
432.142848
 20
308.394562
 10
432.328905
 20
308.666224
 10
432.49982
 20
308.936188
 10
432.655537
 20
309.203933
 10
432.796001
 20
309.468942
 10
432.921156
 20
309.730696
 10
433.030948
 20
309.988675
 10
433.12532
 20
310.242362
 10
433.204217
 20
310.491236
 10
433.267585
 20
310.73478
 10
433.315368
 20
310.972475
 10
433.34751
 20
311.203801
 10
433.363956
 20
311.42824
 10
433.364652
 20
311.645274
 10
433.349541
 20
311.854384
 10
433.318568
 20
312.05505
 10
433.271679
 20
312.246754
 10
433.208817
 20
312.428977
 10
433.129927
 20
312.6012
 10
433.034955
 20
312.762905
 10
432.923845
 20
312.913573
 10
432.796541
 20
313.052685
 10
432.652988
 20
313.179723
 10
432.493131
 20
313.294166
 10
432.316915
 20
313.395498
 10
432.124284
 20
313.483198
 10
431.915183
 20
313.556749
 10
431.689556
 20
313.615631
 10
431.495373
 20
313.649875
 10
431.298413
 20
313.667743
 10
431.098448
 20
313.669027
 10
430.895253
 20
313.653517
 10
430.6886
 20
313.621002
 10
430.478263
 20
313.571273
 10
430.264016
 20
313.50412
 10
430.045631
 20
313.419334
 10
429.822882
 20
313.316704
 10
429.595543
 20
313.196021
 10
429.363386
 20
313.057075
 10
429.126186
 20
312.899657
 10
428.883715
 20
312.723556
 10
428.635747
 20
312.528563
 10
428.382055
 20
312.314468
 10
428.122413
 20
312.081061
 10
427.856593
 20
311.828133
 10
427.58437
 20
311.555474
 10
427.305517
 20
311.262873
 10
427.019807
 20
310.950122
 10
426.727013
 20
310.61701
 10
426.426908
 20
310.263329
 10
425.803863
 20
309.493415
 10
425.148857
 20
308.638703
 10
424.460076
 20
307.697515
 10
423.73571
 20
306.668172
 10
422.973943
 20
305.548997
 10
421.408395
 20
303.240076
 10
420.600939
 20
302.039266
 10
419.866579
 20
300.915625
 10
419.298377
 20
300.00417
 10
418.698784
 20
299.01367
 10
417.550253
 20
297.099721
 10
417.036672
 20
296.238671
 10
416.464575
 20
295.252498
 10
415.853705
 20
294.175582
 10
415.223804
 20
293.042299
 10
414.594614
 20
291.887027
 10
413.985877
 20
290.744144
 10
413.417335
 20
289.648027
 10
412.908732
 20
288.633054
 10
411.298491
 20
285.333341
 10
410.475411
 20
283.61577
 10
409.728238
 20
282.014685
 10
409.264382
 20
280.968239
 10
408.874288
 20
280.020601
 10
408.705755
 20
279.582413
 10
408.554285
 20
279.167221
 10
408.419419
 20
278.774456
 10
408.300699
 20
278.403548
 10
408.197665
 20
278.05393
 10
408.109858
 20
277.725032
 10
408.03682
 20
277.416286
 10
407.978091
 20
277.127123
 10
407.933211
 20
276.856974
 10
407.901723
 20
276.605271
 10
407.883167
 20
276.371444
 10
407.877083
 20
276.154925
 10
407.885808
 20
275.866565
 10
407.915803
 20
275.61697
 10
407.940567
 20
275.503421
 10
407.972799
 20
275.395619
 10
408.013214
 20
275.292247
 10
408.062528
 20
275.19199
 10
408.121459
 20
275.093534
 10
408.190722
 20
274.995562
 10
408.363113
 20
274.795813
 10
408.585431
 20
274.58222
 10
408.863409
 20
274.344263
 10
409.259212
 20
274.028585
 10
409.514043
 20
273.839586
  0
LWPOLYLINE
  5
36
330
1F
100
AcDbEntity
  8
0
100
AcDbPolyline
 90
      350
 70
   128
 43
0.0
 10
437.283115
 20
252.002378
 10
437.135853
 20
252.055354
 10
436.713676
 20
252.23364
 10
436.472233
 20
252.351841
 10
436.253032
 20
252.478197
 10
436.057642
 20
252.611299
 10
435.887635
 20
252.749737
 10
435.744581
 20
252.892103
 10
435.630052
 20
253.036988
 10
435.545617
 20
253.182982
 10
435.515177
 20
253.255956
 10
435.492849
 20
253.328678
 10
435.338741
 20
253.942693
 10
436.313998
 20
256.766745
 10
436.56292
 20
257.499522
 10
436.771936
 20
258.152402
 10
436.937878
 20
258.733781
 10
437.003706
 20
259.000282
 10
437.057577
 20
259.252058
 10
437.099096
 20
259.490158
 10
437.127867
 20
259.715631
 10
437.143493
 20
259.929527
 10
437.145579
 20
260.132897
 10
437.133729
 20
260.326789
 10
437.107546
 20
260.512254
 10
437.066635
 20
260.69034
 10
437.010599
 20
260.862099
 10
436.939044
 20
261.02858
 10
436.851572
 20
261.190831
 10
436.747787
 20
261.349904
 10
436.627295
 20
261.506848
 10
436.489698
 20
261.662712
 10
436.334601
 20
261.818547
 10
436.161608
 20
261.975401
 10
435.970323
 20
262.134325
 10
435.76035
 20
262.296369
 10
435.531293
 20
262.462581
 10
435.014342
 20
262.811713
 10
434.416303
 20
263.190117
 10
433.734009
 20
263.606193
 10
433.072666
 20
264.013039
 10
432.478629
 20
264.39586
 10
431.950264
 20
264.757025
 10
431.485933
 20
265.098901
 10
431.084003
 20
265.423856
 10
430.905926
 20
265.580729
 10
430.742836
 20
265.73426
 10
430.594529
 20
265.884745
 10
430.460798
 20
266.03248
 10
430.341441
 20
266.177761
 10
430.236253
 20
266.320884
 10
430.145028
 20
266.462146
 10
430.067564
 20
266.601842
 10
430.003655
 20
266.740268
 10
429.953097
 20
266.877721
 10
429.915685
 20
267.014496
 10
429.891215
 20
267.15089
 10
429.879482
 20
267.287197
 10
429.880283
 20
267.423716
 10
429.893412
 20
267.560741
 10
429.918665
 20
267.698569
 10
429.955838
 20
267.837495
 10
430.004726
 20
267.977816
 10
430.065124
 20
268.119828
 10
430.136829
 20
268.263826
 10
430.219636
 20
268.410107
 10
430.31334
 20
268.558967
 10
430.473994
 20
268.792248
 10
430.495519
 20
268.817784
 42
-0.379076
 10
430.889039
 20
268.875546
 10
435.861145
 20
265.62554
 10
436.955411
 20
267.299632
 10
430.817885
 20
271.311412
 42
-0.109404
 10
430.72721
 20
271.404193
 10
430.498731
 20
271.771898
 10
430.369388
 20
272.030685
 10
430.268184
 20
272.294043
 10
430.193034
 20
272.564552
 10
430.141855
 20
272.844794
 10
430.112562
 20
273.137351
 10
430.103072
 20
273.444804
 10
430.112204
 20
273.659582
 10
430.139437
 20
273.876892
 10
430.183953
 20
274.095416
 10
430.244935
 20
274.313835
 10
430.321567
 20
274.530831
 10
430.41303
 20
274.745085
 10
430.518507
 20
274.955278
 10
430.637182
 20
275.160092
 10
430.768236
 20
275.358208
 10
430.910854
 20
275.548308
 10
431.064216
 20
275.729073
 10
431.227507
 20
275.899184
 10
431.399909
 20
276.057323
 10
431.580604
 20
276.20217
 10
431.768776
 20
276.332409
 10
431.972386
 20
276.451871
 42
-0.393108
 10
432.37126
 20
276.3633
 10
435.83559
 20
271.333975
 10
437.482654
 20
272.468515
 10
434.172925
 20
277.273398
 42
-0.459696
 10
434.289378
 20
277.713656
 10
434.35271
 20
277.744283
 10
434.530352
 20
277.819183
 10
434.725098
 20
277.8923
 10
435.146389
 20
278.027539
 10
435.577556
 20
278.13872
 10
435.784646
 20
278.181763
 10
435.97957
 20
278.21456
 10
436.157448
 20
278.235701
 10
436.313402
 20
278.243776
 10
436.442554
 20
278.237376
 10
436.540025
 20
278.215088
 10
436.931895
 20
278.064714
 10
438.823063
 20
275.415866
 10
439.263402
 20
274.805073
 10
439.671808
 20
274.251895
 10
440.051106
 20
273.753821
 10
440.404119
 20
273.308337
 10
440.733672
 20
272.912931
 10
441.04259
 20
272.565091
 10
441.333697
 20
272.262303
 10
441.609817
 20
272.002055
 10
441.873775
 20
271.781835
 10
442.128395
 20
271.599129
 10
442.376501
 20
271.451426
 10
442.620918
 20
271.336212
 10
442.864469
 20
271.250976
 10
443.109981
 20
271.193203
 10
443.360276
 20
271.160382
 10
443.618179
 20
271.15
 10
443.856823
 20
271.156211
 10
444.090835
 20
271.174682
 10
444.310158
 20
271.203287
 10
444.523877
 20
271.260247
 10
444.747328
 20
271.332167
 10
444.970401
 20
271.417187
 10
445.204973
 20
271.524877
 10
445.423976
 20
271.650427
 10
445.629065
 20
271.797235
 10
445.821895
 20
271.968696
 10
446.004124
 20
272.168211
 10
446.177409
 20
272.399177
 10
446.343405
 20
272.664993
 10
446.503769
 20
272.969055
 10
446.660158
 20
273.314763
 10
446.814228
 20
273.705514
 10
446.967636
 20
274.144705
 10
447.122037
 20
274.635736
 10
447.279089
 20
275.182004
 10
447.440449
 20
275.786907
 10
447.607772
 20
276.453844
 10
447.782715
 20
277.186211
 10
448.524318
 20
280.35527
 10
448.829546
 20
280.643384
 10
448.911215
 20
280.701069
 10
449.028228
 20
280.756109
 10
449.175533
 20
280.807955
 10
449.348084
 20
280.856055
 10
449.540833
 20
280.899859
 10
449.748731
 20
280.938814
 10
450.189781
 20
280.999975
 10
450.630848
 20
281.03513
 10
450.838767
 20
281.041576
 10
451.031547
 20
281.039868
 10
451.101767
 20
281.03563
 42
-0.459696
 10
451.376914
 20
280.672748
 10
450.143365
 20
274.970155
 10
452.098154
 20
274.547308
 10
453.389323
 20
280.516276
 42
-0.393108
 10
453.724535
 20
280.749895
 10
455.116541
 20
279.983789
 10
456.135333
 20
279.42954
 10
455.981929
 20
279.601083
 10
455.815852
 20
279.764449
 10
455.638358
 20
279.91873
 10
455.450704
 20
280.063016
 10
455.254149
 20
280.196399
 10
455.049947
 20
280.317971
 10
454.83936
 20
280.426823
 10
454.623641
 20
280.522045
 10
454.40405
 20
280.60273
 10
455.228324
 20
279.959348
 10
456.399086
 20
279.065557
 10
456.506923
 20
278.874936
 10
456.597055
 20
278.679772
 10
456.705213
 20
278.391814
 10
456.78939
 20
278.110102
 10
456.848643
 20
277.831455
 10
456.882024
 20
277.552693
 10
456.888589
 20
277.270635
 10
456.867391
 20
276.982103
 10
456.795933
 20
276.555133
 42
-0.109404
 10
456.747359
 20
276.434838
 10
452.596881
 20
270.390242
 10
454.245624
 20
269.258144
 10
457.607992
 20
274.154966
 42
-0.379076
 10
457.993908
 20
274.251213
 10
458.023527
 20
274.235782
 10
458.260832
 20
274.081135
 10
458.404111
 20
273.9791
 10
458.53633
 20
273.875306
 10
458.657414
 20
273.769402
 10
458.767285
 20
273.661033
 10
458.865867
 20
273.549851
 10
458.953085
 20
273.435503
 10
459.02886
 20
273.317638
 10
459.093118
 20
273.195904
 10
459.145781
 20
273.069949
 10
459.186772
 20
272.939423
 10
459.216016
 20
272.803972
 10
459.233436
 20
272.663247
 10
459.238955
 20
272.516894
 10
459.232497
 20
272.364565
 10
459.213985
 20
272.205905
 10
459.183342
 20
272.040563
 10
459.140493
 20
271.868189
 10
459.085361
 20
271.68843
 10
459.017869
 20
271.500936
 10
458.937941
 20
271.305354
 10
458.8455
 20
271.101332
 10
458.74047
 20
270.88852
 10
458.492336
 20
270.435118
 10
458.192926
 20
269.942334
 10
457.841631
 20
269.407356
 10
457.437835
 20
268.827372
 10
456.980929
 20
268.199571
 10
456.508157
 20
267.555264
 10
456.09898
 20
266.977844
 10
455.753664
 20
266.458336
 10
455.605037
 20
266.217497
 10
455.472474
 20
265.987771
 10
455.356008
 20
265.768038
 10
455.255672
 20
265.557177
 10
455.1715
 20
265.354064
 10
455.103523
 20
265.157581
 10
455.051777
 20
264.966604
 10
455.016292
 20
264.780013
 10
454.997103
 20
264.596686
 10
454.994244
 20
264.415502
 10
455.007744
 20
264.235338
 10
455.03764
 20
264.055076
 10
455.083963
 20
263.87359
 10
455.146747
 20
263.689762
 10
455.226024
 20
263.502469
 10
455.321828
 20
263.31059
 10
455.434191
 20
263.113004
 10
455.563147
 20
262.908589
 10
455.708728
 20
262.696222
 10
455.870968
 20
262.474786
 10
456.245557
 20
262.000211
 10
456.687177
 20
261.47589
 10
457.196092
 20
260.892855
 10
459.172137
 20
258.651953
 10
459.26314
 20
258.025469
 10
459.270149
 20
257.94972
 10
459.269751
 20
257.870653
 10
459.247187
 20
257.703517
 10
459.19637
 20
257.525961
 10
459.118213
 20
257.339886
 10
459.013634
 20
257.147192
 10
458.883551
 20
256.949779
 10
458.72888
 20
256.74955
 10
458.550537
 20
256.548403
 10
458.227895
 20
256.222948
 10
458.111848
 20
256.117944
 42
-0.431111
 10
457.676942
 20
256.152193
 10
454.150587
 20
260.52958
 10
452.593101
 20
259.274894
 10
456.226305
 20
254.764871
 42
-0.451877
 10
456.149815
 20
254.321111
 10
456.040425
 20
254.253851
 10
455.856333
 20
254.160889
 10
455.634954
 20
254.064958
 10
455.234119
 20
253.91263
 10
455.057134
 20
253.85685
 10
454.891562
 20
253.815534
 10
454.734248
 20
253.78934
 10
454.582037
 20
253.778924
 10
454.431773
 20
253.784943
 10
454.280301
 20
253.808055
 10
454.124465
 20
253.848915
 10
453.96111
 20
253.908182
 10
453.78708
 20
253.986511
 10
453.599221
 20
254.084561
 10
453.169389
 20
254.342446
 10
452.646371
 20
254.687093
 10
452.304552
 20
254.906773
 10
451.985528
 20
255.08774
 10
451.682036
 20
255.232325
 10
451.386814
 20
255.342861
 10
451.240035
 20
255.38609
 10
451.0926
 20
255.421682
 10
450.792131
 20
255.47112
 10
450.478146
 20
255.493509
 10
450.143383
 20
255.491181
 10
449.820318
 20
255.481735
 10
449.532193
 20
255.482901
 10
449.276164
 20
255.497949
 10
449.049389
 20
255.530149
 10
448.849027
 20
255.582766
 10
448.757861
 20
255.617753
 10
448.672233
 20
255.65907
 10
448.591786
 20
255.707125
 10
448.45231
 20
255.808944
 42
-0.188468
 10
448.334886
 20
255.993096
 10
447.289239
 20
261.285076
 10
446.308206
 20
261.091233
 10
445.327174
 20
260.89739
 10
446.37282
 20
255.60541
 42
-0.188468
 10
446.334259
 20
255.390437
 10
446.24399
 20
255.243222
 10
446.187866
 20
255.168182
 10
446.124387
 20
255.097403
 10
446.053379
 20
255.030372
 10
445.888086
 20
254.905505
 10
445.6906
 20
254.789475
 10
445.459535
 20
254.678181
 10
445.193506
 20
254.567519
 10
444.891127
 20
254.453384
 10
444.580636
 20
254.328215
 10
444.298762
 20
254.18809
 10
444.039676
 20
254.028089
 10
443.916858
 20
253.939098
 10
443.797551
 20
253.843292
 10
443.566555
 20
253.62878
 10
443.340861
 20
253.379633
 10
443.114639
 20
253.090931
 10
442.88206
 20
252.757755
 10
442.529427
 20
252.240087
 10
442.229979
 20
251.838103
 10
442.093529
 20
251.675973
 10
441.962369
 20
251.537341
 10
441.833831
 20
251.420399
 10
441.705247
 20
251.32334
 10
441.573948
 20
251.244355
 10
441.437266
 20
251.181638
 10
441.292532
 20
251.13338
 10
441.137078
 20
251.097774
 10
440.968235
 20
251.073013
 10
440.783335
 20
251.057288
 10
440.354688
 20
251.045718
 10
440.11346
 20
251.050242
 10
439.907846
 20
251.066202
 10
439.781095
 20
251.086803
 42
-0.451877
 10
439.541577
 20
251.468122
 10
441.186436
 20
257.021042
 10
439.268798
 20
257.589076
 10
437.672312
 20
252.199462
 42
-0.431111
 10
437.283115
 20
252.002378
  0
LWPOLYLINE
  5
37
330
1F
100
AcDbEntity
  8
0
100
AcDbPolyline
 90
      237
 70
   128
 43
0.0
 10
416.211458
 20
252.705114
 10
416.56125
 20
252.722333
 10
416.903921
 20
252.747614
 10
417.239447
 20
252.780941
 10
417.567804
 20
252.822301
 10
417.888966
 20
252.871677
 10
418.202909
 20
252.929057
 10
418.509608
 20
252.994424
 10
418.809038
 20
253.067764
 10
419.101175
 20
253.149062
 10
419.385993
 20
253.238304
 10
419.663468
 20
253.335476
 10
419.933576
 20
253.440561
 10
420.19629
 20
253.553546
 10
420.451588
 20
253.674416
 10
420.699443
 20
253.803156
 10
420.939831
 20
253.939752
 10
421.172727
 20
254.084188
 10
421.398107
 20
254.23645
 10
421.615945
 20
254.396523
 10
421.826218
 20
254.564394
 10
422.028899
 20
254.740046
 10
422.223965
 20
254.923465
 10
422.411391
 20
255.114636
 10
422.591151
 20
255.313546
 10
422.763222
 20
255.520178
 10
422.927577
 20
255.734519
 10
423.084194
 20
255.956553
 10
423.233046
 20
256.186266
 10
423.374108
 20
256.423644
 10
423.507357
 20
256.668671
 10
423.632768
 20
256.921332
 10
423.750315
 20
257.181614
 10
423.863789
 20
257.469849
 10
423.962854
 20
257.772239
 10
424.047782
 20
258.087524
 10
424.118845
 20
258.414447
 10
424.176316
 20
258.751746
 10
424.220468
 20
259.098164
 10
424.251573
 20
259.452441
 10
424.269903
 20
259.813317
 10
424.275732
 20
260.179534
 10
424.269331
 20
260.549832
 10
424.250974
 20
260.922953
 10
424.220933
 20
261.297636
 10
424.17948
 20
261.672623
 10
424.126887
 20
262.046654
 10
424.063429
 20
262.418471
 10
423.989376
 20
262.786813
 10
423.905002
 20
263.150423
 10
423.81058
 20
263.50804
 10
423.706381
 20
263.858405
 10
423.592678
 20
264.20026
 10
423.469744
 20
264.532345
 10
423.337851
 20
264.8534
 10
423.197272
 20
265.162167
 10
423.04828
 20
265.457386
 10
422.891146
 20
265.737798
 10
422.726144
 20
266.002145
 10
422.553546
 20
266.249166
 10
422.373625
 20
266.477602
 10
422.186653
 20
266.686195
 10
421.992903
 20
266.873685
 10
421.792647
 20
267.038812
 10
421.586158
 20
267.180319
 10
421.414583
 20
267.281867
 10
421.248529
 20
267.371541
 10
421.088156
 20
267.449496
 10
420.933624
 20
267.515886
 10
420.785093
 20
267.570864
 10
420.642725
 20
267.614585
 10
420.50668
 20
267.647203
 10
420.377119
 20
267.668871
 10
420.254201
 20
267.679743
 10
420.138088
 20
267.679974
 10
420.02894
 20
267.669717
 10
419.926918
 20
267.649127
 10
419.832182
 20
267.618357
 10
419.744893
 20
267.577562
 10
419.665211
 20
267.526894
 10
419.593296
 20
267.466509
 10
419.529311
 20
267.396561
 10
419.473413
 20
267.317202
 10
419.425766
 20
267.228587
 10
419.386528
 20
267.130871
 10
419.355861
 20
267.024207
 10
419.333925
 20
266.908749
 10
419.320881
 20
266.78465
 10
419.316888
 20
266.652066
 10
419.322109
 20
266.51115
 10
419.336702
 20
266.362055
 10
419.36083
 20
266.204937
 10
419.394651
 20
266.039948
 10
419.438328
 20
265.867243
 10
419.49202
 20
265.686976
 10
419.630092
 20
265.304371
 10
419.77627
 20
264.902729
 10
419.88642
 20
264.51892
 10
419.928026
 20
264.33379
 10
419.960675
 20
264.153225
 10
419.984382
 20
263.97726
 10
419.999164
 20
263.80593
 10
420.005037
 20
263.63927
 10
420.002018
 20
263.477315
 10
419.990124
 20
263.320102
 10
419.969369
 20
263.167666
 10
419.939772
 20
263.020041
 10
419.901348
 20
262.877263
 10
419.854114
 20
262.739368
 10
419.798086
 20
262.606391
 10
419.73328
 20
262.478367
 10
419.659713
 20
262.355331
 10
419.577401
 20
262.23732
 10
419.486361
 20
262.124368
 10
419.386609
 20
262.016511
 10
419.278161
 20
261.913785
 10
419.161033
 20
261.816223
 10
419.035243
 20
261.723863
 10
418.900806
 20
261.636738
 10
418.757738
 20
261.554886
 10
418.606057
 20
261.47834
 10
418.445779
 20
261.407137
 10
418.276919
 20
261.341311
 10
418.099495
 20
261.280899
 10
417.913522
 20
261.225935
 10
417.719017
 20
261.176455
 10
417.40178
 20
261.097855
 10
417.272164
 20
261.059448
 10
417.159855
 20
261.018575
 10
417.087644
 20
260.984433
 42
0.286573
 10
416.9159
 20
260.71705
 10
416.880648
 20
257.955811
 10
414.88081
 20
257.981343
 10
414.913889
 20
260.572312
 42
0.287734
 10
414.747876
 20
260.84457
 10
414.550636
 20
260.943005
 10
414.297133
 20
261.04067
 10
414.004715
 20
261.128804
 10
413.674761
 20
261.206617
 10
413.522858
 20
261.246512
 10
413.353353
 20
261.305594
 10
413.171941
 20
261.381005
 10
412.98432
 20
261.46989
 10
412.796189
 20
261.569392
 10
412.613243
 20
261.676655
 10
412.44118
 20
261.788823
 10
412.285698
 20
261.903038
 10
412.143005
 20
262.02579
 10
412.016644
 20
262.157311
 10
411.906511
 20
262.298583
 10
411.8125
 20
262.450585
 10
411.734506
 20
262.614301
 10
411.672424
 20
262.790709
 10
411.62615
 20
262.980791
 10
411.595578
 20
263.185528
 10
411.580603
 20
263.405901
 10
411.581119
 20
263.64289
 10
411.597022
 20
263.897476
 10
411.628207
 20
264.170641
 10
411.674569
 20
264.463365
 10
411.736002
 20
264.776629
 10
411.812401
 20
265.111414
 10
411.903662
 20
265.468701
 10
411.966918
 20
265.732983
 10
412.011341
 20
265.980366
 10
412.037744
 20
266.210843
 10
412.046942
 20
266.424406
 10
412.039749
 20
266.621045
 10
412.016977
 20
266.800752
 10
411.979442
 20
266.963519
 10
411.927957
 20
267.109338
 10
411.863335
 20
267.2382
 10
411.78639
 20
267.350097
 10
411.697936
 20
267.44502
 10
411.598788
 20
267.522961
 10
411.489758
 20
267.583912
 10
411.371661
 20
267.627863
 10
411.24531
 20
267.654807
 10
411.111519
 20
267.664736
 10
410.971102
 20
267.65764
 10
410.824873
 20
267.633512
 10
410.673645
 20
267.592343
 10
410.518233
 20
267.534125
 10
410.359449
 20
267.458849
 10
410.198109
 20
267.366506
 10
410.035025
 20
267.257089
 10
409.871012
 20
267.130589
 10
409.706883
 20
266.986998
 10
409.543452
 20
266.826307
 10
409.381533
 20
266.648508
 10
409.22194
 20
266.453592
 10
409.065486
 20
266.241551
 10
408.912985
 20
266.012377
 10
408.765251
 20
265.766061
 10
408.623099
 20
265.502594
 10
408.406761
 20
265.048571
 10
408.208841
 20
264.570803
 10
408.029834
 20
264.073291
 10
407.870234
 20
263.560037
 10
407.730537
 20
263.035042
 10
407.611238
 20
262.502308
 10
407.512832
 20
261.965835
 10
407.435814
 20
261.429626
 10
407.380679
 20
260.897681
 10
407.347922
 20
260.374002
 10
407.338037
 20
259.86259
 10
407.351521
 20
259.367447
 10
407.388869
 20
258.892574
 10
407.450574
 20
258.441972
 10
407.490716
 20
258.227023
 10
407.537133
 20
258.019642
 10
407.589887
 20
257.82033
 10
407.64904
 20
257.629586
 10
407.786569
 20
257.262472
 10
407.950588
 20
256.902162
 10
408.140086
 20
256.549608
 10
408.354055
 20
256.205756
 10
408.591486
 20
255.871557
 10
408.851368
 20
255.54796
 10
409.132693
 20
255.235913
 10
409.43445
 20
254.936365
 10
409.755631
 20
254.650265
 10
410.095226
 20
254.378563
 10
410.452225
 20
254.122208
 10
410.82562
 20
253.882147
 10
411.2144
 20
253.659332
 10
411.617557
 20
253.454709
 10
412.034081
 20
253.269229
 10
412.462962
 20
253.10384
 10
412.849009
 20
252.977124
 10
413.233255
 20
252.875072
 10
413.628389
 20
252.796334
 10
414.047098
 20
252.73956
 10
414.502071
 20
252.7034
 10
415.005996
 20
252.686506
 10
415.571563
 20
252.687527
 10
416.211458
 20
252.705114
  0
LWPOLYLINE
  5
38
330
1F
100
AcDbEntity
  8
0
100
AcDbPolyline
 90
      264
 70
   128
 43
0.0
 10
357.582832
 20
327.214361
 42
-0.30498
 10
357.898332
 20
327.326488
 10
365.324051
 20
325.425895
 10
365.81996
 20
327.363439
 10
358.368531
 20
329.270611
 42
-0.338977
 10
358.142942
 20
329.55736
 10
358.133783
 20
330.264929
 10
358.103682
 20
330.595579
 10
358.04963
 20
330.996517
 10
357.974596
 20
331.453366
 10
357.881544
 20
331.951748
 10
357.773441
 20
332.477288
 10
357.653253
 20
333.015607
 10
357.523948
 20
333.552327
 10
357.340437
 20
334.268174
 10
357.142397
 20
335.039896
 10
356.955638
 20
335.814044
 10
356.874557
 20
336.185323
 10
356.805977
 20
336.537167
 10
356.798748
 20
336.638014
 10
356.806628
 20
336.767009
 10
356.828022
 20
336.918776
 10
356.861338
 20
337.087938
 10
356.957354
 20
337.456943
 10
357.081924
 20
337.831012
 10
357.14786
 20
337.99669
 10
357.221808
 20
338.160789
 10
357.392409
 20
338.48326
 10
357.591064
 20
338.796446
 10
357.815108
 20
339.09837
 10
358.061876
 20
339.387052
 10
358.328706
 20
339.660515
 10
358.612932
 20
339.916778
 10
358.911889
 20
340.153864
 10
359.222915
 20
340.369795
 10
359.543345
 20
340.562591
 10
359.870515
 20
340.730274
 10
360.20176
 20
340.870864
 10
360.534417
 20
340.982385
 10
360.700442
 20
341.026626
 10
360.86582
 20
341.062857
 10
361.03022
 20
341.090832
 10
361.193307
 20
341.110301
 10
361.354749
 20
341.12102
 10
361.514213
 20
341.12274
 10
361.741942
 20
341.104032
 10
362.016791
 20
341.056896
 10
362.330255
 20
340.983891
 10
362.673828
 20
340.887579
 10
363.039002
 20
340.770519
 10
363.417271
 20
340.635274
 10
363.800132
 20
340.484403
 10
364.179075
 20
340.320468
 10
364.5449
 20
340.162236
 10
364.920576
 20
340.013735
 10
365.295419
 20
339.878278
 10
365.658749
 20
339.75918
 10
365.999885
 20
339.659753
 10
366.308144
 20
339.583311
 10
366.572846
 20
339.533165
 10
366.78331
 20
339.512633
 10
367.024434
 20
339.527139
 10
367.377281
 20
339.576211
 10
367.825413
 20
339.654311
 10
368.352395
 20
339.7559
 10
369.577158
 20
340.007387
 10
370.920072
 20
340.286365
 10
371.961347
 20
340.502224
 10
373.086921
 20
340.723178
 10
373.65646
 20
340.822193
 10
374.217242
 20
340.906435
 10
374.759321
 20
340.970555
 10
375.272755
 20
341.009204
 10
375.480956
 20
341.010954
 10
375.690002
 20
340.996311
 10
375.899565
 20
340.965756
 10
376.109317
 20
340.919772
 10
376.318936
 20
340.858839
 10
376.528094
 20
340.783441
 10
376.736464
 20
340.694059
 10
376.943721
 20
340.591174
 10
377.149539
 20
340.475269
 10
377.353592
 20
340.346825
 10
377.555552
 20
340.206324
 10
377.755096
 20
340.054248
 10
377.951896
 20
339.89108
 10
378.145626
 20
339.7173
 10
378.33596
 20
339.53339
 10
378.522572
 20
339.339834
 10
378.705136
 20
339.137112
 10
378.883327
 20
338.925706
 10
379.056816
 20
338.706098
 10
379.225281
 20
338.478769
 10
379.388392
 20
338.244202
 10
379.545825
 20
338.002879
 10
379.697254
 20
337.755281
 10
379.842351
 20
337.50189
 10
379.980793
 20
337.243189
 10
380.112251
 20
336.979658
 10
380.236401
 20
336.711781
 10
380.352916
 20
336.440038
 10
380.46147
 20
336.164911
 10
380.561736
 20
335.886884
 10
380.653389
 20
335.606435
 10
380.736104
 20
335.32405
 10
380.798616
 20
335.050305
 10
380.841218
 20
334.757711
 10
380.864505
 20
334.449118
 10
380.869073
 20
334.127372
 10
380.855518
 20
333.795323
 10
380.824436
 20
333.45582
 10
380.776422
 20
333.111711
 10
380.712072
 20
332.765846
 10
380.631982
 20
332.421071
 10
380.536748
 20
332.080237
 10
380.426965
 20
331.746193
 10
380.303229
 20
331.421785
 10
380.166136
 20
331.109864
 10
380.016282
 20
330.813278
 10
379.854262
 20
330.534875
 10
379.680673
 20
330.277505
 10
379.50756
 20
330.054192
 10
379.290252
 20
329.796856
 10
379.037496
 20
329.514631
 10
378.758039
 20
329.216656
 10
378.460628
 20
328.912066
 10
378.154008
 20
328.609998
 10
377.846927
 20
328.319588
 10
377.548132
 20
328.049973
 10
377.131939
 20
327.67667
 10
376.798303
 20
327.355034
 10
376.65865
 20
327.207852
 10
376.535083
 20
327.066698
 10
376.426084
 20
326.929279
 10
376.330136
 20
326.793296
 10
376.24572
 20
326.656454
 10
376.171319
 20
326.516459
 10
376.105415
 20
326.371012
 10
376.046489
 20
326.217819
 10
375.943505
 20
325.879012
 10
375.850223
 20
325.481666
 10
375.75881
 20
325.042774
 10
375.703504
 20
324.705932
 10
375.692369
 20
324.568816
 10
375.693836
 20
324.448856
 10
375.709095
 20
324.343265
 10
375.73934
 20
324.249259
 10
375.785761
 20
324.164051
 10
375.849549
 20
324.084856
 10
375.931899
 20
324.008888
 10
376.033999
 20
323.933362
 10
376.30222
 20
323.772489
 10
376.663748
 20
323.579954
 10
377.356114
 20
323.207013
 10
377.642091
 20
323.04232
 10
377.890799
 20
322.888415
 10
378.104393
 20
322.742498
 10
378.285021
 20
322.60177
 10
378.434839
 20
322.463432
 10
378.555996
 20
322.324682
 10
378.650646
 20
322.182725
 10
378.720939
 20
322.034758
 10
378.769029
 20
321.877985
 10
378.797068
 20
321.709604
 10
378.807207
 20
321.526817
 10
378.801599
 20
321.326825
 10
378.782395
 20
321.106829
 10
378.751747
 20
320.864029
 10
378.689007
 20
320.459009
 10
378.63398
 20
320.219721
 42
-0.412502
 10
378.276088
 20
319.994198
 10
372.21608
 20
321.350514
 10
371.342438
 20
317.447086
 10
377.8158
 20
315.998256
 42
-0.428906
 10
378.039402
 20
315.625454
 10
377.913097
 20
315.169236
 10
377.858925
 20
315.010452
 10
377.797994
 20
314.857543
 10
377.72916
 20
314.71064
 10
377.651277
 20
314.56987
 10
377.563198
 20
314.435364
 10
377.463778
 20
314.307252
 10
377.351871
 20
314.18566
 10
377.22633
 20
314.07072
 10
377.08601
 20
313.96256
 10
376.929766
 20
313.86131
 10
376.756449
 20
313.7671
 10
376.564916
 20
313.680057
 10
376.198771
 20
313.536458
 10
376.027653
 20
313.482844
 10
375.852526
 20
313.442584
 10
375.664407
 20
313.416598
 10
375.454312
 20
313.405812
 10
375.213257
 20
313.411145
 10
374.93226
 20
313.433521
 10
374.602336
 20
313.47386
 10
374.214501
 20
313.533087
 10
373.229168
 20
313.711889
 10
370.168304
 20
314.336714
 10
369.543094
 20
314.459002
 10
368.875368
 20
314.582883
 10
368.183188
 20
314.716984
 10
367.484621
 20
314.869929
 10
367.138586
 20
314.956165
 10
366.797728
 20
315.050347
 10
366.464304
 20
315.153555
 10
366.140574
 20
315.266866
 10
365.828795
 20
315.391358
 10
365.531223
 20
315.52811
 10
365.250119
 20
315.678201
 10
364.987741
 20
315.842708
 10
364.81693
 20
315.964791
 10
364.65341
 20
316.093245
 10
364.497207
 20
316.228352
 10
364.348346
 20
316.370401
 10
364.206857
 20
316.519674
 10
364.072765
 20
316.676456
 10
363.946099
 20
316.841034
 10
363.826884
 20
317.013691
 10
363.587952
 20
317.374276
 10
363.363412
 20
317.700665
 10
363.149689
 20
317.995698
 10
362.943206
 20
318.262218
 10
362.740388
 20
318.503066
 10
362.537659
 20
318.721083
 10
362.331443
 20
318.919114
 10
362.118165
 20
319.099999
 10
361.894247
 20
319.266579
 10
361.656115
 20
319.421698
 10
361.400193
 20
319.568196
 10
361.122904
 20
319.708917
 10
360.820673
 20
319.846702
 10
360.489923
 20
319.984393
 10
359.728567
 20
320.270861
 10
359.350106
 20
320.413516
 10
358.976113
 20
320.567446
 10
358.616267
 20
320.727793
 10
358.280253
 20
320.889697
 10
357.977748
 20
321.048297
 10
357.718438
 20
321.198735
 10
357.512002
 20
321.336151
 10
357.368122
 20
321.455684
 10
357.209729
 20
321.628822
 10
357.069583
 20
321.8146
 10
356.947661
 20
322.013281
 10
356.843944
 20
322.225131
 10
356.758407
 20
322.450414
 10
356.691032
 20
322.689396
 10
356.641797
 20
322.942342
 10
356.61068
 20
323.209514
 10
356.597659
 20
323.49118
 10
356.602715
 20
323.787602
 10
356.625825
 20
324.099048
 10
356.666969
 20
324.425781
 10
356.726123
 20
324.768065
 10
356.803269
 20
325.126166
 10
356.898384
 20
325.500348
 10
357.011447
 20
325.890878
 10
357.11288
 20
326.219073
 10
357.207365
 20
326.504843
 10
357.301331
 20
326.74949
 10
357.401212
 20
326.954318
 10
357.455381
 20
327.042208
 10
357.582832
 20
327.214361
  0
LWPOLYLINE
  5
39
330
1F
100
AcDbEntity
  8
0
100
AcDbPolyline
 90
      347
 70
   128
 43
0.0
 10
469.249561
 20
233.52834
 10
469.436606
 20
233.54627
 10
469.613015
 20
233.575715
 10
469.7783
 20
233.616201
 10
469.931967
 20
233.667248
 10
470.073525
 20
233.72838
 10
470.202484
 20
233.799117
 10
470.318354
 20
233.878985
 10
470.420641
 20
233.967504
 10
470.508856
 20
234.064198
 10
470.582508
 20
234.168588
 10
470.641104
 20
234.280198
 10
470.684156
 20
234.398551
 10
470.71117
 20
234.523168
 10
470.721657
 20
234.653572
 10
470.715123
 20
234.789286
 10
470.691081
 20
234.929832
 10
470.665557
 20
235.076392
 10
470.642514
 20
235.23619
 10
470.609349
 20
235.391872
 10
470.585031
 20
235.462745
 10
470.553455
 20
235.526081
 10
470.476352
 20
235.64141
 10
470.387957
 20
235.753598
 10
470.289589
 20
235.862841
 10
470.182564
 20
235.969338
 10
469.947819
 20
236.174881
 10
469.694261
 20
236.371806
 10
469.172873
 20
236.746118
 10
468.926125
 20
236.926662
 10
468.702728
 20
237.104905
 10
468.171828
 20
237.571335
 10
467.688557
 20
238.025336
 10
467.251589
 20
238.469755
 10
466.859597
 20
238.907441
 10
466.680054
 20
239.124651
 10
466.511258
 20
239.341245
 10
466.353044
 20
239.55758
 10
466.205245
 20
239.774012
 10
466.067697
 20
239.990898
 10
465.940232
 20
240.208593
 10
465.822686
 20
240.427453
 10
465.714894
 20
240.647836
 10
465.616689
 20
240.870096
 10
465.527905
 20
241.094588
 10
465.448377
 20
241.321672
 10
465.377939
 20
241.5517
 10
465.316426
 20
241.78503
 10
465.263671
 20
242.022019
 10
465.21951
 20
242.263021
 10
465.183775
 20
242.508393
 10
465.156303
 20
242.758491
 10
465.136926
 20
243.013672
 10
465.125479
 20
243.27429
 10
465.121797
 20
243.540703
 10
465.137064
 20
244.092336
 10
465.1814
 20
244.67142
 10
465.249611
 20
245.23643
 10
465.343422
 20
245.814101
 10
465.461102
 20
246.400038
 10
465.60092
 20
246.98985
 10
465.76114
 20
247.579144
 10
465.940035
 20
248.163526
 10
466.135868
 20
248.738604
 10
466.34691
 20
249.299984
 10
466.571429
 20
249.843274
 10
466.807692
 20
250.364082
 10
467.053966
 20
250.858012
 10
467.308521
 20
251.320674
 10
467.569623
 20
251.747675
 10
467.835542
 20
252.134621
 10
467.969766
 20
252.3117
 10
468.104544
 20
252.477118
 10
468.23966
 20
252.630327
 10
468.374898
 20
252.770777
 10
468.561743
 20
252.93717
 10
468.803851
 20
253.123572
 10
469.091075
 20
253.323673
 10
469.413269
 20
253.531162
 10
469.760284
 20
253.739735
 10
470.121975
 20
253.943081
 10
470.488195
 20
254.134891
 10
470.848796
 20
254.308858
 10
471.272172
 20
254.509701
 10
471.679197
 20
254.715428
 10
472.069885
 20
254.926063
 10
472.444253
 20
255.14163
 10
472.802316
 20
255.362155
 10
473.144088
 20
255.587662
 10
473.469585
 20
255.818177
 10
473.778823
 20
256.053723
 10
474.071816
 20
256.294326
 10
474.34858
 20
256.540011
 10
474.609131
 20
256.790803
 10
474.853482
 20
257.046725
 10
475.08165
 20
257.307803
 10
475.29365
 20
257.574062
 10
475.489496
 20
257.845527
 10
475.669205
 20
258.122222
 10
475.832791
 20
258.404173
 10
475.98027
 20
258.691403
 10
476.111658
 20
258.983939
 10
476.226968
 20
259.281804
 10
476.326217
 20
259.585022
 10
476.409419
 20
259.893621
 10
476.476591
 20
260.207624
 10
476.527745
 20
260.527056
 10
476.562901
 20
260.851941
 10
476.58207
 20
261.182305
 10
476.58527
 20
261.518172
 10
476.572515
 20
261.859567
 10
476.54382
 20
262.206515
 10
476.499201
 20
262.559041
 10
476.438672
 20
262.917169
 10
476.362251
 20
263.280924
 10
476.221502
 20
263.844666
 10
476.065752
 20
264.375199
 10
475.893684
 20
264.874157
 10
475.703984
 20
265.343175
 10
475.495336
 20
265.783887
 10
475.383496
 20
265.994139
 10
475.266426
 20
266.197927
 10
475.143961
 20
266.395457
 10
475.015937
 20
266.58693
 10
474.88219
 20
266.772553
 10
474.742555
 20
266.952529
 10
474.596867
 20
267.127064
 10
474.444962
 20
267.29636
 10
474.286678
 20
267.460622
 10
474.121847
 20
267.620056
 10
473.950307
 20
267.774863
 10
473.771892
 20
267.92525
 10
473.586438
 20
268.07142
 10
473.393783
 20
268.213578
 10
472.986203
 20
268.486673
 10
472.547838
 20
268.746172
 10
472.077372
 20
268.993705
 10
471.57349
 20
269.23091
 10
471.222863
 20
269.396636
 10
470.891793
 20
269.571141
 10
470.58574
 20
269.750621
 10
470.310161
 20
269.93128
 10
470.070512
 20
270.109318
 10
469.872252
 20
270.280935
 10
469.720838
 20
270.442331
 10
469.664403
 20
270.518009
 10
469.621727
 20
270.589708
 10
469.53398
 20
270.738667
 10
469.433508
 20
270.89743
 10
469.346368
 20
271.060276
 10
469.31594
 20
271.141442
 10
469.298618
 20
271.221484
 10
469.281956
 20
271.447186
 10
469.284813
 20
271.679871
 10
469.305098
 20
271.918501
 10
469.340715
 20
272.162044
 10
469.389574
 20
272.409463
 10
469.449583
 20
272.659725
 10
469.594682
 20
273.164631
 10
469.759271
 20
273.668487
 10
469.926616
 20
274.16301
 10
470.079976
 20
274.639921
 10
470.202615
 20
275.090941
 10
470.443353
 20
276.094275
 10
470.643894
 20
276.903799
 10
470.799832
 20
277.549343
 10
470.906756
 20
278.060735
 10
470.940462
 20
278.275447
 10
470.96026
 20
278.467807
 10
470.965602
 20
278.641543
 10
470.955936
 20
278.800385
 10
470.930709
 20
278.948063
 10
470.889372
 20
279.088303
 10
470.831374
 20
279.224835
 10
470.756163
 20
279.361388
 10
470.725859
 20
279.401441
 10
470.684133
 20
279.441666
 10
470.569541
 20
279.522042
 10
470.418629
 20
279.601351
 10
470.237637
 20
279.678432
 10
470.032808
 20
279.752119
 10
469.810385
 20
279.82125
 10
469.576607
 20
279.884659
 10
469.337719
 20
279.941184
 10
469.099962
 20
279.989662
 10
468.869577
 20
280.028927
 10
468.652806
 20
280.057816
 10
468.494401
 20
280.071773
 42
0.389
 10
468.172638
 20
279.825083
 10
467.313317
 20
274.957201
 10
465.343769
 20
275.304883
 10
466.217205
 20
280.252723
 42
0.340226
 10
466.047859
 20
280.577092
 10
465.96834
 20
280.613924
 10
465.80679
 20
280.678507
 10
465.640723
 20
280.736024
 10
465.471529
 20
280.786197
 10
465.3006
 20
280.828752
 10
465.129326
 20
280.86341
 10
464.959099
 20
280.889898
 10
464.791308
 20
280.907938
 10
464.627345
 20
280.917254
 10
464.4686
 20
280.917571
 10
464.316463
 20
280.908612
 10
464.172327
 20
280.890101
 10
464.037581
 20
280.861762
 10
463.913617
 20
280.823318
 10
463.801824
 20
280.774495
 10
463.703594
 20
280.715015
 10
463.620318
 20
280.644601
 10
463.550022
 20
280.568753
 10
463.490834
 20
280.48327
 10
463.434821
 20
280.363785
 10
463.37405
 20
280.185928
 10
463.297355
 20
279.91634
 10
463.226747
 20
279.631663
 10
463.101541
 20
279.024914
 10
462.993918
 20
278.381414
 10
462.899365
 20
277.716896
 10
462.731416
 20
276.387744
 10
462.648993
 20
275.754578
 10
462.561586
 20
275.163332
 10
462.329777
 20
273.700954
 10
462.15396
 20
272.50943
 10
462.03109
 20
271.545068
 10
461.988559
 20
271.13442
 10
461.958123
 20
270.764178
 10
461.939402
 20
270.42888
 10
461.932016
 20
270.123067
 10
461.935583
 20
269.841275
 10
461.949724
 20
269.578045
 10
461.974056
 20
269.327913
 10
462.008202
 20
269.085419
 10
462.051779
 20
268.845101
 10
462.104408
 20
268.601499
 10
462.219056
 20
268.089754
 10
462.260635
 20
267.874405
 10
462.289995
 20
267.678952
 10
462.305842
 20
267.498055
 10
462.306886
 20
267.326375
 10
462.291833
 20
267.158569
 10
462.259393
 20
266.989299
 10
462.208273
 20
266.813225
 10
462.13718
 20
266.625007
 10
462.044823
 20
266.419303
 10
461.92991
 20
266.190775
 10
461.627246
 20
265.643884
 10
461.218851
 20
264.941613
 10
460.879407
 20
264.334104
 10
460.728794
 20
264.041616
 10
460.59099
 20
263.756003
 10
460.46605
 20
263.47679
 10
460.354026
 20
263.203501
 10
460.254971
 20
262.935659
 10
460.16894
 20
262.672787
 10
460.095984
 20
262.414411
 10
460.036157
 20
262.160054
 10
459.989513
 20
261.909239
 10
459.956104
 20
261.661491
 10
459.935985
 20
261.416332
 10
459.929207
 20
261.173288
 10
459.935825
 20
260.931881
 10
459.955892
 20
260.691637
 10
459.98946
 20
260.452077
 10
460.036583
 20
260.212727
 10
460.097315
 20
259.973111
 10
460.171708
 20
259.73275
 10
460.259817
 20
259.491171
 10
460.361693
 20
259.247897
 10
460.47739
 20
259.002451
 10
460.606961
 20
258.754356
 10
460.750461
 20
258.503139
 10
460.907941
 20
258.248321
 10
461.079456
 20
257.989427
 10
461.265058
 20
257.72598
 10
461.4648
 20
257.457504
 10
461.678736
 20
257.183524
 10
462.149403
 20
256.617144
 10
462.377315
 20
256.343756
 10
462.595312
 20
256.065424
 10
462.798237
 20
255.789903
 10
462.980937
 20
255.524951
 10
463.138254
 20
255.278326
 10
463.265034
 20
255.057781
 10
463.356121
 20
254.871077
 10
463.406361
 20
254.725968
 10
463.41711
 20
254.658279
 10
463.421422
 20
254.577641
 10
463.411687
 20
254.381717
 10
463.37907
 20
254.146596
 10
463.325485
 20
253.880683
 10
463.252846
 20
253.592381
 10
463.163066
 20
253.290093
 10
463.058061
 20
252.982222
 10
462.939743
 20
252.677172
 10
462.426362
 20
251.423108
 10
462.00648
 20
250.367593
 10
461.670212
 20
249.480941
 10
461.407677
 20
248.733465
 10
461.208993
 20
248.09548
 10
461.130506
 20
247.80827
 10
461.064277
 20
247.537301
 10
461.009069
 20
247.278861
 10
460.963646
 20
247.029241
 10
460.89722
 20
246.541614
 10
460.875889
 20
246.28783
 10
460.865106
 20
246.021635
 10
460.864574
 20
245.74395
 10
460.874002
 20
245.455697
 10
460.893096
 20
245.157796
 10
460.921562
 20
244.851168
 10
460.959108
 20
244.536735
 10
461.005438
 20
244.215416
 10
461.123283
 20
243.55581
 10
461.272749
 20
242.879717
 10
461.45149
 20
242.194505
 10
461.657157
 20
241.507542
 10
461.887403
 20
240.826197
 10
462.139882
 20
240.157837
 10
462.412245
 20
239.509831
 10
462.702146
 20
238.889547
 10
462.852939
 20
238.592103
 10
463.007237
 20
238.304352
 10
463.164746
 20
238.027216
 10
463.325171
 20
237.761615
 10
463.48822
 20
237.508471
 10
463.6536
 20
237.268704
 10
463.821017
 20
237.043236
 10
463.990178
 20
236.832988
 10
464.232989
 20
236.563887
 10
464.515301
 20
236.285504
 10
464.831104
 20
236.001617
 10
465.174386
 20
235.716
 10
465.53914
 20
235.432431
 10
465.919353
 20
235.154685
 10
466.309017
 20
234.88654
 10
466.70212
 20
234.631771
 10
467.092653
 20
234.394155
 10
467.474605
 20
234.177468
 10
467.841967
 20
233.985487
 10
468.188728
 20
233.821988
 10
468.508878
 20
233.690747
 10
468.796407
 20
233.595542
 10
468.926061
 20
233.562631
 10
469.045305
 20
233.540147
 10
469.153389
 20
233.528559
 10
469.249561
 20
233.52834
  0
LWPOLYLINE
  5
3A
330
1F
100
AcDbEntity
  8
0
100
AcDbPolyline
 90
      225
 70
   128
 43
0.0
 10
415.441939
 20
234.769792
 10
415.645163
 20
234.816245
 10
415.867871
 20
234.854403
 10
416.092396
 20
234.906208
 10
416.199818
 20
234.944084
 10
416.301068
 20
234.9936
 10
416.454081
 20
235.086643
 10
416.592832
 20
235.180709
 10
416.71741
 20
235.275639
 10
416.827903
 20
235.371273
 10
416.924401
 20
235.467449
 10
417.006994
 20
235.564008
 10
417.075771
 20
235.660789
 10
417.130821
 20
235.757632
 10
417.172234
 20
235.854376
 10
417.200099
 20
235.950861
 10
417.214505
 20
236.046927
 10
417.215542
 20
236.142414
 10
417.203299
 20
236.237161
 10
417.177866
 20
236.331007
 10
417.139332
 20
236.423793
 10
417.087785
 20
236.515357
 10
417.023316
 20
236.60554
 10
416.946014
 20
236.694182
 10
416.855969
 20
236.781121
 10
416.753269
 20
236.866198
 10
416.638004
 20
236.949252
 10
416.510263
 20
237.030123
 10
416.370137
 20
237.10865
 10
416.217713
 20
237.184673
 10
415.876332
 20
237.328567
 10
415.486836
 20
237.46052
 10
415.04994
 20
237.579251
 10
414.566358
 20
237.683476
 10
413.953453
 20
237.809202
 10
413.38308
 20
237.945057
 10
412.854186
 20
238.091762
 10
412.365718
 20
238.250042
 10
411.916621
 20
238.420617
 10
411.505845
 20
238.604212
 10
411.132334
 20
238.801549
 10
410.959225
 20
238.905596
 10
410.795037
 20
239.01335
 10
410.639639
 20
239.1249
 10
410.492899
 20
239.240338
 10
410.354686
 20
239.359753
 10
410.224868
 20
239.483236
 10
410.103314
 20
239.610877
 10
409.989891
 20
239.742767
 10
409.884468
 20
239.878995
 10
409.786914
 20
240.019653
 10
409.697096
 20
240.16483
 10
409.614884
 20
240.314617
 10
409.540145
 20
240.469104
 10
409.472748
 20
240.628382
 10
409.412562
 20
240.79254
 10
409.359454
 20
240.96167
 10
409.313292
 20
241.135861
 10
409.273947
 20
241.315204
 10
409.202114
 20
241.651667
 10
409.165645
 20
241.791603
 10
409.150087
 20
241.84052
 42
0.267272
 10
408.92914
 20
242.042482
 10
405.862549
 20
242.722444
 10
406.295497
 20
244.67502
 10
409.539187
 20
243.95579
 42
0.259362
 10
409.818682
 20
244.038994
 10
409.9442
 20
244.167427
 10
410.15921
 20
244.41825
 10
410.278336
 20
244.553331
 10
410.401961
 20
244.680666
 10
410.530232
 20
244.800267
 10
410.663298
 20
244.912145
 10
410.801307
 20
245.016313
 10
410.944406
 20
245.112782
 10
411.092743
 20
245.201563
 10
411.246465
 20
245.28267
 10
411.40572
 20
245.356113
 10
411.570657
 20
245.421904
 10
411.741422
 20
245.480054
 10
411.918164
 20
245.530577
 10
412.10103
 20
245.573483
 10
412.290168
 20
245.608784
 10
412.485726
 20
245.636491
 10
412.687851
 20
245.656618
 10
412.896691
 20
245.669175
 10
413.112394
 20
245.674173
 10
413.56498
 20
245.661545
 10
414.04679
 20
245.618825
 10
414.559005
 20
245.546109
 10
415.102809
 20
245.443491
 10
415.679382
 20
245.311063
 10
416.289907
 20
245.148922
 10
416.935565
 20
244.957159
 10
417.260401
 20
244.859873
 10
417.555763
 20
244.779875
 10
417.822826
 20
244.717533
 10
418.062766
 20
244.673213
 10
418.276758
 20
244.647282
 10
418.465977
 20
244.640107
 10
418.631597
 20
244.652053
 10
418.774795
 20
244.683489
 10
418.896744
 20
244.73478
 10
418.998621
 20
244.806293
 10
419.081601
 20
244.898395
 10
419.146858
 20
245.011452
 10
419.195568
 20
245.145831
 10
419.228906
 20
245.301898
 10
419.248047
 20
245.480022
 10
419.254167
 20
245.680567
 10
419.249307
 20
245.767129
 10
419.234881
 20
245.856091
 10
419.211116
 20
245.947333
 10
419.178238
 20
246.040734
 10
419.086056
 20
246.233533
 10
418.960154
 20
246.433523
 10
418.802352
 20
246.639742
 10
418.614469
 20
246.851226
 10
418.398325
 20
247.067012
 10
418.155737
 20
247.286136
 10
417.888526
 20
247.507634
 10
417.598512
 20
247.730544
 10
417.287512
 20
247.953902
 10
416.957346
 20
248.176745
 10
416.609834
 20
248.398109
 10
416.246795
 20
248.61703
 10
415.870048
 20
248.832545
 10
415.481412
 20
249.043692
 10
415.082707
 20
249.249506
 10
414.675751
 20
249.449023
 10
414.262365
 20
249.641281
 10
413.844366
 20
249.825317
 10
413.423575
 20
250.000166
 10
413.00181
 20
250.164865
 10
412.580892
 20
250.318451
 10
412.162638
 20
250.45996
 10
411.748869
 20
250.58843
 10
411.341403
 20
250.702896
 10
410.94206
 20
250.802395
 10
410.552659
 20
250.885964
 10
410.175019
 20
250.952639
 10
409.81096
 20
251.001456
 10
409.4623
 20
251.031454
 10
409.130859
 20
251.041667
 10
408.706894
 20
251.027825
 10
408.282631
 20
250.98678
 10
407.859481
 20
250.919252
 10
407.438852
 20
250.825963
 10
407.022157
 20
250.707634
 10
406.610804
 20
250.564984
 10
406.206203
 20
250.398735
 10
405.809766
 20
250.209608
 10
405.422901
 20
249.998324
 10
405.04702
 20
249.765603
 10
404.683532
 20
249.512167
 10
404.333847
 20
249.238735
 10
403.999376
 20
248.94603
 10
403.681528
 20
248.634771
 10
403.381714
 20
248.30568
 10
403.101344
 20
247.959477
 10
402.933129
 20
247.72136
 10
402.765242
 20
247.450447
 10
402.599135
 20
247.15098
 10
402.436261
 20
246.8272
 10
402.278071
 20
246.483348
 10
402.126018
 20
246.123665
 10
401.981554
 20
245.752393
 10
401.846132
 20
245.373771
 10
401.721203
 20
244.992042
 10
401.608219
 20
244.611447
 10
401.508634
 20
244.236226
 10
401.423898
 20
243.870621
 10
401.355465
 20
243.518873
 10
401.304786
 20
243.185223
 10
401.273313
 20
242.873912
 10
401.2625
 20
242.589181
 10
401.276586
 20
242.1208
 10
401.318642
 20
241.646063
 10
401.388366
 20
241.16838
 10
401.485456
 20
240.691161
 10
401.609609
 20
240.217817
 10
401.760524
 20
239.75176
 10
401.937897
 20
239.296401
 10
402.036411
 20
239.073799
 10
402.141426
 20
238.85515
 10
402.252906
 20
238.640882
 10
402.37081
 20
238.431419
 10
402.495103
 20
238.227189
 10
402.625746
 20
238.028618
 10
402.762702
 20
237.836133
 10
402.905932
 20
237.650159
 10
403.055398
 20
237.471123
 10
403.211064
 20
237.299451
 10
403.372891
 20
237.135571
 10
403.540842
 20
236.979907
 10
403.714878
 20
236.832888
 10
403.894963
 20
236.694938
 10
404.081057
 20
236.566484
 10
404.273124
 20
236.447953
 10
404.471125
 20
236.339771
 10
404.675023
 20
236.242365
 10
405.216722
 20
236.009201
 10
405.747321
 20
235.795346
 10
406.266606
 20
235.600077
 10
406.774363
 20
235.42267
 10
407.270377
 20
235.262401
 10
407.754435
 20
235.118548
 10
408.226322
 20
234.990386
 10
408.685825
 20
234.877192
 10
409.132729
 20
234.778242
 10
409.566821
 20
234.692813
 10
409.987886
 20
234.620182
 10
410.395709
 20
234.559625
 10
410.790078
 20
234.510418
 10
411.170778
 20
234.471837
 10
411.537595
 20
234.443161
 10
411.890315
 20
234.423664
 10
412.552607
 20
234.409316
 10
413.155942
 20
234.423005
 10
413.698606
 20
234.458944
 10
414.178888
 20
234.511343
 10
414.595075
 20
234.574416
 10
414.945454
 20
234.642374
 10
415.228313
 20
234.709428
 10
415.441939
 20
234.769792
  0
LWPOLYLINE
  5
3B
330
1F
100
AcDbEntity
  8
0
100
AcDbPolyline
 90
      280
 70
   128
 43
0.0
 10
369.714488
 20
264.627765
 10
369.985736
 20
264.678725
 10
370.260632
 20
264.743939
 10
370.53868
 20
264.822995
 10
370.819382
 20
264.915481
 10
371.10224
 20
265.020984
 10
371.386757
 20
265.139091
 10
371.672436
 20
265.26939
 10
371.958779
 20
265.411468
 10
372.245288
 20
265.564912
 10
372.531467
 20
265.72931
 10
372.816818
 20
265.90425
 10
373.100843
 20
266.089318
 10
373.383046
 20
266.284103
 10
373.662928
 20
266.48819
 10
373.939992
 20
266.701169
 10
374.213741
 20
266.922626
 10
374.483677
 20
267.152149
 10
374.749303
 20
267.389324
 10
375.010122
 20
267.63374
 10
375.265635
 20
267.884984
 10
375.515347
 20
268.142643
 10
375.758758
 20
268.406305
 10
375.995373
 20
268.675557
 10
376.224692
 20
268.949986
 10
376.44622
 20
269.229179
 10
376.659458
 20
269.512726
 10
376.86391
 20
269.800211
 10
377.059076
 20
270.091224
 10
377.244462
 20
270.385351
 10
377.419568
 20
270.682179
 10
377.583897
 20
270.981297
 10
377.736952
 20
271.282292
 10
378.018329
 20
271.871215
 10
378.234547
 20
272.367701
 10
378.320884
 20
272.594532
 10
378.394126
 20
272.814157
 10
378.455338
 20
273.031875
 10
378.505585
 20
273.252989
 10
378.545933
 20
273.482798
 10
378.577445
 20
273.726603
 10
378.601187
 20
273.989706
 10
378.618225
 20
274.277407
 10
378.636445
 20
274.947807
 10
378.640625
 20
275.780208
 10
378.634106
 20
276.37656
 10
378.613136
 20
276.928987
 10
378.575595
 20
277.442415
 10
378.519362
 20
277.921769
 10
378.442317
 20
278.371973
 10
378.342341
 20
278.797954
 10
378.283091
 20
279.0034
 10
378.217312
 20
279.204637
 10
378.144741
 20
279.40228
 10
378.065111
 20
279.596946
 10
377.978158
 20
279.78925
 10
377.883617
 20
279.979807
 10
377.67071
 20
280.358146
 10
377.424271
 20
280.736887
 10
377.142178
 20
281.120956
 10
376.822311
 20
281.515277
 10
376.462551
 20
281.924777
 10
376.060777
 20
282.35438
 10
375.614869
 20
282.809012
 10
375.358427
 20
283.058954
 10
375.098435
 20
283.299355
 10
374.83495
 20
283.530197
 10
374.568026
 20
283.751461
 10
374.297722
 20
283.963129
 10
374.024092
 20
284.165182
 10
373.747193
 20
284.357603
 10
373.467081
 20
284.540373
 10
373.183812
 20
284.713472
 10
372.897443
 20
284.876884
 10
372.608029
 20
285.030589
 10
372.315627
 20
285.17457
 10
372.020292
 20
285.308807
 10
371.722082
 20
285.433283
 10
371.421052
 20
285.547978
 10
371.117258
 20
285.652875
 10
370.810756
 20
285.747956
 10
370.501603
 20
285.833201
 10
370.189855
 20
285.908592
 10
369.875568
 20
285.974111
 10
369.558798
 20
286.02974
 10
369.239601
 20
286.07546
 10
368.918033
 20
286.111253
 10
368.594151
 20
286.1371
 10
368.268011
 20
286.152983
 10
367.939668
 20
286.158884
 10
367.60918
 20
286.154783
 10
367.276601
 20
286.140664
 10
366.941989
 20
286.116507
 10
366.6054
 20
286.082293
 10
366.266889
 20
286.038006
 10
365.926513
 20
285.983625
 10
365.496935
 20
285.90212
 10
365.083293
 20
285.809789
 10
364.684702
 20
285.706166
 10
364.300276
 20
285.590789
 10
363.92913
 20
285.463191
 10
363.570379
 20
285.322908
 10
363.223137
 20
285.169477
 10
362.88652
 20
285.002432
 10
362.559642
 20
284.821308
 10
362.241618
 20
284.625643
 10
361.931563
 20
284.414969
 10
361.628591
 20
284.188824
 10
361.331817
 20
283.946743
 10
361.040355
 20
283.688261
 10
360.753322
 20
283.412914
 10
360.46983
 20
283.120237
 10
360.195726
 20
282.820107
 10
359.939623
 20
282.524503
 10
359.700565
 20
282.231595
 10
359.477596
 20
281.939552
 10
359.269758
 20
281.646545
 10
359.076096
 20
281.350743
 10
358.895654
 20
281.050316
 10
358.727475
 20
280.743433
 10
358.570602
 20
280.428266
 10
358.42408
 20
280.102983
 10
358.286952
 20
279.765754
 10
358.158261
 20
279.41475
 10
358.037052
 20
279.048139
 10
357.922368
 20
278.664093
 10
357.813252
 20
278.26078
 10
357.708748
 20
277.836371
 10
357.643788
 20
277.539452
 10
357.587197
 20
277.237018
 10
357.538865
 20
276.929726
 10
357.49868
 20
276.618236
 10
357.46653
 20
276.303205
 10
357.442304
 20
275.985291
 10
357.425891
 20
275.665153
 10
357.417179
 20
275.343448
 10
357.422411
 20
274.697974
 10
357.457109
 20
274.054134
 10
357.520382
 20
273.417194
 10
357.611337
 20
272.792418
 10
357.729082
 20
272.185074
 10
357.797723
 20
271.889583
 10
357.872726
 20
271.600425
 10
357.953981
 20
271.318258
 10
358.041377
 20
271.04374
 10
358.134801
 20
270.777528
 10
358.234142
 20
270.520282
 10
358.339289
 20
270.272659
 10
358.45013
 20
270.035317
 10
358.566553
 20
269.808915
 10
358.688448
 20
269.594112
 10
358.815703
 20
269.391564
 10
358.948206
 20
269.201931
 10
359.085845
 20
269.025871
 10
359.22851
 20
268.864041
 10
359.481786
 20
268.612126
 10
359.597685
 20
268.512335
 10
359.707716
 20
268.429923
 10
359.812846
 20
268.364841
 10
359.914044
 20
268.317041
 10
360.012277
 20
268.286475
 10
360.108514
 20
268.273093
 10
360.203721
 20
268.276846
 10
360.298868
 20
268.297687
 10
360.394921
 20
268.335566
 10
360.492849
 20
268.390435
 10
360.59362
 20
268.462245
 10
360.698201
 20
268.550947
 10
360.922667
 20
268.778834
 10
360.990688
 20
268.860906
 10
361.05372
 20
268.952061
 10
361.11207
 20
269.053796
 10
361.166043
 20
269.167607
 10
361.215944
 20
269.29499
 10
361.262077
 20
269.437442
 10
361.344261
 20
269.773539
 10
361.415035
 20
270.18787
 10
361.476841
 20
270.692406
 10
361.532118
 20
271.299118
 10
361.583306
 20
272.01998
 10
361.650098
 20
272.889465
 10
361.735746
 20
273.674863
 10
361.786526
 20
274.037043
 10
361.843081
 20
274.379419
 10
361.905764
 20
274.702395
 10
361.97493
 20
275.006377
 10
362.050931
 20
275.291771
 10
362.134122
 20
275.558983
 10
362.224857
 20
275.808418
 10
362.323488
 20
276.040482
 10
362.43037
 20
276.25558
 10
362.545856
 20
276.454118
 10
362.670299
 20
276.636502
 10
362.804054
 20
276.803137
 10
362.947474
 20
276.954429
 10
363.100913
 20
277.090784
 10
363.264724
 20
277.212607
 10
363.439261
 20
277.320303
 10
363.624877
 20
277.414279
 10
363.821926
 20
277.49494
 10
364.030763
 20
277.562692
 10
364.251739
 20
277.617939
 10
364.48521
 20
277.661089
 10
364.731528
 20
277.692547
 10
364.991048
 20
277.712717
 10
365.264123
 20
277.722006
 10
365.551106
 20
277.72082
 10
365.852352
 20
277.709564
 10
366.168213
 20
277.688643
 10
366.499044
 20
277.658464
 10
367.053229
 20
277.604417
 10
367.501922
 20
277.571281
 42
0.282293
 10
367.780714
 20
277.715202
 10
369.507705
 20
280.57043
 10
371.219017
 20
279.53534
 10
369.720869
 20
277.058458
 42
0.31356
 10
369.742684
 20
276.716565
 10
369.767037
 20
276.685915
 10
369.876947
 20
276.574424
 10
370.011823
 20
276.456778
 10
370.172239
 20
276.330685
 10
370.571987
 20
276.043992
 10
370.803323
 20
275.875629
 10
371.024534
 20
275.698547
 10
371.234959
 20
275.513741
 10
371.433935
 20
275.322209
 10
371.620799
 20
275.124946
 10
371.794889
 20
274.922949
 10
371.955543
 20
274.717214
 10
372.102098
 20
274.508738
 10
372.233892
 20
274.298517
 10
372.350263
 20
274.087548
 10
372.450547
 20
273.876826
 10
372.534084
 20
273.667348
 10
372.60021
 20
273.460111
 10
372.648263
 20
273.256111
 10
372.67758
 20
273.056345
 10
372.6875
 20
272.861807
 10
372.674534
 20
272.663468
 10
372.636197
 20
272.446443
 10
372.573331
 20
272.212135
 10
372.486776
 20
271.961945
 10
372.377374
 20
271.697274
 10
372.245967
 20
271.419523
 10
372.093397
 20
271.130093
 10
371.920503
 20
270.830386
 10
371.728129
 20
270.521803
 10
371.517114
 20
270.205745
 10
371.288302
 20
269.883613
 10
371.042532
 20
269.556808
 10
370.780647
 20
269.226732
 10
370.503488
 20
268.894786
 10
370.211896
 20
268.562371
 10
369.906713
 20
268.230889
 10
369.378871
 20
267.65272
 10
369.15674
 20
267.392942
 10
368.961537
 20
267.150644
 10
368.792563
 20
266.924279
 10
368.64912
 20
266.712304
 10
368.530507
 20
266.513173
 10
368.436028
 20
266.325342
 10
368.364983
 20
266.147266
 10
368.316673
 20
265.9774
 10
368.2904
 20
265.8142
 10
368.285464
 20
265.65612
 10
368.301167
 20
265.501616
 10
368.33681
 20
265.349144
 10
368.391694
 20
265.197159
 10
368.465121
 20
265.044115
 10
368.55934
 20
264.885118
 10
368.656835
 20
264.761486
 10
368.709065
 20
264.712181
 10
368.764818
 20
264.670816
 10
368.824997
 20
264.63709
 10
368.890502
 20
264.610704
 10
368.962236
 20
264.591356
 10
369.041099
 20
264.578746
 10
369.223821
 20
264.572539
 10
369.44588
 20
264.58968
 10
369.714488
 20
264.627765
  0
LWPOLYLINE
  5
3C
330
1F
100
AcDbEntity
  8
0
100
AcDbPolyline
 90
      226
 70
   128
 43
0.0
 10
389.931927
 20
241.108652
 10
389.444182
 20
241.08897
 10
388.974587
 20
241.091943
 10
388.521607
 20
241.118227
 10
388.083703
 20
241.168479
 10
387.659341
 20
241.243354
 10
387.246982
 20
241.34351
 10
386.845091
 20
241.469602
 10
386.45213
 20
241.622289
 10
386.066564
 20
241.802225
 10
385.686855
 20
242.010068
 10
385.311467
 20
242.246474
 10
384.938863
 20
242.512099
 10
384.567506
 20
242.807601
 10
384.19586
 20
243.133635
 10
383.822389
 20
243.490859
 10
383.445555
 20
243.879928
 10
383.161817
 20
244.196094
 10
382.890754
 20
244.523837
 10
382.632538
 20
244.862193
 10
382.387338
 20
245.210193
 10
382.155324
 20
245.566871
 10
381.936666
 20
245.931259
 10
381.731536
 20
246.302392
 10
381.540102
 20
246.679302
 10
381.362536
 20
247.061021
 10
381.199008
 20
247.446584
 10
381.049687
 20
247.835024
 10
380.914744
 20
248.225372
 10
380.79435
 20
248.616664
 10
380.688674
 20
249.00793
 10
380.597887
 20
249.398206
 10
380.522159
 20
249.786523
 10
380.461661
 20
250.171915
 10
380.416561
 20
250.553414
 10
380.387032
 20
250.930055
 10
380.373243
 20
251.30087
 10
380.375363
 20
251.664892
 10
380.393565
 20
252.021154
 10
380.428017
 20
252.36869
 10
380.47889
 20
252.706532
 10
380.546354
 20
253.033714
 10
380.63058
 20
253.349268
 10
380.731738
 20
253.652228
 10
380.849997
 20
253.941627
 10
380.985529
 20
254.216497
 10
381.138503
 20
254.475873
 10
381.30909
 20
254.718786
 10
381.49746
 20
254.944271
 10
381.697092
 20
255.144629
 10
381.892674
 20
255.303316
 10
381.988939
 20
255.367037
 10
382.084182
 20
255.420346
 10
382.1784
 20
255.463246
 10
382.271591
 20
255.495737
 10
382.363751
 20
255.517823
 10
382.454878
 20
255.529505
 10
382.544968
 20
255.530784
 10
382.634018
 20
255.521664
 10
382.722026
 20
255.502146
 10
382.808987
 20
255.472231
 10
382.894901
 20
255.431923
 10
382.979762
 20
255.381223
 10
383.063569
 20
255.320132
 10
383.146318
 20
255.248654
 10
383.228006
 20
255.16679
 10
383.308631
 20
255.074541
 10
383.466677
 20
254.858901
 10
383.620432
 20
254.601748
 10
383.769871
 20
254.303098
 10
383.914972
 20
253.962969
 10
384.055709
 20
253.581375
 10
384.192059
 20
253.158333
 10
384.466611
 20
252.277269
 10
384.70875
 20
251.571562
 10
384.821599
 20
251.277939
 10
384.931066
 20
251.020322
 10
385.038725
 20
250.7961
 10
385.14615
 20
250.602661
 10
385.254914
 20
250.437394
 10
385.366591
 20
250.297688
 10
385.482755
 20
250.180932
 10
385.604979
 20
250.084515
 10
385.734837
 20
250.005825
 10
385.873903
 20
249.942251
 10
386.023751
 20
249.891183
 10
386.185955
 20
249.850008
 10
386.370292
 20
249.816658
 10
386.576139
 20
249.7919
 10
386.796569
 20
249.775823
 10
387.024654
 20
249.768513
 10
387.253466
 20
249.770058
 10
387.476078
 20
249.780545
 10
387.685561
 20
249.800063
 10
387.874989
 20
249.828698
 10
388.174695
 20
249.879062
 42
-0.327628
 10
388.491765
 20
249.719306
 10
389.909731
 20
246.933772
 10
391.692089
 20
247.841076
 10
390.347791
 20
250.481893
 42
-0.276792
 10
390.369124
 20
250.789668
 10
390.43311
 20
250.881361
 10
390.523182
 20
250.991828
 10
390.631644
 20
251.112738
 10
390.905229
 20
251.398798
 10
391.11031
 20
251.622004
 10
391.286173
 20
251.839892
 10
391.432648
 20
252.054682
 10
391.549564
 20
252.268593
 10
391.636751
 20
252.483846
 10
391.669143
 20
252.592669
 10
391.694039
 20
252.70266
 10
391.711418
 20
252.814096
 10
391.721258
 20
252.927254
 10
391.723538
 20
253.042412
 10
391.718238
 20
253.159848
 10
391.684808
 20
253.402663
 10
391.620799
 20
253.657916
 10
391.52604
 20
253.927829
 10
391.40036
 20
254.214621
 10
391.243591
 20
254.520511
 10
391.055561
 20
254.847718
 10
390.8361
 20
255.198464
 10
390.585039
 20
255.574967
 10
390.101233
 20
256.297506
 10
389.72861
 20
256.894358
 10
389.582154
 20
257.151137
 10
389.461289
 20
257.383077
 10
389.36528
 20
257.592371
 10
389.293392
 20
257.781214
 10
389.244891
 20
257.951799
 10
389.21904
 20
258.106321
 10
389.215106
 20
258.246975
 10
389.232353
 20
258.375953
 10
389.270047
 20
258.49545
 10
389.327453
 20
258.60766
 10
389.403835
 20
258.714777
 10
389.49846
 20
258.818995
 10
389.596777
 20
258.907447
 10
389.703715
 20
258.985125
 10
389.818901
 20
259.052154
 10
389.941958
 20
259.108662
 10
390.072514
 20
259.154776
 10
390.210194
 20
259.190622
 10
390.354622
 20
259.216328
 10
390.505426
 20
259.23202
 10
390.662229
 20
259.237824
 10
390.824659
 20
259.233869
 10
390.99234
 20
259.220279
 10
391.164899
 20
259.197184
 10
391.34196
 20
259.164708
 10
391.523149
 20
259.122979
 10
391.708092
 20
259.072124
 10
391.896415
 20
259.01227
 10
392.281701
 20
258.86607
 10
392.676011
 20
258.685394
 10
393.076351
 20
258.471256
 10
393.479725
 20
258.224672
 10
393.883138
 20
257.946655
 10
394.283594
 20
257.638219
 10
394.678098
 20
257.30038
 10
395.063655
 20
256.934152
 10
395.265589
 20
256.725439
 10
395.462529
 20
256.508349
 10
395.65431
 20
256.283329
 10
395.840767
 20
256.050825
 10
396.021738
 20
255.811285
 10
396.197058
 20
255.565153
 10
396.366562
 20
255.312877
 10
396.530086
 20
255.054903
 10
396.687467
 20
254.791677
 10
396.83854
 20
254.523645
 10
396.983141
 20
254.251255
 10
397.121105
 20
253.974951
 10
397.252269
 20
253.69518
 10
397.376469
 20
253.41239
 10
397.493539
 20
253.127025
 10
397.603317
 20
252.839533
 10
397.705638
 20
252.55036
 10
397.800338
 20
252.259951
 10
397.887252
 20
251.968754
 10
397.966217
 20
251.677215
 10
398.037068
 20
251.38578
 10
398.099641
 20
251.094895
 10
398.153773
 20
250.805007
 10
398.199298
 20
250.516562
 10
398.236052
 20
250.230006
 10
398.263873
 20
249.945786
 10
398.282594
 20
249.664348
 10
398.292053
 20
249.386138
 10
398.292085
 20
249.111603
 10
398.282526
 20
248.841189
 10
398.263211
 20
248.575342
 10
398.233977
 20
248.314509
 10
398.177142
 20
247.955028
 10
398.102918
 20
247.600464
 10
398.011737
 20
247.251192
 10
397.90403
 20
246.907585
 10
397.780229
 20
246.57002
 10
397.640766
 20
246.23887
 10
397.486073
 20
245.91451
 10
397.316582
 20
245.597316
 10
397.132724
 20
245.287662
 10
396.934931
 20
244.985923
 10
396.723635
 20
244.692473
 10
396.499268
 20
244.407687
 10
396.262262
 20
244.131941
 10
396.013048
 20
243.865608
 10
395.752057
 20
243.609065
 10
395.479723
 20
243.362684
 10
395.196477
 20
243.126842
 10
394.90275
 20
242.901913
 10
394.598974
 20
242.688272
 10
394.285582
 20
242.486293
 10
393.963004
 20
242.296352
 10
393.631673
 20
242.118823
 10
393.292021
 20
241.954081
 10
392.944479
 20
241.8025
 10
392.589479
 20
241.664456
 10
392.227453
 20
241.540324
 10
391.858832
 20
241.430477
 10
391.484049
 20
241.335291
 10
391.103535
 20
241.255141
 10
390.717722
 20
241.190401
 10
390.327042
 20
241.141446
 10
389.931927
 20
241.108652
  0
LWPOLYLINE
  5
3D
330
1F
100
AcDbEntity
  8
0
100
AcDbPolyline
 90
      227
 70
   128
 43
0.0
 10
369.115625
 20
243.925605
 10
369.595618
 20
243.928047
 10
370.075126
 20
243.942529
 10
370.551159
 20
243.96847
 10
371.020728
 20
244.005286
 10
371.480844
 20
244.052397
 10
371.928518
 20
244.10922
 10
372.360759
 20
244.175174
 10
372.77458
 20
244.249675
 10
373.166991
 20
244.332143
 10
373.535001
 20
244.421995
 10
373.875623
 20
244.518649
 10
374.185866
 20
244.621523
 10
374.462742
 20
244.730036
 10
374.70326
 20
244.843604
 10
374.904433
 20
244.961647
 10
375.06327
 20
245.083582
 10
375.190545
 20
245.210697
 10
375.300124
 20
245.344602
 10
375.392053
 20
245.483747
 10
375.46638
 20
245.626586
 10
375.523153
 20
245.771571
 10
375.562418
 20
245.917154
 10
375.584224
 20
246.061786
 10
375.588618
 20
246.203921
 10
375.575646
 20
246.34201
 10
375.545357
 20
246.474505
 10
375.497797
 20
246.599858
 10
375.433015
 20
246.716522
 10
375.351057
 20
246.822948
 10
375.251971
 20
246.91759
 10
375.135804
 20
246.998898
 10
375.002604
 20
247.065325
 10
374.845217
 20
247.120639
 10
374.625315
 20
247.183779
 10
374.038115
 20
247.324712
 10
373.321311
 20
247.470468
 10
372.555208
 20
247.603392
 10
371.94607
 20
247.714164
 10
371.367019
 20
247.848872
 10
371.089173
 20
247.924901
 10
370.819325
 20
248.006553
 10
370.557635
 20
248.093708
 10
370.30426
 20
248.186245
 10
370.059361
 20
248.284045
 10
369.823096
 20
248.386987
 10
369.595623
 20
248.494951
 10
369.377102
 20
248.607816
 10
369.167692
 20
248.725462
 10
368.967551
 20
248.847769
 10
368.776839
 20
248.974616
 10
368.595714
 20
249.105884
 10
368.424335
 20
249.241452
 10
368.262862
 20
249.381199
 10
368.111452
 20
249.525006
 10
367.970265
 20
249.672753
 10
367.83946
 20
249.824318
 10
367.719196
 20
249.979581
 10
367.609631
 20
250.138423
 10
367.510925
 20
250.300723
 10
367.423237
 20
250.466361
 10
367.346724
 20
250.635216
 10
367.281547
 20
250.807169
 10
367.227864
 20
250.982098
 10
367.185834
 20
251.159884
 10
367.155615
 20
251.340407
 10
367.137368
 20
251.523545
 10
367.13125
 20
251.70918
 10
367.12364
 20
252.030966
 42
0.391932
 10
366.839623
 20
252.323452
 10
363.945495
 20
252.477046
 10
364.051489
 20
254.474236
 10
367.347729
 20
254.2993
 42
0.262096
 10
367.611483
 20
254.429859
 10
367.688146
 20
254.542279
 10
367.878509
 20
254.858746
 10
368.034612
 20
255.10371
 10
368.202289
 20
255.328245
 10
368.382477
 20
255.532706
 10
368.576111
 20
255.717446
 10
368.784127
 20
255.882819
 10
369.007462
 20
256.029177
 10
369.247053
 20
256.156876
 10
369.503834
 20
256.266267
 10
369.778742
 20
256.357706
 10
370.072714
 20
256.431545
 10
370.386685
 20
256.488139
 10
370.721592
 20
256.52784
 10
371.078371
 20
256.551003
 10
371.457958
 20
256.557981
 10
371.861289
 20
256.549127
 10
372.2893
 20
256.524796
 10
372.690488
 20
256.488127
 10
373.120585
 20
256.435219
 10
373.566185
 20
256.368566
 10
374.013884
 20
256.290665
 10
374.450276
 20
256.20401
 10
374.861957
 20
256.111096
 10
375.235521
 20
256.014419
 10
375.557564
 20
255.916472
 10
375.85238
 20
255.822568
 10
376.123824
 20
255.746562
 10
376.372723
 20
255.688736
 10
376.599905
 20
255.649367
 10
376.806196
 20
255.628736
 10
376.992424
 20
255.627121
 10
377.159416
 20
255.644801
 10
377.308001
 20
255.682057
 10
377.439004
 20
255.739166
 10
377.553253
 20
255.816409
 10
377.651577
 20
255.914065
 10
377.734801
 20
256.032412
 10
377.803753
 20
256.171731
 10
377.859261
 20
256.332299
 10
377.902153
 20
256.514398
 10
377.933254
 20
256.718305
 10
377.944195
 20
256.892734
 10
377.934409
 20
257.064427
 10
377.902673
 20
257.234683
 10
377.847765
 20
257.404806
 10
377.768463
 20
257.576097
 10
377.663543
 20
257.749859
 10
377.531784
 20
257.927392
 10
377.371963
 20
258.11
 10
377.182858
 20
258.298983
 10
376.963245
 20
258.495644
 10
376.711902
 20
258.701285
 10
376.427608
 20
258.917208
 10
376.109139
 20
259.144714
 10
375.755272
 20
259.385106
 10
374.936458
 20
259.909754
 10
374.46205
 20
260.194129
 10
373.975465
 20
260.465507
 10
373.478929
 20
260.723151
 10
372.974668
 20
260.966327
 10
372.464908
 20
261.194298
 10
371.951876
 20
261.40633
 10
371.437796
 20
261.601688
 10
370.924895
 20
261.779635
 10
370.415399
 20
261.939437
 10
369.911534
 20
262.080358
 10
369.415526
 20
262.201663
 10
368.929601
 20
262.302617
 10
368.455985
 20
262.382483
 10
367.996904
 20
262.440528
 10
367.554583
 20
262.476015
 10
367.13125
 20
262.488209
 10
366.675675
 20
262.476286
 10
366.227829
 20
262.440182
 10
365.788154
 20
262.380404
 10
365.357089
 20
262.297459
 10
364.935074
 20
262.191854
 10
364.52255
 20
262.064096
 10
364.119956
 20
261.914692
 10
363.727733
 20
261.744148
 10
363.34632
 20
261.552971
 10
362.976158
 20
261.341669
 10
362.617686
 20
261.110747
 10
362.271345
 20
260.860714
 10
361.937576
 20
260.592076
 10
361.616817
 20
260.305339
 10
361.309509
 20
260.001011
 10
361.016092
 20
259.679599
 10
360.737007
 20
259.341608
 10
360.472692
 20
258.987548
 10
360.223589
 20
258.617923
 10
359.990138
 20
258.233241
 10
359.772777
 20
257.834009
 10
359.571949
 20
257.420734
 10
359.388092
 20
256.993922
 10
359.221646
 20
256.554081
 10
359.073053
 20
256.101718
 10
358.942751
 20
255.637338
 10
358.831181
 20
255.16145
 10
358.738784
 20
254.674559
 10
358.665998
 20
254.177174
 10
358.613264
 20
253.6698
 10
358.581023
 20
253.152945
 10
358.569714
 20
252.627115
 10
358.573539
 20
252.323388
 10
358.585792
 20
252.02389
 10
358.606433
 20
251.72869
 10
358.635422
 20
251.437857
 10
358.672722
 20
251.151462
 10
358.718292
 20
250.869572
 10
358.772094
 20
250.592259
 10
358.834087
 20
250.319591
 10
358.904234
 20
250.051638
 10
358.982494
 20
249.788469
 10
359.068829
 20
249.530154
 10
359.163198
 20
249.276762
 10
359.265564
 20
249.028363
 10
359.375887
 20
248.785027
 10
359.494127
 20
248.546822
 10
359.620246
 20
248.313818
 10
359.754203
 20
248.086086
 10
359.895961
 20
247.863693
 10
360.045479
 20
247.64671
 10
360.202719
 20
247.435206
 10
360.367641
 20
247.229251
 10
360.540206
 20
247.028914
 10
360.720375
 20
246.834264
 10
360.908108
 20
246.645372
 10
361.103367
 20
246.462306
 10
361.306111
 20
246.285137
 10
361.516303
 20
246.113932
 10
361.733903
 20
245.948763
 10
361.958871
 20
245.789699
 10
362.191168
 20
245.636808
 10
362.430755
 20
245.490161
 10
362.677593
 20
245.349826
 10
363.01207
 20
245.174183
 10
363.351702
 20
245.010953
 10
363.697326
 20
244.859951
 10
364.049775
 20
244.720992
 10
364.409886
 20
244.593892
 10
364.778493
 20
244.478465
 10
365.156432
 20
244.374527
 10
365.544538
 20
244.281894
 10
365.943646
 20
244.20038
 10
366.354592
 20
244.1298
 10
366.77821
 20
244.069971
 10
367.215336
 20
244.020707
 10
367.666806
 20
243.981823
 10
368.133453
 20
243.953134
 10
368.616115
 20
243.934456
 10
369.115625
 20
243.925605
  0
LWPOLYLINE
  5
3E
330
1F
100
AcDbEntity
  8
0
100
AcDbPolyline
 90
      221
 70
   128
 43
0.0
 10
357.113205
 20
238.945262
 10
357.11119
 20
238.9379
 10
357.091472
 20
238.770157
 10
357.081347
 20
238.571683
 10
357.077083
 20
238.076556
 10
357.079538
 20
237.579167
 10
357.09672
 20
237.197118
 10
357.115437
 20
237.04136
 10
357.143358
 20
236.904855
 10
357.182326
 20
236.784408
 10
357.23418
 20
236.676824
 10
357.300762
 20
236.57891
 10
357.383912
 20
236.487471
 10
357.485472
 20
236.399312
 10
357.607284
 20
236.311241
 10
357.919022
 20
236.12258
 10
358.333854
 20
235.895935
 10
358.659113
 20
235.727297
 10
359.002161
 20
235.563119
 10
359.366197
 20
235.402458
 10
359.754423
 20
235.244371
 10
360.170036
 20
235.087915
 10
360.616237
 20
234.932148
 10
361.096225
 20
234.776126
 10
361.6132
 20
234.618906
 10
362.170362
 20
234.459545
 10
362.77091
 20
234.2971
 10
364.114963
 20
233.959186
 10
365.670956
 20
233.59762
 10
367.464487
 20
233.204858
 10
370.801603
 20
232.533339
 10
372.533517
 20
232.189106
 10
374.142708
 20
231.882739
 10
375.387341
 20
231.666172
 10
376.703781
 20
231.459183
 10
378.079588
 20
231.262481
 10
379.502317
 20
231.076772
 10
380.959529
 20
230.902765
 10
382.43878
 20
230.741169
 10
383.92763
 20
230.592692
 10
385.413635
 20
230.458041
 10
386.884354
 20
230.337925
 10
388.327345
 20
230.233053
 10
389.730166
 20
230.144131
 10
391.080374
 20
230.071869
 10
392.365529
 20
230.016974
 10
393.573188
 20
229.980155
 10
394.690909
 20
229.96212
 10
395.70625
 20
229.963577
 10
396.186937
 20
229.956889
 10
396.698887
 20
229.932838
 10
397.772301
 20
229.874683
 10
398.31163
 20
229.8616
 10
398.577108
 20
229.863655
 10
398.83795
 20
229.873192
 10
399.092773
 20
229.891526
 10
399.340193
 20
229.919969
 10
399.578827
 20
229.959837
 10
399.807292
 20
230.012442
 10
399.956025
 20
230.062637
 10
400.107311
 20
230.131664
 10
400.411777
 20
230.306931
 10
400.709166
 20
230.499674
 10
400.987956
 20
230.671325
 10
401.26888
 20
230.83774
 10
401.525346
 20
231.009303
 10
401.757595
 20
231.185412
 10
401.965866
 20
231.365467
 10
402.150398
 20
231.548869
 10
402.311431
 20
231.735015
 10
402.449205
 20
231.923307
 10
402.563958
 20
232.113142
 10
402.655931
 20
232.303922
 10
402.725361
 20
232.495044
 10
402.77249
 20
232.685909
 10
402.797557
 20
232.875916
 10
402.8008
 20
233.064464
 10
402.782459
 20
233.250954
 10
402.742775
 20
233.434784
 10
402.681985
 20
233.615354
 10
402.60033
 20
233.792063
 10
402.498049
 20
233.964311
 10
402.375381
 20
234.131497
 10
402.232567
 20
234.293022
 10
402.069844
 20
234.448283
 10
401.887453
 20
234.596681
 10
401.685634
 20
234.737616
 10
401.464625
 20
234.870486
 10
401.224666
 20
234.994691
 10
400.965996
 20
235.10963
 10
400.688855
 20
235.214704
 10
400.393483
 20
235.309311
 10
400.080118
 20
235.392852
 10
399.749
 20
235.464724
 10
399.400369
 20
235.524329
 10
399.034464
 20
235.571065
 10
398.663394
 20
235.602505
 10
398.290795
 20
235.617493
 10
397.916582
 20
235.616007
 10
397.540669
 20
235.598027
 10
397.162971
 20
235.563534
 10
396.783402
 20
235.512505
 10
396.401876
 20
235.444921
 10
396.018309
 20
235.360762
 10
395.632614
 20
235.260005
 10
395.244705
 20
235.142631
 10
394.854498
 20
235.00862
 10
394.461907
 20
234.857951
 10
394.066846
 20
234.690602
 10
393.669229
 20
234.506554
 10
393.268972
 20
234.305787
 10
392.865987
 20
234.088278
 10
392.475828
 20
233.879411
 10
392.118667
 20
233.709647
 10
391.78177
 20
233.575649
 10
391.452404
 20
233.474077
 10
391.117835
 20
233.401594
 10
390.765329
 20
233.354861
 10
390.382152
 20
233.330541
 10
389.955571
 20
233.325294
 10
389.192632
 20
233.322385
 10
388.796959
 20
233.32413
 10
388.430208
 20
233.336005
 10
387.052435
 20
233.399481
 10
385.585397
 20
233.454865
 10
384.061456
 20
233.518833
 10
383.288261
 20
233.559246
 10
382.512975
 20
233.608058
 10
381.739645
 20
233.667354
 10
380.972315
 20
233.739217
 10
380.215032
 20
233.825732
 10
379.471839
 20
233.928984
 10
378.746783
 20
234.051056
 10
378.043908
 20
234.194033
 10
377.702053
 20
234.274013
 10
377.36726
 20
234.36
 10
377.040036
 20
234.452256
 10
376.720885
 20
234.551041
 10
376.609106
 20
234.594221
 10
376.495072
 20
234.650051
 10
376.26489
 20
234.786498
 10
376.039652
 20
234.934056
 10
375.828671
 20
235.066395
 10
375.718797
 20
235.134512
 10
375.608338
 20
235.212229
 10
375.386033
 20
235.396014
 10
375.162495
 20
235.616846
 10
374.93846
 20
235.873821
 10
374.714666
 20
236.166034
 10
374.491851
 20
236.492579
 10
374.270754
 20
236.852553
 10
374.052111
 20
237.245051
 10
373.840081
 20
237.630849
 10
373.63257
 20
237.979961
 10
373.426954
 20
238.294017
 10
373.220609
 20
238.574646
 10
373.010911
 20
238.823478
 10
372.795237
 20
239.042144
 10
372.570963
 20
239.232272
 10
372.335464
 20
239.395493
 10
372.086117
 20
239.533437
 10
371.820298
 20
239.647733
 10
371.535384
 20
239.740011
 10
371.22875
 20
239.811902
 10
370.897772
 20
239.865033
 10
370.539828
 20
239.901037
 10
370.152292
 20
239.921542
 10
369.732542
 20
239.928178
 10
369.165566
 20
239.932554
 10
368.713979
 20
239.952774
 10
368.521486
 20
239.972482
 10
368.345876
 20
240.00054
 10
368.183159
 20
240.038411
 10
368.029347
 20
240.087557
 10
367.880453
 20
240.149441
 10
367.732487
 20
240.225526
 10
367.581461
 20
240.317276
 10
367.423387
 20
240.426153
 10
367.07014
 20
240.701139
 10
366.640839
 20
241.062189
 10
366.371105
 20
241.279728
 10
366.078566
 20
241.491813
 10
365.76483
 20
241.697801
 10
365.431502
 20
241.897048
 10
365.08019
 20
242.088909
 10
364.7125
 20
242.272742
 10
364.330039
 20
242.447902
 10
363.934413
 20
242.613745
 10
363.527229
 20
242.769628
 10
363.110094
 20
242.914906
 10
362.684614
 20
243.048935
 10
362.252396
 20
243.171073
 10
361.815047
 20
243.280675
 10
361.374173
 20
243.377097
 10
360.931381
 20
243.459695
 10
360.488278
 20
243.527825
 10
360.138983
 20
243.569849
 10
359.84595
 20
243.589355
 10
359.596885
 20
243.583374
 10
359.484998
 20
243.569899
 10
359.379494
 20
243.54894
 10
359.278834
 20
243.520125
 10
359.181483
 20
243.483083
 10
359.085904
 20
243.437443
 10
358.99056
 20
243.382835
 10
358.794429
 20
243.245229
 10
358.580798
 20
243.067297
 10
358.434935
 20
242.925464
 10
358.292802
 20
242.761511
 10
358.157944
 20
242.581286
 10
358.033904
 20
242.390641
 10
357.924225
 20
242.195426
 10
357.832452
 20
242.001491
 10
357.762128
 20
241.814689
 10
357.716797
 20
241.640868
 10
357.68447
 20
241.451773
 42
0.401254
 10
357.916536
 20
241.108048
 10
363.10121
 20
239.982528
 10
362.67692
 20
238.028052
 10
357.466203
 20
239.159225
 42
0.39865
 10
357.113205
 20
238.945262
  0
LWPOLYLINE
  5
3F
330
1F
100
AcDbEntity
  8
0
100
AcDbPolyline
 90
      602
 70
   128
 43
0.0
 10
357.69997
 20
231.038946
 10
357.632823
 20
230.988432
 10
357.570601
 20
230.927357
 10
357.513152
 20
230.856253
 10
357.460319
 20
230.775651
 10
357.367884
 20
230.588078
 10
357.292059
 20
230.368891
 10
357.231606
 20
230.122344
 10
357.185286
 20
229.852689
 10
357.151861
 20
229.564178
 10
357.130093
 20
229.261064
 10
357.121754
 20
228.969719
 10
357.127616
 20
228.671372
 10
357.148202
 20
228.364187
 10
357.184036
 20
228.046329
 10
357.235644
 20
227.715962
 10
357.303548
 20
227.371249
 10
357.388274
 20
227.010356
 10
357.490345
 20
226.631445
 10
357.610285
 20
226.232682
 10
357.748619
 20
225.81223
 10
357.90587
 20
225.368254
 10
358.082563
 20
224.898918
 10
358.279221
 20
224.402385
 10
358.496369
 20
223.87682
 10
358.994232
 20
222.73125
 10
359.201444
 20
222.30461
 10
359.452878
 20
221.851094
 10
359.744835
 20
221.375019
 10
360.073613
 20
220.880697
 10
360.43551
 20
220.372445
 10
360.826826
 20
219.854576
 10
361.243859
 20
219.331405
 10
361.682908
 20
218.807246
 10
362.140272
 20
218.286415
 10
362.612251
 20
217.773226
 10
363.095142
 20
217.271993
 10
363.585245
 20
216.78703
 10
364.078858
 20
216.322654
 10
364.572281
 20
215.883177
 10
365.061812
 20
215.472915
 10
365.54375
 20
215.096182
 10
365.92001
 20
214.799649
 10
366.25992
 20
214.506894
 10
366.526152
 20
214.251666
 10
366.619973
 20
214.148669
 10
366.681376
 20
214.06771
 10
366.708895
 20
214.03382
 10
366.747292
 20
214.00089
 10
366.853954
 20
213.938585
 10
366.995827
 20
213.882149
 10
367.167374
 20
213.832938
 10
367.363059
 20
213.792304
 10
367.577346
 20
213.761603
 10
367.804698
 20
213.742189
 10
368.03958
 20
213.735417
 10
368.367378
 20
213.740438
 10
368.632067
 20
213.757947
 10
368.841698
 20
213.791614
 10
368.928382
 20
213.815654
 10
369.004321
 20
213.845108
 10
369.07052
 20
213.880436
 10
369.127986
 20
213.922097
 10
369.177725
 20
213.970549
 10
369.220744
 20
214.026251
 10
369.258048
 20
214.089661
 10
369.290644
 20
214.161239
 10
369.345737
 20
214.330729
 10
369.395986
 20
214.530908
 10
369.436069
 20
214.720615
 10
369.465609
 20
214.901615
 10
369.48423
 20
215.075671
 10
369.491554
 20
215.244547
 10
369.487204
 20
215.410006
 10
369.470804
 20
215.573812
 10
369.441977
 20
215.737729
 10
369.400345
 20
215.90352
 10
369.345533
 20
216.072949
 10
369.277162
 20
216.247779
 10
369.194857
 20
216.429775
 10
369.09824
 20
216.620699
 10
368.986935
 20
216.822315
 10
368.71875
 20
217.26468
 10
368.559302
 20
217.529416
 10
368.410552
 20
217.802126
 10
368.275754
 20
218.075003
 10
368.158164
 20
218.340236
 10
368.061038
 20
218.590018
 10
367.987632
 20
218.816539
 10
367.941201
 20
219.011991
 10
367.925
 20
219.168564
 10
367.93159
 20
219.363535
 10
367.941351
 20
219.444678
 10
367.956778
 20
219.515786
 10
367.978887
 20
219.577503
 10
368.008694
 20
219.630472
 10
368.047216
 20
219.675339
 10
368.095469
 20
219.712748
 10
368.154468
 20
219.743342
 10
368.22523
 20
219.767767
 10
368.406109
 20
219.800685
 10
368.646234
 20
219.816655
 10
368.953735
 20
219.820833
 10
369.205542
 20
219.807762
 10
369.527747
 20
219.770299
 10
369.907056
 20
219.711071
 10
370.330175
 20
219.632705
 10
370.783811
 20
219.537827
 10
371.25467
 20
219.429065
 10
371.729458
 20
219.309045
 10
372.194881
 20
219.180395
 10
372.75115
 20
219.024838
 10
373.304462
 20
218.881426
 10
373.857918
 20
218.749784
 10
374.414619
 20
218.629538
 10
374.977667
 20
218.520314
 10
375.550163
 20
218.421736
 10
376.135209
 20
218.333431
 10
376.735906
 20
218.255025
 10
377.355355
 20
218.186142
 10
377.996658
 20
218.126409
 10
378.662916
 20
218.075451
 10
379.35723
 20
218.032893
 10
380.082703
 20
217.998362
 10
380.842435
 20
217.971483
 10
381.639528
 20
217.951882
 10
382.477083
 20
217.939183
 10
395.044792
 20
217.948134
 10
403.776042
 20
217.998948
 10
407.347917
 20
218.512885
 10
408.146434
 20
218.634562
 10
409.047968
 20
218.78372
 10
410.021591
 20
218.954544
 10
411.036374
 20
219.141223
 10
412.061389
 20
219.337941
 10
413.065707
 20
219.538887
 10
414.018401
 20
219.738247
 10
414.888542
 20
219.930208
 10
420.795946
 20
221.30931
 10
421.383395
 20
221.449965
 10
421.854468
 20
221.551982
 10
422.230679
 20
221.61601
 10
422.389934
 20
221.633981
 10
422.533541
 20
221.642697
 10
422.664189
 20
221.642239
 10
422.784568
 20
221.632689
 10
422.897367
 20
221.614128
 10
423.005274
 20
221.586636
 10
423.11098
 20
221.550294
 10
423.217173
 20
221.505184
 10
423.441779
 20
221.388983
 10
423.6484
 20
221.261776
 10
423.736294
 20
221.196238
 10
423.814898
 20
221.127126
 10
423.884952
 20
221.052726
 10
423.947195
 20
220.971326
 10
424.002368
 20
220.881212
 10
424.05121
 20
220.780671
 10
424.094461
 20
220.667989
 10
424.132862
 20
220.541454
 10
424.198072
 20
220.23997
 10
424.252759
 20
219.862512
 10
424.302844
 20
219.395375
 10
424.374936
 20
218.7214
 10
424.41278
 20
218.442166
 10
424.453887
 20
218.198301
 10
424.499805
 20
217.987452
 10
424.552083
 20
217.807271
 10
424.612268
 20
217.655406
 10
424.681908
 20
217.529507
 10
424.762552
 20
217.427223
 10
424.855749
 20
217.346203
 10
424.963045
 20
217.284096
 10
425.085989
 20
217.238553
 10
425.22613
 20
217.207223
 10
425.385016
 20
217.187754
 10
425.765212
 20
217.175
 10
426.079501
 20
217.188788
 10
426.388895
 20
217.230542
 10
426.694125
 20
217.300851
 10
426.995921
 20
217.400302
 10
427.295011
 20
217.529481
 10
427.592125
 20
217.688978
 10
427.887993
 20
217.879378
 10
428.183344
 20
218.10127
 10
428.478908
 20
218.355241
 10
428.775413
 20
218.641879
 10
429.07359
 20
218.96177
 10
429.374169
 20
219.315502
 10
429.677877
 20
219.703663
 10
429.985446
 20
220.12684
 10
430.297603
 20
220.585621
 10
430.61508
 20
221.080593
 10
430.80471
 20
221.370966
 10
431.010773
 20
221.662619
 10
431.226675
 20
221.947685
 10
431.44582
 20
222.218294
 10
431.661615
 20
222.466581
 10
431.867465
 20
222.684676
 10
432.056774
 20
222.864712
 10
432.222948
 20
222.998822
 10
432.393601
 20
223.108782
 10
432.577209
 20
223.205549
 10
432.772217
 20
223.289061
 10
432.977069
 20
223.359253
 10
433.190208
 20
223.416061
 10
433.410079
 20
223.459421
 10
433.635126
 20
223.489269
 10
433.863792
 20
223.505542
 10
434.094522
 20
223.508174
 10
434.32576
 20
223.497102
 10
434.55595
 20
223.472262
 10
434.783536
 20
223.433591
 10
435.006961
 20
223.381023
 10
435.224671
 20
223.314495
 10
435.435108
 20
223.233943
 10
435.636718
 20
223.139303
 10
435.783479
 20
223.047335
 10
435.948641
 20
222.91587
 10
436.12836
 20
222.750151
 10
436.31879
 20
222.555418
 10
436.516085
 20
222.336916
 10
436.7164
 20
222.099885
 10
436.915888
 20
221.849568
 10
437.110705
 20
221.591207
 10
437.297005
 20
221.330045
 10
437.470942
 20
221.071324
 10
437.62867
 20
220.820286
 10
437.766344
 20
220.582172
 10
437.880118
 20
220.362227
 10
437.966146
 20
220.16569
 10
438.006269
 20
220.04195
 42
0.363794
 10
438.333029
 20
219.837352
 10
446.842819
 20
221.022681
 10
447.118735
 20
219.041805
 10
439.002204
 20
217.911253
 42
0.414469
 10
438.746496
 20
217.572475
 10
438.808639
 20
217.129164
 10
438.844733
 20
216.954582
 10
438.892315
 20
216.779563
 10
438.950966
 20
216.605704
 10
439.020268
 20
216.434599
 10
439.099805
 20
216.267846
 10
439.189158
 20
216.107039
 10
439.28791
 20
215.953773
 10
439.395642
 20
215.809645
 10
439.511937
 20
215.67625
 10
439.636376
 20
215.555183
 10
439.768543
 20
215.448041
 10
439.908019
 20
215.356418
 10
440.054387
 20
215.281911
 10
440.207228
 20
215.226115
 10
440.366125
 20
215.190625
 10
441.518899
 20
215.058333
 10
454.268497
 20
217.207605
 10
454.981904
 20
217.576523
 10
455.148278
 20
217.672162
 10
455.305854
 20
217.782406
 10
455.454624
 20
217.907165
 10
455.59458
 20
218.046353
 10
455.725713
 20
218.199882
 10
455.848016
 20
218.367665
 10
455.96148
 20
218.549613
 10
456.066097
 20
218.74564
 10
456.161858
 20
218.955658
 10
456.248757
 20
219.179579
 10
456.326784
 20
219.417316
 10
456.395931
 20
219.668781
 10
456.456191
 20
219.933887
 10
456.507555
 20
220.212547
 10
456.550015
 20
220.504672
 10
456.583563
 20
220.810175
 10
456.60819
 20
221.128969
 10
456.623889
 20
221.460966
 10
456.630651
 20
221.806079
 10
456.628468
 20
222.16422
 10
456.617333
 20
222.535301
 10
456.597236
 20
222.919236
 10
456.56817
 20
223.315936
 10
456.530126
 20
223.725314
 10
456.427075
 20
224.581754
 10
456.288015
 20
225.487856
 10
456.112883
 20
226.442919
 10
455.901612
 20
227.446243
 10
455.173757
 20
230.706028
 10
455.32422
 20
231.94416
 10
455.531036
 20
233.580771
 42
0.304567
 10
455.380884
 20
233.879627
 10
448.825323
 20
237.580451
 10
449.808533
 20
239.322087
 10
456.17246
 20
235.729448
 42
0.369624
 10
456.555362
 20
235.804743
 10
456.73071
 20
236.026741
 10
456.947583
 20
236.341684
 10
457.191507
 20
236.731173
 10
457.461741
 20
237.194197
 10
457.757544
 20
237.729743
 10
459.394135
 20
240.49973
 10
459.468581
 20
240.60496
 10
459.53463
 20
240.735997
 10
459.591092
 20
240.887669
 10
459.636775
 20
241.054805
 10
459.670487
 20
241.232232
 10
459.691036
 20
241.41478
 10
459.697231
 20
241.597276
 10
459.68788
 20
241.774548
 10
459.670942
 20
241.912297
 10
459.647218
 20
242.038958
 10
459.613536
 20
242.157087
 10
459.566719
 20
242.269237
 10
459.503595
 20
242.377964
 10
459.420988
 20
242.485823
 10
459.315724
 20
242.595368
 10
459.184628
 20
242.709155
 10
459.024527
 20
242.829739
 10
458.832245
 20
242.959674
 10
458.338443
 20
243.257819
 10
457.677826
 20
243.62403
 10
456.825
 20
244.078746
 10
455.506217
 20
244.785867
 10
453.969154
 20
245.626261
 10
452.404805
 20
246.494692
 10
451.004167
 20
247.285924
 10
449.99463
 20
247.860319
 10
449.20346
 20
248.293312
 10
448.868861
 20
248.463556
 10
448.563771
 20
248.60658
 10
448.279828
 20
248.725091
 10
448.008673
 20
248.821801
 10
447.741945
 20
248.899419
 10
447.471282
 20
248.960655
 10
447.188323
 20
249.008218
 10
446.884709
 20
249.044818
 10
446.552077
 20
249.073165
 10
446.182067
 20
249.095969
 10
445.29647
 20
249.135786
 10
444.472678
 20
249.166039
 10
443.81229
 20
249.177557
 10
443.28012
 20
249.165407
 10
443.05112
 20
249.148915
 10
442.840978
 20
249.124656
 10
442.645296
 20
249.092012
 10
442.459676
 20
249.050368
 10
442.27972
 20
248.999106
 10
442.101027
 20
248.93761
 10
441.729841
 20
248.781448
 10
441.310931
 20
248.576948
 10
441.071473
 20
248.447934
 10
440.827172
 20
248.301534
 10
440.57945
 20
248.139088
 10
440.329733
 20
247.961935
 10
440.079443
 20
247.771414
 10
439.830005
 20
247.568865
 10
439.582843
 20
247.355628
 10
439.339381
 20
247.13304
 10
439.101043
 20
246.902443
 10
438.869253
 20
246.665175
 10
438.645434
 20
246.422575
 10
438.431011
 20
246.175984
 10
438.227407
 20
245.92674
 10
438.036047
 20
245.676183
 10
437.858355
 20
245.425652
 10
437.695754
 20
245.176486
 10
436.945451
 20
243.984777
 10
436.301679
 20
242.991604
 10
435.747838
 20
242.17512
 10
435.499455
 20
241.826309
 10
435.267331
 20
241.513478
 10
435.049391
 20
241.233896
 10
434.84356
 20
240.984831
 10
434.647765
 20
240.763553
 10
434.459929
 20
240.567332
 10
434.277979
 20
240.393435
 10
434.09984
 20
240.239133
 10
433.923437
 20
240.101695
 10
433.746695
 20
239.978389
 10
433.418545
 20
239.756838
 10
433.109276
 20
239.537492
 10
432.818698
 20
239.320142
 10
432.546622
 20
239.104582
 10
432.29286
 20
238.890602
 10
432.057221
 20
238.677996
 10
431.839518
 20
238.466556
 10
431.63956
 20
238.256073
 10
431.45716
 20
238.046341
 10
431.292127
 20
237.837151
 10
431.144273
 20
237.628295
 10
431.01341
 20
237.419566
 10
430.899347
 20
237.210757
 10
430.801895
 20
237.001658
 10
430.720867
 20
236.792064
 10
430.656072
 20
236.581765
 10
430.582703
 20
236.33182
 10
430.501802
 20
236.100228
 10
430.412702
 20
235.886412
 10
430.314734
 20
235.689793
 10
430.207231
 20
235.509795
 10
430.089525
 20
235.345839
 10
429.960949
 20
235.197349
 10
429.820834
 20
235.063746
 10
429.668512
 20
234.944454
 10
429.503317
 20
234.838894
 10
429.32458
 20
234.74649
 10
429.131632
 20
234.666663
 10
428.923808
 20
234.598837
 10
428.700438
 20
234.542433
 10
428.460854
 20
234.496875
 10
428.20439
 20
234.461584
 10
427.888169
 20
234.421979
 10
427.5943
 20
234.377649
 10
427.320972
 20
234.327677
 10
427.066371
 20
234.271149
 10
426.828687
 20
234.207149
 10
426.606107
 20
234.134762
 10
426.396818
 20
234.053072
 10
426.199008
 20
233.961164
 10
426.010866
 20
233.858123
 10
425.830579
 20
233.743033
 10
425.656335
 20
233.61498
 10
425.486322
 20
233.473047
 10
425.318728
 20
233.316319
 10
425.15174
 20
233.143882
 10
424.983546
 20
232.954819
 10
424.812335
 20
232.748215
 10
424.623273
 20
232.527433
 10
424.410423
 20
232.304071
 10
424.181051
 20
232.08426
 10
423.942424
 20
231.874134
 10
423.701808
 20
231.679823
 10
423.46647
 20
231.507462
 10
423.243677
 20
231.363181
 10
423.040694
 20
231.253113
 10
422.745369
 20
231.108386
 10
422.392487
 20
230.908581
 42
0.332602
 10
422.248117
 20
230.579488
 10
423.006237
 20
227.323658
 10
421.058347
 20
226.870092
 10
420.348582
 20
229.918254
 42
0.396265
 10
420.006499
 20
230.14604
 10
419.589407
 20
230.075684
 10
419.173262
 20
229.99062
 10
418.679979
 20
229.878135
 10
418.039841
 20
229.723001
 10
417.78085
 20
229.653222
 10
417.55879
 20
229.584179
 10
417.37082
 20
229.512529
 10
417.2141
 20
229.43493
 10
416.9753
 20
229.273222
 42
0.27628
 10
416.845092
 20
228.994072
 10
417.174537
 20
225.796414
 10
415.185067
 20
225.591446
 10
414.865947
 20
228.688897
 42
0.400309
 10
414.551047
 20
228.957699
 10
414.430348
 20
228.951059
 10
414.171802
 20
228.927861
 10
413.886601
 20
228.894359
 10
413.265532
 20
228.798596
 10
412.409304
 20
228.646928
 10
412.067465
 20
228.582394
 10
411.777649
 20
228.520417
 10
411.535737
 20
228.457263
 10
411.278659
 20
228.368951
 42
0.364201
 10
411.079823
 20
228.038266
 10
411.538146
 20
225.146325
 10
409.5628
 20
224.833267
 10
409.108024
 20
227.702825
 42
0.404421
 10
408.774729
 20
227.953576
 10
407.937005
 20
227.849481
 10
407.093243
 20
227.727736
 10
406.380498
 20
227.615481
 10
406.092275
 20
227.563885
 10
405.845341
 20
227.511531
 10
405.636585
 20
227.455581
 10
405.452019
 20
227.389293
 42
0.349972
 10
405.255604
 20
227.070855
 10
405.668576
 20
223.663494
 10
403.683106
 20
223.422854
 10
403.273301
 20
226.804082
 42
0.387713
 10
402.966693
 20
227.067857
 10
402.874546
 20
227.065157
 10
402.547383
 20
227.045551
 10
401.719733
 20
226.972994
 10
400.733333
 20
226.861093
 10
399.903635
 20
226.754229
 10
399.567887
 20
226.704656
 10
399.27993
 20
226.653825
 10
399.036058
 20
226.598863
 10
398.832565
 20
226.5369
 10
398.598352
 20
226.436041
 42
0.307411
 10
398.417131
 20
226.151865
 10
398.512803
 20
222.830735
 10
396.513633
 20
222.773145
 10
396.418756
 20
226.066658
 42
0.364539
 10
396.16185
 20
226.354926
 10
395.969299
 20
226.382793
 10
395.732088
 20
226.398727
 10
395.451857
 20
226.404153
 10
395.125019
 20
226.401253
 10
394.317188
 20
226.3792
 10
393.509339
 20
226.351034
 10
393.182463
 20
226.33362
 10
392.902155
 20
226.310782
 10
392.664819
 20
226.280117
 10
392.437551
 20
226.233168
 42
0.36456
 10
392.198389
 20
225.929994
 10
392.29439
 20
222.860347
 10
390.295368
 20
222.797829
 10
390.199251
 20
225.871187
 42
0.304094
 10
390.004714
 20
226.142716
 10
389.756355
 20
226.23583
 10
389.577021
 20
226.278295
 10
389.363485
 20
226.310046
 10
389.112353
 20
226.333586
 10
388.820236
 20
226.351419
 10
388.099479
 20
226.379971
 10
387.378981
 20
226.402537
 10
387.087477
 20
226.406149
 10
386.837541
 20
226.401999
 10
386.625974
 20
226.388099
 10
386.318011
 20
226.343338
 42
0.370463
 10
386.061169
 20
226.048652
 10
386.039275
 20
223.055406
 10
384.039329
 20
223.070034
 10
384.061888
 20
226.154204
 42
0.359267
 10
383.821051
 20
226.450508
 10
383.575853
 20
226.499826
 10
383.204688
 20
226.551638
 10
382.684564
 20
226.614562
 10
382.099639
 20
226.676007
 10
381.521534
 20
226.72893
 10
381.021875
 20
226.766287
 10
380.672384
 20
226.784986
 10
380.533951
 20
226.786432
 42
0.421748
 10
380.230852
 20
226.481885
 10
380.277639
 20
223.406425
 10
378.277871
 20
223.376003
 10
378.227196
 20
226.707034
 42
0.323477
 10
378.017081
 20
226.9887
 10
377.800225
 20
227.056773
 10
377.54942
 20
227.109168
 10
377.245639
 20
227.153382
 10
376.458891
 20
227.229738
 10
375.399479
 20
227.310766
 10
374.928754
 20
227.341969
 10
374.561271
 20
227.348475
 42
0.417501
 10
374.255967
 20
227.050469
 10
374.239912
 20
224.576843
 10
372.239954
 20
224.589823
 10
372.257079
 20
227.228175
 42
0.314363
 10
372.062476
 20
227.511001
 10
371.896963
 20
227.573104
 10
371.715416
 20
227.624131
 10
371.496321
 20
227.673091
 10
370.931388
 20
227.773845
 10
370.173958
 20
227.893445
 10
369.255954
 20
228.051297
 10
368.843959
 20
228.131144
 10
368.634888
 20
228.176567
 42
0.469242
 10
368.271328
 20
227.892337
 10
368.196953
 20
225.395058
 10
366.197839
 20
225.454596
 10
366.288532
 20
228.499757
 42
0.280849
 10
366.133908
 20
228.771184
 10
365.873855
 20
228.915076
 10
365.716781
 20
229.002867
 10
365.549392
 20
229.108244
 10
365.376841
 20
229.227221
 10
365.204284
 20
229.355815
 10
365.036875
 20
229.490039
 10
364.879769
 20
229.625909
 10
364.73812
 20
229.75944
 10
364.617084
 20
229.886647
 10
364.377004
 20
230.148065
 10
364.137241
 20
230.391342
 10
363.897549
 20
230.616606
 10
363.657679
 20
230.823989
 10
363.417384
 20
231.013621
 10
363.176418
 20
231.185633
 10
362.934532
 20
231.340154
 10
362.69148
 20
231.477315
 10
362.447015
 20
231.597246
 10
362.200888
 20
231.700079
 10
361.952854
 20
231.785942
 10
361.702664
 20
231.854968
 10
361.450072
 20
231.907285
 10
361.19483
 20
231.943025
 10
360.93669
 20
231.962317
 10
360.675406
 20
231.965293
 10
360.082369
 20
231.94263
 10
359.5573
 20
231.897728
 10
359.319505
 20
231.866254
 10
359.097802
 20
231.828401
 10
358.891893
 20
231.783895
 10
358.701478
 20
231.732465
 10
358.526257
 20
231.673836
 10
358.36593
 20
231.607736
 10
358.220198
 20
231.533891
 10
358.088762
 20
231.452029
 10
357.97132
 20
231.361877
 10
357.867574
 20
231.263161
 10
357.777224
 20
231.155608
 10
357.69997
 20
231.038946
  0
LWPOLYLINE
  5
40
330
1F
100
AcDbEntity
  8
0
100
AcDbPolyline
 90
      264
 70
   128
 43
0.0
 10
366.624532
 20
289.034562
 42
0.30498
 10
366.798112
 20
289.320888
 10
366.437595
 20
296.977492
 10
368.435381
 20
297.07156
 10
368.797146
 20
289.388446
 42
0.338977
 10
369.032382
 20
289.109557
 10
369.723497
 20
288.957576
 10
370.041239
 20
288.861267
 10
370.422978
 20
288.727295
 10
370.855233
 20
288.561473
 10
371.324522
 20
288.369611
 10
371.817366
 20
288.15752
 10
372.320283
 20
287.93101
 10
372.819792
 20
287.695894
 10
373.483775
 20
287.371487
 10
374.199543
 20
287.021557
 10
374.919967
 20
286.682186
 10
375.267196
 20
286.527737
 10
375.597917
 20
286.38946
 10
375.695222
 20
286.361997
 10
375.823147
 20
286.343643
 10
375.976106
 20
286.333921
 10
376.148511
 20
286.332359
 10
376.529306
 20
286.351812
 10
376.920833
 20
286.398206
 10
377.096418
 20
286.429295
 10
377.272076
 20
286.46855
 10
377.622373
 20
286.570454
 10
377.969247
 20
286.701709
 10
378.310222
 20
286.860106
 10
378.642822
 20
287.043434
 10
378.964571
 20
287.249486
 10
379.272992
 20
287.476051
 10
379.565609
 20
287.72092
 10
379.839946
 20
287.981884
 10
380.093527
 20
288.256734
 10
380.323875
 20
288.54326
 10
380.528514
 20
288.839254
 10
380.704968
 20
289.142505
 10
380.781852
 20
289.296162
 10
380.850761
 20
289.450804
 10
380.911386
 20
289.606157
 10
380.963416
 20
289.761943
 10
381.006544
 20
289.917887
 10
381.040458
 20
290.073712
 10
381.068164
 20
290.300522
 10
381.077552
 20
290.579226
 10
381.069409
 20
290.900976
 10
381.044526
 20
291.256924
 10
381.003689
 20
291.638221
 10
380.947689
 20
292.036019
 10
380.877314
 20
292.441471
 10
380.793353
 20
292.845727
 10
380.712325
 20
293.235983
 10
380.642819
 20
293.63392
 10
380.585919
 20
294.028405
 10
380.542713
 20
294.408308
 10
380.514287
 20
294.762499
 10
380.501726
 20
295.079847
 10
380.506116
 20
295.349221
 10
380.528545
 20
295.559491
 10
380.591487
 20
295.792707
 10
380.710862
 20
296.128353
 10
380.877924
 20
296.551452
 10
381.083927
 20
297.047025
 10
381.577767
 20
298.195682
 10
382.122411
 20
299.454495
 10
382.544273
 20
300.430651
 10
382.988162
 20
301.488337
 10
383.200246
 20
302.026109
 10
383.396092
 20
302.558291
 10
383.568451
 20
303.076223
 10
383.710075
 20
303.571249
 10
383.75387
 20
303.7748
 10
383.78178
 20
303.982491
 10
383.794212
 20
304.193904
 10
383.791571
 20
304.408622
 10
383.774263
 20
304.62623
 10
383.742695
 20
304.84631
 10
383.697272
 20
305.068445
 10
383.6384
 20
305.29222
 10
383.566486
 20
305.517216
 10
383.481935
 20
305.743018
 10
383.385153
 20
305.969208
 10
383.276547
 20
306.19537
 10
383.156522
 20
306.421087
 10
383.025485
 20
306.645942
 10
382.88384
 20
306.869519
 10
382.731995
 20
307.091401
 10
382.570356
 20
307.31117
 10
382.399328
 20
307.528412
 10
382.219317
 20
307.742707
 10
382.030729
 20
307.953641
 10
381.833971
 20
308.160795
 10
381.629448
 20
308.363754
 10
381.417566
 20
308.562101
 10
381.198731
 20
308.755418
 10
380.97335
 20
308.94329
 10
380.741828
 20
309.125299
 10
380.504572
 20
309.301029
 10
380.261986
 20
309.470062
 10
380.014478
 20
309.631983
 10
379.762454
 20
309.786374
 10
379.506318
 20
309.932818
 10
379.246478
 20
310.0709
 10
378.991018
 20
310.18745
 10
378.713073
 20
310.28831
 10
378.415555
 20
310.373488
 10
378.101373
 20
310.442992
 10
377.773437
 20
310.496829
 10
377.434659
 20
310.535007
 10
377.087947
 20
310.557533
 10
376.736214
 20
310.564416
 10
376.382367
 20
310.555663
 10
376.029319
 20
310.531282
 10
375.67998
 20
310.49128
 10
375.337259
 20
310.435666
 10
375.004067
 20
310.364446
 10
374.683314
 20
310.277629
 10
374.37791
 20
310.175223
 10
374.090767
 20
310.057235
 10
373.837074
 20
309.932829
 10
373.541127
 20
309.772018
 10
373.213641
 20
309.58152
 10
372.865333
 20
309.368056
 10
372.506918
 20
309.138345
 10
372.149112
 20
308.899106
 10
371.80263
 20
308.657059
 10
371.478188
 20
308.418924
 10
371.02847
 20
308.08677
 10
370.64604
 20
307.825027
 10
370.473669
 20
307.718004
 10
370.310454
 20
307.625517
 10
370.15384
 20
307.546542
 10
370.001271
 20
307.480058
 10
369.850192
 20
307.425042
 10
369.698048
 20
307.380472
 10
369.542283
 20
307.345325
 10
369.380342
 20
307.318578
 10
369.027712
 20
307.286197
 10
368.619713
 20
307.27515
 10
368.171403
 20
307.274331
 10
367.830335
 20
307.288247
 10
367.693798
 20
307.305055
 10
367.57661
 20
307.330737
 10
367.476283
 20
307.367023
 10
367.39033
 20
307.415644
 10
367.316263
 20
307.478328
 10
367.251595
 20
307.556807
 10
367.193839
 20
307.652811
 10
367.140507
 20
307.768069
 10
367.037166
 20
308.063269
 10
366.921675
 20
308.45625
 10
366.696368
 20
309.209704
 10
366.592875
 20
309.523066
 10
366.492414
 20
309.797748
 10
366.392679
 20
310.036425
 10
366.291363
 20
310.241769
 10
366.18616
 20
310.416455
 10
366.074762
 20
310.563155
 10
365.954864
 20
310.684543
 10
365.824159
 20
310.783292
 10
365.680341
 20
310.862076
 10
365.521102
 20
310.923568
 10
365.344137
 20
310.970442
 10
365.147139
 20
311.005371
 10
364.927802
 20
311.031028
 10
364.683818
 20
311.050086
 10
364.274476
 20
311.070502
 10
364.029006
 20
311.064974
 42
0.412502
 10
363.735801
 20
310.76005
 10
363.839305
 20
304.550978
 10
359.839861
 20
304.484308
 10
359.729297
 20
311.116903
 42
0.428906
 10
359.409383
 20
311.411238
 10
358.937052
 20
311.379749
 10
358.770596
 20
311.358787
 10
358.608528
 20
311.330019
 10
358.450744
 20
311.292297
 10
358.297138
 20
311.244473
 10
358.147606
 20
311.185398
 10
358.002043
 20
311.113923
 10
357.860343
 20
311.028901
 10
357.722401
 20
310.929182
 10
357.588113
 20
310.813619
 10
357.457373
 20
310.681063
 10
357.330077
 20
310.530365
 10
357.206119
 20
310.360377
 10
356.99148
 20
310.030813
 10
356.904387
 20
309.874062
 10
356.829562
 20
309.710687
 10
356.766091
 20
309.531702
 10
356.713064
 20
309.328123
 10
356.669566
 20
309.090965
 10
356.634686
 20
308.811245
 10
356.60751
 20
308.479977
 10
356.587128
 20
308.088176
 10
356.563089
 20
307.08704
 10
356.556371
 20
303.96306
 10
356.549771
 20
303.326037
 10
356.536138
 20
302.647053
 10
356.527571
 20
301.942055
 10
356.536169
 20
301.226992
 10
356.550686
 20
300.870669
 10
356.574032
 20
300.51781
 10
356.60772
 20
300.170408
 10
356.653261
 20
299.830457
 10
356.712169
 20
299.499951
 10
356.785955
 20
299.180881
 10
356.876133
 20
298.875243
 10
356.984214
 20
298.58503
 10
357.069254
 20
298.39307
 10
357.162007
 20
298.206962
 10
357.262755
 20
298.026675
 10
357.371785
 20
297.852176
 10
357.48938
 20
297.683437
 10
357.615825
 20
297.520425
 10
357.751405
 20
297.363109
 10
357.896403
 20
297.211458
 10
358.201255
 20
296.904577
 10
358.475525
 20
296.618703
 10
358.721272
 20
296.34976
 10
358.940558
 20
296.093671
 10
359.135443
 20
295.84636
 10
359.307986
 20
295.60375
 10
359.46025
 20
295.361765
 10
359.594295
 20
295.116329
 10
359.71218
 20
294.863364
 10
359.815968
 20
294.598795
 10
359.907717
 20
294.318545
 10
359.989489
 20
294.018537
 10
360.063345
 20
293.694695
 10
360.131345
 20
293.342942
 10
360.258019
 20
292.539399
 10
360.321237
 20
292.139917
 10
360.396401
 20
291.74253
 10
360.480708
 20
291.357703
 10
360.571357
 20
290.9959
 10
360.665543
 20
290.667583
 10
360.760466
 20
290.383219
 10
360.853322
 20
290.153269
 10
360.941308
 20
289.988199
 10
361.078859
 20
289.798081
 10
361.232477
 20
289.623279
 10
361.402415
 20
289.463717
 10
361.58893
 20
289.319322
 10
361.792276
 20
289.190018
 10
362.012708
 20
289.075731
 10
362.250482
 20
288.976388
 10
362.505851
 20
288.891914
 10
362.779072
 20
288.822233
 10
363.070399
 20
288.767273
 10
363.380088
 20
288.726958
 10
363.708393
 20
288.701215
 10
364.055569
 20
288.689968
 10
364.421872
 20
288.693144
 10
364.807556
 20
288.710668
 10
365.212877
 20
288.742465
 10
365.5548
 20
288.775472
 10
365.853769
 20
288.810248
 10
366.112359
 20
288.852828
 10
366.333147
 20
288.909249
 10
366.430172
 20
288.944536
 10
366.624532
 20
289.034562
  0
LWPOLYLINE
  5
41
330
1F
100
AcDbEntity
  8
0
100
AcDbPolyline
 90
      347
 70
   128
 43
0.0
 10
399.013542
 20
261.22184
 10
398.827256
 20
261.197243
 10
398.648744
 20
261.186259
 10
398.478589
 20
261.188534
 10
398.317378
 20
261.203713
 10
398.165697
 20
261.231441
 10
398.024133
 20
261.271363
 10
397.893269
 20
261.323125
 10
397.773694
 20
261.386371
 10
397.665992
 20
261.460748
 10
397.570749
 20
261.545899
 10
397.488552
 20
261.641471
 10
397.419985
 20
261.747109
 10
397.365636
 20
261.862458
 10
397.32609
 20
261.987162
 10
397.301933
 20
262.120869
 10
397.29375
 20
262.263221
 10
397.285658
 20
262.411767
 10
397.272171
 20
262.572654
 10
397.269473
 20
262.731806
 10
397.277228
 20
262.806333
 10
397.29375
 20
262.875148
 10
397.34294
 20
263.004863
 10
397.403839
 20
263.134057
 10
397.475117
 20
263.262625
 10
397.555448
 20
263.390464
 10
397.737952
 20
263.643537
 10
397.940724
 20
263.892443
 10
398.36457
 20
264.374428
 10
398.564391
 20
264.605842
 10
398.741977
 20
264.829762
 10
399.154373
 20
265.403644
 10
399.523156
 20
265.954704
 10
399.848977
 20
266.486014
 10
400.132488
 20
267.000648
 10
400.25858
 20
267.252673
 10
400.374338
 20
267.501681
 10
400.479844
 20
267.748057
 10
400.57518
 20
267.992185
 10
400.660425
 20
268.23445
 10
400.735663
 20
268.475235
 10
400.800975
 20
268.714925
 10
400.85644
 20
268.953904
 10
400.902142
 20
269.192557
 10
400.938162
 20
269.431266
 10
400.96458
 20
269.670418
 10
400.981479
 20
269.910395
 10
400.988939
 20
270.151582
 10
400.987042
 20
270.394364
 10
400.975869
 20
270.639124
 10
400.955503
 20
270.886247
 10
400.926023
 20
271.136116
 10
400.887512
 20
271.389117
 10
400.840051
 20
271.645633
 10
400.783721
 20
271.906049
 10
400.64478
 20
272.440116
 10
400.471341
 20
272.994392
 10
400.277804
 20
273.529586
 10
400.056475
 20
274.071359
 10
399.810029
 20
274.615818
 10
399.541142
 20
275.159074
 10
399.252491
 20
275.697236
 10
398.946749
 20
276.226412
 10
398.626595
 20
276.742713
 10
398.294702
 20
277.242246
 10
397.953746
 20
277.721122
 10
397.606404
 20
278.17545
 10
397.255351
 20
278.601338
 10
396.903263
 20
278.994896
 10
396.552815
 20
279.352234
 10
396.206683
 20
279.66946
 10
396.036072
 20
279.811815
 10
395.867543
 20
279.942683
 10
395.701431
 20
280.061578
 10
395.53807
 20
280.168014
 10
395.318589
 20
280.288122
 10
395.040761
 20
280.415297
 10
394.715892
 20
280.545673
 10
394.355287
 20
280.675384
 10
393.970253
 20
280.800568
 10
393.572095
 20
280.917358
 10
393.172118
 20
281.021889
 10
392.781629
 20
281.110298
 10
392.323929
 20
281.210776
 10
391.881063
 20
281.31969
 10
391.453011
 20
281.437061
 10
391.039752
 20
281.562908
 10
390.641265
 20
281.697253
 10
390.257531
 20
281.840116
 10
389.888529
 20
281.991519
 10
389.534238
 20
282.151482
 10
389.194638
 20
282.320025
 10
388.869709
 20
282.49717
 10
388.559429
 20
282.682937
 10
388.26378
 20
282.877347
 10
387.98274
 20
283.08042
 10
387.716288
 20
283.292178
 10
387.464405
 20
283.512641
 10
387.22707
 20
283.74183
 10
387.004263
 20
283.979766
 10
386.795962
 20
284.226469
 10
386.602148
 20
284.48196
 10
386.422801
 20
284.74626
 10
386.257899
 20
285.019389
 10
386.107423
 20
285.301369
 10
385.971351
 20
285.59222
 10
385.849665
 20
285.891963
 10
385.742342
 20
286.200618
 10
385.649363
 20
286.518207
 10
385.570707
 20
286.84475
 10
385.506354
 20
287.180267
 10
385.456283
 20
287.52478
 10
385.420474
 20
287.87831
 10
385.398907
 20
288.240876
 10
385.39156
 20
288.6125
 10
385.401914
 20
289.193454
 10
385.434355
 20
289.745424
 10
385.489796
 20
290.270298
 10
385.569151
 20
290.769965
 10
385.673335
 20
291.246312
 10
385.735023
 20
291.476331
 10
385.803261
 20
291.701228
 10
385.878163
 20
291.92124
 10
385.959844
 20
292.136601
 10
386.048417
 20
292.347549
 10
386.143997
 20
292.554319
 10
386.246699
 20
292.757148
 10
386.356636
 20
292.956271
 10
386.473922
 20
293.151924
 10
386.598672
 20
293.344344
 10
386.731001
 20
293.533766
 10
386.871022
 20
293.720426
 10
387.01885
 20
293.904561
 10
387.174598
 20
294.086406
 10
387.510315
 20
294.444172
 10
387.879087
 20
294.795613
 10
388.281828
 20
295.142615
 10
388.719452
 20
295.487068
 10
389.023824
 20
295.727407
 10
389.307165
 20
295.9719
 10
389.565011
 20
296.215615
 10
389.792899
 20
296.453625
 10
389.986366
 20
296.681
 10
390.140949
 20
296.89281
 10
390.252185
 20
297.084125
 10
390.290154
 20
297.170557
 10
390.315611
 20
297.250017
 10
390.367609
 20
297.414894
 10
390.4298
 20
297.592187
 10
390.478083
 20
297.770459
 10
390.489476
 20
297.856389
 10
390.488353
 20
297.938276
 10
390.453826
 20
298.161943
 10
390.39871
 20
298.388024
 10
390.325276
 20
298.615979
 10
390.235797
 20
298.845272
 10
390.132544
 20
299.075363
 10
390.017787
 20
299.305717
 10
389.76285
 20
299.765055
 10
389.489157
 20
300.218985
 10
389.214879
 20
300.663202
 10
388.958188
 20
301.093403
 10
388.737254
 20
301.505286
 10
388.277029
 20
302.428772
 10
387.899559
 20
303.172454
 10
387.60243
 20
303.766388
 10
387.38323
 20
304.240631
 10
387.302098
 20
304.442261
 10
387.239544
 20
304.62524
 10
387.195265
 20
304.793324
 10
387.168959
 20
304.950271
 10
387.160326
 20
305.099839
 10
387.169063
 20
305.245783
 10
387.194869
 20
305.391861
 10
387.237441
 20
305.541831
 10
387.257961
 20
305.587674
 10
387.289571
 20
305.636252
 10
387.38315
 20
305.740341
 10
387.512359
 20
305.85156
 10
387.671378
 20
305.967372
 10
387.854387
 20
306.085238
 10
388.055564
 20
306.202622
 10
388.269091
 20
306.316985
 10
388.489146
 20
306.425789
 10
388.709909
 20
306.526497
 10
388.925561
 20
306.616571
 10
389.130281
 20
306.693473
 10
389.281489
 20
306.742699
 42
-0.389
 10
389.650491
 20
306.574695
 10
391.582609
 20
302.024791
 10
393.423503
 20
302.806527
 10
391.459648
 20
307.431166
 42
-0.340226
 10
391.551703
 20
307.785312
 10
391.620901
 20
307.839085
 10
391.763787
 20
307.938347
 10
391.912664
 20
308.03174
 10
392.066239
 20
308.11868
 10
392.223218
 20
308.198587
 10
392.382309
 20
308.270878
 10
392.542218
 20
308.334972
 10
392.701653
 20
308.390287
 10
392.85932
 20
308.436241
 10
393.013927
 20
308.472252
 10
393.164181
 20
308.497739
 10
393.308788
 20
308.512119
 10
393.446455
 20
308.514811
 10
393.57589
 20
308.505233
 10
393.695799
 20
308.482803
 10
393.80489
 20
308.446939
 10
393.901869
 20
308.397059
 10
393.987423
 20
308.338964
 10
394.06432
 20
308.268982
 10
394.145771
 20
308.165156
 10
394.244986
 20
308.005523
 10
394.380348
 20
307.760091
 10
394.513172
 20
307.498588
 10
394.771631
 20
306.935543
 10
395.021224
 20
306.332734
 10
395.262808
 20
305.706506
 10
395.725388
 20
304.449178
 10
395.948102
 20
303.850771
 10
396.166243
 20
303.294331
 10
396.72101
 20
301.921553
 10
397.160303
 20
300.800097
 10
397.496915
 20
299.888076
 10
397.630714
 20
299.497514
 10
397.743639
 20
299.143602
 10
397.837291
 20
298.821105
 10
397.913267
 20
298.524788
 10
397.973168
 20
298.249413
 10
398.018591
 20
297.989746
 10
398.051138
 20
297.74055
 10
398.072405
 20
297.496589
 10
398.083993
 20
297.252627
 10
398.0875
 20
297.00343
 10
398.090884
 20
296.47901
 10
398.098803
 20
296.259827
 10
398.114154
 20
296.062778
 10
398.139397
 20
295.882952
 10
398.176992
 20
295.715435
 10
398.229399
 20
295.555314
 10
398.299078
 20
295.397676
 10
398.388489
 20
295.23761
 10
398.500091
 20
295.070203
 10
398.636346
 20
294.890541
 10
398.799712
 20
294.693712
 10
399.217621
 20
294.228903
 10
399.773498
 20
293.636474
 10
400.240877
 20
293.120872
 10
400.453414
 20
292.869751
 10
400.651923
 20
292.622448
 10
400.836459
 20
292.378488
 10
401.007077
 20
292.137395
 10
401.163833
 20
291.898693
 10
401.306782
 20
291.661905
 10
401.435979
 20
291.426556
 10
401.551479
 20
291.192171
 10
401.653338
 20
290.958272
 10
401.741611
 20
290.724385
 10
401.816352
 20
290.490032
 10
401.877618
 20
290.254739
 10
401.925463
 20
290.018028
 10
401.959943
 20
289.779426
 10
401.981113
 20
289.538454
 10
401.989028
 20
289.294638
 10
401.983743
 20
289.047501
 10
401.965314
 20
288.796567
 10
401.933795
 20
288.541361
 10
401.889243
 20
288.281407
 10
401.831712
 20
288.016228
 10
401.761258
 20
287.745348
 10
401.677935
 20
287.468293
 10
401.581799
 20
287.184585
 10
401.472905
 20
286.893749
 10
401.351309
 20
286.595309
 10
401.217066
 20
286.288788
 10
401.07023
 20
285.973712
 10
400.739003
 20
285.315987
 10
400.578417
 20
284.998344
 10
400.428603
 20
284.678114
 10
400.292843
 20
284.364013
 10
400.174413
 20
284.064759
 10
400.076593
 20
283.78907
 10
400.002663
 20
283.545662
 10
399.9559
 20
283.343255
 10
399.939583
 20
283.190565
 10
399.944333
 20
283.122193
 10
399.958268
 20
283.042651
 10
400.011818
 20
282.853936
 10
400.096479
 20
282.632174
 10
400.208496
 20
282.385125
 10
400.344115
 20
282.120546
 10
400.499581
 20
281.846194
 10
400.671138
 20
281.569827
 10
400.855032
 20
281.299203
 10
401.637306
 20
280.192729
 10
402.283822
 20
279.258689
 10
402.810888
 20
278.470381
 10
403.234808
 20
277.801101
 10
403.571888
 20
277.224146
 10
403.712959
 20
276.961946
 10
403.838434
 20
276.712814
 10
403.950352
 20
276.473412
 10
404.050752
 20
276.240403
 10
404.225147
 20
275.780208
 10
404.303008
 20
275.537723
 10
404.373384
 20
275.280773
 10
404.436355
 20
275.010322
 10
404.491998
 20
274.727334
 10
404.540393
 20
274.43277
 10
404.581618
 20
274.127596
 10
404.615752
 20
273.812774
 10
404.642875
 20
273.489267
 10
404.676398
 20
272.820056
 10
404.682818
 20
272.127668
 10
404.662765
 20
271.419811
 10
404.616868
 20
270.704192
 10
404.545759
 20
269.988519
 10
404.450066
 20
269.280498
 10
404.330421
 20
268.587838
 10
404.187452
 20
267.918245
 10
404.107419
 20
267.594507
 10
404.021791
 20
267.279426
 10
403.930647
 20
266.973965
 10
403.834067
 20
266.679088
 10
403.732128
 20
266.395759
 10
403.62491
 20
266.12494
 10
403.512491
 20
265.867595
 10
403.39495
 20
265.624688
 10
403.218882
 20
265.307872
 10
403.006412
 20
264.973128
 10
402.762548
 20
264.625488
 10
402.492297
 20
264.269982
 10
402.200664
 20
263.911643
 10
401.892658
 20
263.555501
 10
401.573285
 20
263.206588
 10
401.247552
 20
262.869935
 10
400.920465
 20
262.550574
 10
400.597032
 20
262.253535
 10
400.282259
 20
261.983851
 10
399.981154
 20
261.746552
 10
399.698723
 20
261.54667
 10
399.439972
 20
261.389237
 10
399.321042
 20
261.32801
 10
399.20991
 20
261.279283
 10
399.107201
 20
261.243683
 10
399.013542
 20
261.22184
  0
LWPOLYLINE
  5
42
330
1F
100
AcDbEntity
  8
0
100
AcDbPolyline
 90
      117
 70
   128
 43
0.0
 10
396.460067
 20
286.358484
 10
396.610041
 20
286.537343
 10
396.747341
 20
286.717535
 10
396.872213
 20
286.898842
 10
396.984903
 20
287.081046
 10
397.085654
 20
287.26393
 10
397.174714
 20
287.447276
 10
397.252327
 20
287.630868
 10
397.318738
 20
287.814488
 10
397.374194
 20
287.997918
 10
397.418939
 20
288.180941
 10
397.453218
 20
288.363339
 10
397.477278
 20
288.544896
 10
397.491363
 20
288.725394
 10
397.495719
 20
288.904615
 10
397.49059
 20
289.082343
 10
397.476224
 20
289.258359
 10
397.452864
 20
289.432446
 10
397.420757
 20
289.604388
 10
397.380147
 20
289.773966
 10
397.33128
 20
289.940963
 10
397.274402
 20
290.105162
 10
397.209757
 20
290.266346
 10
397.137591
 20
290.424297
 10
397.05815
 20
290.578797
 10
396.971678
 20
290.729629
 10
396.878422
 20
290.876577
 10
396.778626
 20
291.019422
 10
396.672536
 20
291.157947
 10
396.442455
 20
291.421168
 10
396.190143
 20
291.6645
 10
395.917561
 20
291.886206
 10
395.626673
 20
292.084545
 10
395.474977
 20
292.174409
 10
395.319441
 20
292.257779
 10
395.16031
 20
292.334438
 10
394.997829
 20
292.404169
 10
394.832244
 20
292.466753
 10
394.6638
 20
292.521975
 10
394.492742
 20
292.569616
 10
394.319316
 20
292.609458
 10
394.143767
 20
292.641286
 10
393.96634
 20
292.66488
 10
393.787281
 20
292.680024
 10
393.606836
 20
292.686501
 10
393.425249
 20
292.684093
 10
393.242766
 20
292.672583
 10
393.059632
 20
292.651752
 10
392.876093
 20
292.621385
 10
392.692393
 20
292.581263
 10
392.50878
 20
292.53117
 10
392.325497
 20
292.470887
 10
392.14279
 20
292.400197
 10
391.960904
 20
292.318884
 10
391.780085
 20
292.226729
 10
391.600579
 20
292.123515
 10
391.42263
 20
292.009025
 10
391.246484
 20
291.883041
 10
391.072386
 20
291.745347
 10
390.900582
 20
291.595724
 10
390.731317
 20
291.433956
 10
390.580891
 20
291.273992
 10
390.442091
 20
291.106997
 10
390.314851
 20
290.933543
 10
390.19911
 20
290.754197
 10
390.094804
 20
290.569532
 10
390.00187
 20
290.380117
 10
389.920245
 20
290.186522
 10
389.849866
 20
289.989317
 10
389.79067
 20
289.789073
 10
389.742593
 20
289.58636
 10
389.705574
 20
289.381747
 10
389.679547
 20
289.175806
 10
389.664452
 20
288.969105
 10
389.660224
 20
288.762216
 10
389.6668
 20
288.555708
 10
389.684118
 20
288.350152
 10
389.712114
 20
288.146118
 10
389.750725
 20
287.944176
 10
389.799888
 20
287.744895
 10
389.85954
 20
287.548847
 10
389.929618
 20
287.356602
 10
390.010059
 20
287.168729
 10
390.1008
 20
286.985799
 10
390.201777
 20
286.808381
 10
390.312928
 20
286.637047
 10
390.43419
 20
286.472366
 10
390.565499
 20
286.314908
 10
390.706792
 20
286.165244
 10
390.858007
 20
286.023944
 10
391.01908
 20
285.891577
 10
391.189948
 20
285.768714
 10
391.370548
 20
285.655926
 10
391.710452
 20
285.475405
 10
392.053567
 20
285.325653
 10
392.398581
 20
285.206489
 10
392.744184
 20
285.117732
 10
393.089064
 20
285.0592
 10
393.431911
 20
285.030713
 10
393.771412
 20
285.032089
 10
394.106258
 20
285.063149
 10
394.271525
 20
285.089753
 10
394.435136
 20
285.12371
 10
394.596928
 20
285.164997
 10
394.756736
 20
285.213592
 10
394.914397
 20
285.269471
 10
395.069747
 20
285.332613
 10
395.222621
 20
285.402995
 10
395.372856
 20
285.480594
 10
395.520289
 20
285.565387
 10
395.664754
 20
285.657352
 10
395.806089
 20
285.756466
 10
395.94413
 20
285.862707
 10
396.078711
 20
285.976052
 10
396.209671
 20
286.096478
 10
396.336844
 20
286.223963
 10
396.460067
 20
286.358484
  0
LWPOLYLINE
  5
43
330
1F
100
AcDbEntity
  8
0
100
AcDbPolyline
 90
      197
 70
   128
 43
0.0
 10
505.145181
 20
233.989148
 10
536.315158
 20
233.914641
 42
-0.496698
 10
536.603119
 20
233.533003
 10
535.562792
 20
229.854336
 10
537.487314
 20
229.310081
 10
538.624757
 20
233.332156
 42
-0.385262
 10
538.965891
 20
233.545896
 10
539.16567
 20
233.510417
 10
539.503145
 20
233.445016
 10
539.861268
 20
233.36278
 10
540.216302
 20
233.260226
 10
540.385242
 20
233.200243
 10
540.544508
 20
233.133873
 10
540.691133
 20
233.060684
 10
540.822148
 20
232.980238
 10
540.934588
 20
232.892102
 10
541.025484
 20
232.795839
 10
541.09187
 20
232.691014
 10
541.114944
 20
232.635255
 10
541.130778
 20
232.577192
 10
541.142819
 20
232.481803
 10
541.143396
 20
232.379983
 10
541.120956
 20
232.165376
 10
541.085044
 20
231.950009
 10
541.057247
 20
231.750522
 10
538.648767
 20
223.066181
 10
538.123106
 20
222.202938
 10
537.917118
 20
221.888184
 10
537.705697
 20
221.612982
 10
537.597521
 20
221.490182
 10
537.487473
 20
221.377232
 10
537.375382
 20
221.274119
 10
537.261077
 20
221.180832
 10
537.144386
 20
221.097357
 10
537.025139
 20
221.023682
 10
536.903164
 20
220.959794
 10
536.77829
 20
220.905681
 10
536.650345
 20
220.861331
 10
536.519159
 20
220.82673
 10
536.384561
 20
220.801866
 10
536.246378
 20
220.786727
 10
536.104441
 20
220.7813
 10
535.958577
 20
220.785572
 10
535.808616
 20
220.799531
 10
535.654387
 20
220.823164
 10
535.495717
 20
220.856459
 10
535.332437
 20
220.899403
 10
535.164374
 20
220.951983
 10
534.991358
 20
221.014188
 10
534.629782
 20
221.167419
 10
534.246337
 20
221.358995
 10
533.839654
 20
221.588815
 10
533.408365
 20
221.85678
 10
533.064988
 20
222.073121
 10
532.727997
 20
222.274897
 10
532.405958
 20
222.457695
 10
532.107439
 20
222.617102
 10
531.841003
 20
222.748706
 10
531.615219
 20
222.848094
 10
531.438651
 20
222.910855
 10
531.371501
 20
222.927121
 10
531.319867
 20
222.932575
 10
531.200233
 20
222.921214
 10
531.071141
 20
222.887595
 10
530.932183
 20
222.831338
 10
530.782952
 20
222.752061
 10
530.623043
 20
222.649384
 10
530.452047
 20
222.522927
 10
530.269559
 20
222.372309
 10
530.075172
 20
222.19715
 10
529.868479
 20
221.99707
 10
529.649074
 20
221.771687
 10
529.170499
 20
221.243492
 10
528.636193
 20
220.609523
 10
528.042904
 20
219.866736
 10
527.722184
 20
219.473149
 10
527.372525
 20
219.073817
 10
527.00519
 20
218.679778
 10
526.631438
 20
218.302071
 10
526.26253
 20
217.951734
 10
525.909726
 20
217.639808
 10
525.584287
 20
217.37733
 10
525.297473
 20
217.17534
 10
524.954987
 20
216.966549
 10
524.594476
 20
216.765301
 10
524.215531
 20
216.571539
 10
523.817747
 20
216.3852
 10
523.400717
 20
216.206226
 10
522.964034
 20
216.034556
 10
522.507291
 20
215.870129
 10
522.030081
 20
215.712887
 10
521.531998
 20
215.562769
 10
521.012636
 20
215.419714
 10
520.471586
 20
215.283664
 10
519.908442
 20
215.154556
 10
519.322799
 20
215.032333
 10
518.714248
 20
214.916933
 10
518.082383
 20
214.808296
 10
517.426798
 20
214.706363
 10
516.747085
 20
214.611072
 10
516.042838
 20
214.522365
 10
515.31365
 20
214.440182
 10
514.559114
 20
214.364461
 10
513.778823
 20
214.295143
 10
512.972372
 20
214.232168
 10
512.139352
 20
214.175475
 10
511.279358
 20
214.125006
 10
509.476817
 20
214.042494
 10
507.561496
 20
213.984152
 10
505.530141
 20
213.9495
 10
503.379497
 20
213.938056
 10
501.932717
 20
213.939924
 10
501.169616
 20
213.946925
 10
500.380672
 20
213.962116
 10
499.56636
 20
213.98861
 10
498.727153
 20
214.029514
 10
497.863525
 20
214.087941
 10
496.97595
 20
214.166999
 10
495.79581
 20
214.293398
 10
494.562573
 20
214.44065
 10
493.294724
 20
214.606879
 10
492.010748
 20
214.790204
 10
490.729128
 20
214.988749
 10
489.46835
 20
215.200634
 10
488.246896
 20
215.423982
 10
487.083252
 20
215.656913
 10
486.483177
 20
215.788488
 10
485.894259
 20
215.928639
 10
485.316466
 20
216.077231
 10
484.749765
 20
216.234128
 10
484.194122
 20
216.399196
 10
483.649504
 20
216.572298
 10
483.115878
 20
216.753299
 10
482.593212
 20
216.942064
 10
482.081472
 20
217.138458
 10
481.580624
 20
217.342344
 10
481.090637
 20
217.553588
 10
480.611476
 20
217.772054
 10
480.143108
 20
217.997607
 10
479.685501
 20
218.230111
 10
479.238621
 20
218.469431
 10
478.802436
 20
218.715431
 10
478.376911
 20
218.967976
 10
477.962015
 20
219.226931
 10
477.557713
 20
219.49216
 10
477.163973
 20
219.763527
 10
476.780762
 20
220.040898
 10
476.408046
 20
220.324137
 10
476.045793
 20
220.613108
 10
475.693969
 20
220.907675
 10
475.352541
 20
221.207705
 10
475.021476
 20
221.51306
 10
474.700742
 20
221.823607
 10
474.390304
 20
222.139208
 10
474.090129
 20
222.459729
 10
473.800186
 20
222.785035
 10
473.520439
 20
223.11499
 10
473.250858
 20
223.449458
 10
472.943486
 20
223.85117
 10
472.654162
 20
224.250677
 10
472.382929
 20
224.647645
 10
472.129828
 20
225.041739
 10
471.894903
 20
225.432624
 10
471.678195
 20
225.819966
 10
471.479747
 20
226.203431
 10
471.299601
 20
226.582685
 10
471.137799
 20
226.957392
 10
470.994384
 20
227.327219
 10
470.869398
 20
227.691832
 10
470.762883
 20
228.050895
 10
470.674881
 20
228.404074
 10
470.605436
 20
228.751036
 10
470.554588
 20
229.091446
 10
470.522381
 20
229.424968
 10
470.508856
 20
229.75127
 10
470.514057
 20
230.070016
 10
470.538025
 20
230.380872
 10
470.580802
 20
230.683503
 10
470.642432
 20
230.977576
 10
470.722955
 20
231.262756
 10
470.822416
 20
231.538709
 10
470.940855
 20
231.8051
 10
471.078315
 20
232.061594
 10
471.234838
 20
232.307858
 10
471.410467
 20
232.543556
 10
471.605245
 20
232.768355
 10
471.819212
 20
232.981921
 10
472.052413
 20
233.183918
 10
472.304888
 20
233.374012
 10
472.57668
 20
233.55187
 10
472.850207
 20
233.709559
 10
473.155845
 20
233.863946
 10
473.311675
 20
233.932196
 10
473.464697
 20
233.990376
 10
473.611298
 20
234.035404
 10
473.747866
 20
234.064198
 10
505.145181
 20
233.989148
  0
LWPOLYLINE
  5
44
330
1F
100
AcDbEntity
  8
0
100
AcDbPolyline
 90
       86
 70
   128
 43
0.0
 10
479.599691
 20
231.665139
 10
484.95486
 20
231.665139
 10
485.066517
 20
231.656691
 10
485.175259
 20
231.632871
 10
485.279239
 20
231.595961
 10
485.376611
 20
231.548244
 10
485.465531
 20
231.492004
 10
485.54415
 20
231.429524
 10
485.610625
 20
231.363087
 10
485.663109
 20
231.294975
 10
485.727037
 20
231.190777
 10
485.776708
 20
231.094532
 10
485.813101
 20
231.005348
 10
485.837198
 20
230.922332
 10
485.84998
 20
230.844591
 10
485.852427
 20
230.771233
 10
485.845522
 20
230.701366
 10
485.830245
 20
230.634096
 10
485.778497
 20
230.503779
 10
485.705032
 20
230.373142
 10
485.524343
 20
230.082345
 10
485.477814
 20
230.013446
 10
485.417582
 20
229.944134
 10
485.343723
 20
229.87444
 10
485.256311
 20
229.804397
 10
485.041132
 20
229.663393
 10
484.772643
 20
229.521381
 10
484.451446
 20
229.37862
 10
484.07814
 20
229.235367
 10
483.653327
 20
229.091882
 10
483.177606
 20
228.948423
 10
482.651577
 20
228.805248
 10
482.075841
 20
228.662617
 10
481.450998
 20
228.520787
 10
480.777649
 20
228.380018
 10
480.056393
 20
228.240568
 10
479.287832
 20
228.102695
 10
478.472564
 20
227.966658
 10
477.611191
 20
227.832716
 10
477.008728
 20
227.742967
 10
476.412797
 20
227.664099
 10
476.11581
 20
227.632471
 10
475.81869
 20
227.608034
 10
475.52085
 20
227.592279
 10
475.221701
 20
227.586697
 10
475.023455
 20
227.597158
 10
474.76713
 20
227.627149
 10
474.515159
 20
227.674581
 10
474.410318
 20
227.704183
 10
474.329978
 20
227.737362
 10
474.206099
 20
227.807789
 10
474.088244
 20
227.883709
 10
473.976475
 20
227.9648
 10
473.870857
 20
228.050743
 10
473.678319
 20
228.235901
 10
473.511135
 20
228.436619
 10
473.369806
 20
228.650334
 10
473.254835
 20
228.874481
 10
473.166726
 20
229.106496
 10
473.105981
 20
229.343816
 10
473.073102
 20
229.583876
 10
473.068593
 20
229.824113
 10
473.092957
 20
230.061963
 10
473.116124
 20
230.179191
 10
473.146697
 20
230.294862
 10
473.184739
 20
230.408653
 10
473.230314
 20
230.520245
 10
473.283484
 20
230.629317
 10
473.344313
 20
230.735549
 10
473.412862
 20
230.838621
 10
473.489195
 20
230.938211
 10
473.573375
 20
231.033999
 10
473.665465
 20
231.125665
 10
473.766435
 20
231.215121
 10
473.870364
 20
231.294143
 10
473.984331
 20
231.363373
 10
474.115412
 20
231.423455
 10
474.270687
 20
231.475033
 10
474.457232
 20
231.518751
 10
474.682125
 20
231.555251
 10
474.952445
 20
231.585177
 10
475.275269
 20
231.609173
 10
475.657675
 20
231.627882
 10
476.629544
 20
231.652012
 10
477.924675
 20
231.662715
 10
479.599691
 20
231.665139
  0
LWPOLYLINE
  5
45
330
1F
100
AcDbEntity
  8
0
100
AcDbPolyline
 90
       90
 70
   128
 43
0.0
 10
508.791648
 20
231.648665
 10
523.489533
 20
231.60649
 10
523.807878
 20
231.601697
 10
524.142049
 20
231.58728
 10
524.460752
 20
231.563179
 10
524.732691
 20
231.529336
 10
525.054139
 20
231.469481
 10
525.308953
 20
231.401595
 10
525.413662
 20
231.362516
 10
525.50446
 20
231.318879
 10
525.582263
 20
231.269836
 10
525.647987
 20
231.214536
 10
525.702549
 20
231.152129
 10
525.746864
 20
231.081766
 10
525.781848
 20
231.002596
 10
525.808418
 20
230.913771
 10
525.827488
 20
230.814439
 10
525.839976
 20
230.703752
 10
525.848867
 20
230.444912
 10
525.838752
 20
230.260669
 10
525.806845
 20
230.083328
 10
525.750802
 20
229.913468
 10
525.66828
 20
229.751669
 10
525.556936
 20
229.598511
 10
525.489724
 20
229.525354
 10
525.414427
 20
229.454574
 10
525.238409
 20
229.320439
 10
525.02654
 20
229.196683
 10
524.84398
 20
229.11068
 10
524.634294
 20
229.025933
 10
524.39868
 20
228.942682
 10
524.138334
 20
228.861164
 10
523.854453
 20
228.781615
 10
523.548235
 20
228.704274
 10
522.873572
 20
228.557164
 10
522.12392
 20
228.421733
 10
521.308855
 20
228.29988
 10
520.43795
 20
228.193505
 10
519.520783
 20
228.104507
 10
518.595296
 20
228.017126
 10
518.114981
 20
227.975202
 10
517.668699
 20
227.947035
 10
516.371558
 20
227.898491
 10
514.995612
 20
227.861748
 10
513.567131
 20
227.837451
 10
512.112387
 20
227.826244
 10
510.657651
 20
227.82877
 10
509.229194
 20
227.845675
 10
507.853286
 20
227.877603
 10
506.556199
 20
227.925197
 10
505.47154
 20
227.981887
 10
504.322321
 20
228.057268
 10
503.130407
 20
228.148988
 10
501.917667
 20
228.254693
 10
500.705968
 20
228.372032
 10
499.517176
 20
228.498652
 10
498.373159
 20
228.632201
 10
497.295783
 20
228.770327
 10
496.577367
 20
228.891498
 10
495.861124
 20
229.026554
 10
495.582393
 20
229.081263
 10
495.315181
 20
229.143386
 10
495.060224
 20
229.212212
 10
494.818254
 20
229.28703
 10
494.590006
 20
229.36713
 10
494.376213
 20
229.451802
 10
494.177609
 20
229.540335
 10
493.994928
 20
229.632017
 10
493.828902
 20
229.72614
 10
493.680268
 20
229.821992
 10
493.549757
 20
229.918863
 10
493.438103
 20
230.016043
 10
493.346041
 20
230.11282
 10
493.274304
 20
230.208485
 10
493.223626
 20
230.302326
 10
493.194741
 20
230.393634
 10
493.183742
 20
230.471931
 10
493.177369
 20
230.578299
 10
493.179123
 20
230.704365
 10
493.192504
 20
230.841755
 10
493.221014
 20
230.982093
 10
493.268154
 20
231.117006
 10
493.299803
 20
231.179811
 10
493.337423
 20
231.238119
 10
493.381449
 20
231.290884
 10
493.432322
 20
231.337059
 10
493.58258
 20
231.435857
 10
493.755131
 20
231.526101
 10
494.093764
 20
231.69084
 10
508.791648
 20
231.648665
  0
LWPOLYLINE
  5
46
330
1F
100
AcDbEntity
  8
0
100
AcDbPolyline
 90
       82
 70
   128
 43
0.0
 10
531.303948
 20
231.135972
 10
531.4643
 20
231.124555
 10
531.621821
 20
231.091411
 10
531.775185
 20
231.038199
 10
531.92307
 20
230.96658
 10
532.064149
 20
230.878216
 10
532.197098
 20
230.774765
 10
532.320593
 20
230.657888
 10
532.433308
 20
230.529246
 10
532.533919
 20
230.3905
 10
532.621102
 20
230.243308
 10
532.693532
 20
230.089333
 10
532.749884
 20
229.930233
 10
532.788833
 20
229.76767
 10
532.809055
 20
229.603303
 10
532.809226
 20
229.438794
 10
532.78802
 20
229.275803
 10
532.735314
 20
229.046454
 10
532.666693
 20
228.803054
 10
532.583548
 20
228.548309
 10
532.48727
 20
228.284926
 10
532.379251
 20
228.01561
 10
532.260882
 20
227.74307
 10
532.133555
 20
227.470011
 10
531.99866
 20
227.199142
 10
531.85759
 20
226.933167
 10
531.711735
 20
226.674795
 10
531.562488
 20
226.426731
 10
531.411239
 20
226.191683
 10
531.259381
 20
225.972357
 10
531.108303
 20
225.771461
 10
530.959399
 20
225.5917
 10
530.814058
 20
225.435782
 10
530.612047
 20
225.243792
 10
530.427202
 20
225.092602
 10
530.251275
 20
224.979355
 10
530.164078
 20
224.936066
 10
530.076017
 20
224.901191
 10
529.986062
 20
224.874373
 10
529.893182
 20
224.855253
 10
529.69452
 20
224.838682
 10
529.471783
 20
224.84862
 10
529.216723
 20
224.882207
 10
529.014218
 20
224.921388
 10
528.819666
 20
224.971593
 10
528.633772
 20
225.032219
 10
528.457242
 20
225.102665
 10
528.29078
 20
225.18233
 10
528.135093
 20
225.270611
 10
527.990886
 20
225.366907
 10
527.858864
 20
225.470616
 10
527.739732
 20
225.581137
 10
527.634196
 20
225.697868
 10
527.542961
 20
225.820207
 10
527.466733
 20
225.947553
 10
527.406216
 20
226.079304
 10
527.362117
 20
226.214858
 10
527.33514
 20
226.353615
 10
527.325991
 20
226.494971
 10
527.334204
 20
226.623956
 10
527.358285
 20
226.763751
 10
527.397396
 20
226.913378
 10
527.450699
 20
227.071858
 10
527.517356
 20
227.238216
 10
527.59653
 20
227.411473
 10
527.789077
 20
227.774776
 10
528.021638
 20
228.153949
 10
528.287511
 20
228.541172
 10
528.579994
 20
228.928626
 10
528.892384
 20
229.308493
 10
529.217981
 20
229.672952
 10
529.55008
 20
230.014186
 10
529.881982
 20
230.324375
 10
530.206984
 20
230.595699
 10
530.364803
 20
230.714343
 10
530.518383
 20
230.82034
 10
530.666887
 20
230.912711
 10
530.809478
 20
230.990479
 10
530.945317
 20
231.052666
 10
531.073567
 20
231.098296
 10
531.19339
 20
231.12639
 10
531.303948
 20
231.135972
  0
LWPOLYLINE
  5
47
330
1F
100
AcDbEntity
  8
0
100
AcDbPolyline
 90
       92
 70
   128
 43
0.0
 10
488.796108
 20
227.278539
 10
489.077701
 20
227.239924
 10
489.333919
 20
227.197229
 10
489.565755
 20
227.149701
 10
489.774204
 20
227.096586
 10
489.960261
 20
227.037129
 10
490.12492
 20
226.970575
 10
490.269177
 20
226.896172
 10
490.394026
 20
226.813163
 10
490.500461
 20
226.720797
 10
490.589478
 20
226.618317
 10
490.662071
 20
226.504969
 10
490.719235
 20
226.380001
 10
490.761964
 20
226.242656
 10
490.791253
 20
226.092182
 10
490.808097
 20
225.927823
 10
490.813491
 20
225.748826
 10
490.802642
 20
225.474391
 10
490.788044
 20
225.345355
 10
490.766407
 20
225.221248
 10
490.737041
 20
225.101675
 10
490.699254
 20
224.986242
 10
490.652354
 20
224.874555
 10
490.595649
 20
224.766219
 10
490.528448
 20
224.660841
 10
490.450059
 20
224.558024
 10
490.359791
 20
224.457377
 10
490.256952
 20
224.358503
 10
490.140851
 20
224.261009
 10
490.010796
 20
224.1645
 10
489.866095
 20
224.068582
 10
489.706056
 20
223.972861
 10
489.337202
 20
223.780431
 10
488.898698
 20
223.584056
 10
488.385014
 20
223.380581
 10
487.790616
 20
223.16685
 10
487.109971
 20
222.939711
 10
486.337547
 20
222.696008
 10
484.495229
 20
222.14629
 10
484.10225
 20
222.043021
 10
483.575616
 20
221.920068
 10
482.327596
 20
221.65635
 10
481.709315
 20
221.536209
 10
481.16359
 20
221.437628
 10
480.741972
 20
221.370917
 10
480.496015
 20
221.346389
 10
480.17733
 20
221.35528
 10
479.87765
 20
221.381742
 10
479.597373
 20
221.425455
 10
479.336898
 20
221.486101
 10
479.096623
 20
221.563362
 10
478.876948
 20
221.65692
 10
478.678271
 20
221.766456
 10
478.500991
 20
221.891651
 10
478.345506
 20
222.032187
 10
478.212216
 20
222.187746
 10
478.10152
 20
222.358009
 10
478.013815
 20
222.542658
 10
477.949501
 20
222.741374
 10
477.908976
 20
222.953839
 10
477.89264
 20
223.179735
 10
477.900891
 20
223.418742
 10
477.931837
 20
223.676484
 10
477.980638
 20
223.904227
 10
478.050618
 20
224.107407
 10
478.094589
 20
224.201485
 10
478.145103
 20
224.291461
 10
478.202575
 20
224.378015
 10
478.26742
 20
224.461827
 10
478.420894
 20
224.623942
 10
478.608852
 20
224.783242
 10
478.834618
 20
224.945166
 10
478.992079
 20
225.042604
 10
479.177373
 20
225.142655
 10
479.38871
 20
225.2449
 10
479.624299
 20
225.348919
 10
480.16107
 20
225.560601
 10
480.773359
 20
225.774345
 10
481.446839
 20
225.986795
 10
482.167181
 20
226.194595
 10
482.92006
 20
226.39439
 10
483.691147
 20
226.582822
 10
484.466117
 20
226.756537
 10
485.230641
 20
226.912178
 10
485.970392
 20
227.046389
 10
486.671043
 20
227.155815
 10
487.318268
 20
227.237099
 10
487.897738
 20
227.286885
 10
488.157588
 20
227.298917
 10
488.395127
 20
227.301817
 10
488.608564
 20
227.295164
 10
488.796108
 20
227.278539
  0
LWPOLYLINE
  5
48
330
1F
100
AcDbEntity
  8
0
100
AcDbPolyline
 90
       96
 70
   128
 43
0.0
 10
524.28389
 20
226.638056
 10
524.356217
 20
226.62789
 10
524.441474
 20
226.598756
 10
524.536526
 20
226.552696
 10
524.638234
 20
226.491753
 10
524.743461
 20
226.417969
 10
524.849068
 20
226.333387
 10
524.951919
 20
226.240051
 10
525.048875
 20
226.140002
 10
525.172762
 20
225.985575
 10
525.267236
 20
225.826227
 10
525.303085
 20
225.743999
 10
525.331152
 20
225.659691
 10
525.351292
 20
225.57302
 10
525.363362
 20
225.483701
 10
525.367221
 20
225.391452
 10
525.362723
 20
225.295989
 10
525.349727
 20
225.19703
 10
525.328088
 20
225.09429
 10
525.258311
 20
224.876336
 10
525.152247
 20
224.639861
 10
525.00875
 20
224.382597
 10
524.826674
 20
224.102279
 10
524.604874
 20
223.79664
 10
524.342203
 20
223.463412
 10
524.037517
 20
223.100329
 10
523.689669
 20
222.705125
 10
523.297513
 20
222.275533
 10
522.859905
 20
221.809285
 10
522.322704
 20
221.218695
 10
521.75048
 20
220.574752
 10
521.45734
 20
220.254636
 10
521.162771
 20
219.947416
 10
520.869216
 20
219.661837
 10
520.579116
 20
219.406645
 10
520.450338
 20
219.307214
 10
520.308722
 20
219.208794
 10
520.002219
 20
219.016217
 10
519.690095
 20
218.831374
 10
519.402837
 20
218.656726
 10
519.210334
 20
218.539624
 10
519.017371
 20
218.433177
 10
518.82446
 20
218.337263
 10
518.632116
 20
218.251756
 10
518.440854
 20
218.176534
 10
518.251187
 20
218.111472
 10
518.063629
 20
218.056446
 10
517.878695
 20
218.011334
 10
517.696899
 20
217.97601
 10
517.518755
 20
217.950353
 10
517.344777
 20
217.934236
 10
517.175479
 20
217.927538
 10
517.011375
 20
217.930133
 10
516.85298
 20
217.941899
 10
516.700808
 20
217.962712
 10
516.555373
 20
217.992447
 10
516.417188
 20
218.030982
 10
516.286769
 20
218.078192
 10
516.164629
 20
218.133953
 10
516.051283
 20
218.198142
 10
515.947244
 20
218.270635
 10
515.853026
 20
218.351308
 10
515.769145
 20
218.440038
 10
515.696114
 20
218.536701
 10
515.634447
 20
218.641172
 10
515.584658
 20
218.753329
 10
515.547262
 20
218.873047
 10
515.522772
 20
219.000203
 10
515.511703
 20
219.134673
 10
515.514569
 20
219.276333
 10
515.531884
 20
219.42506
 10
515.564163
 20
219.580729
 10
515.616996
 20
219.727873
 10
515.706144
 20
219.897675
 10
515.829392
 20
220.088341
 10
515.984527
 20
220.29808
 10
516.169334
 20
220.525099
 10
516.381598
 20
220.767607
 10
516.619105
 20
221.023811
 10
516.879641
 20
221.291919
 10
517.460942
 20
221.856678
 10
518.107787
 20
222.447547
 10
518.80246
 20
223.050189
 10
519.527248
 20
223.650266
 10
520.264434
 20
224.23344
 10
520.996306
 20
224.785375
 10
521.705147
 20
225.291733
 10
522.373244
 20
225.738176
 10
522.686477
 20
225.934449
 10
522.982881
 20
226.110367
 10
523.260242
 20
226.264138
 10
523.516344
 20
226.393969
 10
523.748975
 20
226.498069
 10
523.955919
 20
226.574644
 10
524.134962
 20
226.621904
 10
524.28389
 20
226.638056
  0
LWPOLYLINE
  5
49
330
1F
100
AcDbEntity
  8
0
100
AcDbPolyline
 90
       98
 70
   128
 43
0.0
 10
515.344286
 20
226.095957
 10
515.474529
 20
226.090325
 10
515.597584
 20
226.068251
 10
515.712812
 20
226.030812
 10
515.819577
 20
225.979083
 10
515.917241
 20
225.914143
 10
516.005166
 20
225.837067
 10
516.082716
 20
225.748932
 10
516.149253
 20
225.650816
 10
516.204139
 20
225.543794
 10
516.246737
 20
225.428945
 10
516.27641
 20
225.307344
 10
516.292521
 20
225.180069
 10
516.294432
 20
225.048195
 10
516.281505
 20
224.912801
 10
516.253104
 20
224.774963
 10
516.208591
 20
224.635758
 10
516.12982
 20
224.46961
 10
516.009755
 20
224.278166
 10
515.84905
 20
224.062687
 10
515.648355
 20
223.824432
 10
515.408324
 20
223.564662
 10
515.129608
 20
223.284637
 10
514.812861
 20
222.985618
 10
514.458734
 20
222.668864
 10
514.067879
 20
222.335636
 10
513.640949
 20
221.987195
 10
513.178595
 20
221.6248
 10
512.681471
 20
221.249711
 10
512.150229
 20
220.86319
 10
511.58552
 20
220.466497
 10
510.987997
 20
220.060891
 10
510.358312
 20
219.647633
 10
509.406652
 20
219.028694
 10
508.375184
 20
218.369112
 10
507.849184
 20
218.046272
 10
507.326826
 20
217.739899
 10
506.815975
 20
217.458871
 10
506.324497
 20
217.212064
 10
506.095772
 20
217.108814
 10
505.880981
 20
217.022224
 10
505.678631
 20
216.951744
 10
505.487227
 20
216.896827
 10
505.305275
 20
216.856924
 10
505.131282
 20
216.831488
 10
504.963752
 20
216.81997
 10
504.801193
 20
216.821821
 10
504.642109
 20
216.836493
 10
504.485008
 20
216.863439
 10
504.328394
 20
216.902109
 10
504.170774
 20
216.951956
 10
503.84654
 20
217.082986
 10
503.500352
 20
217.252142
 10
503.290486
 20
217.369598
 10
503.119293
 20
217.487266
 10
502.983478
 20
217.610372
 10
502.927807
 20
217.675597
 10
502.879745
 20
217.744143
 10
502.83888
 20
217.816661
 10
502.804801
 20
217.893806
 10
502.755349
 20
218.064589
 10
502.728094
 20
218.261719
 10
502.719741
 20
218.490422
 10
502.725159
 20
218.608438
 10
502.741419
 20
218.728272
 10
502.768532
 20
218.849931
 10
502.806508
 20
218.973425
 10
502.855357
 20
219.098762
 10
502.915089
 20
219.22595
 10
502.985714
 20
219.354999
 10
503.067244
 20
219.485916
 10
503.159687
 20
219.618711
 10
503.263054
 20
219.753392
 10
503.5026
 20
220.028445
 10
503.785965
 20
220.311146
 10
504.11323
 20
220.601561
 10
504.484476
 20
220.899761
 10
504.899785
 20
221.205814
 10
505.359238
 20
221.519789
 10
505.862917
 20
221.841753
 10
506.410903
 20
222.171777
 10
507.003279
 20
222.509928
 10
507.640125
 20
222.856276
 10
508.321522
 20
223.210889
 10
509.078033
 20
223.605308
 10
509.89152
 20
224.034593
 10
510.709474
 20
224.45452
 10
511.103719
 20
224.647155
 10
511.479389
 20
224.820866
 10
511.869448
 20
224.983399
 10
512.295172
 20
225.145899
 10
513.118836
 20
225.451945
 10
513.801642
 20
225.698002
 10
514.448834
 20
225.901444
 10
514.736255
 20
225.98058
 10
514.987389
 20
226.041139
 10
515.193109
 20
226.080478
 10
515.344286
 20
226.095957
  0
LWPOLYLINE
  5
4A
330
1F
100
AcDbEntity
  8
0
100
AcDbPolyline
 90
       96
 70
   128
 43
0.0
 10
502.587449
 20
225.015812
 10
502.807696
 20
225.016321
 10
503.027956
 20
225.007435
 10
503.242351
 20
224.990018
 10
503.445003
 20
224.964933
 10
503.630032
 20
224.933045
 10
503.791562
 20
224.895218
 10
503.923714
 20
224.852314
 10
504.020609
 20
224.805198
 10
504.112119
 20
224.730575
 10
504.190128
 20
224.633008
 10
504.254746
 20
224.515291
 10
504.306083
 20
224.380218
 10
504.34425
 20
224.230582
 10
504.369357
 20
224.069178
 10
504.381514
 20
223.898798
 10
504.380833
 20
223.722237
 10
504.367423
 20
223.542288
 10
504.341396
 20
223.361746
 10
504.30286
 20
223.183404
 10
504.251927
 20
223.010055
 10
504.188708
 20
222.844495
 10
504.113312
 20
222.689515
 10
504.02585
 20
222.547911
 10
503.926432
 20
222.422475
 10
503.818045
 20
222.316199
 10
503.676428
 20
222.199309
 10
503.503539
 20
222.072656
 10
503.301339
 20
221.937091
 10
502.816837
 20
221.642627
 10
502.238595
 20
221.322726
 10
501.582286
 20
220.984193
 10
500.863583
 20
220.633836
 10
500.098156
 20
220.278463
 10
499.30168
 20
219.924881
 10
498.489826
 20
219.579897
 10
497.678268
 20
219.250318
 10
496.882677
 20
218.942952
 10
496.118727
 20
218.664605
 10
495.402089
 20
218.422086
 10
494.748436
 20
218.222201
 10
494.173441
 20
218.071757
 10
493.920338
 20
218.017203
 10
493.692777
 20
217.977562
 10
493.051509
 20
217.891911
 10
492.770845
 20
217.863616
 10
492.513735
 20
217.845586
 10
492.277859
 20
217.838253
 10
492.060897
 20
217.842047
 10
491.86053
 20
217.857403
 10
491.674438
 20
217.884751
 10
491.500301
 20
217.924525
 10
491.3358
 20
217.977156
 10
491.178614
 20
218.043077
 10
491.026425
 20
218.12272
 10
490.876913
 20
218.216516
 10
490.727757
 20
218.324899
 10
490.576638
 20
218.448301
 10
490.421237
 20
218.587154
 10
490.254855
 20
218.754459
 10
490.11394
 20
218.924019
 10
489.998429
 20
219.095356
 10
489.908258
 20
219.267992
 10
489.843362
 20
219.441449
 10
489.803678
 20
219.615249
 10
489.789142
 20
219.788913
 10
489.79969
 20
219.961965
 10
489.835259
 20
220.133926
 10
489.895783
 20
220.304318
 10
489.9812
 20
220.472663
 10
490.091446
 20
220.638483
 10
490.226456
 20
220.8013
 10
490.386167
 20
220.960636
 10
490.570514
 20
221.116013
 10
490.779435
 20
221.266954
 10
490.990944
 20
221.416546
 10
491.217094
 20
221.58099
 10
491.447411
 20
221.738196
 10
491.560859
 20
221.80718
 10
491.671421
 20
221.86607
 10
492.152241
 20
222.090223
 10
492.656625
 20
222.307072
 10
493.181498
 20
222.516894
 10
493.723787
 20
222.719969
 10
494.280418
 20
222.916574
 10
494.848317
 20
223.106987
 10
496.005622
 20
223.470354
 10
497.171112
 20
223.812296
 10
498.320197
 20
224.13504
 10
500.470783
 20
224.731837
 10
500.73477
 20
224.798432
 10
500.999949
 20
224.860505
 10
501.288924
 20
224.912566
 10
501.684559
 20
224.959201
 10
502.134764
 20
224.995315
 10
502.587449
 20
225.015812
  0
LWPOLYLINE
  5
4B
330
1F
100
AcDbEntity
  8
0
100
AcDbPolyline
 90
      302
 70
   128
 43
0.0
 10
463.87707
 20
287.582933
 42
-0.380444
 10
463.841854
 20
287.980185
 10
466.878621
 20
292.070379
 10
465.27282
 20
293.262607
 10
462.220732
 20
289.151775
 42
-0.428087
 10
461.789877
 20
289.098432
 10
461.52665
 20
289.313825
 10
461.183052
 20
289.621729
 10
460.974371
 20
289.827185
 10
460.799886
 20
290.025818
 10
460.725928
 20
290.124064
 10
460.661071
 20
290.222387
 10
460.6055
 20
290.321383
 10
460.559399
 20
290.421646
 10
460.522952
 20
290.52377
 10
460.496343
 20
290.628351
 10
460.479757
 20
290.735982
 10
460.473377
 20
290.847258
 10
460.477387
 20
290.962774
 10
460.491973
 20
291.083124
 10
460.517317
 20
291.208902
 10
460.553604
 20
291.340704
 10
460.601019
 20
291.479123
 10
460.659745
 20
291.624754
 10
460.811867
 20
291.94003
 10
461.011445
 20
292.291288
 10
461.259951
 20
292.683284
 10
461.558859
 20
293.120773
 10
461.909641
 20
293.608513
 10
462.772722
 20
294.753764
 10
462.957919
 20
295.009226
 10
463.118606
 20
295.261332
 10
463.254729
 20
295.509944
 10
463.366228
 20
295.754922
 10
463.453049
 20
295.996128
 10
463.515134
 20
296.233421
 10
463.552427
 20
296.466664
 10
463.564871
 20
296.695717
 10
463.454342
 20
297.855581
 10
463.162152
 20
300.649413
 10
462.26917
 20
309.072881
 10
461.786566
 20
313.669465
 10
461.358681
 20
317.833916
 10
461.044609
 20
321.049707
 10
460.94872
 20
322.140442
 10
460.903444
 20
322.800314
 10
460.823546
 20
324.197812
 10
460.708815
 20
326.434697
 10
460.573273
 20
329.256468
 10
460.430937
 20
332.408621
 10
460.295828
 20
335.636652
 10
460.181964
 20
338.68606
 10
460.103365
 20
341.30234
 10
460.081671
 20
342.368525
 10
460.07405
 20
343.23099
 10
460.785474
 20
343.981684
 10
460.831497
 20
344.003986
 10
460.957564
 20
344.052468
 10
461.183212
 20
344.118146
 10
461.52798
 20
344.192032
 10
462.011405
 20
344.265142
 10
462.31122
 20
344.298597
 10
462.653026
 20
344.328488
 10
463.039265
 20
344.353692
 10
463.47238
 20
344.373086
 10
463.954812
 20
344.385545
 10
464.489005
 20
344.389948
 10
469.253412
 20
343.663921
 10
478.513829
 20
341.142392
 10
481.556537
 20
340.097259
 10
483.009369
 20
339.58428
 10
484.715828
 20
338.960152
 10
486.463215
 20
338.303736
 10
488.038829
 20
337.693891
 10
489.185637
 20
337.245381
 10
489.672234
 20
337.063551
 10
490.119153
 20
336.907166
 10
490.540043
 20
336.774094
 10
490.948547
 20
336.662207
 10
491.358313
 20
336.569374
 10
491.782987
 20
336.493465
 10
492.236215
 20
336.43235
 10
492.731643
 20
336.383901
 10
493.282917
 20
336.345986
 10
493.903684
 20
336.316475
 10
495.408278
 20
336.27415
 10
497.354596
 20
336.239885
 10
503.23078
 20
336.144112
 10
513.174246
 20
336.699869
 10
514.215624
 20
336.839566
 10
515.324541
 20
336.966163
 10
516.477133
 20
337.090014
 10
517.64954
 20
337.221476
 10
518.817899
 20
337.370903
 10
519.393104
 20
337.455589
 10
519.95835
 20
337.54865
 10
520.510653
 20
337.651379
 10
521.04703
 20
337.765072
 10
521.564499
 20
337.891022
 10
522.060078
 20
338.030525
 10
522.184923
 20
338.081563
 10
522.311901
 20
338.157741
 10
522.440389
 20
338.256105
 10
522.569763
 20
338.373703
 10
522.699398
 20
338.50758
 10
522.828671
 20
338.654785
 10
523.083636
 20
338.977365
 10
523.561768
 20
339.652518
 10
523.774954
 20
339.957844
 10
523.964231
 20
340.210169
 10
524.625965
 20
341.025795
 10
525.164221
 20
341.674649
 10
525.596701
 20
342.174614
 10
525.941106
 20
342.543574
 10
526.085813
 20
342.684516
 10
526.215139
 20
342.799412
 10
526.331297
 20
342.890499
 10
526.4365
 20
342.960012
 10
526.532961
 20
343.010186
 10
526.622892
 20
343.043257
 10
526.708505
 20
343.061461
 10
526.792015
 20
343.067032
 10
526.935584
 20
343.055276
 10
527.085682
 20
343.021352
 10
527.240129
 20
342.967273
 10
527.396747
 20
342.895056
 10
527.553357
 20
342.806714
 10
527.70778
 20
342.704262
 10
527.857838
 20
342.589715
 10
528.00135
 20
342.465087
 10
528.136139
 20
342.332393
 10
528.260025
 20
342.193647
 10
528.37083
 20
342.050865
 10
528.466374
 20
341.906061
 10
528.544479
 20
341.761249
 10
528.602966
 20
341.618444
 10
528.639656
 20
341.479661
 10
528.652371
 20
341.346915
 10
528.642899
 20
341.267644
 10
528.614982
 20
341.166152
 10
528.569364
 20
341.04368
 10
528.50679
 20
340.901467
 10
528.333755
 20
340.562774
 10
528.101839
 20
340.159993
 10
527.817002
 20
339.703041
 10
527.485207
 20
339.201836
 10
527.112414
 20
338.666295
 10
526.704583
 20
338.106335
 10
526.484157
 20
337.793911
 10
526.260134
 20
337.453452
 10
525.795323
 20
336.736084
 10
525.551546
 20
336.383002
 10
525.298195
 20
336.049541
 10
525.167462
 20
335.893891
 10
525.033776
 20
335.747613
 10
524.89695
 20
335.612197
 10
524.756796
 20
335.489133
 10
524.552988
 20
335.337841
 10
524.324459
 20
335.195061
 10
524.077568
 20
335.061486
 10
523.818673
 20
334.937808
 10
523.554133
 20
334.824722
 10
523.290306
 20
334.722919
 10
522.790227
 20
334.555935
 10
522.189324
 20
334.388576
 10
521.56182
 20
334.238454
 10
520.911339
 20
334.103911
 10
520.241503
 20
333.983288
 10
519.555934
 20
333.874926
 10
518.858257
 20
333.777167
 10
517.441065
 20
333.606817
 10
516.01891
 20
333.45897
 10
514.620775
 20
333.320353
 10
513.275642
 20
333.177696
 10
512.632009
 20
333.100705
 10
512.012494
 20
333.017727
 10
509.021495
 20
332.747446
 10
508.280139
 20
332.689685
 10
507.316864
 20
332.629099
 10
506.172177
 20
332.567491
 10
504.886585
 20
332.506668
 10
502.054722
 20
332.394594
 10
500.589465
 20
332.346955
 10
499.145334
 20
332.30732
 10
498.340724
 20
332.276478
 10
497.487068
 20
332.22872
 10
495.69869
 20
332.121782
 10
494.797003
 20
332.082263
 10
493.912343
 20
332.065152
 10
493.481559
 20
332.068071
 10
493.061227
 20
332.080279
 10
492.653409
 20
332.103004
 10
492.260172
 20
332.137476
 10
491.931502
 20
332.181484
 10
491.585463
 20
332.243837
 10
491.228353
 20
332.320914
 10
490.86647
 20
332.409089
 10
490.153569
 20
332.604244
 10
489.497139
 20
332.800317
 10
488.976492
 20
332.964275
 10
488.43995
 20
333.142092
 10
487.328637
 20
333.532492
 10
486.18212
 20
333.957893
 10
485.019315
 20
334.404668
 10
482.720516
 20
335.307849
 10
481.622358
 20
335.737005
 10
480.583585
 20
336.133039
 10
477.696624
 20
336.945526
 10
477.041143
 20
337.122588
 10
476.28359
 20
337.314547
 10
475.450987
 20
337.515286
 10
474.570358
 20
337.718691
 10
473.668726
 20
337.918644
 10
472.773115
 20
338.109031
 10
471.910548
 20
338.283734
 10
471.108049
 20
338.436639
 10
470.218949
 20
338.610754
 10
469.261511
 20
338.804808
 10
468.301938
 20
338.984434
 10
467.842041
 20
339.058097
 10
467.406436
 20
339.115266
 10
467.142917
 20
339.136324
 10
466.857977
 20
339.147659
 10
466.308192
 20
339.163063
 10
465.994864
 20
339.172277
 10
465.71668
 20
339.168654
 10
465.471579
 20
339.148587
 10
465.257503
 20
339.108471
 10
465.161454
 20
339.079769
 10
465.072389
 20
339.044703
 10
464.990051
 20
339.002822
 10
464.91418
 20
338.953676
 10
464.844521
 20
338.896814
 10
464.780815
 20
338.831786
 10
464.722805
 20
338.75814
 10
464.670234
 20
338.675426
 10
464.622844
 20
338.583195
 10
464.580377
 20
338.480994
 10
464.509184
 20
338.244882
 10
464.454596
 20
337.963486
 10
464.414552
 20
337.633201
 10
464.386992
 20
337.250422
 10
464.369857
 20
336.811544
 10
464.358621
 20
335.751068
 10
464.364785
 20
335.111811
 10
464.383286
 20
334.425366
 10
464.414139
 20
333.691597
 10
464.457356
 20
332.910366
 10
464.512952
 20
332.081537
 10
464.58094
 20
331.204973
 10
464.661333
 20
330.280535
 10
464.754145
 20
329.308088
 10
464.977082
 20
327.218615
 10
465.249858
 20
324.935457
 10
465.572585
 20
322.457517
 10
465.945369
 20
319.783698
 10
466.259698
 20
317.809015
 10
466.594892
 20
315.679838
 10
466.938302
 20
313.55207
 10
467.109135
 20
312.537434
 10
467.277279
 20
311.581615
 10
467.467092
 20
310.595818
 10
467.708888
 20
309.437512
 10
467.993371
 20
308.137664
 10
468.311248
 20
306.727241
 10
469.010006
 20
303.698533
 10
469.730806
 20
300.599122
 10
470.399292
 20
297.676737
 10
470.690682
 20
296.359347
 10
470.94111
 20
295.179112
 10
471.141283
 20
294.167001
 10
471.281906
 20
293.353978
 10
471.326981
 20
293.031803
 10
471.353683
 20
292.771012
 10
471.360851
 20
292.575476
 10
471.347322
 20
292.449067
 10
471.307726
 20
292.350549
 10
471.239362
 20
292.23707
 10
471.145073
 20
292.110079
 10
471.027703
 20
291.971023
 10
470.735091
 20
291.662509
 10
470.384273
 20
291.323109
 10
469.599004
 20
290.597985
 10
469.210047
 20
290.235425
 10
468.853869
 20
289.888311
 10
467.628793
 20
288.633699
 10
466.601882
 20
287.58461
 10
466.186013
 20
287.179359
 10
465.847614
 20
286.876155
 10
465.710375
 20
286.768098
 10
465.595996
 20
286.691886
 10
465.505638
 20
286.64963
 10
465.469832
 20
286.641896
 10
465.440468
 20
286.643442
 10
465.305715
 20
286.682851
 10
465.161805
 20
286.737561
 10
465.011199
 20
286.805599
 10
464.856363
 20
286.884993
 10
464.543847
 20
287.06996
 10
464.243964
 20
287.276684
 10
463.976419
 20
287.48939
 10
463.87707
 20
287.582933
  0
LWPOLYLINE
  5
4C
330
1F
100
AcDbEntity
  8
0
100
AcDbPolyline
 90
      350
 70
   128
 43
0.0
 10
476.851685
 20
284.604471
 10
476.707175
 20
284.645935
 10
476.461524
 20
284.739724
 10
476.151845
 20
284.870074
 10
475.81525
 20
285.021215
 10
475.476239
 20
285.183417
 42
-0.469497
 10
475.363534
 20
285.631087
 10
478.182871
 20
289.487625
 10
476.568308
 20
290.667957
 10
473.705311
 20
286.751697
 42
-0.454947
 10
473.25465
 20
286.713021
 10
472.940183
 20
287.01692
 10
472.613254
 20
287.357996
 10
472.296679
 20
287.710227
 10
472.026246
 20
288.035055
 10
471.919516
 20
288.175145
 10
471.837742
 20
288.293925
 10
471.785396
 20
288.386576
 10
471.766954
 20
288.448278
 10
471.777738
 20
288.563916
 10
471.809279
 20
288.700943
 10
471.86036
 20
288.857341
 10
471.929765
 20
289.031092
 10
472.016277
 20
289.220179
 10
472.118678
 20
289.422584
 10
472.366285
 20
289.859277
 10
472.662851
 20
290.325029
 10
472.998644
 20
290.803696
 10
473.363929
 20
291.279138
 10
473.748972
 20
291.735211
 10
474.136092
 20
292.177205
 10
474.431725
 20
292.536086
 10
474.548406
 20
292.691525
 10
474.646023
 20
292.834784
 10
474.725846
 20
292.96873
 10
474.789142
 20
293.096227
 10
474.837182
 20
293.220142
 10
474.871234
 20
293.34334
 10
474.892567
 20
293.468689
 10
474.902452
 20
293.599054
 10
474.902156
 20
293.7373
 10
474.89295
 20
293.886295
 10
474.852881
 20
294.227991
 10
474.78551
 20
294.770092
 10
474.747698
 20
295.050824
 10
474.703595
 20
295.30974
 10
474.493778
 20
296.306342
 10
474.257987
 20
297.334252
 10
473.999716
 20
298.388951
 10
473.722461
 20
299.46592
 10
473.124974
 20
301.668598
 10
472.493481
 20
303.906137
 10
471.855939
 20
306.14239
 10
471.240302
 20
308.341207
 10
470.949435
 20
309.415282
 10
470.674527
 20
310.466443
 10
470.419074
 20
311.490171
 10
470.18657
 20
312.481947
 10
470.039806
 20
313.185698
 10
469.89698
 20
313.947475
 10
469.631997
 20
315.418073
 10
468.71539
 20
320.310448
 10
468.246911
 20
322.849642
 10
467.825571
 20
325.207657
 10
467.679936
 20
326.096864
 10
467.510627
 20
327.215509
 10
467.330917
 20
328.468758
 10
467.15408
 20
329.761776
 10
466.99339
 20
330.999731
 10
466.86212
 20
332.087789
 10
466.773544
 20
332.931116
 10
466.749415
 20
333.23137
 10
466.740936
 20
333.434879
 10
466.746372
 20
333.855062
 10
466.764145
 20
334.215983
 10
466.795559
 20
334.523348
 10
466.841919
 20
334.782866
 10
466.904528
 20
335.000243
 10
466.942333
 20
335.094912
 10
466.98469
 20
335.181185
 10
467.031761
 20
335.259777
 10
467.08371
 20
335.3314
 10
467.202891
 20
335.456595
 10
467.296704
 20
335.52766
 10
467.408749
 20
335.591374
 10
467.538721
 20
335.647725
 10
467.686313
 20
335.696706
 10
467.85122
 20
335.738306
 10
468.033136
 20
335.772515
 10
468.231754
 20
335.799325
 10
468.446768
 20
335.818725
 10
468.677873
 20
335.830706
 10
468.924763
 20
335.835258
 10
469.464671
 20
335.822039
 10
470.064045
 20
335.778991
 10
470.720436
 20
335.706038
 10
471.431396
 20
335.603103
 10
472.194477
 20
335.47011
 10
473.00723
 20
335.306982
 10
473.867208
 20
335.113643
 10
474.771961
 20
334.890016
 10
475.719042
 20
334.636026
 10
476.706003
 20
334.351595
 10
477.730395
 20
334.036648
 10
478.770597
 20
333.696928
 10
479.783449
 20
333.347411
 10
480.768027
 20
332.991149
 10
481.723409
 20
332.631194
 10
482.648673
 20
332.270595
 10
483.542895
 20
331.912405
 10
485.234528
 20
331.215455
 10
486.790926
 20
330.564754
 10
488.204708
 20
329.98471
 10
488.855813
 20
329.728813
 10
489.468496
 20
329.499735
 10
490.041835
 20
329.300525
 10
490.574908
 20
329.134237
 10
491.223467
 20
328.959088
 10
491.90672
 20
328.799141
 10
492.621729
 20
328.653796
 10
493.365555
 20
328.52245
 10
494.135262
 20
328.404504
 10
494.927912
 20
328.299356
 10
495.740565
 20
328.206406
 10
496.570286
 20
328.125054
 10
497.414135
 20
328.054697
 10
498.269175
 20
327.994736
 10
499.132468
 20
327.94457
 10
500.001076
 20
327.903597
 10
500.872062
 20
327.871218
 10
501.742487
 20
327.846831
 10
503.469904
 20
327.819632
 10
505.159824
 20
327.817192
 10
506.788745
 20
327.834706
 10
508.333163
 20
327.867367
 10
509.769577
 20
327.91037
 10
512.224377
 20
328.008175
 10
513.965121
 20
328.08967
 10
514.404446
 20
328.117204
 10
514.962438
 20
328.164111
 10
516.370735
 20
328.307879
 10
518.062632
 20
328.504638
 10
519.910751
 20
328.73805
 10
521.787715
 20
328.991781
 10
523.566144
 20
329.249493
 10
525.118661
 20
329.49485
 10
525.770396
 20
329.60779
 10
526.317886
 20
329.711515
 10
526.72129
 20
329.802125
 10
527.114727
 20
329.909303
 10
527.498086
 20
330.032149
 10
527.871256
 20
330.169765
 10
528.234125
 20
330.321249
 10
528.586583
 20
330.485702
 10
528.928518
 20
330.662223
 10
529.259819
 20
330.849911
 10
529.580375
 20
331.047868
 10
529.890075
 20
331.255192
 10
530.188808
 20
331.470984
 10
530.476462
 20
331.694343
 10
530.752927
 20
331.924369
 10
531.01809
 20
332.160162
 10
531.271842
 20
332.400822
 10
531.51407
 20
332.645449
 10
532.248151
 20
333.446699
 10
532.583877
 20
333.821102
 10
532.898512
 20
334.159158
 10
533.191896
 20
334.446718
 10
533.330568
 20
334.567142
 10
533.463866
 20
334.669636
 10
533.591771
 20
334.752432
 10
533.714263
 20
334.813762
 10
533.831321
 20
334.851857
 10
533.942925
 20
334.864948
 10
534.04421
 20
334.850466
 10
534.156564
 20
334.808929
 10
534.277558
 20
334.743202
 10
534.404763
 20
334.656151
 10
534.535749
 20
334.55064
 10
534.66809
 20
334.429535
 10
534.799354
 20
334.295701
 10
534.927113
 20
334.152002
 10
535.048938
 20
334.001305
 10
535.162401
 20
333.846473
 10
535.265072
 20
333.690372
 10
535.354522
 20
333.535867
 10
535.428323
 20
333.385823
 10
535.484045
 20
333.243105
 10
535.519259
 20
333.110578
 10
535.531537
 20
332.991108
 10
535.524119
 20
332.888941
 10
535.502318
 20
332.775215
 10
535.466811
 20
332.650759
 10
535.418278
 20
332.516401
 10
535.284849
 20
332.221298
 10
535.107458
 20
331.896535
 10
534.891536
 20
331.548744
 10
534.642511
 20
331.184554
 10
534.365813
 20
330.810597
 10
534.066872
 20
330.433502
 10
533.751116
 20
330.059901
 10
533.423976
 20
329.696424
 10
533.09088
 20
329.349702
 10
532.757257
 20
329.026365
 10
532.428538
 20
328.733043
 10
532.110151
 20
328.476368
 10
531.807526
 20
328.26297
 10
531.663821
 20
328.174571
 10
531.526092
 20
328.099479
 10
531.138167
 20
327.914777
 10
530.702383
 20
327.72942
 10
530.220174
 20
327.543905
 10
529.692973
 20
327.358729
 10
529.122214
 20
327.17439
 10
528.509332
 20
326.991386
 10
527.85576
 20
326.810213
 10
527.162933
 20
326.631368
 10
526.432283
 20
326.45535
 10
525.665246
 20
326.282655
 10
524.863255
 20
326.113782
 10
524.027743
 20
325.949226
 10
523.160145
 20
325.789487
 10
522.261895
 20
325.63506
 10
521.334426
 20
325.486444
 10
520.379173
 20
325.344135
 10
519.397569
 20
325.208632
 10
518.391049
 20
325.080431
 10
517.361045
 20
324.96003
 10
516.308993
 20
324.847927
 10
515.236326
 20
324.744618
 10
514.144478
 20
324.6506
 10
513.034882
 20
324.566373
 10
511.908973
 20
324.492432
 10
510.768185
 20
324.429275
 10
509.613952
 20
324.377399
 10
508.447707
 20
324.337302
 10
507.270884
 20
324.309482
 10
506.084918
 20
324.294435
 10
504.891242
 20
324.292659
 10
503.691289
 20
324.304651
 10
502.486495
 20
324.330909
 10
500.536053
 20
324.393591
 10
498.434211
 20
324.482209
 10
497.374366
 20
324.53718
 10
496.334094
 20
324.599758
 10
495.332535
 20
324.670317
 10
494.388829
 20
324.749232
 10
494.149904
 20
324.775887
 10
493.852369
 20
324.81751
 10
493.107368
 20
324.943669
 10
492.205622
 20
325.123724
 10
491.712157
 20
325.232717
 10
491.19893
 20
325.353691
 10
490.672415
 20
325.486147
 10
490.139086
 20
325.629587
 10
489.605419
 20
325.783513
 10
489.077888
 20
325.947428
 10
488.562968
 20
326.120832
 10
488.067133
 20
326.303229
 10
487.596857
 20
326.49412
 10
487.158615
 20
326.693008
 10
485.75255
 20
327.358278
 10
484.303214
 20
328.015626
 10
483.569002
 20
328.337057
 10
482.831988
 20
328.65138
 10
482.094848
 20
328.956885
 10
481.360252
 20
329.251864
 10
480.630873
 20
329.534608
 10
479.909384
 20
329.803407
 10
479.198456
 20
330.056553
 10
478.500764
 20
330.292335
 10
477.818978
 20
330.509045
 10
477.155771
 20
330.704974
 10
476.513817
 20
330.878413
 10
475.895787
 20
331.027652
 10
475.079986
 20
331.193942
 10
474.196064
 20
331.35072
 10
473.310439
 20
331.499098
 10
472.489533
 20
331.640191
 10
472.212961
 20
331.609377
 10
472.10005
 20
331.590472
 10
472.002359
 20
331.566524
 10
471.918614
 20
331.535501
 10
471.847543
 20
331.495371
 10
471.787874
 20
331.4441
 10
471.738333
 20
331.379657
 10
471.697648
 20
331.300009
 10
471.664546
 20
331.203122
 10
471.637754
 20
331.086966
 10
471.616
 20
330.949507
 10
471.582514
 20
330.602549
 10
471.553906
 20
330.14599
 10
471.551625
 20
329.785925
 10
471.576447
 20
329.302149
 10
471.625903
 20
328.715824
 10
471.697522
 20
328.048111
 10
471.788833
 20
327.320173
 10
471.897366
 20
326.553169
 10
472.02065
 20
325.768263
 10
472.156216
 20
324.986615
 10
472.415494
 20
323.605077
 10
472.684465
 20
322.256949
 10
472.966428
 20
320.930998
 10
473.264679
 20
319.615993
 10
473.582515
 20
318.300702
 10
473.923232
 20
316.973894
 10
474.290128
 20
315.624337
 10
474.686499
 20
314.2408
 10
475.115643
 20
312.81205
 10
475.580857
 20
311.326857
 10
476.085436
 20
309.773988
 10
476.632679
 20
308.142212
 10
477.225883
 20
306.420298
 10
477.868343
 20
304.597013
 10
478.563357
 20
302.661127
 10
479.314222
 20
300.601407
 10
480.964692
 20
296.10349
 10
481.232335
 20
295.543391
 10
481.534017
 20
294.95547
 10
481.853401
 20
294.347359
 10
482.17415
 20
293.726692
 10
482.479926
 20
293.1011
 10
482.622093
 20
292.788842
 10
482.754391
 20
292.478215
 10
482.874776
 20
292.170174
 10
482.981207
 20
291.865671
 10
483.071642
 20
291.565661
 10
483.144037
 20
291.271099
 10
483.159856
 20
291.129744
 10
483.158098
 20
290.975375
 10
483.144037
 20
290.676662
 10
483.12946
 20
290.625933
 10
483.086941
 20
290.548035
 10
482.925363
 20
290.318181
 10
482.673866
 20
290.001999
 10
482.347016
 20
289.614388
 10
481.525516
 20
288.684471
 10
480.57738
 20
287.647619
 10
479.619125
 20
286.623018
 10
478.767269
 20
285.729858
 10
478.138329
 20
285.087326
 10
477.943865
 20
284.897292
 10
477.848823
 20
284.81461
 10
477.69861
 20
284.734191
 10
477.55608
 20
284.674313
 10
477.421043
 20
284.632441
 10
477.293312
 20
284.60604
 10
477.172699
 20
284.592578
 10
477.059016
 20
284.589518
 10
476.851685
 20
284.604471
  0
LWPOLYLINE
  5
4D
330
1F
100
AcDbEntity
  8
0
100
AcDbPolyline
 90
      347
 70
   128
 43
0.0
 10
491.58404
 20
280.92064
 10
491.520106
 20
280.918352
 10
491.429933
 20
280.929513
 10
491.187628
 20
280.985848
 10
490.890643
 20
281.076972
 10
490.572495
 20
281.190213
 10
490.291661
 20
281.302882
 42
-0.453447
 10
490.142071
 20
281.728706
 10
492.559113
 20
286.013472
 10
490.817156
 20
286.996112
 10
488.388312
 20
282.690428
 42
-0.382299
 10
488.009248
 20
282.561907
 10
487.96056
 20
282.582689
 10
487.807021
 20
282.657827
 10
487.458029
 20
282.853076
 10
487.085769
 20
283.091502
 10
486.871439
 20
283.248891
 10
486.687909
 20
283.40891
 10
486.535399
 20
283.573914
 10
486.470847
 20
283.659021
 10
486.414133
 20
283.746257
 10
486.365285
 20
283.835917
 10
486.32433
 20
283.928296
 10
486.291298
 20
284.023687
 10
486.266214
 20
284.122385
 10
486.249107
 20
284.224684
 10
486.240006
 20
284.330879
 10
486.238936
 20
284.441265
 10
486.245926
 20
284.556135
 10
486.284198
 20
284.800506
 10
486.355042
 20
285.06635
 10
486.45868
 20
285.35602
 10
486.595335
 20
285.671872
 10
486.765226
 20
286.016261
 10
486.968577
 20
286.391543
 10
487.205608
 20
286.800073
 10
487.476542
 20
287.244206
 10
488.700287
 20
289.210637
 10
488.700287
 20
289.84449
 10
488.694065
 20
289.921507
 10
488.675845
 20
290.020808
 10
488.606084
 20
290.280138
 10
488.496349
 20
290.610242
 10
488.351989
 20
290.998882
 10
488.178349
 20
291.433821
 10
487.980777
 20
291.902819
 10
487.764619
 20
292.393638
 10
487.535223
 20
292.894042
 10
486.333375
 20
295.500046
 10
485.056703
 20
298.317786
 10
482.616361
 20
303.759013
 10
481.698084
 20
305.785649
 10
480.706094
 20
307.969378
 10
480.210706
 20
309.073291
 10
479.730788
 20
310.160243
 10
479.277641
 20
311.21149
 10
478.862562
 20
312.208286
 10
478.379204
 20
313.404404
 10
477.873862
 20
314.675742
 10
477.357972
 20
315.998701
 10
476.842969
 20
317.349681
 10
476.340286
 20
318.705083
 10
475.86136
 20
320.041307
 10
475.417625
 20
321.334754
 10
475.020514
 20
322.561823
 10
474.926845
 20
322.890918
 10
474.836781
 20
323.248744
 10
474.669349
 20
323.940281
 10
474.595185
 20
324.256926
 10
474.539558
 20
324.553387
 10
474.502825
 20
324.830572
 10
474.485343
 20
325.089388
 10
474.487466
 20
325.330744
 10
474.509553
 20
325.555549
 10
474.55196
 20
325.764709
 10
474.615042
 20
325.959134
 10
474.699157
 20
326.13973
 10
474.80466
 20
326.307407
 10
474.931909
 20
326.463073
 10
475.081259
 20
326.607634
 10
475.253067
 20
326.742
 10
475.447689
 20
326.867079
 10
475.665483
 20
326.983778
 10
475.906803
 20
327.093006
 10
476.216185
 20
327.213362
 10
476.360473
 20
327.259775
 10
476.503153
 20
327.29681
 10
476.648221
 20
327.324312
 10
476.799672
 20
327.34213
 10
476.961501
 20
327.350111
 10
477.137704
 20
327.348102
 10
477.332276
 20
327.33595
 10
477.549212
 20
327.313504
 10
478.066161
 20
327.237116
 10
478.720514
 20
327.117717
 10
479.544233
 20
326.954087
 10
480.276497
 20
326.800216
 10
480.993963
 20
326.637723
 10
481.7018
 20
326.46479
 10
482.405178
 20
326.279598
 10
483.109269
 20
326.080328
 10
483.819242
 20
325.865161
 10
484.540268
 20
325.63228
 10
485.277516
 20
325.379864
 10
486.036158
 20
325.106097
 10
486.821363
 20
324.809158
 10
487.638301
 20
324.487229
 10
488.492144
 20
324.138493
 10
489.388061
 20
323.761129
 10
490.331223
 20
323.353319
 10
491.326799
 20
322.913245
 10
492.37996
 20
322.439088
 10
493.606667
 20
321.871717
 10
494.253502
 20
321.572955
 10
494.912198
 20
321.276099
 10
495.574906
 20
320.990116
 10
496.233781
 20
320.723973
 10
496.880977
 20
320.486639
 10
497.197742
 20
320.381578
 10
497.508646
 20
320.287081
 10
498.007352
 20
320.150029
 10
498.564022
 20
320.011656
 10
499.124216
 20
319.889927
 10
499.388622
 20
319.840918
 10
499.633495
 20
319.802806
 10
500.067818
 20
319.748669
 10
500.538164
 20
319.700191
 10
501.042805
 20
319.657313
 10
501.580015
 20
319.619976
 10
502.74523
 20
319.561693
 10
504.019989
 20
319.524876
 10
505.390474
 20
319.509056
 10
506.842867
 20
319.513767
 10
508.363347
 20
319.538542
 10
509.938097
 20
319.582912
 10
511.553298
 20
319.646411
 10
513.19513
 20
319.728572
 10
514.849775
 20
319.828926
 10
516.503415
 20
319.947008
 10
518.14223
 20
320.082349
 10
519.752401
 20
320.234482
 10
521.32011
 20
320.40294
 10
522.831537
 20
320.587256
 10
526.932579
 20
321.120005
 10
527.928416
 20
321.247482
 10
528.443974
 20
321.319431
 10
528.91901
 20
321.404518
 10
529.336254
 20
321.504858
 10
529.719997
 20
321.621345
 10
530.072878
 20
321.753559
 10
530.397531
 20
321.901081
 10
530.696594
 20
322.063491
 10
530.972703
 20
322.24037
 10
531.228493
 20
322.431299
 10
531.466601
 20
322.635857
 10
531.689663
 20
322.853626
 10
531.900316
 20
323.084185
 10
532.101195
 20
323.327115
 10
532.294938
 20
323.581996
 10
532.671556
 20
324.125936
 10
533.051262
 20
324.712647
 10
533.248005
 20
325.010828
 10
533.439918
 20
325.282274
 10
533.627683
 20
325.527398
 10
533.811979
 20
325.746615
 10
533.993486
 20
325.940339
 10
534.172885
 20
326.108982
 10
534.350855
 20
326.252959
 10
534.528076
 20
326.372684
 10
534.705229
 20
326.46857
 10
534.882994
 20
326.541031
 10
535.06205
 20
326.59048
 10
535.243077
 20
326.617332
 10
535.426757
 20
326.622
 10
535.613768
 20
326.604899
 10
535.80479
 20
326.566441
 10
536.000504
 20
326.50704
 10
536.240686
 20
326.41185
 10
536.448248
 20
326.305364
 10
536.539781
 20
326.247272
 10
536.62314
 20
326.18562
 10
536.69832
 20
326.120163
 10
536.765315
 20
326.050654
 10
536.824118
 20
325.976849
 10
536.874723
 20
325.898502
 10
536.917124
 20
325.815367
 10
536.951315
 20
325.7272
 10
536.97729
 20
325.633755
 10
536.995042
 20
325.534785
 10
537.004567
 20
325.430047
 10
537.005857
 20
325.319293
 10
536.998906
 20
325.20228
 10
536.983709
 20
325.078761
 10
536.928551
 20
324.811224
 10
536.840333
 20
324.514719
 10
536.719007
 20
324.187282
 10
536.564524
 20
323.82695
 10
536.376834
 20
323.431759
 10
536.15589
 20
322.999745
 10
535.901642
 20
322.528945
 10
535.501714
 20
321.815127
 10
535.164713
 20
321.246912
 10
535.012839
 20
321.009485
 10
534.868331
 20
320.798952
 10
534.728402
 20
320.612146
 10
534.590263
 20
320.445896
 10
534.451125
 20
320.297035
 10
534.308201
 20
320.162393
 10
534.158702
 20
320.038803
 10
533.999839
 20
319.923094
 10
533.828825
 20
319.812099
 10
533.642871
 20
319.702648
 10
533.21499
 20
319.475704
 10
532.800748
 20
319.280593
 10
532.334072
 20
319.088621
 10
531.815126
 20
318.899821
 10
531.244075
 20
318.71423
 10
530.621083
 20
318.531881
 10
529.946314
 20
318.352811
 10
529.219932
 20
318.177053
 10
528.4421
 20
318.004643
 10
527.612984
 20
317.835615
 10
526.732748
 20
317.670004
 10
525.801555
 20
317.507846
 10
524.819569
 20
317.349175
 10
523.786956
 20
317.194026
 10
522.703878
 20
317.042433
 10
521.5705
 20
316.894432
 10
520.386986
 20
316.750058
 10
518.675707
 20
316.555374
 10
517.150808
 20
316.400798
 10
515.72702
 20
316.281957
 10
515.026395
 20
316.23457
 10
514.319072
 20
316.194478
 10
512.841697
 20
316.133987
 10
511.209624
 20
316.096112
 10
509.337584
 20
316.076481
 10
507.140307
 20
316.070719
 10
506.264522
 20
316.061906
 10
505.335452
 20
316.040643
 10
503.38913
 20
315.990643
 10
502.407714
 20
315.976839
 10
501.444686
 20
315.980458
 10
500.975668
 20
315.991133
 10
500.517966
 20
316.008965
 10
500.07382
 20
316.034885
 10
499.64547
 20
316.069828
 10
499.411462
 20
316.097874
 10
499.16474
 20
316.137229
 10
498.65061
 20
316.238329
 10
498.137997
 20
316.350063
 10
497.661819
 20
316.449363
 10
496.984413
 20
316.586569
 10
496.358376
 20
316.73603
 10
496.045686
 20
316.822209
 10
495.723116
 20
316.919675
 10
495.383093
 20
317.031171
 10
495.018043
 20
317.159436
 10
494.182564
 20
317.477239
 10
493.156089
 20
317.895016
 10
491.878027
 20
318.434695
 10
490.287787
 20
319.118206
 10
489.179833
 20
319.584661
 10
487.823026
 20
320.12894
 10
487.103646
 20
320.404961
 10
486.384867
 20
320.670075
 10
485.687624
 20
320.91416
 10
485.032856
 20
321.127096
 10
484.128103
 20
321.392156
 10
483.147527
 20
321.659646
 10
481.25424
 20
322.164948
 10
480.986919
 20
322.152399
 10
480.868846
 20
322.135623
 10
480.761358
 20
322.11088
 10
480.664599
 20
322.077443
 10
480.578714
 20
322.034588
 10
480.503849
 20
321.981588
 10
480.440147
 20
321.917718
 10
480.387754
 20
321.842253
 10
480.346814
 20
321.754467
 10
480.317473
 20
321.653634
 10
480.299875
 20
321.53903
 10
480.294164
 20
321.409927
 10
480.300487
 20
321.265602
 10
480.318987
 20
321.105328
 10
480.34981
 20
320.92838
 10
480.3931
 20
320.734032
 10
480.449002
 20
320.521558
 10
480.599221
 20
320.039334
 10
480.801627
 20
319.475902
 10
481.057377
 20
318.825458
 10
481.36763
 20
318.082198
 10
481.733546
 20
317.240318
 10
482.636996
 20
315.23748
 10
483.409799
 20
313.580994
 10
484.365184
 20
311.57868
 10
485.381712
 20
309.482911
 10
486.337947
 20
307.546062
 10
487.398407
 20
305.389934
 10
487.953641
 20
304.274088
 10
488.484878
 20
303.24724
 10
488.873336
 20
302.541381
 10
489.304014
 20
301.787107
 10
490.141017
 20
300.336823
 10
491.779668
 20
297.399037
 10
492.651452
 20
295.8233
 10
493.423279
 20
294.439156
 10
494.061044
 20
293.323527
 10
494.758361
 20
292.126605
 10
496.108178
 20
289.822485
 10
496.381759
 20
289.386169
 10
496.610048
 20
288.98413
 10
496.706982
 20
288.794037
 10
496.79232
 20
288.610203
 10
496.865973
 20
288.431856
 10
496.927848
 20
288.258225
 10
496.977856
 20
288.088541
 10
497.015905
 20
287.922032
 10
497.041904
 20
287.757929
 10
497.055764
 20
287.59546
 10
497.057392
 20
287.433856
 10
497.046698
 20
287.272345
 10
497.023591
 20
287.110158
 10
496.987981
 20
286.946524
 10
496.939776
 20
286.780672
 10
496.878886
 20
286.611832
 10
496.80522
 20
286.439234
 10
496.718686
 20
286.262106
 10
496.619195
 20
286.079679
 10
496.506655
 20
285.891182
 10
496.242065
 20
285.492895
 10
495.92419
 20
285.061083
 10
495.552304
 20
284.589581
 10
495.125678
 20
284.072226
 10
494.643588
 20
283.502853
 10
494.110025
 20
282.884583
 10
493.827339
 20
282.570495
 10
493.534562
 20
282.261404
 10
493.232083
 20
281.963537
 10
492.920285
 20
281.683118
 10
492.599555
 20
281.426373
 10
492.435962
 20
281.308824
 10
492.27028
 20
281.199528
 10
492.094399
 20
281.107384
 10
491.887989
 20
281.021133
 10
491.701164
 20
280.954358
 10
491.58404
 20
280.92064
  0
LWPOLYLINE
  5
4E
330
1F
100
AcDbEntity
  8
0
100
AcDbPolyline
 90
      318
 70
   128
 43
0.0
 10
545.141014
 20
334.752955
 10
547.097684
 20
335.167009
 10
549.170067
 20
325.373655
 10
550.482045
 20
317.484952
 10
550.74665
 20
316.044016
 10
550.982367
 20
314.706135
 10
551.189794
 20
313.462987
 10
551.369527
 20
312.306249
 10
551.522165
 20
311.227598
 10
551.648305
 20
310.218712
 10
551.748544
 20
309.271268
 10
551.82348
 20
308.376943
 10
551.873709
 20
307.527416
 10
551.89983
 20
306.714364
 10
551.902439
 20
305.929463
 10
551.882134
 20
305.164392
 10
551.839513
 20
304.410828
 10
551.775172
 20
303.660448
 10
551.689709
 20
302.904929
 10
551.583722
 20
302.135951
 10
551.28096
 20
300.104985
 10
550.337245
 20
296.13791
 10
550.141528
 20
295.287699
 10
549.953589
 20
294.416574
 10
549.774075
 20
293.529279
 10
549.603635
 20
292.630559
 10
549.442914
 20
291.725162
 10
549.292561
 20
290.817831
 10
549.153222
 20
289.913314
 10
549.025546
 20
289.016356
 10
548.910178
 20
288.1317
 10
548.807768
 20
287.264096
 10
548.718963
 20
286.418286
 10
548.644409
 20
285.599017
 10
548.584754
 20
284.811036
 10
548.540646
 20
284.059086
 10
548.512732
 20
283.347914
 10
548.501658
 20
282.682266
 10
548.508873
 20
282.166046
 10
548.534126
 20
281.64187
 10
548.576999
 20
281.110671
 10
548.637073
 20
280.573384
 10
548.713927
 20
280.030947
 10
548.807143
 20
279.484293
 10
548.916299
 20
278.934359
 10
549.040978
 20
278.382079
 10
549.18076
 20
277.828389
 10
549.335224
 20
277.274227
 10
549.503953
 20
276.720524
 10
549.686526
 20
276.168219
 10
549.882522
 20
275.618246
 10
550.091524
 20
275.07154
 10
550.313111
 20
274.529037
 10
550.546864
 20
273.991673
 10
550.792364
 20
273.460384
 10
551.049191
 20
272.936103
 10
551.316924
 20
272.419768
 10
551.595146
 20
271.912313
 10
551.883436
 20
271.414674
 10
552.181375
 20
270.927786
 10
552.488542
 20
270.452586
 10
552.80452
 20
269.990008
 10
553.128889
 20
269.540987
 10
553.461227
 20
269.10646
 10
553.801117
 20
268.687361
 10
554.148138
 20
268.284626
 10
554.501872
 20
267.899192
 10
554.861899
 20
267.531992
 10
555.227798
 20
267.183964
 10
555.599152
 20
266.85604
 10
555.974032
 20
266.55291
 10
556.342944
 20
266.284227
 10
556.703634
 20
266.050297
 10
557.053847
 20
265.851427
 10
557.39133
 20
265.687922
 10
557.713827
 20
265.560088
 10
558.019085
 20
265.46823
 10
558.164545
 20
265.435887
 10
558.304849
 20
265.412653
 10
558.439716
 20
265.398567
 10
558.568865
 20
265.393665
 10
558.692013
 20
265.397988
 10
558.808879
 20
265.411572
 10
558.91918
 20
265.434455
 10
559.022635
 20
265.466676
 10
559.118963
 20
265.508274
 10
559.207882
 20
265.559287
 10
559.289108
 20
265.619752
 10
559.362361
 20
265.689708
 10
559.42736
 20
265.769193
 10
559.483822
 20
265.858246
 10
559.531467
 20
265.956904
 10
559.570009
 20
266.065206
 10
559.599171
 20
266.183191
 10
559.618668
 20
266.310895
 10
559.622227
 20
266.416451
 10
559.609379
 20
266.52919
 10
559.578671
 20
266.651051
 10
559.528649
 20
266.783973
 10
559.457861
 20
266.929894
 10
559.364854
 20
267.090752
 10
559.248175
 20
267.268486
 10
559.10637
 20
267.465036
 10
558.937987
 20
267.68234
 10
558.741572
 20
267.922336
 10
558.258837
 20
268.478159
 10
557.646538
 20
269.148016
 10
556.893053
 20
269.947416
 10
556.576332
 20
270.293082
 10
556.269573
 20
270.654253
 10
555.972932
 20
271.030375
 10
555.686558
 20
271.420899
 10
555.410607
 20
271.825275
 10
555.145229
 20
272.242952
 10
554.890578
 20
272.673378
 10
554.646805
 20
273.116004
 10
554.414064
 20
273.57028
 10
554.192506
 20
274.035655
 10
553.982284
 20
274.511578
 10
553.783551
 20
274.997498
 10
553.596459
 20
275.492865
 10
553.421161
 20
275.997129
 10
553.257808
 20
276.509737
 10
553.106555
 20
277.030143
 10
552.967552
 20
277.557792
 10
552.840953
 20
278.092136
 10
552.72691
 20
278.632623
 10
552.625575
 20
279.178705
 10
552.537101
 20
279.729828
 10
552.46164
 20
280.285443
 10
552.399346
 20
280.845001
 10
552.350369
 20
281.407949
 10
552.314864
 20
281.973738
 10
552.292982
 20
282.541816
 10
552.284876
 20
283.111634
 10
552.290697
 20
283.682641
 10
552.310599
 20
284.254285
 10
552.344734
 20
284.826018
 10
552.393255
 20
285.397288
 10
552.456315
 20
285.967545
 10
552.720831
 20
288.10824
 10
554.091816
 20
293.222579
 10
554.380983
 20
294.319554
 10
554.646033
 20
295.364332
 10
554.887639
 20
296.361301
 10
555.106474
 20
297.314844
 10
555.303211
 20
298.229348
 10
555.478523
 20
299.109199
 10
555.633085
 20
299.958784
 10
555.767568
 20
300.782486
 10
555.882646
 20
301.584692
 10
555.978992
 20
302.369789
 10
556.05728
 20
303.14216
 10
556.118181
 20
303.906194
 10
556.162371
 20
304.666274
 10
556.190522
 20
305.426786
 10
556.203305
 20
306.192117
 10
556.201397
 20
306.966653
 10
556.201625
 20
307.594964
 10
556.218553
 20
308.22836
 10
556.254905
 20
308.859878
 10
556.313409
 20
309.482556
 10
556.396792
 20
310.089432
 10
556.448664
 20
310.384769
 10
556.50778
 20
310.673545
 10
556.574477
 20
310.95489
 10
556.649099
 20
311.227932
 10
556.731984
 20
311.491803
 10
556.823475
 20
311.745631
 10
556.927761
 20
311.942132
 10
557.038129
 20
312.130955
 10
557.154138
 20
312.312439
 10
557.275342
 20
312.486927
 10
557.531572
 20
312.816287
 10
557.803276
 20
313.121772
 10
558.086913
 20
313.406119
 10
558.378938
 20
313.672065
 10
558.67581
 20
313.922349
 10
558.973986
 20
314.159709
 10
559.468219
 20
314.5632
 10
559.700159
 20
314.767123
 10
559.922015
 20
314.972579
 10
560.133818
 20
315.179633
 10
560.33559
 20
315.388347
 10
560.52736
 20
315.598782
 10
560.709154
 20
315.811003
 10
560.880999
 20
316.02507
 10
561.042923
 20
316.241049
 10
561.194951
 20
316.458998
 10
561.337109
 20
316.678983
 10
561.469426
 20
316.901066
 10
561.591926
 20
317.125308
 10
561.704639
 20
317.351772
 10
561.807588
 20
317.580523
 10
561.900802
 20
317.811621
 10
561.984308
 20
318.045128
 10
562.058132
 20
318.281109
 10
562.122299
 20
318.519625
 10
562.176838
 20
318.760739
 10
562.221776
 20
319.004513
 10
562.257137
 20
319.251011
 10
562.28295
 20
319.500293
 10
562.29924
 20
319.752425
 10
562.306035
 20
320.007465
 10
562.303363
 20
320.26548
 10
562.291247
 20
320.526531
 10
562.269716
 20
320.790679
 10
562.238797
 20
321.057988
 10
562.198515
 20
321.328521
 10
562.148899
 20
321.602339
 10
562.089641
 20
321.879178
 10
562.02191
 20
322.150213
 10
561.945359
 20
322.415781
 10
561.859643
 20
322.676226
 10
561.764412
 20
322.931886
 10
561.659322
 20
323.1831
 10
561.544025
 20
323.430209
 10
561.418175
 20
323.673554
 10
561.281426
 20
323.913472
 10
561.133428
 20
324.150307
 10
560.973837
 20
324.384396
 10
560.802306
 20
324.616079
 10
560.618487
 20
324.845697
 10
560.422034
 20
325.073591
 10
560.212602
 20
325.300098
 10
559.989843
 20
325.52556
 10
559.753408
 20
325.750317
 10
559.502953
 20
325.974708
 10
559.23813
 20
326.199074
 10
558.958593
 20
326.423754
 10
558.663996
 20
326.649089
 10
558.353991
 20
326.875418
 10
558.028231
 20
327.103081
 10
557.686369
 20
327.332419
 10
556.952956
 20
327.797477
 10
556.150977
 20
328.273311
 10
555.277659
 20
328.762641
 10
554.330227
 20
329.268188
 10
554.034836
 20
329.429028
 10
553.755357
 20
329.595148
 10
553.490814
 20
329.767656
 10
553.240233
 20
329.947663
 10
553.002639
 20
330.136278
 10
552.777057
 20
330.334611
 10
552.562513
 20
330.543771
 10
552.358032
 20
330.764869
 10
552.162639
 20
330.999013
 10
551.97536
 20
331.247313
 10
551.795221
 20
331.51088
 10
551.621246
 20
331.790822
 10
551.45246
 20
332.088249
 10
551.287888
 20
332.404272
 10
551.126557
 20
332.739999
 10
550.967493
 20
333.096541
 10
550.379686
 20
334.460852
 10
549.4917
 20
337.619671
 10
549.24638
 20
338.472812
 10
549.026731
 20
339.190741
 10
548.826244
 20
339.789361
 10
548.638413
 20
340.284574
 10
548.456731
 20
340.69228
 10
548.366161
 20
340.868287
 10
548.274688
 20
341.028381
 10
548.181499
 20
341.174548
 10
548.085778
 20
341.308777
 10
547.986715
 20
341.433056
 10
547.883495
 20
341.549371
 10
547.640293
 20
341.802724
 10
547.53111
 20
341.903065
 10
547.423327
 20
341.986257
 10
547.311782
 20
342.052606
 10
547.191316
 20
342.102417
 10
547.056766
 20
342.135999
 10
546.902974
 20
342.153656
 10
546.724778
 20
342.155694
 10
546.517019
 20
342.142421
 10
546.274535
 20
342.114141
 10
545.992166
 20
342.071162
 10
545.287134
 20
341.942328
 10
544.360638
 20
341.758368
 10
543.444885
 20
341.57294
 10
542.749387
 20
341.422424
 10
542.238709
 20
341.291348
 10
542.041601
 20
341.228265
 10
541.877408
 20
341.164241
 10
541.741699
 20
341.09734
 10
541.630046
 20
341.025631
 10
541.538018
 20
340.947178
 10
541.461184
 20
340.860049
 10
541.395116
 20
340.762308
 10
541.335383
 20
340.652021
 10
541.217203
 20
340.386078
 10
540.876406
 20
339.575671
 10
542.004834
 20
333.541979
 10
542.378982
 20
331.549909
 10
542.670633
 20
330.0499
 10
542.792803
 20
329.46142
 10
542.903084
 20
328.968357
 10
543.004387
 20
328.56151
 10
543.099626
 20
328.231683
 10
543.19171
 20
327.969673
 10
543.283554
 20
327.766282
 10
543.378068
 20
327.612309
 10
543.478163
 20
327.498557
 10
543.586752
 20
327.415824
 10
543.706747
 20
327.354911
 10
543.841059
 20
327.30662
 10
543.992599
 20
327.26175
 10
544.186519
 20
327.216496
 10
544.408599
 20
327.182531
 10
544.651033
 20
327.160009
 10
544.906018
 20
327.149084
 10
545.16575
 20
327.149907
 10
545.422424
 20
327.162633
 10
545.668236
 20
327.187415
 10
546.395811
 20
327.305899
 42
0.428078
 10
546.641093
 20
327.664107
 10
545.141014
 20
334.752955
  0
LWPOLYLINE
  5
4F
330
1F
100
AcDbEntity
  8
0
100
AcDbPolyline
 90
       86
 70
   128
 43
0.0
 10
478.9487
 20
239.4
 10
484.303869
 20
239.4
 10
484.415526
 20
239.408448
 10
484.524268
 20
239.432268
 10
484.628248
 20
239.469178
 10
484.72562
 20
239.516895
 10
484.81454
 20
239.573135
 10
484.893159
 20
239.635615
 10
484.959634
 20
239.702052
 10
485.012118
 20
239.770164
 10
485.076046
 20
239.874362
 10
485.125717
 20
239.970607
 10
485.16211
 20
240.059791
 10
485.186207
 20
240.142807
 10
485.198989
 20
240.220548
 10
485.201436
 20
240.293906
 10
485.194531
 20
240.363773
 10
485.179254
 20
240.431043
 10
485.127506
 20
240.56136
 10
485.054041
 20
240.691997
 10
484.873352
 20
240.982794
 10
484.826823
 20
241.051693
 10
484.766591
 20
241.121005
 10
484.692732
 20
241.190699
 10
484.60532
 20
241.260742
 10
484.390141
 20
241.401746
 10
484.121652
 20
241.543758
 10
483.800455
 20
241.686519
 10
483.427149
 20
241.829772
 10
483.002336
 20
241.973257
 10
482.526615
 20
242.116716
 10
482.000586
 20
242.259891
 10
481.42485
 20
242.402522
 10
480.800007
 20
242.544352
 10
480.126658
 20
242.685121
 10
479.405402
 20
242.824571
 10
478.636841
 20
242.962444
 10
477.821573
 20
243.098481
 10
476.9602
 20
243.232423
 10
476.357737
 20
243.322172
 10
475.761806
 20
243.40104
 10
475.464819
 20
243.432668
 10
475.167699
 20
243.457105
 10
474.869859
 20
243.47286
 10
474.57071
 20
243.478442
 10
474.372464
 20
243.467981
 10
474.116139
 20
243.43799
 10
473.864168
 20
243.390558
 10
473.759327
 20
243.360956
 10
473.678987
 20
243.327777
 10
473.555108
 20
243.25735
 10
473.437253
 20
243.18143
 10
473.325484
 20
243.100339
 10
473.219866
 20
243.014396
 10
473.027328
 20
242.829238
 10
472.860144
 20
242.62852
 10
472.718815
 20
242.414805
 10
472.603844
 20
242.190658
 10
472.515735
 20
241.958643
 10
472.45499
 20
241.721323
 10
472.422111
 20
241.481263
 10
472.417602
 20
241.241026
 10
472.441966
 20
241.003176
 10
472.465133
 20
240.885948
 10
472.495706
 20
240.770277
 10
472.533748
 20
240.656486
 10
472.579323
 20
240.544894
 10
472.632493
 20
240.435822
 10
472.693322
 20
240.32959
 10
472.761871
 20
240.226518
 10
472.838204
 20
240.126928
 10
472.922384
 20
240.03114
 10
473.014474
 20
239.939474
 10
473.115444
 20
239.850018
 10
473.219373
 20
239.770996
 10
473.33334
 20
239.701766
 10
473.464421
 20
239.641684
 10
473.619696
 20
239.590106
 10
473.806241
 20
239.546388
 10
474.031134
 20
239.509888
 10
474.301454
 20
239.479962
 10
474.624278
 20
239.455966
 10
475.006684
 20
239.437257
 10
475.978553
 20
239.413127
 10
477.273684
 20
239.402424
 10
478.9487
 20
239.4
  0
LWPOLYLINE
  5
50
330
1F
100
AcDbEntity
  8
0
100
AcDbPolyline
 90
       90
 70
   128
 43
0.0
 10
508.140657
 20
239.416474
 10
522.838542
 20
239.458649
 10
523.156887
 20
239.463442
 10
523.491058
 20
239.477859
 10
523.809761
 20
239.50196
 10
524.0817
 20
239.535803
 10
524.403148
 20
239.595658
 10
524.657962
 20
239.663544
 10
524.762671
 20
239.702623
 10
524.853469
 20
239.74626
 10
524.931272
 20
239.795303
 10
524.996996
 20
239.850603
 10
525.051558
 20
239.91301
 10
525.095873
 20
239.983373
 10
525.130857
 20
240.062543
 10
525.157427
 20
240.151368
 10
525.176497
 20
240.2507
 10
525.188985
 20
240.361387
 10
525.197876
 20
240.620227
 10
525.187761
 20
240.80447
 10
525.155854
 20
240.981811
 10
525.099811
 20
241.151671
 10
525.017289
 20
241.31347
 10
524.905945
 20
241.466628
 10
524.838733
 20
241.539785
 10
524.763436
 20
241.610565
 10
524.587418
 20
241.7447
 10
524.375549
 20
241.868456
 10
524.192989
 20
241.954459
 10
523.983303
 20
242.039206
 10
523.747689
 20
242.122457
 10
523.487343
 20
242.203975
 10
523.203462
 20
242.283524
 10
522.897244
 20
242.360865
 10
522.222581
 20
242.507975
 10
521.472929
 20
242.643406
 10
520.657864
 20
242.765259
 10
519.786959
 20
242.871634
 10
518.869792
 20
242.960632
 10
517.944305
 20
243.048013
 10
517.46399
 20
243.089937
 10
517.017708
 20
243.118104
 10
515.720567
 20
243.166648
 10
514.344621
 20
243.203391
 10
512.91614
 20
243.227688
 10
511.461396
 20
243.238895
 10
510.00666
 20
243.236369
 10
508.578203
 20
243.219464
 10
507.202295
 20
243.187536
 10
505.905208
 20
243.139942
 10
504.820549
 20
243.083252
 10
503.67133
 20
243.007871
 10
502.479416
 20
242.916151
 10
501.266676
 20
242.810446
 10
500.054977
 20
242.693107
 10
498.866185
 20
242.566487
 10
497.722168
 20
242.432938
 10
496.644792
 20
242.294812
 10
495.926376
 20
242.173641
 10
495.210133
 20
242.038585
 10
494.931402
 20
241.983876
 10
494.66419
 20
241.921753
 10
494.409233
 20
241.852927
 10
494.167263
 20
241.778109
 10
493.939015
 20
241.698009
 10
493.725222
 20
241.613337
 10
493.526618
 20
241.524804
 10
493.343937
 20
241.433122
 10
493.177911
 20
241.338999
 10
493.029277
 20
241.243147
 10
492.898766
 20
241.146276
 10
492.787112
 20
241.049096
 10
492.69505
 20
240.952319
 10
492.623313
 20
240.856654
 10
492.572635
 20
240.762813
 10
492.54375
 20
240.671505
 10
492.532751
 20
240.593208
 10
492.526378
 20
240.48684
 10
492.528132
 20
240.360774
 10
492.541513
 20
240.223384
 10
492.570023
 20
240.083046
 10
492.617163
 20
239.948133
 10
492.648812
 20
239.885328
 10
492.686432
 20
239.82702
 10
492.730458
 20
239.774255
 10
492.781331
 20
239.72808
 10
492.931589
 20
239.629282
 10
493.10414
 20
239.539038
 10
493.442773
 20
239.374299
 10
508.140657
 20
239.416474
  0
LWPOLYLINE
  5
51
330
1F
100
AcDbEntity
  8
0
100
AcDbPolyline
 90
       82
 70
   128
 43
0.0
 10
530.652957
 20
239.929167
 10
530.813309
 20
239.940584
 10
530.97083
 20
239.973728
 10
531.124194
 20
240.02694
 10
531.272079
 20
240.098559
 10
531.413158
 20
240.186923
 10
531.546107
 20
240.290374
 10
531.669602
 20
240.407251
 10
531.782317
 20
240.535893
 10
531.882928
 20
240.674639
 10
531.970111
 20
240.821831
 10
532.042541
 20
240.975806
 10
532.098893
 20
241.134906
 10
532.137842
 20
241.297469
 10
532.158064
 20
241.461836
 10
532.158235
 20
241.626345
 10
532.137029
 20
241.789336
 10
532.084323
 20
242.018685
 10
532.015702
 20
242.262085
 10
531.932557
 20
242.51683
 10
531.836279
 20
242.780213
 10
531.72826
 20
243.049529
 10
531.609891
 20
243.322069
 10
531.482564
 20
243.595128
 10
531.347669
 20
243.865997
 10
531.206599
 20
244.131972
 10
531.060744
 20
244.390344
 10
530.911497
 20
244.638408
 10
530.760248
 20
244.873456
 10
530.60839
 20
245.092782
 10
530.457312
 20
245.293678
 10
530.308408
 20
245.473439
 10
530.163067
 20
245.629357
 10
529.961056
 20
245.821347
 10
529.776211
 20
245.972537
 10
529.600284
 20
246.085784
 10
529.513087
 20
246.129073
 10
529.425026
 20
246.163948
 10
529.335071
 20
246.190766
 10
529.242191
 20
246.209886
 10
529.043529
 20
246.226457
 10
528.820792
 20
246.216519
 10
528.565732
 20
246.182932
 10
528.363227
 20
246.143751
 10
528.168675
 20
246.093546
 10
527.982781
 20
246.03292
 10
527.806251
 20
245.962474
 10
527.639789
 20
245.882809
 10
527.484102
 20
245.794528
 10
527.339895
 20
245.698232
 10
527.207873
 20
245.594523
 10
527.088741
 20
245.484002
 10
526.983205
 20
245.367271
 10
526.89197
 20
245.244932
 10
526.815742
 20
245.117586
 10
526.755225
 20
244.985835
 10
526.711126
 20
244.850281
 10
526.684149
 20
244.711524
 10
526.675
 20
244.570168
 10
526.683213
 20
244.441183
 10
526.707294
 20
244.301388
 10
526.746405
 20
244.151761
 10
526.799708
 20
243.993281
 10
526.866365
 20
243.826923
 10
526.945539
 20
243.653666
 10
527.138086
 20
243.290363
 10
527.370647
 20
242.91119
 10
527.63652
 20
242.523967
 10
527.929003
 20
242.136513
 10
528.241393
 20
241.756646
 10
528.56699
 20
241.392187
 10
528.899089
 20
241.050953
 10
529.230991
 20
240.740764
 10
529.555993
 20
240.46944
 10
529.713812
 20
240.350796
 10
529.867392
 20
240.244799
 10
530.015896
 20
240.152428
 10
530.158487
 20
240.07466
 10
530.294326
 20
240.012473
 10
530.422576
 20
239.966843
 10
530.542399
 20
239.938749
 10
530.652957
 20
239.929167
  0
LWPOLYLINE
  5
52
330
1F
100
AcDbEntity
  8
0
100
AcDbPolyline
 90
       92
 70
   128
 43
0.0
 10
488.145117
 20
243.7866
 10
488.42671
 20
243.825215
 10
488.682928
 20
243.86791
 10
488.914764
 20
243.915438
 10
489.123213
 20
243.968553
 10
489.30927
 20
244.02801
 10
489.473929
 20
244.094564
 10
489.618186
 20
244.168967
 10
489.743035
 20
244.251976
 10
489.84947
 20
244.344342
 10
489.938487
 20
244.446822
 10
490.01108
 20
244.56017
 10
490.068244
 20
244.685138
 10
490.110973
 20
244.822483
 10
490.140262
 20
244.972957
 10
490.157106
 20
245.137316
 10
490.1625
 20
245.316313
 10
490.151651
 20
245.590748
 10
490.137053
 20
245.719784
 10
490.115416
 20
245.843891
 10
490.08605
 20
245.963464
 10
490.048263
 20
246.078897
 10
490.001363
 20
246.190584
 10
489.944658
 20
246.29892
 10
489.877457
 20
246.404298
 10
489.799068
 20
246.507115
 10
489.7088
 20
246.607762
 10
489.605961
 20
246.706636
 10
489.48986
 20
246.80413
 10
489.359805
 20
246.900639
 10
489.215104
 20
246.996557
 10
489.055065
 20
247.092278
 10
488.686211
 20
247.284708
 10
488.247707
 20
247.481083
 10
487.734023
 20
247.684558
 10
487.139625
 20
247.898289
 10
486.45898
 20
248.125428
 10
485.686556
 20
248.369131
 10
483.844238
 20
248.918849
 10
483.451259
 20
249.022118
 10
482.924625
 20
249.145071
 10
481.676605
 20
249.408789
 10
481.058324
 20
249.52893
 10
480.512599
 20
249.627511
 10
480.090981
 20
249.694222
 10
479.845024
 20
249.71875
 10
479.526339
 20
249.709859
 10
479.226659
 20
249.683397
 10
478.946382
 20
249.639684
 10
478.685907
 20
249.579038
 10
478.445632
 20
249.501777
 10
478.225957
 20
249.408219
 10
478.02728
 20
249.298683
 10
477.85
 20
249.173488
 10
477.694515
 20
249.032952
 10
477.561225
 20
248.877393
 10
477.450529
 20
248.70713
 10
477.362824
 20
248.522481
 10
477.29851
 20
248.323765
 10
477.257985
 20
248.1113
 10
477.241649
 20
247.885404
 10
477.2499
 20
247.646397
 10
477.280846
 20
247.388655
 10
477.329647
 20
247.160912
 10
477.399627
 20
246.957732
 10
477.443598
 20
246.863654
 10
477.494112
 20
246.773678
 10
477.551584
 20
246.687124
 10
477.616429
 20
246.603312
 10
477.769903
 20
246.441197
 10
477.957861
 20
246.281897
 10
478.183627
 20
246.119973
 10
478.341088
 20
246.022535
 10
478.526382
 20
245.922484
 10
478.737719
 20
245.820239
 10
478.973308
 20
245.71622
 10
479.510079
 20
245.504538
 10
480.122368
 20
245.290794
 10
480.795848
 20
245.078344
 10
481.51619
 20
244.870544
 10
482.269069
 20
244.670749
 10
483.040156
 20
244.482317
 10
483.815126
 20
244.308602
 10
484.57965
 20
244.152961
 10
485.319401
 20
244.01875
 10
486.020052
 20
243.909324
 10
486.667277
 20
243.82804
 10
487.246747
 20
243.778254
 10
487.506597
 20
243.766222
 10
487.744136
 20
243.763322
 10
487.957573
 20
243.769975
 10
488.145117
 20
243.7866
  0
LWPOLYLINE
  5
53
330
1F
100
AcDbEntity
  8
0
100
AcDbPolyline
 90
       96
 70
   128
 43
0.0
 10
523.632899
 20
244.427083
 10
523.705226
 20
244.437249
 10
523.790483
 20
244.466383
 10
523.885535
 20
244.512443
 10
523.987243
 20
244.573386
 10
524.09247
 20
244.64717
 10
524.198077
 20
244.731752
 10
524.300928
 20
244.825088
 10
524.397884
 20
244.925137
 10
524.521771
 20
245.079564
 10
524.616245
 20
245.238912
 10
524.652094
 20
245.32114
 10
524.680161
 20
245.405448
 10
524.700301
 20
245.492119
 10
524.712371
 20
245.581438
 10
524.71623
 20
245.673687
 10
524.711732
 20
245.76915
 10
524.698736
 20
245.868109
 10
524.677097
 20
245.970849
 10
524.60732
 20
246.188803
 10
524.501256
 20
246.425278
 10
524.357759
 20
246.682542
 10
524.175683
 20
246.96286
 10
523.953883
 20
247.268499
 10
523.691212
 20
247.601727
 10
523.386526
 20
247.96481
 10
523.038678
 20
248.360014
 10
522.646522
 20
248.789606
 10
522.208914
 20
249.255854
 10
521.671713
 20
249.846444
 10
521.099489
 20
250.490387
 10
520.806349
 20
250.810503
 10
520.51178
 20
251.117723
 10
520.218225
 20
251.403302
 10
519.928125
 20
251.658494
 10
519.799347
 20
251.757925
 10
519.657731
 20
251.856345
 10
519.351228
 20
252.048922
 10
519.039104
 20
252.233765
 10
518.751846
 20
252.408413
 10
518.559343
 20
252.525515
 10
518.36638
 20
252.631962
 10
518.173469
 20
252.727876
 10
517.981125
 20
252.813383
 10
517.789863
 20
252.888605
 10
517.600196
 20
252.953667
 10
517.412638
 20
253.008693
 10
517.227704
 20
253.053805
 10
517.045908
 20
253.089129
 10
516.867764
 20
253.114786
 10
516.693786
 20
253.130903
 10
516.524488
 20
253.137601
 10
516.360384
 20
253.135006
 10
516.201989
 20
253.12324
 10
516.049817
 20
253.102427
 10
515.904382
 20
253.072692
 10
515.766197
 20
253.034157
 10
515.635778
 20
252.986947
 10
515.513638
 20
252.931186
 10
515.400292
 20
252.866997
 10
515.296253
 20
252.794504
 10
515.202035
 20
252.713831
 10
515.118154
 20
252.625101
 10
515.045123
 20
252.528438
 10
514.983456
 20
252.423967
 10
514.933667
 20
252.31181
 10
514.896271
 20
252.192092
 10
514.871781
 20
252.064936
 10
514.860712
 20
251.930466
 10
514.863578
 20
251.788806
 10
514.880893
 20
251.640079
 10
514.913172
 20
251.48441
 10
514.966005
 20
251.337266
 10
515.055153
 20
251.167464
 10
515.178401
 20
250.976798
 10
515.333536
 20
250.767059
 10
515.518343
 20
250.54004
 10
515.730607
 20
250.297532
 10
515.968114
 20
250.041328
 10
516.22865
 20
249.77322
 10
516.809951
 20
249.208461
 10
517.456796
 20
248.617592
 10
518.151469
 20
248.01495
 10
518.876257
 20
247.414873
 10
519.613443
 20
246.831699
 10
520.345315
 20
246.279764
 10
521.054156
 20
245.773406
 10
521.722253
 20
245.326963
 10
522.035486
 20
245.13069
 10
522.33189
 20
244.954772
 10
522.609251
 20
244.801001
 10
522.865353
 20
244.67117
 10
523.097984
 20
244.56707
 10
523.304928
 20
244.490495
 10
523.483971
 20
244.443235
 10
523.632899
 20
244.427083
  0
LWPOLYLINE
  5
54
330
1F
100
AcDbEntity
  8
0
100
AcDbPolyline
 90
       98
 70
   128
 43
0.0
 10
514.693295
 20
244.969182
 10
514.823538
 20
244.974814
 10
514.946593
 20
244.996888
 10
515.061821
 20
245.034327
 10
515.168586
 20
245.086056
 10
515.26625
 20
245.150996
 10
515.354175
 20
245.228072
 10
515.431725
 20
245.316207
 10
515.498262
 20
245.414323
 10
515.553148
 20
245.521345
 10
515.595746
 20
245.636194
 10
515.625419
 20
245.757795
 10
515.64153
 20
245.88507
 10
515.643441
 20
246.016944
 10
515.630514
 20
246.152338
 10
515.602113
 20
246.290176
 10
515.5576
 20
246.429381
 10
515.478829
 20
246.595529
 10
515.358764
 20
246.786973
 10
515.198059
 20
247.002452
 10
514.997364
 20
247.240707
 10
514.757333
 20
247.500477
 10
514.478617
 20
247.780502
 10
514.16187
 20
248.079521
 10
513.807743
 20
248.396275
 10
513.416888
 20
248.729503
 10
512.989958
 20
249.077944
 10
512.527604
 20
249.440339
 10
512.03048
 20
249.815428
 10
511.499238
 20
250.201949
 10
510.934529
 20
250.598642
 10
510.337006
 20
251.004248
 10
509.707321
 20
251.417506
 10
508.755661
 20
252.036445
 10
507.724193
 20
252.696027
 10
507.198193
 20
253.018867
 10
506.675835
 20
253.32524
 10
506.164984
 20
253.606268
 10
505.673506
 20
253.853075
 10
505.444781
 20
253.956325
 10
505.22999
 20
254.042915
 10
505.02764
 20
254.113395
 10
504.836236
 20
254.168312
 10
504.654284
 20
254.208215
 10
504.480291
 20
254.233651
 10
504.312761
 20
254.245169
 10
504.150202
 20
254.243318
 10
503.991118
 20
254.228646
 10
503.834017
 20
254.2017
 10
503.677403
 20
254.16303
 10
503.519783
 20
254.113183
 10
503.195549
 20
253.982153
 10
502.849361
 20
253.812997
 10
502.639495
 20
253.695541
 10
502.468302
 20
253.577873
 10
502.332487
 20
253.454767
 10
502.276816
 20
253.389542
 10
502.228754
 20
253.320996
 10
502.187889
 20
253.248478
 10
502.15381
 20
253.171333
 10
502.104358
 20
253.00055
 10
502.077103
 20
252.80342
 10
502.06875
 20
252.574717
 10
502.074168
 20
252.456701
 10
502.090428
 20
252.336867
 10
502.117541
 20
252.215208
 10
502.155517
 20
252.091714
 10
502.204366
 20
251.966377
 10
502.264098
 20
251.839189
 10
502.334723
 20
251.71014
 10
502.416253
 20
251.579223
 10
502.508696
 20
251.446428
 10
502.612063
 20
251.311747
 10
502.851609
 20
251.036694
 10
503.134974
 20
250.753993
 10
503.462239
 20
250.463578
 10
503.833485
 20
250.165378
 10
504.248794
 20
249.859325
 10
504.708247
 20
249.54535
 10
505.211926
 20
249.223386
 10
505.759912
 20
248.893362
 10
506.352288
 20
248.555211
 10
506.989134
 20
248.208863
 10
507.670531
 20
247.85425
 10
508.427042
 20
247.459831
 10
509.240529
 20
247.030546
 10
510.058483
 20
246.610619
 10
510.452728
 20
246.417984
 10
510.828398
 20
246.244273
 10
511.218457
 20
246.08174
 10
511.644181
 20
245.91924
 10
512.467845
 20
245.613194
 10
513.150651
 20
245.367137
 10
513.797843
 20
245.163695
 10
514.085264
 20
245.084559
 10
514.336398
 20
245.024
 10
514.542118
 20
244.984661
 10
514.693295
 20
244.969182
  0
LWPOLYLINE
  5
55
330
1F
100
AcDbEntity
  8
0
100
AcDbPolyline
 90
       96
 70
   128
 43
0.0
 10
501.936458
 20
246.049327
 10
502.156705
 20
246.048818
 10
502.376965
 20
246.057704
 10
502.59136
 20
246.075121
 10
502.794012
 20
246.100206
 10
502.979041
 20
246.132094
 10
503.140571
 20
246.169921
 10
503.272723
 20
246.212825
 10
503.369618
 20
246.259941
 10
503.461128
 20
246.334564
 10
503.539137
 20
246.432131
 10
503.603755
 20
246.549848
 10
503.655092
 20
246.684921
 10
503.693259
 20
246.834557
 10
503.718366
 20
246.995961
 10
503.730523
 20
247.166341
 10
503.729842
 20
247.342902
 10
503.716432
 20
247.522851
 10
503.690405
 20
247.703393
 10
503.651869
 20
247.881735
 10
503.600936
 20
248.055084
 10
503.537717
 20
248.220644
 10
503.462321
 20
248.375624
 10
503.374859
 20
248.517228
 10
503.275441
 20
248.642664
 10
503.167054
 20
248.74894
 10
503.025437
 20
248.86583
 10
502.852548
 20
248.992483
 10
502.650348
 20
249.128048
 10
502.165846
 20
249.422512
 10
501.587604
 20
249.742413
 10
500.931295
 20
250.080946
 10
500.212592
 20
250.431303
 10
499.447165
 20
250.786676
 10
498.650689
 20
251.140258
 10
497.838835
 20
251.485242
 10
497.027277
 20
251.814821
 10
496.231686
 20
252.122187
 10
495.467736
 20
252.400534
 10
494.751098
 20
252.643053
 10
494.097445
 20
252.842938
 10
493.52245
 20
252.993382
 10
493.269347
 20
253.047936
 10
493.041786
 20
253.087577
 10
492.400518
 20
253.173228
 10
492.119854
 20
253.201523
 10
491.862744
 20
253.219553
 10
491.626868
 20
253.226886
 10
491.409906
 20
253.223092
 10
491.209539
 20
253.207736
 10
491.023447
 20
253.180388
 10
490.84931
 20
253.140614
 10
490.684809
 20
253.087983
 10
490.527623
 20
253.022062
 10
490.375434
 20
252.942419
 10
490.225922
 20
252.848623
 10
490.076766
 20
252.74024
 10
489.925647
 20
252.616838
 10
489.770246
 20
252.477985
 10
489.603864
 20
252.31068
 10
489.462949
 20
252.14112
 10
489.347438
 20
251.969783
 10
489.257267
 20
251.797147
 10
489.192371
 20
251.62369
 10
489.152687
 20
251.44989
 10
489.138151
 20
251.276226
 10
489.148699
 20
251.103174
 10
489.184268
 20
250.931213
 10
489.244792
 20
250.760821
 10
489.330209
 20
250.592476
 10
489.440455
 20
250.426656
 10
489.575465
 20
250.263839
 10
489.735176
 20
250.104503
 10
489.919523
 20
249.949126
 10
490.128444
 20
249.798185
 10
490.339953
 20
249.648593
 10
490.566103
 20
249.484149
 10
490.79642
 20
249.326943
 10
490.909868
 20
249.257959
 10
491.02043
 20
249.199069
 10
491.50125
 20
248.974916
 10
492.005634
 20
248.758067
 10
492.530507
 20
248.548245
 10
493.072796
 20
248.34517
 10
493.629427
 20
248.148565
 10
494.197326
 20
247.958152
 10
495.354631
 20
247.594785
 10
496.520121
 20
247.252843
 10
497.669206
 20
246.930099
 10
499.819792
 20
246.333302
 10
500.083779
 20
246.266707
 10
500.348958
 20
246.204634
 10
500.637933
 20
246.152573
 10
501.033568
 20
246.105938
 10
501.483773
 20
246.069824
 10
501.936458
 20
246.049327
  0
LWPOLYLINE
  5
56
330
1F
100
AcDbEntity
  8
0
100
AcDbPolyline
 90
      117
 70
   128
 43
0.0
 10
466.084252
 20
258.595289
 10
465.897894
 20
258.735835
 10
465.723586
 20
258.880532
 10
465.561136
 20
259.029109
 10
465.410354
 20
259.181301
 10
465.271053
 20
259.33684
 10
465.143039
 20
259.495459
 10
465.026124
 20
259.656892
 10
464.920117
 20
259.820871
 10
464.824827
 20
259.987129
 10
464.740066
 20
260.1554
 10
464.665643
 20
260.325416
 10
464.601366
 20
260.49691
 10
464.547047
 20
260.669616
 10
464.502495
 20
260.843266
 10
464.46752
 20
261.017594
 10
464.441931
 20
261.192332
 10
464.42554
 20
261.367212
 10
464.418153
 20
261.54197
 10
464.419584
 20
261.716337
 10
464.429641
 20
261.890046
 10
464.448132
 20
262.062831
 10
464.47487
 20
262.234424
 10
464.509663
 20
262.404559
 10
464.552321
 20
262.572968
 10
464.602655
 20
262.739384
 10
464.660472
 20
262.903541
 10
464.725585
 20
263.065171
 10
464.797802
 20
263.224007
 10
464.962789
 20
263.532231
 10
465.15391
 20
263.826075
 10
465.369646
 20
264.103406
 10
465.608474
 20
264.362086
 10
465.736072
 20
264.483765
 10
465.868873
 20
264.59998
 10
466.006686
 20
264.710465
 10
466.149322
 20
264.814952
 10
466.296589
 20
264.913174
 10
466.448298
 20
265.004865
 10
466.604259
 20
265.089757
 10
466.764281
 20
265.167583
 10
466.928174
 20
265.238077
 10
467.09575
 20
265.300971
 10
467.266815
 20
265.355999
 10
467.441181
 20
265.402893
 10
467.618657
 20
265.441386
 10
467.799054
 20
265.471213
 10
467.982181
 20
265.492103
 10
468.167847
 20
265.503793
 10
468.355865
 20
265.506014
 10
468.54604
 20
265.4985
 10
468.738185
 20
265.480983
 10
468.93211
 20
265.453195
 10
469.127624
 20
265.414873
 10
469.324537
 20
265.365746
 10
469.522657
 20
265.305548
 10
469.721797
 20
265.234013
 10
469.921764
 20
265.150873
 10
470.12237
 20
265.055862
 10
470.323424
 20
264.948712
 10
470.524735
 20
264.829157
 10
470.707284
 20
264.707122
 10
470.880086
 20
264.575623
 10
471.043077
 20
264.435229
 10
471.196188
 20
264.286509
 10
471.339354
 20
264.130034
 10
471.472508
 20
263.966373
 10
471.595582
 20
263.796096
 10
471.70851
 20
263.619771
 10
471.811226
 20
263.437971
 10
471.903662
 20
263.251264
 10
471.985751
 20
263.060219
 10
472.057429
 20
262.865408
 10
472.118625
 20
262.667397
 10
472.169275
 20
262.46676
 10
472.209313
 20
262.264063
 10
472.238669
 20
262.059878
 10
472.257279
 20
261.854775
 10
472.265075
 20
261.649323
 10
472.26199
 20
261.44409
 10
472.247959
 20
261.239649
 10
472.222913
 20
261.036568
 10
472.186787
 20
260.835417
 10
472.139512
 20
260.636765
 10
472.081025
 20
260.441182
 10
472.011255
 20
260.249239
 10
471.930137
 20
260.061505
 10
471.837606
 20
259.878549
 10
471.733593
 20
259.700942
 10
471.618031
 20
259.529253
 10
471.490854
 20
259.364051
 10
471.351997
 20
259.205906
 10
471.20139
 20
259.05539
 10
470.910794
 20
258.803047
 10
470.61015
 20
258.579964
 10
470.300775
 20
258.386257
 10
469.983988
 20
258.222046
 10
469.661108
 20
258.087448
 10
469.333452
 20
257.982583
 10
469.002339
 20
257.907568
 10
468.669086
 20
257.862524
 10
468.50207
 20
257.851277
 10
468.335013
 20
257.847567
 10
468.16808
 20
257.851408
 10
468.001437
 20
257.862816
 10
467.835248
 20
257.881805
 10
467.669677
 20
257.90839
 10
467.50489
 20
257.942587
 10
467.341052
 20
257.984409
 10
467.178326
 20
258.033871
 10
467.016878
 20
258.090989
 10
466.856873
 20
258.155777
 10
466.698474
 20
258.22825
 10
466.541849
 20
258.308423
 10
466.38716
 20
258.396311
 10
466.234573
 20
258.491928
 10
466.084252
 20
258.595289
  0
ENDSEC
  0
SECTION
  2
OBJECTS
  0
DICTIONARY
  5
C
330
0
100
AcDbDictionary
281
     1
  3
ACAD_GROUP
350
D
  3
ACAD_LAYOUT
350
1A
  3
ACAD_MLINESTYLE
350
17
  3
ACAD_PLOTSETTINGS
350
19
  3
ACAD_PLOTSTYLENAME
350
E
  0
DICTIONARY
  5
D
102
{ACAD_REACTORS
330
C
102
}
330
C
100
AcDbDictionary
281
     1
  0
DICTIONARY
  5
1A
102
{ACAD_REACTORS
330
C
102
}
330
C
100
AcDbDictionary
281
     1
  3
Layout1
350
1E
  3
Layout2
350
26
  3
Model
350
22
  0
DICTIONARY
  5
17
102
{ACAD_REACTORS
330
C
102
}
330
C
100
AcDbDictionary
281
     1
  3
Standard
350
18
  0
DICTIONARY
  5
19
102
{ACAD_REACTORS
330
C
102
}
330
C
100
AcDbDictionary
281
     1
  0
ACDBDICTIONARYWDFLT
  5
E
102
{ACAD_REACTORS
330
C
102
}
330
C
100
AcDbDictionary
281
     1
  3
Normal
350
F
100
AcDbDictionaryWithDefault
340
F
  0
LAYOUT
  5
1E
102
{ACAD_REACTORS
330
1A
102
}
330
1A
100
AcDbPlotSettings
  1

  2

  4

  6

 40
0.0
 41
0.0
 42
0.0
 43
0.0
 44
0.0
 45
0.0
 46
0.0
 47
0.0
 48
0.0
 49
0.0
140
0.0
141
0.0
142
1.0
143
1.0
 70
   688
 72
     0
 73
     0
 74
     5
  7

 75
    16
147
1.0
148
0.0
149
0.0
100
AcDbLayout
  1
Layout1
 70
     1
 71
     1
 10
0.0
 20
0.0
 11
420.0
 21
297.0
 12
0.0
 22
0.0
 32
0.0
 14
1.000000E+20
 24
1.000000E+20
 34
1.000000E+20
 15
-1.000000E+20
 25
-1.000000E+20
 35
-1.000000E+20
146
0.0
 13
0.0
 23
0.0
 33
0.0
 16
1.0
 26
0.0
 36
0.0
 17
0.0
 27
1.0
 37
0.0
 76
     0
330
1B
  0
LAYOUT
  5
26
102
{ACAD_REACTORS
330
1A
102
}
330
1A
100
AcDbPlotSettings
  1

  2

  4

  6

 40
0.0
 41
0.0
 42
0.0
 43
0.0
 44
0.0
 45
0.0
 46
0.0
 47
0.0
 48
0.0
 49
0.0
140
0.0
141
0.0
142
1.0
143
1.0
 70
   688
 72
     0
 73
     0
 74
     5
  7

 75
    16
147
1.0
148
0.0
149
0.0
100
AcDbLayout
  1
Layout2
 70
     1
 71
     2
 10
0.0
 20
0.0
 11
0.0
 21
0.0
 12
0.0
 22
0.0
 32
0.0
 14
0.0
 24
0.0
 34
0.0
 15
0.0
 25
0.0
 35
0.0
146
0.0
 13
0.0
 23
0.0
 33
0.0
 16
1.0
 26
0.0
 36
0.0
 17
0.0
 27
1.0
 37
0.0
 76
     0
330
23
  0
LAYOUT
  5
22
102
{ACAD_REACTORS
330
1A
102
}
330
1A
100
AcDbPlotSettings
  1

  2

  4

  6

 40
0.0
 41
0.0
 42
0.0
 43
0.0
 44
0.0
 45
0.0
 46
0.0
 47
0.0
 48
0.0
 49
0.0
140
0.0
141
0.0
142
1.0
143
1.0
 70
  1712
 72
     0
 73
     0
 74
     0
  7

 75
     0
147
1.0
148
0.0
149
0.0
100
AcDbLayout
  1
Model
 70
     1
 71
     0
 10
0.0
 20
0.0
 11
0.0
 21
0.0
 12
0.0
 22
0.0
 32
0.0
 14
0.0
 24
0.0
 34
0.0
 15
0.0
 25
0.0
 35
0.0
146
0.0
 13
0.0
 23
0.0
 33
0.0
 16
1.0
 26
0.0
 36
0.0
 17
0.0
 27
1.0
 37
0.0
 76
     0
330
1F
  0
MLINESTYLE
  5
18
102
{ACAD_REACTORS
330
17
102
}
330
17
100
AcDbMlineStyle
  2
Standard
 70
     0
  3

 62
   256
 51
90.0
 52
90.0
 71
     2
 49
1.0
 62
   256
  6
BYLAYER
 49
-1.0
 62
   256
  6
BYLAYER
  0
ACDBPLACEHOLDER
  5
F
102
{ACAD_REACTORS
330
E
102
}
330
E
  0
ENDSEC
  0
EOF
