ISO-10303-21;
HEADER;
/* Generated by software containing ST-Developer
 * from STEP Tools, Inc. (www.steptools.com) 
 */

FILE_DESCRIPTION(
/* description */ (''),
/* implementation_level */ '2;1');

FILE_NAME(
/* name */ 'PINHD2.step',
/* time_stamp */ '2023-04-23T08:39:12+08:00',
/* author */ (''),
/* organization */ (''),
/* preprocessor_version */ 'ST-DEVELOPER v19.2',
/* originating_system */ 'Autodesk Translation Framework v12.4.0.73',
/* authorisation */ '');

FILE_SCHEMA (('AUTOMOTIVE_DESIGN { 1 0 10303 214 3 1 1 }'));
ENDSEC;

DATA;
#10=MECHANICAL_DESIGN_GEOMETRIC_PRESENTATION_REPRESENTATION('',(#13,#14,
#15),#239);
#11=SHAPE_REPRESENTATION_RELATIONSHIP('SRR','None',#246,#12);
#12=ADVANCED_BREP_SHAPE_REPRESENTATION('',(#16,#17,#18),#238);
#13=STYLED_ITEM('',(#255),#16);
#14=STYLED_ITEM('',(#255),#17);
#15=STYLED_ITEM('',(#255),#18);
#16=MANIFOLD_SOLID_BREP('Body1',#125);
#17=MANIFOLD_SOLID_BREP('Body2',#126);
#18=MANIFOLD_SOLID_BREP('Body3',#127);
#19=FACE_BOUND('',#42,.T.);
#20=PLANE('',#144);
#21=PLANE('',#148);
#22=PLANE('',#149);
#23=PLANE('',#153);
#24=PLANE('',#154);
#25=PLANE('',#158);
#26=PLANE('',#159);
#27=FACE_OUTER_BOUND('',#38,.T.);
#28=FACE_OUTER_BOUND('',#39,.T.);
#29=FACE_OUTER_BOUND('',#40,.T.);
#30=FACE_OUTER_BOUND('',#41,.T.);
#31=FACE_OUTER_BOUND('',#43,.T.);
#32=FACE_OUTER_BOUND('',#44,.T.);
#33=FACE_OUTER_BOUND('',#45,.T.);
#34=FACE_OUTER_BOUND('',#46,.T.);
#35=FACE_OUTER_BOUND('',#47,.T.);
#36=FACE_OUTER_BOUND('',#48,.T.);
#37=FACE_OUTER_BOUND('',#49,.T.);
#38=EDGE_LOOP('',(#86,#87,#88,#89));
#39=EDGE_LOOP('',(#90));
#40=EDGE_LOOP('',(#91,#92,#93,#94));
#41=EDGE_LOOP('',(#95));
#42=EDGE_LOOP('',(#96));
#43=EDGE_LOOP('',(#97));
#44=EDGE_LOOP('',(#98,#99,#100,#101));
#45=EDGE_LOOP('',(#102));
#46=EDGE_LOOP('',(#103));
#47=EDGE_LOOP('',(#104,#105,#106,#107));
#48=EDGE_LOOP('',(#108));
#49=EDGE_LOOP('',(#109));
#50=LINE('',#209,#54);
#51=LINE('',#216,#55);
#52=LINE('',#224,#56);
#53=LINE('',#232,#57);
#54=VECTOR('',#166,0.542822596282419);
#55=VECTOR('',#175,4.28500984214468);
#56=VECTOR('',#186,0.530158733976608);
#57=VECTOR('',#197,0.47655160474115);
#58=CIRCLE('',#142,0.542822596282419);
#59=CIRCLE('',#143,0.542822596282419);
#60=CIRCLE('',#146,4.28500984214468);
#61=CIRCLE('',#147,4.28500984214468);
#62=CIRCLE('',#151,0.530158733976608);
#63=CIRCLE('',#152,0.530158733976608);
#64=CIRCLE('',#156,0.47655160474115);
#65=CIRCLE('',#157,0.47655160474115);
#66=VERTEX_POINT('',#206);
#67=VERTEX_POINT('',#208);
#68=VERTEX_POINT('',#213);
#69=VERTEX_POINT('',#215);
#70=VERTEX_POINT('',#221);
#71=VERTEX_POINT('',#223);
#72=VERTEX_POINT('',#229);
#73=VERTEX_POINT('',#231);
#74=EDGE_CURVE('',#66,#66,#58,.T.);
#75=EDGE_CURVE('',#66,#67,#50,.T.);
#76=EDGE_CURVE('',#67,#67,#59,.T.);
#77=EDGE_CURVE('',#68,#68,#60,.T.);
#78=EDGE_CURVE('',#68,#69,#51,.T.);
#79=EDGE_CURVE('',#69,#69,#61,.T.);
#80=EDGE_CURVE('',#70,#70,#62,.T.);
#81=EDGE_CURVE('',#70,#71,#52,.T.);
#82=EDGE_CURVE('',#71,#71,#63,.T.);
#83=EDGE_CURVE('',#72,#72,#64,.T.);
#84=EDGE_CURVE('',#72,#73,#53,.T.);
#85=EDGE_CURVE('',#73,#73,#65,.T.);
#86=ORIENTED_EDGE('',*,*,#74,.F.);
#87=ORIENTED_EDGE('',*,*,#75,.T.);
#88=ORIENTED_EDGE('',*,*,#76,.T.);
#89=ORIENTED_EDGE('',*,*,#75,.F.);
#90=ORIENTED_EDGE('',*,*,#76,.F.);
#91=ORIENTED_EDGE('',*,*,#77,.F.);
#92=ORIENTED_EDGE('',*,*,#78,.T.);
#93=ORIENTED_EDGE('',*,*,#79,.T.);
#94=ORIENTED_EDGE('',*,*,#78,.F.);
#95=ORIENTED_EDGE('',*,*,#77,.T.);
#96=ORIENTED_EDGE('',*,*,#74,.T.);
#97=ORIENTED_EDGE('',*,*,#79,.F.);
#98=ORIENTED_EDGE('',*,*,#80,.F.);
#99=ORIENTED_EDGE('',*,*,#81,.T.);
#100=ORIENTED_EDGE('',*,*,#82,.F.);
#101=ORIENTED_EDGE('',*,*,#81,.F.);
#102=ORIENTED_EDGE('',*,*,#82,.T.);
#103=ORIENTED_EDGE('',*,*,#80,.T.);
#104=ORIENTED_EDGE('',*,*,#83,.F.);
#105=ORIENTED_EDGE('',*,*,#84,.T.);
#106=ORIENTED_EDGE('',*,*,#85,.F.);
#107=ORIENTED_EDGE('',*,*,#84,.F.);
#108=ORIENTED_EDGE('',*,*,#85,.T.);
#109=ORIENTED_EDGE('',*,*,#83,.T.);
#110=CYLINDRICAL_SURFACE('',#141,0.542822596282419);
#111=CYLINDRICAL_SURFACE('',#145,4.28500984214468);
#112=CYLINDRICAL_SURFACE('',#150,0.530158733976608);
#113=CYLINDRICAL_SURFACE('',#155,0.47655160474115);
#114=ADVANCED_FACE('',(#27),#110,.F.);
#115=ADVANCED_FACE('',(#28),#20,.T.);
#116=ADVANCED_FACE('',(#29),#111,.T.);
#117=ADVANCED_FACE('',(#30,#19),#21,.T.);
#118=ADVANCED_FACE('',(#31),#22,.F.);
#119=ADVANCED_FACE('',(#32),#112,.T.);
#120=ADVANCED_FACE('',(#33),#23,.T.);
#121=ADVANCED_FACE('',(#34),#24,.F.);
#122=ADVANCED_FACE('',(#35),#113,.T.);
#123=ADVANCED_FACE('',(#36),#25,.T.);
#124=ADVANCED_FACE('',(#37),#26,.F.);
#125=CLOSED_SHELL('',(#114,#115,#116,#117,#118));
#126=CLOSED_SHELL('',(#119,#120,#121));
#127=CLOSED_SHELL('',(#122,#123,#124));
#128=DERIVED_UNIT_ELEMENT(#130,1.);
#129=DERIVED_UNIT_ELEMENT(#241,-3.);
#130=(
MASS_UNIT()
NAMED_UNIT(*)
SI_UNIT(.KILO.,.GRAM.)
);
#131=DERIVED_UNIT((#128,#129));
#132=MEASURE_REPRESENTATION_ITEM('density measure',
POSITIVE_RATIO_MEASURE(7850.),#131);
#133=PROPERTY_DEFINITION_REPRESENTATION(#138,#135);
#134=PROPERTY_DEFINITION_REPRESENTATION(#139,#136);
#135=REPRESENTATION('material name',(#137),#238);
#136=REPRESENTATION('density',(#132),#238);
#137=DESCRIPTIVE_REPRESENTATION_ITEM('Steel','Steel');
#138=PROPERTY_DEFINITION('material property','material name',#248);
#139=PROPERTY_DEFINITION('material property','density of part',#248);
#140=AXIS2_PLACEMENT_3D('',#204,#160,#161);
#141=AXIS2_PLACEMENT_3D('',#205,#162,#163);
#142=AXIS2_PLACEMENT_3D('',#207,#164,#165);
#143=AXIS2_PLACEMENT_3D('',#210,#167,#168);
#144=AXIS2_PLACEMENT_3D('',#211,#169,#170);
#145=AXIS2_PLACEMENT_3D('',#212,#171,#172);
#146=AXIS2_PLACEMENT_3D('',#214,#173,#174);
#147=AXIS2_PLACEMENT_3D('',#217,#176,#177);
#148=AXIS2_PLACEMENT_3D('',#218,#178,#179);
#149=AXIS2_PLACEMENT_3D('',#219,#180,#181);
#150=AXIS2_PLACEMENT_3D('',#220,#182,#183);
#151=AXIS2_PLACEMENT_3D('',#222,#184,#185);
#152=AXIS2_PLACEMENT_3D('',#225,#187,#188);
#153=AXIS2_PLACEMENT_3D('',#226,#189,#190);
#154=AXIS2_PLACEMENT_3D('',#227,#191,#192);
#155=AXIS2_PLACEMENT_3D('',#228,#193,#194);
#156=AXIS2_PLACEMENT_3D('',#230,#195,#196);
#157=AXIS2_PLACEMENT_3D('',#233,#198,#199);
#158=AXIS2_PLACEMENT_3D('',#234,#200,#201);
#159=AXIS2_PLACEMENT_3D('',#235,#202,#203);
#160=DIRECTION('axis',(0.,0.,1.));
#161=DIRECTION('refdir',(1.,0.,0.));
#162=DIRECTION('center_axis',(0.,0.,-1.));
#163=DIRECTION('ref_axis',(-1.,0.,0.));
#164=DIRECTION('center_axis',(0.,0.,-1.));
#165=DIRECTION('ref_axis',(-1.,0.,0.));
#166=DIRECTION('',(0.,0.,-1.));
#167=DIRECTION('center_axis',(0.,0.,-1.));
#168=DIRECTION('ref_axis',(-1.,0.,0.));
#169=DIRECTION('center_axis',(0.,0.,1.));
#170=DIRECTION('ref_axis',(-1.,0.,0.));
#171=DIRECTION('center_axis',(0.,0.,1.));
#172=DIRECTION('ref_axis',(1.,0.,0.));
#173=DIRECTION('center_axis',(0.,0.,1.));
#174=DIRECTION('ref_axis',(1.,0.,0.));
#175=DIRECTION('',(0.,0.,-1.));
#176=DIRECTION('center_axis',(0.,0.,1.));
#177=DIRECTION('ref_axis',(1.,0.,0.));
#178=DIRECTION('center_axis',(0.,0.,1.));
#179=DIRECTION('ref_axis',(1.,0.,0.));
#180=DIRECTION('center_axis',(0.,0.,1.));
#181=DIRECTION('ref_axis',(1.,0.,0.));
#182=DIRECTION('center_axis',(0.,0.,-1.));
#183=DIRECTION('ref_axis',(1.,0.,0.));
#184=DIRECTION('center_axis',(0.,0.,-1.));
#185=DIRECTION('ref_axis',(1.,0.,0.));
#186=DIRECTION('',(0.,0.,1.));
#187=DIRECTION('center_axis',(0.,0.,1.));
#188=DIRECTION('ref_axis',(1.,0.,0.));
#189=DIRECTION('center_axis',(0.,0.,1.));
#190=DIRECTION('ref_axis',(1.,0.,0.));
#191=DIRECTION('center_axis',(0.,0.,1.));
#192=DIRECTION('ref_axis',(1.,0.,0.));
#193=DIRECTION('center_axis',(0.,0.,-1.));
#194=DIRECTION('ref_axis',(1.,0.,0.));
#195=DIRECTION('center_axis',(0.,0.,-1.));
#196=DIRECTION('ref_axis',(1.,0.,0.));
#197=DIRECTION('',(0.,0.,1.));
#198=DIRECTION('center_axis',(0.,0.,1.));
#199=DIRECTION('ref_axis',(1.,0.,0.));
#200=DIRECTION('center_axis',(0.,0.,1.));
#201=DIRECTION('ref_axis',(1.,0.,0.));
#202=DIRECTION('center_axis',(0.,0.,1.));
#203=DIRECTION('ref_axis',(1.,0.,0.));
#204=CARTESIAN_POINT('',(0.,0.,0.));
#205=CARTESIAN_POINT('Origin',(3.00000004470348,0.,5.));
#206=CARTESIAN_POINT('',(3.5428226409859,6.6476595504212E-17,5.));
#207=CARTESIAN_POINT('Origin',(3.00000004470348,0.,5.));
#208=CARTESIAN_POINT('',(3.5428226409859,6.6476595504212E-17,4.));
#209=CARTESIAN_POINT('',(3.5428226409859,-6.6476595504212E-17,5.));
#210=CARTESIAN_POINT('Origin',(3.00000004470348,0.,4.));
#211=CARTESIAN_POINT('Origin',(3.00000004470348,0.,4.));
#212=CARTESIAN_POINT('Origin',(3.00000004470348,0.,0.));
#213=CARTESIAN_POINT('',(-1.28500979744119,-5.24762358749738E-16,5.));
#214=CARTESIAN_POINT('Origin',(3.00000004470348,0.,5.));
#215=CARTESIAN_POINT('',(-1.28500979744119,-5.24762358749738E-16,0.));
#216=CARTESIAN_POINT('',(-1.28500979744119,-5.24762358749738E-16,0.));
#217=CARTESIAN_POINT('Origin',(3.00000004470348,0.,0.));
#218=CARTESIAN_POINT('Origin',(3.00000004470348,0.,5.));
#219=CARTESIAN_POINT('Origin',(3.00000004470348,0.,0.));
#220=CARTESIAN_POINT('Origin',(0.,0.,0.));
#221=CARTESIAN_POINT('',(-0.530158733976608,-6.49257196604466E-17,-3.));
#222=CARTESIAN_POINT('Origin',(0.,0.,-3.));
#223=CARTESIAN_POINT('',(-0.530158733976608,-6.49257196604466E-17,0.));
#224=CARTESIAN_POINT('',(-0.530158733976608,6.49257196604466E-17,0.));
#225=CARTESIAN_POINT('Origin',(0.,0.,0.));
#226=CARTESIAN_POINT('Origin',(0.,0.,0.));
#227=CARTESIAN_POINT('Origin',(0.,0.,-3.));
#228=CARTESIAN_POINT('Origin',(6.00000008940697,0.,0.));
#229=CARTESIAN_POINT('',(5.52344848466582,-5.83607397374784E-17,-3.));
#230=CARTESIAN_POINT('Origin',(6.00000008940697,0.,-3.));
#231=CARTESIAN_POINT('',(5.52344848466582,-5.83607397374784E-17,0.));
#232=CARTESIAN_POINT('',(5.52344848466582,5.83607397374784E-17,0.));
#233=CARTESIAN_POINT('Origin',(6.00000008940697,0.,0.));
#234=CARTESIAN_POINT('Origin',(6.00000008940697,0.,0.));
#235=CARTESIAN_POINT('Origin',(6.00000008940697,0.,-3.));
#236=UNCERTAINTY_MEASURE_WITH_UNIT(LENGTH_MEASURE(0.01),#240,
'DISTANCE_ACCURACY_VALUE',
'Maximum model space distance between geometric entities at asserted c
onnectivities');
#237=UNCERTAINTY_MEASURE_WITH_UNIT(LENGTH_MEASURE(0.01),#240,
'DISTANCE_ACCURACY_VALUE',
'Maximum model space distance between geometric entities at asserted c
onnectivities');
#238=(
GEOMETRIC_REPRESENTATION_CONTEXT(3)
GLOBAL_UNCERTAINTY_ASSIGNED_CONTEXT((#236))
GLOBAL_UNIT_ASSIGNED_CONTEXT((#240,#242,#243))
REPRESENTATION_CONTEXT('','3D')
);
#239=(
GEOMETRIC_REPRESENTATION_CONTEXT(3)
GLOBAL_UNCERTAINTY_ASSIGNED_CONTEXT((#237))
GLOBAL_UNIT_ASSIGNED_CONTEXT((#240,#242,#243))
REPRESENTATION_CONTEXT('','3D')
);
#240=(
LENGTH_UNIT()
NAMED_UNIT(*)
SI_UNIT(.MILLI.,.METRE.)
);
#241=(
LENGTH_UNIT()
NAMED_UNIT(*)
SI_UNIT($,.METRE.)
);
#242=(
NAMED_UNIT(*)
PLANE_ANGLE_UNIT()
SI_UNIT($,.RADIAN.)
);
#243=(
NAMED_UNIT(*)
SI_UNIT($,.STERADIAN.)
SOLID_ANGLE_UNIT()
);
#244=SHAPE_DEFINITION_REPRESENTATION(#245,#246);
#245=PRODUCT_DEFINITION_SHAPE('',$,#248);
#246=SHAPE_REPRESENTATION('',(#140),#238);
#247=PRODUCT_DEFINITION_CONTEXT('part definition',#252,'design');
#248=PRODUCT_DEFINITION('PINHD2','PINHD2 v3',#249,#247);
#249=PRODUCT_DEFINITION_FORMATION('',$,#254);
#250=PRODUCT_RELATED_PRODUCT_CATEGORY('PINHD2 v3','PINHD2 v3',(#254));
#251=APPLICATION_PROTOCOL_DEFINITION('international standard',
'automotive_design',2009,#252);
#252=APPLICATION_CONTEXT(
'Core Data for Automotive Mechanical Design Process');
#253=PRODUCT_CONTEXT('part definition',#252,'mechanical');
#254=PRODUCT('PINHD2','PINHD2 v3',$,(#253));
#255=PRESENTATION_STYLE_ASSIGNMENT((#256));
#256=SURFACE_STYLE_USAGE(.BOTH.,#257);
#257=SURFACE_SIDE_STYLE('',(#258));
#258=SURFACE_STYLE_FILL_AREA(#259);
#259=FILL_AREA_STYLE('Aluminum - Anodized Glossy (Grey)',(#260));
#260=FILL_AREA_STYLE_COLOUR('Aluminum - Anodized Glossy (Grey)',#261);
#261=COLOUR_RGB('Aluminum - Anodized Glossy (Grey)',0.537254901960784,0.537254901960784,
0.537254901960784);
ENDSEC;
END-ISO-10303-21;
