  0
SECTION
  2
HEADER
  9
$ACADVER
  1
AC1014
  9
$HANDSEED
  5
FFFF
  9
$MEASUREMENT
 70
     1
  0
ENDSEC
  0
SECTION
  2
TABLES
  0
TABLE
  2
VPORT
  5
8
330
0
100
AcDbSymbolTable
 70
     4
  0
VPORT
  5
2E
330
8
100
AcDbSymbolTableRecord
100
AcDbViewportTableRecord
  2
*ACTIVE
 70
     0
 10
0.0
 20
0.0
 11
1.0
 21
1.0
 12
210.0
 22
148.5
 13
0.0
 23
0.0
 14
10.0
 24
10.0
 15
10.0
 25
10.0
 16
0.0
 26
0.0
 36
1.0
 17
0.0
 27
0.0
 37
0.0
 40
341.0
 41
1.24
 42
50.0
 43
0.0
 44
0.0
 50
0.0
 51
0.0
 71
     0
 72
   100
 73
     1
 74
     3
 75
     0
 76
     0
 77
     0
 78
     0
  0
ENDTAB
  0
TABLE
  2
LTYPE
  5
5
330
0
100
AcDbSymbolTable
 70
     1
  0
LTYPE
  5
14
330
5
100
AcDbSymbolTableRecord
100
AcDbLinetypeTableRecord
  2
BYBLOCK
 70
     0
  3

 72
    65
 73
     0
 40
0.0
  0
LTYPE
  5
15
330
5
100
AcDbSymbolTableRecord
100
AcDbLinetypeTableRecord
  2
BYLAYER
 70
     0
  3

 72
    65
 73
     0
 40
0.0
  0
LTYPE
  5
16
330
5
100
AcDbSymbolTableRecord
100
AcDbLinetypeTableRecord
  2
CONTINUOUS
 70
     0
  3
Solid line
 72
    65
 73
     0
 40
0.0
  0
ENDTAB
  0
TABLE
  2
LAYER
  5
2
100
AcDbSymbolTable
 70
2
  0
LAYER
  5
50
100
AcDbSymbolTableRecord
100
AcDbLayerTableRecord
  2
0
 70
0
  6
CONTINUOUS
  0
LAYER
  5
51
100
AcDbSymbolTableRecord
100
AcDbLayerTableRecord
  2
Layer_1
 70
0
  6
CONTINUOUS
  0
ENDTAB
  0
TABLE
  2
STYLE
  5
3
330
0
100
AcDbSymbolTable
 70
     1
  0
STYLE
  5
11
330
3
100
AcDbSymbolTableRecord
100
AcDbTextStyleTableRecord
  2
STANDARD
 70
     0
 40
0.0
 41
1.0
 50
0.0
 71
     0
 42
2.5
  3
txt
  4

  0
ENDTAB
  0
TABLE
  2
VIEW
  5
6
330
0
100
AcDbSymbolTable
 70
     0
  0
ENDTAB
  0
TABLE
  2
UCS
  5
7
330
0
100
AcDbSymbolTable
 70
     0
  0
ENDTAB
  0
TABLE
  2
APPID
  5
9
330
0
100
AcDbSymbolTable
 70
     2
  0
APPID
  5
12
330
9
100
AcDbSymbolTableRecord
100
AcDbRegAppTableRecord
  2
ACAD
 70
     0
  0
ENDTAB
  0
TABLE
  2
DIMSTYLE
  5
A
330
0
100
AcDbSymbolTable
 70
     1
  0
DIMSTYLE
105
27
330
A
100
AcDbSymbolTableRecord
100
AcDbDimStyleTableRecord
  2
ISO-25
 70
     0
  3

  4

  5

  6

  7

 40
1.0
 41
2.5
 42
0.625
 43
3.75
 44
1.25
 45
0.0
 46
0.0
 47
0.0
 48
0.0
140
2.5
141
2.5
142
0.0
143
0.03937007874016
144
1.0
145
0.0
146
1.0
147
0.625
 71
     0
 72
     0
 73
     0
 74
     0
 75
     0
 76
     0
 77
     1
 78
     8
170
     0
171
     3
172
     1
173
     0
174
     0
175
     0
176
     0
177
     0
178
     0
270
     2
271
     2
272
     2
273
     2
274
     3
340
11
275
     0
280
     0
281
     0
282
     0
283
     0
284
     8
285
     0
286
     0
287
     3
288
     0
  0
ENDTAB
  0
TABLE
  2
BLOCK_RECORD
  5
1
330
0
100
AcDbSymbolTable
 70
     1
  0
BLOCK_RECORD
  5
1F
330
1
100
AcDbSymbolTableRecord
100
AcDbBlockTableRecord
  2
*MODEL_SPACE
  0
BLOCK_RECORD
  5
1B
330
1
100
AcDbSymbolTableRecord
100
AcDbBlockTableRecord
  2
*PAPER_SPACE
  0
ENDTAB
  0
ENDSEC
  0
SECTION
  2
BLOCKS
  0
BLOCK
  5
20
330
1F
100
AcDbEntity
  8
0
100
AcDbBlockBegin
  2
*MODEL_SPACE
 70
     0
 10
0.0
 20
0.0
 30
0.0
  3
*MODEL_SPACE
  1

  0
ENDBLK
  5
21
330
1F
100
AcDbEntity
  8
0
100
AcDbBlockEnd
  0
BLOCK
  5
1C
330
1B
100
AcDbEntity
 67
     1
  8
0
100
AcDbBlockBegin
  2
*PAPER_SPACE
  1

  0
ENDBLK
  5
1D
330
1B
100
AcDbEntity
 67
     1
  8
0
100
AcDbBlockEnd
  0
ENDSEC
  0
SECTION
  2
ENTITIES
  0
LINE
  5
100
100
AcDbEntity
  8
Layer_1
 62
7
100
AcDbLine
 10
0.117101
 20
0.224855
 30
0.0
 11
0.069734
 21
0.142795
 31
0.0
  0
LINE
  5
101
100
AcDbEntity
  8
Layer_1
 62
7
100
AcDbLine
 10
0.069734
 20
0.142795
 30
0.0
 11
0.089873
 21
0.142795
 31
0.0
  0
LINE
  5
102
100
AcDbEntity
  8
Layer_1
 62
7
100
AcDbLine
 10
0.089873
 20
0.142795
 30
0.0
 11
0.063802
 21
0.097627
 31
0.0
  0
LINE
  5
103
100
AcDbEntity
  8
Layer_1
 62
7
100
AcDbLine
 10
0.063802
 20
0.097627
 30
0.0
 11
0.081539
 21
0.097627
 31
0.0
  0
LINE
  5
104
100
AcDbEntity
  8
Layer_1
 62
7
100
AcDbLine
 10
0.081539
 20
0.097627
 30
0.0
 11
0.042853
 21
0.030642
 31
0.0
  0
LINE
  5
105
100
AcDbEntity
  8
Layer_1
 62
7
100
AcDbLine
 10
0.042853
 20
0.030642
 30
0.0
 11
0.096759
 21
0.030642
 31
0.0
  0
LINE
  5
106
100
AcDbEntity
  8
Layer_1
 62
7
100
AcDbLine
 10
0.096759
 20
0.030642
 30
0.0
 11
0.096759
 21
0.006655
 31
0.0
  0
LINE
  5
107
100
AcDbEntity
  8
Layer_1
 62
7
100
AcDbLine
 10
0.096759
 20
0.006655
 30
0.0
 11
0.136516
 21
0.006655
 31
0.0
  0
LINE
  5
108
100
AcDbEntity
  8
Layer_1
 62
7
100
AcDbLine
 10
0.136516
 20
0.006655
 30
0.0
 11
0.136516
 21
0.030642
 31
0.0
  0
LINE
  5
109
100
AcDbEntity
  8
Layer_1
 62
7
100
AcDbLine
 10
0.136516
 20
0.030642
 30
0.0
 11
0.186487
 21
0.030642
 31
0.0
  0
LINE
  5
10a
100
AcDbEntity
  8
Layer_1
 62
7
100
AcDbLine
 10
0.186487
 20
0.030642
 30
0.0
 11
0.147801
 21
0.097627
 31
0.0
  0
LINE
  5
10b
100
AcDbEntity
  8
Layer_1
 62
7
100
AcDbLine
 10
0.147801
 20
0.097627
 30
0.0
 11
0.166753
 21
0.097627
 31
0.0
  0
LINE
  5
10c
100
AcDbEntity
  8
Layer_1
 62
7
100
AcDbLine
 10
0.166753
 20
0.097627
 30
0.0
 11
0.140683
 21
0.142795
 31
0.0
  0
LINE
  5
10d
100
AcDbEntity
  8
Layer_1
 62
7
100
AcDbLine
 10
0.140683
 20
0.142795
 30
0.0
 11
0.164468
 21
0.142795
 31
0.0
  0
LINE
  5
10e
100
AcDbEntity
  8
Layer_1
 62
7
100
AcDbLine
 10
0.164468
 20
0.142795
 30
0.0
 11
0.117101
 21
0.224855
 31
0.0
  0
LINE
  5
10f
100
AcDbEntity
  8
Layer_1
 62
7
100
AcDbLine
 10
0.117101
 20
0.224855
 30
0.0
 11
0.117101
 21
0.224855
 31
0.0
  0
LINE
  5
110
100
AcDbEntity
  8
Layer_1
 62
7
100
AcDbLine
 10
0.090683
 20
0.158921
 30
0.0
 11
0.090683
 21
0.158921
 31
0.0
  0
SPLINE
  5
111
100
AcDbEntity
  8
Layer_1
 62
7
100
AcDbSpline
 70
0
 71
3
 72
25
 73
21
 74
19
 40
0.000000
 40
0.000000
 40
0.000000
 40
0.000000
 40
0.001316
 40
0.002633
 40
0.003996
 40
0.005384
 40
0.006762
 40
0.008150
 40
0.009514
 40
0.010830
 40
0.012147
 40
0.013463
 40
0.014779
 40
0.016143
 40
0.017531
 40
0.018909
 40
0.020297
 40
0.021661
 40
0.022977
 40
0.024293
 40
0.024293
 40
0.024293
 40
0.024293
 10
0.090683
 20
0.158921
 30
0.0
 10
0.090634
 20
0.158479
 30
0.0
 10
0.090538
 20
0.157597
 30
0.0
 10
0.089793
 20
0.156440
 30
0.0
 10
0.088712
 20
0.155587
 30
0.0
 10
0.087381
 20
0.155137
 30
0.0
 10
0.085973
 20
0.155137
 30
0.0
 10
0.084645
 20
0.155587
 30
0.0
 10
0.083556
 20
0.156440
 30
0.0
 10
0.082840
 20
0.157597
 30
0.0
 10
0.082588
 20
0.158921
 30
0.0
 10
0.082840
 20
0.160244
 30
0.0
 10
0.083556
 20
0.161401
 30
0.0
 10
0.084645
 20
0.162254
 30
0.0
 10
0.085973
 20
0.162704
 30
0.0
 10
0.087381
 20
0.162704
 30
0.0
 10
0.088712
 20
0.162254
 30
0.0
 10
0.089793
 20
0.161401
 30
0.0
 10
0.090538
 20
0.160244
 30
0.0
 10
0.090634
 20
0.159362
 30
0.0
 10
0.090683
 20
0.158921
 30
0.0
 11
0.090683
 21
0.158921
 31
0.0
 11
0.090439
 21
0.157627
 31
0.0
 11
0.089750
 21
0.156506
 31
0.0
 11
0.088680
 21
0.155660
 31
0.0
 11
0.087366
 21
0.155212
 31
0.0
 11
0.085988
 21
0.155212
 31
0.0
 11
0.084675
 21
0.155660
 31
0.0
 11
0.083605
 21
0.156506
 31
0.0
 11
0.082916
 21
0.157627
 31
0.0
 11
0.082672
 21
0.158921
 31
0.0
 11
0.082916
 21
0.160214
 31
0.0
 11
0.083605
 21
0.161336
 31
0.0
 11
0.084675
 21
0.162181
 31
0.0
 11
0.085988
 21
0.162629
 31
0.0
 11
0.087366
 21
0.162629
 31
0.0
 11
0.088680
 21
0.162181
 31
0.0
 11
0.089750
 21
0.161336
 31
0.0
 11
0.090439
 21
0.160214
 31
0.0
 11
0.090683
 21
0.158921
 31
0.0
  0
LINE
  5
112
100
AcDbEntity
  8
Layer_1
 62
7
100
AcDbLine
 10
0.127522
 20
0.173294
 30
0.0
 11
0.127522
 21
0.173294
 31
0.0
  0
SPLINE
  5
113
100
AcDbEntity
  8
Layer_1
 62
7
100
AcDbSpline
 70
0
 71
3
 72
25
 73
21
 74
19
 40
0.000000
 40
0.000000
 40
0.000000
 40
0.000000
 40
0.001416
 40
0.002832
 40
0.004299
 40
0.005792
 40
0.007275
 40
0.008768
 40
0.010235
 40
0.011651
 40
0.013067
 40
0.014483
 40
0.015899
 40
0.017366
 40
0.018860
 40
0.020342
 40
0.021835
 40
0.023302
 40
0.024718
 40
0.026134
 40
0.026134
 40
0.026134
 40
0.026134
 10
0.127522
 20
0.173294
 30
0.0
 10
0.127469
 20
0.172820
 30
0.0
 10
0.127365
 20
0.171870
 30
0.0
 10
0.126564
 20
0.170626
 30
0.0
 10
0.125401
 20
0.169708
 30
0.0
 10
0.123970
 20
0.169224
 30
0.0
 10
0.122455
 20
0.169224
 30
0.0
 10
0.121026
 20
0.169708
 30
0.0
 10
0.119855
 20
0.170626
 30
0.0
 10
0.119084
 20
0.171870
 30
0.0
 10
0.118813
 20
0.173294
 30
0.0
 10
0.119084
 20
0.174718
 30
0.0
 10
0.119855
 20
0.175963
 30
0.0
 10
0.121026
 20
0.176881
 30
0.0
 10
0.122455
 20
0.177364
 30
0.0
 10
0.123970
 20
0.177364
 30
0.0
 10
0.125401
 20
0.176881
 30
0.0
 10
0.126564
 20
0.175963
 30
0.0
 10
0.127365
 20
0.174718
 30
0.0
 10
0.127469
 20
0.173769
 30
0.0
 10
0.127522
 20
0.173294
 30
0.0
 11
0.127522
 21
0.173294
 31
0.0
 11
0.127259
 21
0.171903
 31
0.0
 11
0.126518
 21
0.170696
 31
0.0
 11
0.125367
 21
0.169787
 31
0.0
 11
0.123954
 21
0.169305
 31
0.0
 11
0.122471
 21
0.169305
 31
0.0
 11
0.121058
 21
0.169787
 31
0.0
 11
0.119907
 21
0.170696
 31
0.0
 11
0.119166
 21
0.171903
 31
0.0
 11
0.118903
 21
0.173294
 31
0.0
 11
0.119166
 21
0.174686
 31
0.0
 11
0.119907
 21
0.175892
 31
0.0
 11
0.121058
 21
0.176802
 31
0.0
 11
0.122471
 21
0.177284
 31
0.0
 11
0.123954
 21
0.177284
 31
0.0
 11
0.125367
 21
0.176802
 31
0.0
 11
0.126518
 21
0.175892
 31
0.0
 11
0.127259
 21
0.174686
 31
0.0
 11
0.127522
 21
0.173294
 31
0.0
  0
LINE
  5
114
100
AcDbEntity
  8
Layer_1
 62
7
100
AcDbLine
 10
0.107731
 20
0.177435
 30
0.0
 11
0.107731
 21
0.177435
 31
0.0
  0
SPLINE
  5
115
100
AcDbEntity
  8
Layer_1
 62
7
100
AcDbSpline
 70
0
 71
3
 72
25
 73
21
 74
19
 40
0.000000
 40
0.000000
 40
0.000000
 40
0.000000
 40
0.002037
 40
0.004074
 40
0.006184
 40
0.008332
 40
0.010464
 40
0.012612
 40
0.014722
 40
0.016758
 40
0.018795
 40
0.020832
 40
0.022869
 40
0.024979
 40
0.027127
 40
0.029259
 40
0.031407
 40
0.033517
 40
0.035554
 40
0.037591
 40
0.037591
 40
0.037591
 40
0.037591
 10
0.107731
 20
0.177435
 30
0.0
 10
0.107656
 20
0.176753
 30
0.0
 10
0.107506
 20
0.175387
 30
0.0
 10
0.106353
 20
0.173597
 30
0.0
 10
0.104681
 20
0.172277
 30
0.0
 10
0.102622
 20
0.171581
 30
0.0
 10
0.100443
 20
0.171581
 30
0.0
 10
0.098387
 20
0.172277
 30
0.0
 10
0.096703
 20
0.173597
 30
0.0
 10
0.095594
 20
0.175387
 30
0.0
 10
0.095205
 20
0.177435
 30
0.0
 10
0.095594
 20
0.179484
 30
0.0
 10
0.096703
 20
0.181273
 30
0.0
 10
0.098387
 20
0.182594
 30
0.0
 10
0.100443
 20
0.183290
 30
0.0
 10
0.102622
 20
0.183290
 30
0.0
 10
0.104681
 20
0.182594
 30
0.0
 10
0.106353
 20
0.181273
 30
0.0
 10
0.107506
 20
0.179484
 30
0.0
 10
0.107656
 20
0.178118
 30
0.0
 10
0.107731
 20
0.177435
 30
0.0
 11
0.107731
 21
0.177435
 31
0.0
 11
0.107353
 21
0.175434
 31
0.0
 11
0.106287
 21
0.173698
 31
0.0
 11
0.104632
 21
0.172390
 31
0.0
 11
0.102599
 21
0.171697
 31
0.0
 11
0.100467
 21
0.171697
 31
0.0
 11
0.098434
 21
0.172390
 31
0.0
 11
0.096778
 21
0.173698
 31
0.0
 11
0.095712
 21
0.175434
 31
0.0
 11
0.095335
 21
0.177435
 31
0.0
 11
0.095712
 21
0.179437
 31
0.0
 11
0.096778
 21
0.181172
 31
0.0
 11
0.098434
 21
0.182480
 31
0.0
 11
0.100467
 21
0.183174
 31
0.0
 11
0.102599
 21
0.183174
 31
0.0
 11
0.104632
 21
0.182480
 31
0.0
 11
0.106287
 21
0.181172
 31
0.0
 11
0.107353
 21
0.179437
 31
0.0
 11
0.107731
 21
0.177435
 31
0.0
  0
LINE
  5
116
100
AcDbEntity
  8
Layer_1
 62
7
100
AcDbLine
 10
0.108138
 20
0.130683
 30
0.0
 11
0.108138
 21
0.130683
 31
0.0
  0
SPLINE
  5
117
100
AcDbEntity
  8
Layer_1
 62
7
100
AcDbSpline
 70
0
 71
3
 72
25
 73
21
 74
19
 40
0.000000
 40
0.000000
 40
0.000000
 40
0.000000
 40
0.002302
 40
0.004604
 40
0.006989
 40
0.009417
 40
0.011827
 40
0.014255
 40
0.016639
 40
0.018941
 40
0.021243
 40
0.023546
 40
0.025848
 40
0.028232
 40
0.030660
 40
0.033070
 40
0.035498
 40
0.037883
 40
0.040185
 40
0.042487
 40
0.042487
 40
0.042487
 40
0.042487
 10
0.108138
 20
0.130683
 30
0.0
 10
0.108053
 20
0.129911
 30
0.0
 10
0.107884
 20
0.128368
 30
0.0
 10
0.106581
 20
0.126345
 30
0.0
 10
0.104691
 20
0.124853
 30
0.0
 10
0.102364
 20
0.124066
 30
0.0
 10
0.099901
 20
0.124066
 30
0.0
 10
0.097578
 20
0.124853
 30
0.0
 10
0.095674
 20
0.126345
 30
0.0
 10
0.094421
 20
0.128368
 30
0.0
 10
0.093981
 20
0.130683
 30
0.0
 10
0.094421
 20
0.132998
 30
0.0
 10
0.095674
 20
0.135021
 30
0.0
 10
0.097578
 20
0.136513
 30
0.0
 10
0.099901
 20
0.137300
 30
0.0
 10
0.102364
 20
0.137300
 30
0.0
 10
0.104691
 20
0.136513
 30
0.0
 10
0.106581
 20
0.135021
 30
0.0
 10
0.107884
 20
0.132998
 30
0.0
 10
0.108053
 20
0.131455
 30
0.0
 10
0.108138
 20
0.130683
 30
0.0
 11
0.108138
 21
0.130683
 31
0.0
 11
0.107712
 21
0.128421
 31
0.0
 11
0.106507
 21
0.126459
 31
0.0
 11
0.104635
 21
0.124981
 31
0.0
 11
0.102338
 21
0.124197
 31
0.0
 11
0.099928
 21
0.124197
 31
0.0
 11
0.097630
 21
0.124981
 31
0.0
 11
0.095759
 21
0.126459
 31
0.0
 11
0.094554
 21
0.128421
 31
0.0
 11
0.094128
 21
0.130683
 31
0.0
 11
0.094554
 21
0.132946
 31
0.0
 11
0.095759
 21
0.134907
 31
0.0
 11
0.097630
 21
0.136385
 31
0.0
 11
0.099928
 21
0.137169
 31
0.0
 11
0.102338
 21
0.137169
 31
0.0
 11
0.104635
 21
0.136385
 31
0.0
 11
0.106507
 21
0.134907
 31
0.0
 11
0.107712
 21
0.132946
 31
0.0
 11
0.108138
 21
0.130683
 31
0.0
  0
LINE
  5
118
100
AcDbEntity
  8
Layer_1
 62
7
100
AcDbLine
 10
0.133400
 20
0.078845
 30
0.0
 11
0.133400
 21
0.078845
 31
0.0
  0
SPLINE
  5
119
100
AcDbEntity
  8
Layer_1
 62
7
100
AcDbSpline
 70
0
 71
3
 72
25
 73
21
 74
19
 40
0.000000
 40
0.000000
 40
0.000000
 40
0.000000
 40
0.003660
 40
0.007320
 40
0.011112
 40
0.014972
 40
0.018803
 40
0.022664
 40
0.026455
 40
0.030115
 40
0.033776
 40
0.037436
 40
0.041096
 40
0.044888
 40
0.048748
 40
0.052579
 40
0.056439
 40
0.060231
 40
0.063891
 40
0.067551
 40
0.067551
 40
0.067551
 40
0.067551
 10
0.133400
 20
0.078845
 30
0.0
 10
0.133265
 20
0.077618
 30
0.0
 10
0.132996
 20
0.075164
 30
0.0
 10
0.130924
 20
0.071948
 30
0.0
 10
0.127919
 20
0.069575
 30
0.0
 10
0.124220
 20
0.068324
 30
0.0
 10
0.120303
 20
0.068324
 30
0.0
 10
0.116610
 20
0.069575
 30
0.0
 10
0.113582
 20
0.071948
 30
0.0
 10
0.111590
 20
0.075164
 30
0.0
 10
0.110891
 20
0.078845
 30
0.0
 10
0.111590
 20
0.082525
 30
0.0
 10
0.113582
 20
0.085742
 30
0.0
 10
0.116610
 20
0.088114
 30
0.0
 10
0.120303
 20
0.089365
 30
0.0
 10
0.124220
 20
0.089365
 30
0.0
 10
0.127919
 20
0.088114
 30
0.0
 10
0.130924
 20
0.085742
 30
0.0
 10
0.132996
 20
0.082525
 30
0.0
 10
0.133265
 20
0.080072
 30
0.0
 10
0.133400
 20
0.078845
 30
0.0
 11
0.133400
 21
0.078845
 31
0.0
 11
0.132722
 21
0.075247
 31
0.0
 11
0.130806
 21
0.072129
 31
0.0
 11
0.127831
 21
0.069779
 31
0.0
 11
0.124178
 21
0.068532
 31
0.0
 11
0.120346
 21
0.068532
 31
0.0
 11
0.116693
 21
0.069779
 31
0.0
 11
0.113718
 21
0.072129
 31
0.0
 11
0.111802
 21
0.075247
 31
0.0
 11
0.111124
 21
0.078845
 31
0.0
 11
0.111802
 21
0.082442
 31
0.0
 11
0.113718
 21
0.085560
 31
0.0
 11
0.116693
 21
0.087911
 31
0.0
 11
0.120346
 21
0.089157
 31
0.0
 11
0.124178
 21
0.089157
 31
0.0
 11
0.127831
 21
0.087911
 31
0.0
 11
0.130806
 21
0.085560
 31
0.0
 11
0.132722
 21
0.082442
 31
0.0
 11
0.133400
 21
0.078845
 31
0.0
  0
LINE
  5
11a
100
AcDbEntity
  8
Layer_1
 62
7
100
AcDbLine
 10
0.143475
 20
0.174459
 30
0.0
 11
0.143475
 21
0.174459
 31
0.0
  0
SPLINE
  5
11b
100
AcDbEntity
  8
Layer_1
 62
7
100
AcDbSpline
 70
0
 71
3
 72
25
 73
21
 74
19
 40
0.000000
 40
0.000000
 40
0.000000
 40
0.000000
 40
0.001965
 40
0.003929
 40
0.005964
 40
0.008036
 40
0.010093
 40
0.012165
 40
0.014200
 40
0.016164
 40
0.018129
 40
0.020094
 40
0.022058
 40
0.024094
 40
0.026166
 40
0.028222
 40
0.030294
 40
0.032329
 40
0.034294
 40
0.036258
 40
0.036258
 40
0.036258
 40
0.036258
 10
0.143475
 20
0.174459
 30
0.0
 10
0.143403
 20
0.173800
 30
0.0
 10
0.143258
 20
0.172483
 30
0.0
 10
0.142146
 20
0.170757
 30
0.0
 10
0.140533
 20
0.169483
 30
0.0
 10
0.138548
 20
0.168812
 30
0.0
 10
0.136446
 20
0.168812
 30
0.0
 10
0.134463
 20
0.169483
 30
0.0
 10
0.132838
 20
0.170757
 30
0.0
 10
0.131769
 20
0.172483
 30
0.0
 10
0.131393
 20
0.174459
 30
0.0
 10
0.131769
 20
0.176434
 30
0.0
 10
0.132838
 20
0.178161
 30
0.0
 10
0.134463
 20
0.179434
 30
0.0
 10
0.136446
 20
0.180106
 30
0.0
 10
0.138548
 20
0.180106
 30
0.0
 10
0.140533
 20
0.179434
 30
0.0
 10
0.142146
 20
0.178161
 30
0.0
 10
0.143258
 20
0.176434
 30
0.0
 10
0.143403
 20
0.175117
 30
0.0
 10
0.143475
 20
0.174459
 30
0.0
 11
0.143475
 21
0.174459
 31
0.0
 11
0.143111
 21
0.172528
 31
0.0
 11
0.142083
 21
0.170854
 31
0.0
 11
0.140486
 21
0.169593
 31
0.0
 11
0.138525
 21
0.168923
 31
0.0
 11
0.136469
 21
0.168923
 31
0.0
 11
0.134508
 21
0.169593
 31
0.0
 11
0.132911
 21
0.170854
 31
0.0
 11
0.131883
 21
0.172528
 31
0.0
 11
0.131519
 21
0.174459
 31
0.0
 11
0.131883
 21
0.176390
 31
0.0
 11
0.132911
 21
0.178063
 31
0.0
 11
0.134508
 21
0.179325
 31
0.0
 11
0.136469
 21
0.179994
 31
0.0
 11
0.138525
 21
0.179994
 31
0.0
 11
0.140486
 21
0.179325
 31
0.0
 11
0.142083
 21
0.178063
 31
0.0
 11
0.143111
 21
0.176390
 31
0.0
 11
0.143475
 21
0.174459
 31
0.0
  0
LINE
  5
11c
100
AcDbEntity
  8
Layer_1
 62
7
100
AcDbLine
 10
0.075430
 20
0.051365
 30
0.0
 11
0.075430
 21
0.051365
 31
0.0
  0
SPLINE
  5
11d
100
AcDbEntity
  8
Layer_1
 62
7
100
AcDbSpline
 70
0
 71
3
 72
25
 73
21
 74
19
 40
0.000000
 40
0.000000
 40
0.000000
 40
0.000000
 40
0.002763
 40
0.005525
 40
0.008387
 40
0.011300
 40
0.014192
 40
0.017105
 40
0.019967
 40
0.022730
 40
0.025492
 40
0.028255
 40
0.031017
 40
0.033879
 40
0.036793
 40
0.039684
 40
0.042598
 40
0.045460
 40
0.048222
 40
0.050984
 40
0.050984
 40
0.050984
 40
0.050984
 10
0.075430
 20
0.051365
 30
0.0
 10
0.075328
 20
0.050439
 30
0.0
 10
0.075125
 20
0.048587
 30
0.0
 10
0.073561
 20
0.046159
 30
0.0
 10
0.071293
 20
0.044368
 30
0.0
 10
0.068501
 20
0.043424
 30
0.0
 10
0.065545
 20
0.043424
 30
0.0
 10
0.062758
 20
0.044368
 30
0.0
 10
0.060473
 20
0.046159
 30
0.0
 10
0.058969
 20
0.048587
 30
0.0
 10
0.058441
 20
0.051365
 30
0.0
 10
0.058969
 20
0.054143
 30
0.0
 10
0.060473
 20
0.056570
 30
0.0
 10
0.062758
 20
0.058361
 30
0.0
 10
0.065545
 20
0.059305
 30
0.0
 10
0.068501
 20
0.059305
 30
0.0
 10
0.071293
 20
0.058361
 30
0.0
 10
0.073561
 20
0.056570
 30
0.0
 10
0.075125
 20
0.054143
 30
0.0
 10
0.075328
 20
0.052291
 30
0.0
 10
0.075430
 20
0.051365
 30
0.0
 11
0.075430
 21
0.051365
 31
0.0
 11
0.074918
 21
0.048650
 31
0.0
 11
0.073472
 21
0.046296
 31
0.0
 11
0.071227
 21
0.044522
 31
0.0
 11
0.068469
 21
0.043581
 31
0.0
 11
0.065578
 21
0.043581
 31
0.0
 11
0.062820
 21
0.044522
 31
0.0
 11
0.060575
 21
0.046296
 31
0.0
 11
0.059129
 21
0.048650
 31
0.0
 11
0.058617
 21
0.051365
 31
0.0
 11
0.059129
 21
0.054080
 31
0.0
 11
0.060575
 21
0.056433
 31
0.0
 11
0.062820
 21
0.058207
 31
0.0
 11
0.065578
 21
0.059148
 31
0.0
 11
0.068469
 21
0.059148
 31
0.0
 11
0.071227
 21
0.058207
 31
0.0
 11
0.073472
 21
0.056433
 31
0.0
 11
0.074918
 21
0.054080
 31
0.0
 11
0.075430
 21
0.051365
 31
0.0
  0
LINE
  5
11e
100
AcDbEntity
  8
Layer_1
 62
7
100
AcDbLine
 10
0.145540
 20
0.063092
 30
0.0
 11
0.145540
 21
0.063092
 31
0.0
  0
SPLINE
  5
11f
100
AcDbEntity
  8
Layer_1
 62
7
100
AcDbSpline
 70
0
 71
3
 72
25
 73
21
 74
19
 40
0.000000
 40
0.000000
 40
0.000000
 40
0.000000
 40
0.002164
 40
0.004328
 40
0.006570
 40
0.008852
 40
0.011118
 40
0.013400
 40
0.015642
 40
0.017806
 40
0.019970
 40
0.022134
 40
0.024298
 40
0.026540
 40
0.028822
 40
0.031087
 40
0.033370
 40
0.035612
 40
0.037776
 40
0.039940
 40
0.039940
 40
0.039940
 40
0.039940
 10
0.145540
 20
0.063092
 30
0.0
 10
0.145461
 20
0.062367
 30
0.0
 10
0.145301
 20
0.060916
 30
0.0
 10
0.144076
 20
0.059014
 30
0.0
 10
0.142300
 20
0.057611
 30
0.0
 10
0.140112
 20
0.056872
 30
0.0
 10
0.137797
 20
0.056872
 30
0.0
 10
0.135613
 20
0.057611
 30
0.0
 10
0.133823
 20
0.059014
 30
0.0
 10
0.132645
 20
0.060916
 30
0.0
 10
0.132232
 20
0.063092
 30
0.0
 10
0.132645
 20
0.065268
 30
0.0
 10
0.133823
 20
0.067170
 30
0.0
 10
0.135613
 20
0.068573
 30
0.0
 10
0.137797
 20
0.069312
 30
0.0
 10
0.140112
 20
0.069312
 30
0.0
 10
0.142300
 20
0.068573
 30
0.0
 10
0.144076
 20
0.067170
 30
0.0
 10
0.145301
 20
0.065268
 30
0.0
 10
0.145461
 20
0.063817
 30
0.0
 10
0.145540
 20
0.063092
 30
0.0
 11
0.145540
 21
0.063092
 31
0.0
 11
0.145139
 21
0.060965
 31
0.0
 11
0.144007
 21
0.059121
 31
0.0
 11
0.142248
 21
0.057732
 31
0.0
 11
0.140087
 21
0.056995
 31
0.0
 11
0.137822
 21
0.056995
 31
0.0
 11
0.135662
 21
0.057732
 31
0.0
 11
0.133903
 21
0.059121
 31
0.0
 11
0.132770
 21
0.060965
 31
0.0
 11
0.132370
 21
0.063092
 31
0.0
 11
0.132770
 21
0.065219
 31
0.0
 11
0.133903
 21
0.067063
 31
0.0
 11
0.135662
 21
0.068452
 31
0.0
 11
0.137822
 21
0.069189
 31
0.0
 11
0.140087
 21
0.069189
 31
0.0
 11
0.142248
 21
0.068452
 31
0.0
 11
0.144007
 21
0.067063
 31
0.0
 11
0.145139
 21
0.065219
 31
0.0
 11
0.145540
 21
0.063092
 31
0.0
  0
LINE
  5
120
100
AcDbEntity
  8
Layer_1
 62
7
100
AcDbLine
 10
0.103462
 20
0.062697
 30
0.0
 11
0.103462
 21
0.062697
 31
0.0
  0
SPLINE
  5
121
100
AcDbEntity
  8
Layer_1
 62
7
100
AcDbSpline
 70
0
 71
3
 72
25
 73
21
 74
19
 40
0.000000
 40
0.000000
 40
0.000000
 40
0.000000
 40
0.001135
 40
0.002270
 40
0.003445
 40
0.004642
 40
0.005830
 40
0.007027
 40
0.008202
 40
0.009337
 40
0.010472
 40
0.011607
 40
0.012741
 40
0.013917
 40
0.015114
 40
0.016302
 40
0.017498
 40
0.018674
 40
0.019809
 40
0.020944
 40
0.020944
 40
0.020944
 40
0.020944
 10
0.103462
 20
0.062697
 30
0.0
 10
0.103420
 20
0.062317
 30
0.0
 10
0.103337
 20
0.061556
 30
0.0
 10
0.102694
 20
0.060559
 30
0.0
 10
0.101763
 20
0.059823
 30
0.0
 10
0.100616
 20
0.059436
 30
0.0
 10
0.099402
 20
0.059436
 30
0.0
 10
0.098256
 20
0.059823
 30
0.0
 10
0.097318
 20
0.060559
 30
0.0
 10
0.096700
 20
0.061556
 30
0.0
 10
0.096483
 20
0.062697
 30
0.0
 10
0.096700
 20
0.063838
 30
0.0
 10
0.097318
 20
0.064836
 30
0.0
 10
0.098256
 20
0.065571
 30
0.0
 10
0.099402
 20
0.065959
 30
0.0
 10
0.100616
 20
0.065959
 30
0.0
 10
0.101763
 20
0.065571
 30
0.0
 10
0.102694
 20
0.064836
 30
0.0
 10
0.103337
 20
0.063838
 30
0.0
 10
0.103420
 20
0.063078
 30
0.0
 10
0.103462
 20
0.062697
 30
0.0
 11
0.103462
 21
0.062697
 31
0.0
 11
0.103252
 21
0.061582
 31
0.0
 11
0.102658
 21
0.060615
 31
0.0
 11
0.101735
 21
0.059886
 31
0.0
 11
0.100603
 21
0.059500
 31
0.0
 11
0.099415
 21
0.059500
 31
0.0
 11
0.098282
 21
0.059886
 31
0.0
 11
0.097360
 21
0.060615
 31
0.0
 11
0.096766
 21
0.061582
 31
0.0
 11
0.096556
 21
0.062697
 31
0.0
 11
0.096766
 21
0.063813
 31
0.0
 11
0.097360
 21
0.064779
 31
0.0
 11
0.098282
 21
0.065508
 31
0.0
 11
0.099415
 21
0.065895
 31
0.0
 11
0.100603
 21
0.065895
 31
0.0
 11
0.101735
 21
0.065508
 31
0.0
 11
0.102658
 21
0.064779
 31
0.0
 11
0.103252
 21
0.063813
 31
0.0
 11
0.103462
 21
0.062697
 31
0.0
  0
LINE
  5
122
100
AcDbEntity
  8
Layer_1
 62
7
100
AcDbLine
 10
0.109423
 20
0.114952
 30
0.0
 11
0.109423
 21
0.114952
 31
0.0
  0
SPLINE
  5
123
100
AcDbEntity
  8
Layer_1
 62
7
100
AcDbSpline
 70
0
 71
3
 72
25
 73
21
 74
19
 40
0.000000
 40
0.000000
 40
0.000000
 40
0.000000
 40
0.001117
 40
0.002234
 40
0.003391
 40
0.004568
 40
0.005737
 40
0.006915
 40
0.008072
 40
0.009189
 40
0.010306
 40
0.011423
 40
0.012540
 40
0.013697
 40
0.014874
 40
0.016043
 40
0.017221
 40
0.018378
 40
0.019495
 40
0.020612
 40
0.020612
 40
0.020612
 40
0.020612
 10
0.109423
 20
0.114952
 30
0.0
 10
0.109382
 20
0.114578
 30
0.0
 10
0.109299
 20
0.113829
 30
0.0
 10
0.108667
 20
0.112848
 30
0.0
 10
0.107750
 20
0.112124
 30
0.0
 10
0.106622
 20
0.111742
 30
0.0
 10
0.105427
 20
0.111742
 30
0.0
 10
0.104300
 20
0.112124
 30
0.0
 10
0.103376
 20
0.112848
 30
0.0
 10
0.102768
 20
0.113829
 30
0.0
 10
0.102555
 20
0.114952
 30
0.0
 10
0.102768
 20
0.116075
 30
0.0
 10
0.103376
 20
0.117057
 30
0.0
 10
0.104300
 20
0.117781
 30
0.0
 10
0.105427
 20
0.118162
 30
0.0
 10
0.106622
 20
0.118162
 30
0.0
 10
0.107750
 20
0.117781
 30
0.0
 10
0.108667
 20
0.117057
 30
0.0
 10
0.109299
 20
0.116075
 30
0.0
 10
0.109382
 20
0.115326
 30
0.0
 10
0.109423
 20
0.114952
 30
0.0
 11
0.109423
 21
0.114952
 31
0.0
 11
0.109216
 21
0.113854
 31
0.0
 11
0.108631
 21
0.112903
 31
0.0
 11
0.107724
 21
0.112186
 31
0.0
 11
0.106609
 21
0.111805
 31
0.0
 11
0.105440
 21
0.111805
 31
0.0
 11
0.104325
 21
0.112186
 31
0.0
 11
0.103417
 21
0.112903
 31
0.0
 11
0.102833
 21
0.113854
 31
0.0
 11
0.102626
 21
0.114952
 31
0.0
 11
0.102833
 21
0.116050
 31
0.0
 11
0.103417
 21
0.117001
 31
0.0
 11
0.104325
 21
0.117718
 31
0.0
 11
0.105440
 21
0.118099
 31
0.0
 11
0.106609
 21
0.118099
 31
0.0
 11
0.107724
 21
0.117718
 31
0.0
 11
0.108631
 21
0.117001
 31
0.0
 11
0.109216
 21
0.116050
 31
0.0
 11
0.109423
 21
0.114952
 31
0.0
  0
LINE
  5
124
100
AcDbEntity
  8
Layer_1
 62
7
100
AcDbLine
 10
0.089804
 20
0.109741
 30
0.0
 11
0.089804
 21
0.109741
 31
0.0
  0
SPLINE
  5
125
100
AcDbEntity
  8
Layer_1
 62
7
100
AcDbSpline
 70
0
 71
3
 72
25
 73
21
 74
19
 40
0.000000
 40
0.000000
 40
0.000000
 40
0.000000
 40
0.001135
 40
0.002270
 40
0.003445
 40
0.004642
 40
0.005830
 40
0.007027
 40
0.008202
 40
0.009337
 40
0.010472
 40
0.011607
 40
0.012741
 40
0.013917
 40
0.015114
 40
0.016302
 40
0.017498
 40
0.018674
 40
0.019809
 40
0.020944
 40
0.020944
 40
0.020944
 40
0.020944
 10
0.089804
 20
0.109741
 30
0.0
 10
0.089762
 20
0.109361
 30
0.0
 10
0.089679
 20
0.108600
 30
0.0
 10
0.089037
 20
0.107603
 30
0.0
 10
0.088105
 20
0.106867
 30
0.0
 10
0.086958
 20
0.106479
 30
0.0
 10
0.085744
 20
0.106479
 30
0.0
 10
0.084599
 20
0.106867
 30
0.0
 10
0.083660
 20
0.107603
 30
0.0
 10
0.083042
 20
0.108600
 30
0.0
 10
0.082825
 20
0.109741
 30
0.0
 10
0.083042
 20
0.110882
 30
0.0
 10
0.083660
 20
0.111879
 30
0.0
 10
0.084599
 20
0.112615
 30
0.0
 10
0.085744
 20
0.113003
 30
0.0
 10
0.086958
 20
0.113003
 30
0.0
 10
0.088105
 20
0.112615
 30
0.0
 10
0.089037
 20
0.111879
 30
0.0
 10
0.089679
 20
0.110882
 30
0.0
 10
0.089762
 20
0.110121
 30
0.0
 10
0.089804
 20
0.109741
 30
0.0
 11
0.089804
 21
0.109741
 31
0.0
 11
0.089594
 21
0.108626
 31
0.0
 11
0.089000
 21
0.107659
 31
0.0
 11
0.088078
 21
0.106930
 31
0.0
 11
0.086945
 21
0.106544
 31
0.0
 11
0.085757
 21
0.106544
 31
0.0
 11
0.084624
 21
0.106930
 31
0.0
 11
0.083702
 21
0.107659
 31
0.0
 11
0.083108
 21
0.108626
 31
0.0
 11
0.082898
 21
0.109741
 31
0.0
 11
0.083108
 21
0.110856
 31
0.0
 11
0.083702
 21
0.111823
 31
0.0
 11
0.084624
 21
0.112552
 31
0.0
 11
0.085757
 21
0.112938
 31
0.0
 11
0.086945
 21
0.112938
 31
0.0
 11
0.088078
 21
0.112552
 31
0.0
 11
0.089000
 21
0.111823
 31
0.0
 11
0.089594
 21
0.110856
 31
0.0
 11
0.089804
 21
0.109741
 31
0.0
  0
LINE
  5
126
100
AcDbEntity
  8
Layer_1
 62
7
100
AcDbLine
 10
0.146625
 20
0.113231
 30
0.0
 11
0.146625
 21
0.113231
 31
0.0
  0
SPLINE
  5
127
100
AcDbEntity
  8
Layer_1
 62
7
100
AcDbSpline
 70
0
 71
3
 72
25
 73
21
 74
19
 40
0.000000
 40
0.000000
 40
0.000000
 40
0.000000
 40
0.002143
 40
0.004286
 40
0.006506
 40
0.008766
 40
0.011009
 40
0.013269
 40
0.015489
 40
0.017632
 40
0.019775
 40
0.021918
 40
0.024060
 40
0.026280
 40
0.028540
 40
0.030783
 40
0.033044
 40
0.035263
 40
0.037406
 40
0.039549
 40
0.039549
 40
0.039549
 40
0.039549
 10
0.146625
 20
0.113231
 30
0.0
 10
0.146547
 20
0.112513
 30
0.0
 10
0.146389
 20
0.111076
 30
0.0
 10
0.145176
 20
0.109193
 30
0.0
 10
0.143416
 20
0.107804
 30
0.0
 10
0.141251
 20
0.107072
 30
0.0
 10
0.138958
 20
0.107072
 30
0.0
 10
0.136795
 20
0.107804
 30
0.0
 10
0.135023
 20
0.109193
 30
0.0
 10
0.133857
 20
0.111076
 30
0.0
 10
0.133447
 20
0.113231
 30
0.0
 10
0.133857
 20
0.115386
 30
0.0
 10
0.135023
 20
0.117269
 30
0.0
 10
0.136795
 20
0.118659
 30
0.0
 10
0.138958
 20
0.119391
 30
0.0
 10
0.141251
 20
0.119391
 30
0.0
 10
0.143416
 20
0.118659
 30
0.0
 10
0.145176
 20
0.117269
 30
0.0
 10
0.146389
 20
0.115386
 30
0.0
 10
0.146547
 20
0.113950
 30
0.0
 10
0.146625
 20
0.113231
 30
0.0
 11
0.146625
 21
0.113231
 31
0.0
 11
0.146228
 21
0.111125
 31
0.0
 11
0.145107
 21
0.109300
 31
0.0
 11
0.143365
 21
0.107924
 31
0.0
 11
0.141226
 21
0.107194
 31
0.0
 11
0.138983
 21
0.107194
 31
0.0
 11
0.136844
 21
0.107924
 31
0.0
 11
0.135102
 21
0.109300
 31
0.0
 11
0.133981
 21
0.111125
 31
0.0
 11
0.133584
 21
0.113231
 31
0.0
 11
0.133981
 21
0.115337
 31
0.0
 11
0.135102
 21
0.117163
 31
0.0
 11
0.136844
 21
0.118539
 31
0.0
 11
0.138983
 21
0.119269
 31
0.0
 11
0.141226
 21
0.119269
 31
0.0
 11
0.143365
 21
0.118539
 31
0.0
 11
0.145107
 21
0.117163
 31
0.0
 11
0.146228
 21
0.115337
 31
0.0
 11
0.146625
 21
0.113231
 31
0.0
  0
LINE
  5
128
100
AcDbEntity
  8
Layer_1
 62
7
100
AcDbLine
 10
0.091212
 20
0.076713
 30
0.0
 11
0.091212
 21
0.076713
 31
0.0
  0
SPLINE
  5
129
100
AcDbEntity
  8
Layer_1
 62
7
100
AcDbSpline
 70
0
 71
3
 72
25
 73
21
 74
19
 40
0.000000
 40
0.000000
 40
0.000000
 40
0.000000
 40
0.001965
 40
0.003929
 40
0.005964
 40
0.008036
 40
0.010093
 40
0.012165
 40
0.014200
 40
0.016164
 40
0.018129
 40
0.020094
 40
0.022058
 40
0.024094
 40
0.026166
 40
0.028222
 40
0.030294
 40
0.032329
 40
0.034294
 40
0.036258
 40
0.036258
 40
0.036258
 40
0.036258
 10
0.091212
 20
0.076713
 30
0.0
 10
0.091140
 20
0.076055
 30
0.0
 10
0.090995
 20
0.074738
 30
0.0
 10
0.089883
 20
0.073011
 30
0.0
 10
0.088270
 20
0.071738
 30
0.0
 10
0.086285
 20
0.071066
 30
0.0
 10
0.084183
 20
0.071066
 30
0.0
 10
0.082200
 20
0.071738
 30
0.0
 10
0.080575
 20
0.073011
 30
0.0
 10
0.079506
 20
0.074738
 30
0.0
 10
0.079130
 20
0.076713
 30
0.0
 10
0.079506
 20
0.078689
 30
0.0
 10
0.080575
 20
0.080415
 30
0.0
 10
0.082200
 20
0.081689
 30
0.0
 10
0.084183
 20
0.082360
 30
0.0
 10
0.086285
 20
0.082360
 30
0.0
 10
0.088270
 20
0.081689
 30
0.0
 10
0.089883
 20
0.080415
 30
0.0
 10
0.090995
 20
0.078689
 30
0.0
 10
0.091140
 20
0.077372
 30
0.0
 10
0.091212
 20
0.076713
 30
0.0
 11
0.091212
 21
0.076713
 31
0.0
 11
0.090848
 21
0.074783
 31
0.0
 11
0.089820
 21
0.073109
 31
0.0
 11
0.088223
 21
0.071847
 31
0.0
 11
0.086262
 21
0.071178
 31
0.0
 11
0.084206
 21
0.071178
 31
0.0
 11
0.082245
 21
0.071847
 31
0.0
 11
0.080648
 21
0.073109
 31
0.0
 11
0.079620
 21
0.074783
 31
0.0
 11
0.079256
 21
0.076713
 31
0.0
 11
0.079620
 21
0.078644
 31
0.0
 11
0.080648
 21
0.080318
 31
0.0
 11
0.082245
 21
0.081580
 31
0.0
 11
0.084206
 21
0.082249
 31
0.0
 11
0.086262
 21
0.082249
 31
0.0
 11
0.088223
 21
0.081580
 31
0.0
 11
0.089820
 21
0.080318
 31
0.0
 11
0.090848
 21
0.078644
 31
0.0
 11
0.091212
 21
0.076713
 31
0.0
  0
LINE
  5
12a
100
AcDbEntity
  8
Layer_1
 62
7
100
AcDbLine
 10
0.152205
 20
0.157240
 30
0.0
 11
0.152205
 21
0.157240
 31
0.0
  0
SPLINE
  5
12b
100
AcDbEntity
  8
Layer_1
 62
7
100
AcDbSpline
 70
0
 71
3
 72
25
 73
21
 74
19
 40
0.000000
 40
0.000000
 40
0.000000
 40
0.000000
 40
0.002461
 40
0.004922
 40
0.007472
 40
0.010068
 40
0.012644
 40
0.015240
 40
0.017790
 40
0.020251
 40
0.022712
 40
0.025174
 40
0.027635
 40
0.030185
 40
0.032780
 40
0.035357
 40
0.037952
 40
0.040502
 40
0.042963
 40
0.045425
 40
0.045425
 40
0.045425
 40
0.045425
 10
0.152205
 20
0.157240
 30
0.0
 10
0.152114
 20
0.156415
 30
0.0
 10
0.151933
 20
0.154765
 30
0.0
 10
0.150540
 20
0.152602
 30
0.0
 10
0.148519
 20
0.151007
 30
0.0
 10
0.146032
 20
0.150166
 30
0.0
 10
0.143398
 20
0.150166
 30
0.0
 10
0.140915
 20
0.151007
 30
0.0
 10
0.138879
 20
0.152602
 30
0.0
 10
0.137539
 20
0.154765
 30
0.0
 10
0.137069
 20
0.157240
 30
0.0
 10
0.137539
 20
0.159715
 30
0.0
 10
0.138879
 20
0.161878
 30
0.0
 10
0.140915
 20
0.163474
 30
0.0
 10
0.143398
 20
0.164315
 30
0.0
 10
0.146032
 20
0.164315
 30
0.0
 10
0.148519
 20
0.163474
 30
0.0
 10
0.150540
 20
0.161878
 30
0.0
 10
0.151933
 20
0.159715
 30
0.0
 10
0.152114
 20
0.158065
 30
0.0
 10
0.152205
 20
0.157240
 30
0.0
 11
0.152205
 21
0.157240
 31
0.0
 11
0.151749
 21
0.154821
 31
0.0
 11
0.150461
 21
0.152724
 31
0.0
 11
0.148460
 21
0.151144
 31
0.0
 11
0.146003
 21
0.150305
 31
0.0
 11
0.143427
 21
0.150305
 31
0.0
 11
0.140971
 21
0.151144
 31
0.0
 11
0.138970
 21
0.152724
 31
0.0
 11
0.137682
 21
0.154821
 31
0.0
 11
0.137226
 21
0.157240
 31
0.0
 11
0.137682
 21
0.159659
 31
0.0
 11
0.138970
 21
0.161756
 31
0.0
 11
0.140971
 21
0.163336
 31
0.0
 11
0.143427
 21
0.164175
 31
0.0
 11
0.146003
 21
0.164175
 31
0.0
 11
0.148460
 21
0.163336
 31
0.0
 11
0.150461
 21
0.161756
 31
0.0
 11
0.151749
 21
0.159659
 31
0.0
 11
0.152205
 21
0.157240
 31
0.0
  0
LINE
  5
12c
100
AcDbEntity
  8
Layer_1
 62
7
100
AcDbLine
 10
0.131773
 20
0.127952
 30
0.0
 11
0.131773
 21
0.127952
 31
0.0
  0
SPLINE
  5
12d
100
AcDbEntity
  8
Layer_1
 62
7
100
AcDbSpline
 70
0
 71
3
 72
25
 73
21
 74
19
 40
0.000000
 40
0.000000
 40
0.000000
 40
0.000000
 40
0.002196
 40
0.004392
 40
0.006667
 40
0.008983
 40
0.011281
 40
0.013597
 40
0.015872
 40
0.018068
 40
0.020264
 40
0.022460
 40
0.024656
 40
0.026931
 40
0.029247
 40
0.031546
 40
0.033862
 40
0.036137
 40
0.038332
 40
0.040528
 40
0.040528
 40
0.040528
 40
0.040528
 10
0.131773
 20
0.127952
 30
0.0
 10
0.131692
 20
0.127215
 30
0.0
 10
0.131531
 20
0.125743
 30
0.0
 10
0.130288
 20
0.123814
 30
0.0
 10
0.128485
 20
0.122390
 30
0.0
 10
0.126265
 20
0.121640
 30
0.0
 10
0.123915
 20
0.121640
 30
0.0
 10
0.121699
 20
0.122390
 30
0.0
 10
0.119883
 20
0.123814
 30
0.0
 10
0.118688
 20
0.125743
 30
0.0
 10
0.118268
 20
0.127952
 30
0.0
 10
0.118688
 20
0.130160
 30
0.0
 10
0.119883
 20
0.132089
 30
0.0
 10
0.121699
 20
0.133513
 30
0.0
 10
0.123915
 20
0.134263
 30
0.0
 10
0.126265
 20
0.134263
 30
0.0
 10
0.128485
 20
0.133513
 30
0.0
 10
0.130288
 20
0.132089
 30
0.0
 10
0.131531
 20
0.130160
 30
0.0
 10
0.131692
 20
0.128688
 30
0.0
 10
0.131773
 20
0.127952
 30
0.0
 11
0.131773
 21
0.127952
 31
0.0
 11
0.131366
 21
0.125793
 31
0.0
 11
0.130217
 21
0.123922
 31
0.0
 11
0.128432
 21
0.122512
 31
0.0
 11
0.126240
 21
0.121764
 31
0.0
 11
0.123941
 21
0.121764
 31
0.0
 11
0.121749
 21
0.122512
 31
0.0
 11
0.119964
 21
0.123922
 31
0.0
 11
0.118815
 21
0.125793
 31
0.0
 11
0.118408
 21
0.127952
 31
0.0
 11
0.118815
 21
0.130110
 31
0.0
 11
0.119964
 21
0.131981
 31
0.0
 11
0.121749
 21
0.133391
 31
0.0
 11
0.123941
 21
0.134139
 31
0.0
 11
0.126240
 21
0.134139
 31
0.0
 11
0.128432
 21
0.133391
 31
0.0
 11
0.130217
 21
0.131981
 31
0.0
 11
0.131366
 21
0.130110
 31
0.0
 11
0.131773
 21
0.127952
 31
0.0
  0
LINE
  5
12e
100
AcDbEntity
  8
Layer_1
 62
7
100
AcDbLine
 10
0.121260
 20
0.158788
 30
0.0
 11
0.121260
 21
0.158788
 31
0.0
  0
SPLINE
  5
12f
100
AcDbEntity
  8
Layer_1
 62
7
100
AcDbSpline
 70
0
 71
3
 72
25
 73
21
 74
19
 40
0.000000
 40
0.000000
 40
0.000000
 40
0.000000
 40
0.002663
 40
0.005325
 40
0.008084
 40
0.010892
 40
0.013680
 40
0.016488
 40
0.019246
 40
0.021909
 40
0.024572
 40
0.027235
 40
0.029897
 40
0.032656
 40
0.035464
 40
0.038251
 40
0.041060
 40
0.043818
 40
0.046481
 40
0.049144
 40
0.049144
 40
0.049144
 40
0.049144
 10
0.121260
 20
0.158788
 30
0.0
 10
0.121162
 20
0.157896
 30
0.0
 10
0.120966
 20
0.156111
 30
0.0
 10
0.119458
 20
0.153771
 30
0.0
 10
0.117272
 20
0.152044
 30
0.0
 10
0.114581
 20
0.151135
 30
0.0
 10
0.111732
 20
0.151135
 30
0.0
 10
0.109045
 20
0.152044
 30
0.0
 10
0.106842
 20
0.153771
 30
0.0
 10
0.105393
 20
0.156111
 30
0.0
 10
0.104884
 20
0.158788
 30
0.0
 10
0.105393
 20
0.161466
 30
0.0
 10
0.106842
 20
0.163806
 30
0.0
 10
0.109045
 20
0.165532
 30
0.0
 10
0.111732
 20
0.166442
 30
0.0
 10
0.114581
 20
0.166442
 30
0.0
 10
0.117272
 20
0.165532
 30
0.0
 10
0.119458
 20
0.163806
 30
0.0
 10
0.120966
 20
0.161466
 30
0.0
 10
0.121162
 20
0.159681
 30
0.0
 10
0.121260
 20
0.158788
 30
0.0
 11
0.121260
 21
0.158788
 31
0.0
 11
0.120766
 21
0.156171
 31
0.0
 11
0.119373
 21
0.153903
 31
0.0
 11
0.117208
 21
0.152193
 31
0.0
 11
0.114550
 21
0.151286
 31
0.0
 11
0.111763
 21
0.151286
 31
0.0
 11
0.109105
 21
0.152193
 31
0.0
 11
0.106941
 21
0.153903
 31
0.0
 11
0.105547
 21
0.156171
 31
0.0
 11
0.105054
 21
0.158788
 31
0.0
 11
0.105547
 21
0.161405
 31
0.0
 11
0.106941
 21
0.163674
 31
0.0
 11
0.109105
 21
0.165384
 31
0.0
 11
0.111763
 21
0.166291
 31
0.0
 11
0.114550
 21
0.166291
 31
0.0
 11
0.117208
 21
0.165384
 31
0.0
 11
0.119373
 21
0.163674
 31
0.0
 11
0.120766
 21
0.161405
 31
0.0
 11
0.121260
 21
0.158788
 31
0.0
  0
LINE
  5
130
100
AcDbEntity
  8
Layer_1
 62
7
100
AcDbLine
 10
0.125509
 20
0.049798
 30
0.0
 11
0.125509
 21
0.049798
 31
0.0
  0
SPLINE
  5
131
100
AcDbEntity
  8
Layer_1
 62
7
100
AcDbSpline
 70
0
 71
3
 72
25
 73
21
 74
19
 40
0.000000
 40
0.000000
 40
0.000000
 40
0.000000
 40
0.002755
 40
0.005487
 40
0.008284
 40
0.011103
 40
0.013890
 40
0.016709
 40
0.019506
 40
0.022238
 40
0.024993
 40
0.027749
 40
0.030481
 40
0.033278
 40
0.036097
 40
0.038884
 40
0.041703
 40
0.044500
 40
0.047232
 40
0.049987
 40
0.049987
 40
0.049987
 40
0.049987
 10
0.125509
 20
0.049798
 30
0.0
 10
0.125411
 20
0.048875
 30
0.0
 10
0.125218
 20
0.047036
 30
0.0
 10
0.123719
 20
0.044614
 30
0.0
 10
0.121534
 20
0.042820
 30
0.0
 10
0.118836
 20
0.041870
 30
0.0
 10
0.115975
 20
0.041870
 30
0.0
 10
0.113281
 20
0.042820
 30
0.0
 10
0.111080
 20
0.044614
 30
0.0
 10
0.109639
 20
0.047036
 30
0.0
 10
0.109134
 20
0.049798
 30
0.0
 10
0.109639
 20
0.052560
 30
0.0
 10
0.111080
 20
0.054982
 30
0.0
 10
0.113281
 20
0.056777
 30
0.0
 10
0.115975
 20
0.057726
 30
0.0
 10
0.118836
 20
0.057726
 30
0.0
 10
0.121534
 20
0.056777
 30
0.0
 10
0.123719
 20
0.054982
 30
0.0
 10
0.125218
 20
0.052560
 30
0.0
 10
0.125411
 20
0.050721
 30
0.0
 10
0.125509
 20
0.049798
 30
0.0
 11
0.125509
 21
0.049798
 31
0.0
 11
0.125015
 21
0.047088
 31
0.0
 11
0.123622
 21
0.044738
 31
0.0
 11
0.121457
 21
0.042966
 31
0.0
 11
0.118799
 21
0.042027
 31
0.0
 11
0.116012
 21
0.042027
 31
0.0
 11
0.113354
 21
0.042966
 31
0.0
 11
0.111190
 21
0.044738
 31
0.0
 11
0.109796
 21
0.047088
 31
0.0
 11
0.109303
 21
0.049798
 31
0.0
 11
0.109796
 21
0.052509
 31
0.0
 11
0.111190
 21
0.054859
 31
0.0
 11
0.113354
 21
0.056630
 31
0.0
 11
0.116012
 21
0.057569
 31
0.0
 11
0.118799
 21
0.057569
 31
0.0
 11
0.121457
 21
0.056630
 31
0.0
 11
0.123622
 21
0.054859
 31
0.0
 11
0.125015
 21
0.052509
 31
0.0
 11
0.125509
 21
0.049798
 31
0.0
  0
LINE
  5
132
100
AcDbEntity
  8
Layer_1
 62
7
100
AcDbLine
 10
0.155819
 20
0.049798
 30
0.0
 11
0.155819
 21
0.049798
 31
0.0
  0
SPLINE
  5
133
100
AcDbEntity
  8
Layer_1
 62
7
100
AcDbSpline
 70
0
 71
3
 72
25
 73
21
 74
19
 40
0.000000
 40
0.000000
 40
0.000000
 40
0.000000
 40
0.001060
 40
0.002121
 40
0.003219
 40
0.004337
 40
0.005447
 40
0.006565
 40
0.007664
 40
0.008724
 40
0.009784
 40
0.010845
 40
0.011905
 40
0.013003
 40
0.014121
 40
0.015231
 40
0.016349
 40
0.017448
 40
0.018508
 40
0.019568
 40
0.019568
 40
0.019568
 40
0.019568
 10
0.155819
 20
0.049798
 30
0.0
 10
0.155780
 20
0.049443
 30
0.0
 10
0.155702
 20
0.048732
 30
0.0
 10
0.155102
 20
0.047800
 30
0.0
 10
0.154231
 20
0.047113
 30
0.0
 10
0.153160
 20
0.046751
 30
0.0
 10
0.152025
 20
0.046751
 30
0.0
 10
0.150955
 20
0.047113
 30
0.0
 10
0.150078
 20
0.047800
 30
0.0
 10
0.149501
 20
0.048732
 30
0.0
 10
0.149298
 20
0.049798
 30
0.0
 10
0.149501
 20
0.050864
 30
0.0
 10
0.150078
 20
0.051796
 30
0.0
 10
0.150955
 20
0.052483
 30
0.0
 10
0.152025
 20
0.052846
 30
0.0
 10
0.153160
 20
0.052846
 30
0.0
 10
0.154231
 20
0.052483
 30
0.0
 10
0.155102
 20
0.051796
 30
0.0
 10
0.155702
 20
0.050864
 30
0.0
 10
0.155780
 20
0.050154
 30
0.0
 10
0.155819
 20
0.049798
 30
0.0
 11
0.155819
 21
0.049798
 31
0.0
 11
0.155623
 21
0.048756
 31
0.0
 11
0.155068
 21
0.047853
 31
0.0
 11
0.154206
 21
0.047172
 31
0.0
 11
0.153147
 21
0.046811
 31
0.0
 11
0.152038
 21
0.046811
 31
0.0
 11
0.150979
 21
0.047172
 31
0.0
 11
0.150117
 21
0.047853
 31
0.0
 11
0.149562
 21
0.048756
 31
0.0
 11
0.149366
 21
0.049798
 31
0.0
 11
0.149562
 21
0.050840
 31
0.0
 11
0.150117
 21
0.051744
 31
0.0
 11
0.150979
 21
0.052424
 31
0.0
 11
0.152038
 21
0.052786
 31
0.0
 11
0.153147
 21
0.052786
 31
0.0
 11
0.154206
 21
0.052424
 31
0.0
 11
0.155068
 21
0.051744
 31
0.0
 11
0.155623
 21
0.050840
 31
0.0
 11
0.155819
 21
0.049798
 31
0.0
  0
LINE
  5
134
100
AcDbEntity
  8
Layer_1
 62
7
100
AcDbLine
 10
0.176111
 20
0.042504
 30
0.0
 11
0.176111
 21
0.042504
 31
0.0
  0
SPLINE
  5
135
100
AcDbEntity
  8
Layer_1
 62
7
100
AcDbSpline
 70
0
 71
3
 72
25
 73
21
 74
19
 40
0.000000
 40
0.000000
 40
0.000000
 40
0.000000
 40
0.002663
 40
0.005325
 40
0.008084
 40
0.010892
 40
0.013680
 40
0.016488
 40
0.019246
 40
0.021909
 40
0.024572
 40
0.027235
 40
0.029897
 40
0.032656
 40
0.035464
 40
0.038251
 40
0.041060
 40
0.043818
 40
0.046481
 40
0.049144
 40
0.049144
 40
0.049144
 40
0.049144
 10
0.176111
 20
0.042504
 30
0.0
 10
0.176013
 20
0.041612
 30
0.0
 10
0.175817
 20
0.039827
 30
0.0
 10
0.174310
 20
0.037487
 30
0.0
 10
0.172123
 20
0.035760
 30
0.0
 10
0.169432
 20
0.034851
 30
0.0
 10
0.166583
 20
0.034851
 30
0.0
 10
0.163896
 20
0.035760
 30
0.0
 10
0.161693
 20
0.037487
 30
0.0
 10
0.160244
 20
0.039827
 30
0.0
 10
0.159735
 20
0.042504
 30
0.0
 10
0.160244
 20
0.045182
 30
0.0
 10
0.161693
 20
0.047522
 30
0.0
 10
0.163896
 20
0.049248
 30
0.0
 10
0.166583
 20
0.050158
 30
0.0
 10
0.169432
 20
0.050158
 30
0.0
 10
0.172123
 20
0.049248
 30
0.0
 10
0.174310
 20
0.047522
 30
0.0
 10
0.175817
 20
0.045182
 30
0.0
 10
0.176013
 20
0.043397
 30
0.0
 10
0.176111
 20
0.042504
 30
0.0
 11
0.176111
 21
0.042504
 31
0.0
 11
0.175618
 21
0.039887
 31
0.0
 11
0.174224
 21
0.037619
 31
0.0
 11
0.172059
 21
0.035909
 31
0.0
 11
0.169401
 21
0.035002
 31
0.0
 11
0.166614
 21
0.035002
 31
0.0
 11
0.163956
 21
0.035909
 31
0.0
 11
0.161792
 21
0.037619
 31
0.0
 11
0.160398
 21
0.039887
 31
0.0
 11
0.159905
 21
0.042504
 31
0.0
 11
0.160398
 21
0.045121
 31
0.0
 11
0.161792
 21
0.047390
 31
0.0
 11
0.163956
 21
0.049100
 31
0.0
 11
0.166614
 21
0.050007
 31
0.0
 11
0.169401
 21
0.050007
 31
0.0
 11
0.172059
 21
0.049100
 31
0.0
 11
0.174224
 21
0.047390
 31
0.0
 11
0.175618
 21
0.045121
 31
0.0
 11
0.176111
 21
0.042504
 31
0.0
  0
LINE
  5
136
100
AcDbEntity
  8
Layer_1
 62
7
100
AcDbLine
 10
0.098800
 20
0.043749
 30
0.0
 11
0.098800
 21
0.043749
 31
0.0
  0
SPLINE
  5
137
100
AcDbEntity
  8
Layer_1
 62
7
100
AcDbSpline
 70
0
 71
3
 72
25
 73
21
 74
19
 40
0.000000
 40
0.000000
 40
0.000000
 40
0.000000
 40
0.002114
 40
0.004228
 40
0.006419
 40
0.008648
 40
0.010861
 40
0.013091
 40
0.015281
 40
0.017395
 40
0.019510
 40
0.021624
 40
0.023738
 40
0.025928
 40
0.028158
 40
0.030371
 40
0.032601
 40
0.034791
 40
0.036905
 40
0.039019
 40
0.039019
 40
0.039019
 40
0.039019
 10
0.098800
 20
0.043749
 30
0.0
 10
0.098722
 20
0.043040
 30
0.0
 10
0.098567
 20
0.041623
 30
0.0
 10
0.097370
 20
0.039765
 30
0.0
 10
0.095634
 20
0.038394
 30
0.0
 10
0.093497
 20
0.037672
 30
0.0
 10
0.091235
 20
0.037672
 30
0.0
 10
0.089102
 20
0.038394
 30
0.0
 10
0.087353
 20
0.039765
 30
0.0
 10
0.086202
 20
0.041623
 30
0.0
 10
0.085798
 20
0.043749
 30
0.0
 10
0.086202
 20
0.045875
 30
0.0
 10
0.087353
 20
0.047733
 30
0.0
 10
0.089102
 20
0.049103
 30
0.0
 10
0.091235
 20
0.049826
 30
0.0
 10
0.093497
 20
0.049826
 30
0.0
 10
0.095634
 20
0.049103
 30
0.0
 10
0.097370
 20
0.047733
 30
0.0
 10
0.098567
 20
0.045875
 30
0.0
 10
0.098722
 20
0.044457
 30
0.0
 10
0.098800
 20
0.043749
 30
0.0
 11
0.098800
 21
0.043749
 31
0.0
 11
0.098408
 21
0.041671
 31
0.0
 11
0.097302
 21
0.039870
 31
0.0
 11
0.095583
 21
0.038512
 31
0.0
 11
0.093473
 21
0.037792
 31
0.0
 11
0.091260
 21
0.037792
 31
0.0
 11
0.089150
 21
0.038512
 31
0.0
 11
0.087431
 21
0.039870
 31
0.0
 11
0.086324
 21
0.041671
 31
0.0
 11
0.085933
 21
0.043749
 31
0.0
 11
0.086324
 21
0.045827
 31
0.0
 11
0.087431
 21
0.047628
 31
0.0
 11
0.089150
 21
0.048985
 31
0.0
 11
0.091260
 21
0.049706
 31
0.0
 11
0.093473
 21
0.049706
 31
0.0
 11
0.095583
 21
0.048985
 31
0.0
 11
0.097302
 21
0.047628
 31
0.0
 11
0.098408
 21
0.045827
 31
0.0
 11
0.098800
 21
0.043749
 31
0.0
  0
LINE
  5
138
100
AcDbEntity
  8
Layer_1
 62
7
100
AcDbLine
 10
0.144326
 20
0.039909
 30
0.0
 11
0.144326
 21
0.039909
 31
0.0
  0
SPLINE
  5
139
100
AcDbEntity
  8
Layer_1
 62
7
100
AcDbSpline
 70
0
 71
3
 72
25
 73
21
 74
19
 40
0.000000
 40
0.000000
 40
0.000000
 40
0.000000
 40
0.001865
 40
0.003730
 40
0.005662
 40
0.007628
 40
0.009580
 40
0.011547
 40
0.013479
 40
0.015344
 40
0.017209
 40
0.019074
 40
0.020938
 40
0.022870
 40
0.024837
 40
0.026789
 40
0.028756
 40
0.030688
 40
0.032553
 40
0.034418
 40
0.034418
 40
0.034418
 40
0.034418
 10
0.144326
 20
0.039909
 30
0.0
 10
0.144258
 20
0.039284
 30
0.0
 10
0.144120
 20
0.038034
 30
0.0
 10
0.143065
 20
0.036395
 30
0.0
 10
0.141534
 20
0.035186
 30
0.0
 10
0.139649
 20
0.034549
 30
0.0
 10
0.137653
 20
0.034549
 30
0.0
 10
0.135772
 20
0.035186
 30
0.0
 10
0.134229
 20
0.036395
 30
0.0
 10
0.133214
 20
0.038034
 30
0.0
 10
0.132858
 20
0.039909
 30
0.0
 10
0.133214
 20
0.041785
 30
0.0
 10
0.134229
 20
0.043423
 30
0.0
 10
0.135772
 20
0.044632
 30
0.0
 10
0.137653
 20
0.045269
 30
0.0
 10
0.139649
 20
0.045269
 30
0.0
 10
0.141534
 20
0.044632
 30
0.0
 10
0.143065
 20
0.043423
 30
0.0
 10
0.144120
 20
0.041785
 30
0.0
 10
0.144258
 20
0.040534
 30
0.0
 10
0.144326
 20
0.039909
 30
0.0
 11
0.144326
 21
0.039909
 31
0.0
 11
0.143981
 21
0.038077
 31
0.0
 11
0.143005
 21
0.036488
 31
0.0
 11
0.141489
 21
0.035290
 31
0.0
 11
0.139627
 21
0.034655
 31
0.0
 11
0.137675
 21
0.034655
 31
0.0
 11
0.135814
 21
0.035290
 31
0.0
 11
0.134298
 21
0.036488
 31
0.0
 11
0.133322
 21
0.038077
 31
0.0
 11
0.132977
 21
0.039909
 31
0.0
 11
0.133322
 21
0.041742
 31
0.0
 11
0.134298
 21
0.043331
 31
0.0
 11
0.135814
 21
0.044528
 31
0.0
 11
0.137675
 21
0.045164
 31
0.0
 11
0.139627
 21
0.045164
 31
0.0
 11
0.141489
 21
0.044528
 31
0.0
 11
0.143005
 21
0.043331
 31
0.0
 11
0.143981
 21
0.041742
 31
0.0
 11
0.144326
 21
0.039909
 31
0.0
  0
LINE
  5
13a
100
AcDbEntity
  8
Layer_1
 62
7
100
AcDbLine
 10
0.130622
 20
0.195885
 30
0.0
 11
0.130622
 21
0.195885
 31
0.0
  0
SPLINE
  5
13b
100
AcDbEntity
  8
Layer_1
 62
7
100
AcDbSpline
 70
0
 71
3
 72
25
 73
21
 74
19
 40
0.000000
 40
0.000000
 40
0.000000
 40
0.000000
 40
0.004408
 40
0.008815
 40
0.013381
 40
0.018030
 40
0.022643
 40
0.027292
 40
0.031858
 40
0.036265
 40
0.040673
 40
0.045081
 40
0.049488
 40
0.054054
 40
0.058702
 40
0.063316
 40
0.067964
 40
0.072531
 40
0.076938
 40
0.081346
 40
0.081346
 40
0.081346
 40
0.081346
 10
0.130622
 20
0.195885
 30
0.0
 10
0.130460
 20
0.194408
 30
0.0
 10
0.130136
 20
0.191453
 30
0.0
 10
0.127641
 20
0.187580
 30
0.0
 10
0.124022
 20
0.184723
 30
0.0
 10
0.119567
 20
0.183217
 30
0.0
 10
0.114851
 20
0.183217
 30
0.0
 10
0.110404
 20
0.184723
 30
0.0
 10
0.106758
 20
0.187580
 30
0.0
 10
0.104359
 20
0.191453
 30
0.0
 10
0.103517
 20
0.195885
 30
0.0
 10
0.104359
 20
0.200318
 30
0.0
 10
0.106758
 20
0.204191
 30
0.0
 10
0.110404
 20
0.207048
 30
0.0
 10
0.114851
 20
0.208554
 30
0.0
 10
0.119567
 20
0.208554
 30
0.0
 10
0.124022
 20
0.207048
 30
0.0
 10
0.127641
 20
0.204191
 30
0.0
 10
0.130136
 20
0.200318
 30
0.0
 10
0.130460
 20
0.197363
 30
0.0
 10
0.130622
 20
0.195885
 30
0.0
 11
0.130622
 21
0.195885
 31
0.0
 11
0.129806
 21
0.191554
 31
0.0
 11
0.127499
 21
0.187798
 31
0.0
 11
0.123916
 21
0.184968
 31
0.0
 11
0.119517
 21
0.183467
 31
0.0
 11
0.114903
 21
0.183467
 31
0.0
 11
0.110504
 21
0.184968
 31
0.0
 11
0.106921
 21
0.187798
 31
0.0
 11
0.104614
 21
0.191554
 31
0.0
 11
0.103798
 21
0.195885
 31
0.0
 11
0.104614
 21
0.200217
 31
0.0
 11
0.106921
 21
0.203972
 31
0.0
 11
0.110504
 21
0.206803
 31
0.0
 11
0.114903
 21
0.208304
 31
0.0
 11
0.119517
 21
0.208304
 31
0.0
 11
0.123916
 21
0.206803
 31
0.0
 11
0.127499
 21
0.203972
 31
0.0
 11
0.129806
 21
0.200217
 31
0.0
 11
0.130622
 21
0.195885
 31
0.0
  0
ENDSEC
  0
SECTION
  2
OBJECTS
  0
DICTIONARY
  5
C
330
0
100
AcDbDictionary
  3
ACAD_GROUP
350
D
  3
ACAD_MLINESTYLE
350
17
  0
DICTIONARY
  5
D
330
C
100
AcDbDictionary
  0
DICTIONARY
  5
1A
330
C
100
AcDbDictionary
  0
DICTIONARY
  5
17
330
C
100
AcDbDictionary
  3
STANDARD
350
18
  0
DICTIONARY
  5
19
330
C
100
AcDbDictionary
  0
ENDSEC
  0
EOF
