  0
SECTION
  2
HEADER
  9
$ACADVER
  1
AC1024
  9
$ACADMAINTVER
 70
     6
  9
$DWGCODEPAGE
  3
ANSI_1252
  9
$INSBASE
 10
0.0
 20
0.0
 30
0.0
  9
$EXTMIN
 10
1.000000000000000E+20
 20
1.000000000000000E+20
 30
1.000000000000000E+20
  9
$EXTMAX
 10
-1.000000000000000E+20
 20
-1.000000000000000E+20
 30
-1.000000000000000E+20
  9
$LIMMIN
 10
0.0
 20
0.0
  9
$LIMMAX
 10
12.0
 20
9.0
  9
$ORTHOMODE
 70
     0
  9
$REGENMODE
 70
     1
  9
$FILLMODE
 70
     1
  9
$QTEXTMODE
 70
     0
  9
$MIRRTEXT
 70
     1
  9
$LTSCALE
 40
1.0
  9
$ATTMODE
 70
     1
  9
$TEXTSIZE
 40
0.2
  9
$TRACEWID
 40
0.05
  9
$TEXTSTYLE
  7
Standard
  9
$CLAYER
  8
0
  9
$CELTYPE
  6
ByLayer
  9
$CECOLOR
 62
   256
  9
$CELTSCALE
 40
1.0
  9
$DISPSILH
 70
     0
  9
$DIMSCALE
 40
1.0
  9
$DIMASZ
 40
0.18
  9
$DIMEXO
 40
0.0625
  9
$DIMDLI
 40
0.38
  9
$DIMRND
 40
0.0
  9
$DIMDLE
 40
0.0
  9
$DIMEXE
 40
0.18
  9
$DIMTP
 40
0.0
  9
$DIMTM
 40
0.0
  9
$DIMTXT
 40
0.18
  9
$DIMCEN
 40
0.09
  9
$DIMTSZ
 40
0.0
  9
$DIMTOL
 70
     0
  9
$DIMLIM
 70
     0
  9
$DIMTIH
 70
     1
  9
$DIMTOH
 70
     1
  9
$DIMSE1
 70
     0
  9
$DIMSE2
 70
     0
  9
$DIMTAD
 70
     0
  9
$DIMZIN
 70
     0
  9
$DIMBLK
  1

  9
$DIMASO
 70
     1
  9
$DIMSHO
 70
     1
  9
$DIMPOST
  1

  9
$DIMAPOST
  1

  9
$DIMALT
 70
     0
  9
$DIMALTD
 70
     2
  9
$DIMALTF
 40
25.4
  9
$DIMLFAC
 40
1.0
  9
$DIMTOFL
 70
     0
  9
$DIMTVP
 40
0.0
  9
$DIMTIX
 70
     0
  9
$DIMSOXD
 70
     0
  9
$DIMSAH
 70
     0
  9
$DIMBLK1
  1

  9
$DIMBLK2
  1

  9
$DIMSTYLE
  2
Standard
  9
$DIMCLRD
 70
     0
  9
$DIMCLRE
 70
     0
  9
$DIMCLRT
 70
     0
  9
$DIMTFAC
 40
1.0
  9
$DIMGAP
 40
0.09
  9
$DIMJUST
 70
     0
  9
$DIMSD1
 70
     0
  9
$DIMSD2
 70
     0
  9
$DIMTOLJ
 70
     1
  9
$DIMTZIN
 70
     0
  9
$DIMALTZ
 70
     0
  9
$DIMALTTZ
 70
     0
  9
$DIMUPT
 70
     0
  9
$DIMDEC
 70
     4
  9
$DIMTDEC
 70
     4
  9
$DIMALTU
 70
     2
  9
$DIMALTTD
 70
     2
  9
$DIMTXSTY
  7
Standard
  9
$DIMAUNIT
 70
     0
  9
$DIMADEC
 70
     0
  9
$DIMALTRND
 40
0.0
  9
$DIMAZIN
 70
     0
  9
$DIMDSEP
 70
    46
  9
$DIMATFIT
 70
     3
  9
$DIMFRAC
 70
     0
  9
$DIMLDRBLK
  1

  9
$DIMLUNIT
 70
     2
  9
$DIMLWD
 70
    -2
  9
$DIMLWE
 70
    -2
  9
$DIMTMOVE
 70
     0
  9
$DIMFXL
 40
1.0
  9
$DIMFXLON
 70
     0
  9
$DIMJOGANG
 40
0.7853981633974483
  9
$DIMTFILL
 70
     0
  9
$DIMTFILLCLR
 70
     0
  9
$DIMARCSYM
 70
     0
  9
$DIMLTYPE
  6

  9
$DIMLTEX1
  6

  9
$DIMLTEX2
  6

  9
$DIMTXTDIRECTION
 70
     0
  9
$LUNITS
 70
     2
  9
$LUPREC
 70
     4
  9
$SKETCHINC
 40
0.1
  9
$FILLETRAD
 40
0.5
  9
$AUNITS
 70
     0
  9
$AUPREC
 70
     0
  9
$MENU
  1
.
  9
$ELEVATION
 40
0.0
  9
$PELEVATION
 40
0.0
  9
$THICKNESS
 40
0.0
  9
$LIMCHECK
 70
     0
  9
$CHAMFERA
 40
0.5
  9
$CHAMFERB
 40
0.5
  9
$CHAMFERC
 40
1.0
  9
$CHAMFERD
 40
0.0
  9
$SKPOLY
 70
     0
  9
$TDCREATE
 40
2457738.379044259
  9
$TDUCREATE
 40
2457738.712377592
  9
$TDUPDATE
 40
2457738.379044294
  9
$TDUUPDATE
 40
2457738.712377627
  9
$TDINDWG
 40
0.0000000116
  9
$TDUSRTIMER
 40
0.0000000116
  9
$USRTIMER
 70
     1
  9
$ANGBASE
 50
0.0
  9
$ANGDIR
 70
     0
  9
$PDMODE
 70
     0
  9
$PDSIZE
 40
0.0
  9
$PLINEWID
 40
0.0
  9
$SPLFRAME
 70
     0
  9
$SPLINETYPE
 70
     6
  9
$SPLINESEGS
 70
     8
  9
$HANDSEED
  5
4F
  9
$SURFTAB1
 70
     6
  9
$SURFTAB2
 70
     6
  9
$SURFTYPE
 70
     6
  9
$SURFU
 70
     6
  9
$SURFV
 70
     6
  9
$UCSBASE
  2

  9
$UCSNAME
  2

  9
$UCSORG
 10
0.0
 20
0.0
 30
0.0
  9
$UCSXDIR
 10
1.0
 20
0.0
 30
0.0
  9
$UCSYDIR
 10
0.0
 20
1.0
 30
0.0
  9
$UCSORTHOREF
  2

  9
$UCSORTHOVIEW
 70
     0
  9
$UCSORGTOP
 10
0.0
 20
0.0
 30
0.0
  9
$UCSORGBOTTOM
 10
0.0
 20
0.0
 30
0.0
  9
$UCSORGLEFT
 10
0.0
 20
0.0
 30
0.0
  9
$UCSORGRIGHT
 10
0.0
 20
0.0
 30
0.0
  9
$UCSORGFRONT
 10
0.0
 20
0.0
 30
0.0
  9
$UCSORGBACK
 10
0.0
 20
0.0
 30
0.0
  9
$PUCSBASE
  2

  9
$PUCSNAME
  2

  9
$PUCSORG
 10
0.0
 20
0.0
 30
0.0
  9
$PUCSXDIR
 10
1.0
 20
0.0
 30
0.0
  9
$PUCSYDIR
 10
0.0
 20
1.0
 30
0.0
  9
$PUCSORTHOREF
  2

  9
$PUCSORTHOVIEW
 70
     0
  9
$PUCSORGTOP
 10
0.0
 20
0.0
 30
0.0
  9
$PUCSORGBOTTOM
 10
0.0
 20
0.0
 30
0.0
  9
$PUCSORGLEFT
 10
0.0
 20
0.0
 30
0.0
  9
$PUCSORGRIGHT
 10
0.0
 20
0.0
 30
0.0
  9
$PUCSORGFRONT
 10
0.0
 20
0.0
 30
0.0
  9
$PUCSORGBACK
 10
0.0
 20
0.0
 30
0.0
  9
$USERI1
 70
     0
  9
$USERI2
 70
     0
  9
$USERI3
 70
     0
  9
$USERI4
 70
     0
  9
$USERI5
 70
     0
  9
$USERR1
 40
0.0
  9
$USERR2
 40
0.0
  9
$USERR3
 40
0.0
  9
$USERR4
 40
0.0
  9
$USERR5
 40
0.0
  9
$WORLDVIEW
 70
     1
  9
$SHADEDGE
 70
     3
  9
$SHADEDIF
 70
    70
  9
$TILEMODE
 70
     1
  9
$MAXACTVP
 70
    64
  9
$PINSBASE
 10
0.0
 20
0.0
 30
0.0
  9
$PLIMCHECK
 70
     0
  9
$PEXTMIN
 10
1.000000000000000E+20
 20
1.000000000000000E+20
 30
1.000000000000000E+20
  9
$PEXTMAX
 10
-1.000000000000000E+20
 20
-1.000000000000000E+20
 30
-1.000000000000000E+20
  9
$PLIMMIN
 10
0.0
 20
0.0
  9
$PLIMMAX
 10
12.0
 20
9.0
  9
$UNITMODE
 70
     0
  9
$VISRETAIN
 70
     1
  9
$PLINEGEN
 70
     0
  9
$PSLTSCALE
 70
     1
  9
$TREEDEPTH
 70
  3020
  9
$CMLSTYLE
  2
Standard
  9
$CMLJUST
 70
     0
  9
$CMLSCALE
 40
1.0
  9
$PROXYGRAPHICS
 70
     1
  9
$MEASUREMENT
 70
     0
  9
$CELWEIGHT
370
    -1
  9
$ENDCAPS
280
     0
  9
$JOINSTYLE
280
     0
  9
$LWDISPLAY
290
     1
  9
$INSUNITS
 70
     1
  9
$HYPERLINKBASE
  1

  9
$STYLESHEET
  1

  9
$XEDIT
290
     1
  9
$CEPSNTYPE
380
     0
  9
$PSTYLEMODE
290
     1
  9
$FINGERPRINTGUID
  2
{8A7B2C4A-ED67-453F-ABB5-465A8CC1A27E}
  9
$VERSIONGUID
  2
{FAEB1C32-E019-11D5-929B-00C0DF256EC4}
  9
$EXTNAMES
290
     1
  9
$PSVPSCALE
 40
0.0
  9
$OLESTARTUP
290
     0
  9
$SORTENTS
280
   127
  9
$INDEXCTL
280
     0
  9
$HIDETEXT
280
     1
  9
$XCLIPFRAME
280
     2
  9
$HALOGAP
280
     0
  9
$OBSCOLOR
 70
   257
  9
$OBSLTYPE
280
     0
  9
$INTERSECTIONDISPLAY
280
     0
  9
$INTERSECTIONCOLOR
 70
   257
  9
$DIMASSOC
280
     2
  9
$PROJECTNAME
  1

  9
$CAMERADISPLAY
290
     0
  9
$LENSLENGTH
 40
50.0
  9
$CAMERAHEIGHT
 40
0.0
  9
$STEPSPERSEC
 40
2.0
  9
$STEPSIZE
 40
6.0
  9
$3DDWFPREC
 40
2.0
  9
$PSOLWIDTH
 40
0.25
  9
$PSOLHEIGHT
 40
4.0
  9
$LOFTANG1
 40
1.570796326794897
  9
$LOFTANG2
 40
1.570796326794897
  9
$LOFTMAG1
 40
0.0
  9
$LOFTMAG2
 40
0.0
  9
$LOFTPARAM
 70
     7
  9
$LOFTNORMALS
280
     1
  9
$LATITUDE
 40
37.795
  9
$LONGITUDE
 40
-122.394
  9
$NORTHDIRECTION
 40
0.0
  9
$TIMEZONE
 70
 -8000
  9
$LIGHTGLYPHDISPLAY
280
     1
  9
$TILEMODELIGHTSYNCH
280
     1
  9
$CMATERIAL
347
3C
  9
$SOLIDHIST
280
     1
  9
$SHOWHIST
280
     1
  9
$DWFFRAME
280
     2
  9
$DGNFRAME
280
     2
  9
$REALWORLDSCALE
290
     1
  9
$INTERFERECOLOR
 62
   256
  9
$CSHADOW
280
     0
  9
$SHADOWPLANELOCATION
 40
0.0
  0
ENDSEC
  0
SECTION
  2
CLASSES
  0
CLASS
  1
ACDBDICTIONARYWDFLT
  2
AcDbDictionaryWithDefault
  3
ObjectDBX Classes
 90
        0
 91
        4
280
     0
281
     0
  0
CLASS
  1
VISUALSTYLE
  2
AcDbVisualStyle
  3
ObjectDBX Classes
 90
     4095
 91
        4
280
     0
281
     0
  0
CLASS
  1
MATERIAL
  2
AcDbMaterial
  3
ObjectDBX Classes
 90
     1153
 91
        4
280
     0
281
     0
  0
CLASS
  1
SUN
  2
AcDbSun
  3
SCENEOE
 90
     1024
 91
        4
280
     0
281
     0
  0
ENDSEC
  0
SECTION
  2
TABLES
  0
TABLE
  2
VPORT
  5
8
330
0
100
AcDbSymbolTable
 70
     1
  0
VPORT
  5
29
330
8
100
AcDbSymbolTableRecord
100
AcDbViewportTableRecord
  2
*Active
 70
     0
 10
0.0
 20
0.0
 11
1.0
 21
1.0
 12
0.0
 22
0.0
 13
0.0
 23
0.0
 14
0.5
 24
0.5
 15
0.5
 25
0.5
 16
0.0
 26
0.0
 36
1.0
 17
306.0
 27
-396.0
 37
0.0
 40
792.0
 41
0.7727272727272727
 42
50.0
 43
0.0
 44
0.0
 50
0.0
 51
0.0
 71
     0
 72
   100
 73
     1
 74
     3
 75
     0
 76
     0
 77
     0
 78
     0
281
     0
 65
     1
110
0.0
120
0.0
130
0.0
111
1.0
121
0.0
131
0.0
112
0.0
122
1.0
132
0.0
 79
     0
146
0.0
 60
     3
 61
     5
292
     1
282
     1
141
0.0
142
0.0
 63
   250
361
3F
  0
ENDTAB
  0
TABLE
  2
LTYPE
  5
5
330
0
100
AcDbSymbolTable
 70
     1
  0
LTYPE
  5
14
330
5
100
AcDbSymbolTableRecord
100
AcDbLinetypeTableRecord
  2
ByBlock
 70
     0
  3

 72
    65
 73
     0
 40
0.0
  0
LTYPE
  5
15
330
5
100
AcDbSymbolTableRecord
100
AcDbLinetypeTableRecord
  2
ByLayer
 70
     0
  3

 72
    65
 73
     0
 40
0.0
  0
LTYPE
  5
16
330
5
100
AcDbSymbolTableRecord
100
AcDbLinetypeTableRecord
  2
Continuous
 70
     0
  3
Solid line
 72
    65
 73
     0
 40
0.0
  0
ENDTAB
  0
TABLE
  2
LAYER
  5
2
330
0
100
AcDbSymbolTable
 70
     2
  0
LAYER
  5
10
330
2
100
AcDbSymbolTableRecord
100
AcDbLayerTableRecord
  2
0
 70
     0
 62
     7
  6
Continuous
370
    -3
390
F
347
3E
  0
LAYER
  5
40
330
2
100
AcDbSymbolTableRecord
100
AcDbLayerTableRecord
  2
Layer 1
 70
     0
 62
     7
  6
Continuous
370
    -3
390
F
347
3E
  0
ENDTAB
  0
TABLE
  2
STYLE
  5
3
330
0
100
AcDbSymbolTable
 70
     1
  0
STYLE
  5
11
330
3
100
AcDbSymbolTableRecord
100
AcDbTextStyleTableRecord
  2
Standard
 70
     0
 40
0.0
 41
1.0
 50
0.0
 71
     0
 42
0.2
  3
txt
  4

  0
ENDTAB
  0
TABLE
  2
VIEW
  5
6
330
0
100
AcDbSymbolTable
 70
     0
  0
ENDTAB
  0
TABLE
  2
UCS
  5
7
330
0
100
AcDbSymbolTable
 70
     0
  0
ENDTAB
  0
TABLE
  2
APPID
  5
9
330
0
100
AcDbSymbolTable
 70
     1
  0
APPID
  5
12
330
9
100
AcDbSymbolTableRecord
100
AcDbRegAppTableRecord
  2
ACAD
 70
     0
  0
ENDTAB
  0
TABLE
  2
DIMSTYLE
  5
A
330
0
100
AcDbSymbolTable
 70
     1
100
AcDbDimStyleTable
  0
DIMSTYLE
105
27
330
A
100
AcDbSymbolTableRecord
100
AcDbDimStyleTableRecord
  2
Standard
 70
     0
178
     0
340
11
  0
ENDTAB
  0
TABLE
  2
BLOCK_RECORD
  5
1
330
0
100
AcDbSymbolTable
 70
     1
  0
BLOCK_RECORD
  5
1F
330
1
100
AcDbSymbolTableRecord
100
AcDbBlockTableRecord
  2
*Model_Space
340
22
 70
     0
280
     1
281
     0
  0
BLOCK_RECORD
  5
1B
330
1
100
AcDbSymbolTableRecord
100
AcDbBlockTableRecord
  2
*Paper_Space
340
1E
 70
     0
280
     1
281
     0
  0
BLOCK_RECORD
  5
23
330
1
100
AcDbSymbolTableRecord
100
AcDbBlockTableRecord
  2
*Paper_Space0
340
26
 70
     0
280
     1
281
     0
  0
ENDTAB
  0
ENDSEC
  0
SECTION
  2
BLOCKS
  0
BLOCK
  5
20
330
1F
100
AcDbEntity
  8
0
100
AcDbBlockBegin
  2
*Model_Space
 70
     0
 10
0.0
 20
0.0
 30
0.0
  3
*Model_Space
  1

  0
ENDBLK
  5
21
330
1F
100
AcDbEntity
  8
0
100
AcDbBlockEnd
  0
BLOCK
  5
1C
330
1B
100
AcDbEntity
 67
     1
  8
0
100
AcDbBlockBegin
  2
*Paper_Space
 70
     0
 10
0.0
 20
0.0
 30
0.0
  3
*Paper_Space
  1

  0
ENDBLK
  5
1D
330
1B
100
AcDbEntity
 67
     1
  8
0
100
AcDbBlockEnd
  0
BLOCK
  5
24
330
23
100
AcDbEntity
  8
0
100
AcDbBlockBegin
  2
*Paper_Space0
 70
     0
 10
0.0
 20
0.0
 30
0.0
  3
*Paper_Space0
  1

  0
ENDBLK
  5
25
330
23
100
AcDbEntity
  8
0
100
AcDbBlockEnd
  0
ENDSEC
  0
SECTION
  2
ENTITIES
  0
SPLINE
  5
41
330
1F
100
AcDbEntity
  8
Layer 1
370
     0
100
AcDbSpline
210
0.0
220
0.0
230
1.0
 70
    11
 71
     3
 72
   152
 73
   148
 74
     0
 42
0.0000000001
 43
0.0000000001
 12
1.0
 22
0.0
 32
0.0
 13
1.0
 23
0.0
 33
0.0
 40
0.0
 40
0.0
 40
0.0
 40
0.0
 40
1.0
 40
1.0
 40
1.0
 40
2.0
 40
2.0
 40
2.0
 40
3.0
 40
3.0
 40
3.0
 40
4.0
 40
4.0
 40
4.0
 40
5.0
 40
5.0
 40
5.0
 40
6.0
 40
6.0
 40
6.0
 40
7.0
 40
7.0
 40
7.0
 40
8.0
 40
8.0
 40
8.0
 40
9.0
 40
9.0
 40
9.0
 40
10.0
 40
10.0
 40
10.0
 40
11.0
 40
11.0
 40
11.0
 40
12.0
 40
12.0
 40
12.0
 40
13.0
 40
13.0
 40
13.0
 40
14.0
 40
14.0
 40
14.0
 40
15.0
 40
15.0
 40
15.0
 40
16.0
 40
16.0
 40
16.0
 40
17.0
 40
17.0
 40
17.0
 40
18.0
 40
18.0
 40
18.0
 40
19.0
 40
19.0
 40
19.0
 40
20.0
 40
20.0
 40
20.0
 40
21.0
 40
21.0
 40
21.0
 40
22.0
 40
22.0
 40
22.0
 40
23.0
 40
23.0
 40
23.0
 40
24.0
 40
24.0
 40
24.0
 40
25.0
 40
25.0
 40
25.0
 40
26.0
 40
26.0
 40
26.0
 40
27.0
 40
27.0
 40
27.0
 40
28.0
 40
28.0
 40
28.0
 40
29.0
 40
29.0
 40
29.0
 40
30.0
 40
30.0
 40
30.0
 40
31.0
 40
31.0
 40
31.0
 40
32.0
 40
32.0
 40
32.0
 40
33.0
 40
33.0
 40
33.0
 40
34.0
 40
34.0
 40
34.0
 40
35.0
 40
35.0
 40
35.0
 40
36.0
 40
36.0
 40
36.0
 40
37.0
 40
37.0
 40
37.0
 40
38.0
 40
38.0
 40
38.0
 40
39.0
 40
39.0
 40
39.0
 40
40.0
 40
40.0
 40
40.0
 40
41.0
 40
41.0
 40
41.0
 40
42.0
 40
42.0
 40
42.0
 40
43.0
 40
43.0
 40
43.0
 40
44.0
 40
44.0
 40
44.0
 40
45.0
 40
45.0
 40
45.0
 40
46.0
 40
46.0
 40
46.0
 40
47.0
 40
47.0
 40
47.0
 40
48.0
 40
48.0
 40
48.0
 40
49.0
 40
49.0
 40
49.0
 40
49.0
 10
23.20358267522079
 20
-111.8611234114078
 30
0.0
 10
23.203603494032
 20
-95.11346604737264
 30
0.0
 10
23.24350254940509
 20
-78.36559185345232
 30
0.0
 10
23.15385321285703
 20
-61.61841528611239
 30
0.0
 10
23.14245707413465
 20
-59.48953235500085
 30
0.0
 10
23.80359181430231
 20
-58.94739793998906
 30
0.0
 10
25.83042918158844
 20
-58.95997093075584
 30
0.0
 10
38.04638205117226
 20
-59.03575768866085
 30
0.0
 10
50.26304590280142
 20
-58.99169094295939
 30
0.0
 10
62.47945835746486
 20
-59.00312007753291
 30
0.0
 10
65.53959107024002
 20
-59.00598286048626
 30
0.0
 10
65.52143706682273
 20
-59.03199616155507
 30
0.0
 10
65.51046673171277
 20
-55.95283112721336
 30
0.0
 10
65.49139512937018
 20
-50.59952756595521
 30
0.0
 10
65.54975379259577
 20
-45.24528283730524
 30
0.0
 10
65.46307211867133
 20
-39.89325668688343
 30
0.0
 10
65.43408604847627
 20
-38.10364653142278
 30
0.0
 10
66.04955610097477
 20
-37.52527402935721
 30
0.0
 10
67.84584713080949
 20
-37.52983609867624
 30
0.0
 10
87.47418691073017
 20
-37.57968418898054
 30
0.0
 10
107.1028220820845
 20
-37.5887533345367
 30
0.0
 10
126.7310361635218
 20
-37.51697753666576
 30
0.0
 10
128.8567609202455
 20
-37.50920387110091
 30
0.0
 10
129.4355395855364
 20
-38.24537864162357
 30
0.0
 10
129.3930534982601
 20
-40.2562849046044
 30
0.0
 10
129.2814081055976
 20
-45.53884064589693
 30
0.0
 10
129.3516484179363
 20
-50.82512334721378
 30
0.0
 10
129.3364766110308
 20
-56.10988352565073
 30
0.0
 10
129.3282182206931
 20
-58.98307431194644
 30
0.0
 10
129.3163020044976
 20
-58.97736760081534
 30
0.0
 10
132.1049982704717
 20
-58.97912737957722
 30
0.0
 10
137.4582829769561
 20
-58.98251181123487
 30
0.0
 10
142.8121081869185
 20
-59.03860790176623
 30
0.0
 10
148.1645255738713
 20
-58.97416228949623
 30
0.0
 10
149.8815794224411
 20
-58.953488031495
 30
0.0
 10
150.4114990873632
 20
-59.6097346719007
 30
0.0
 10
150.3859320159081
 20
-61.27729160029958
 30
0.0
 10
150.3028201789011
 20
-66.69827750976492
 30
0.0
 10
150.3983384561861
 20
-72.1220822077139
 30
0.0
 10
150.307408173534
 20
-77.54282614759904
 30
0.0
 10
150.2763103688221
 20
-79.3969856165777
 30
0.0
 10
150.8776770515215
 20
-80.08659891931256
 30
0.0
 10
152.7875398032711
 20
-80.04954614896724
 30
0.0
 10
158.413414240139
 20
-79.94039901365613
 30
0.0
 10
164.0429213631678
 20
-79.94338121016608
 30
0.0
 10
169.6697888180515
 20
-80.00836104099199
 30
0.0
 10
171.2910604225244
 20
-80.02708068757875
 30
0.0
 10
171.8029423551252
 20
-79.48559990468038
 30
0.0
 10
171.7824786420824
 20
-77.87269667671717
 30
0.0
 10
171.7119492232314
 20
-72.31434118003108
 30
0.0
 10
171.8222873516697
 20
-66.75372939557292
 30
0.0
 10
171.7560065415473
 20
-61.19526391271211
 30
0.0
 10
171.7355679682005
 20
-59.4828514806286
 30
0.0
 10
172.356380206229
 20
-58.93027466413332
 30
0.0
 10
174.0343166868679
 20
-58.95503412283415
 30
0.0
 10
179.4551014787621
 20
-59.03502549499717
 30
0.0
 10
184.8784379498611
 20
-58.94449116256874
 30
0.0
 10
190.2991724623616
 20
-59.02626116826741
 30
0.0
 10
192.1402530041751
 20
-59.05403424809901
 30
0.0
 10
192.8319591866557
 20
-58.4518159581794
 30
0.0
 10
192.7989884745457
 20
-56.53974719805137
 30
0.0
 10
192.7031182415094
 20
-50.9822228825833
 30
0.0
 10
192.8259633690132
 20
-45.42116801097018
 30
0.0
 10
192.7589535076877
 20
-39.86275202189063
 30
0.0
 10
192.7391811363022
 20
-38.22225483443162
 30
0.0
 10
193.1836006930398
 20
-37.55864304853094
 30
0.0
 10
194.9469744326216
 20
-37.56291758257066
 30
0.0
 10
214.7125958108254
 20
-37.61082048885601
 30
0.0
 10
234.4784308764501
 20
-37.61579264947522
 30
0.0
 10
254.2439642657164
 20
-37.55384647298069
 30
0.0
 10
256.2046092046248
 20
-37.54770217400619
 30
0.0
 10
256.6681097910932
 20
-38.26218295757735
 30
0.0
 10
256.6393751178639
 20
-40.07912939064045
 30
0.0
 10
256.5526180248489
 20
-45.56822266631298
 30
0.0
 10
256.6894785332152
 20
-51.06089127820815
 30
0.0
 10
256.5992773017661
 20
-56.54986592593832
 30
0.0
 10
256.5677772619074
 20
-58.46741513992583
 30
0.0
 10
257.2770435224729
 20
-59.01453349979511
 30
0.0
 10
259.1169424985465
 20
-59.00658935566389
 30
0.0
 10
271.4703882969889
 20
-58.95325548929941
 30
0.0
 10
283.8242363305781
 20
-58.9909807465292
 30
0.0
 10
296.1779335259853
 20
-58.98798912263373
 30
0.0
 10
298.9828197565803
 20
-58.98731035082528
 30
0.0
 10
299.0219622642062
 20
-58.97639343756964
 30
0.0
 10
299.0230684108592
 20
-61.62732416610015
 30
0.0
 10
299.0370963615696
 20
-95.2587672088739
 30
0.0
 10
299.0303840625747
 20
-128.8902322488857
 30
0.0
 10
299.0816941833627
 20
-162.5216092999508
 30
0.0
 10
299.0844846896862
 20
-164.3490641262024
 30
0.0
 10
298.4625537351585
 20
-164.8895424637021
 30
0.0
 10
296.6940012180739
 20
-164.8647547228402
 30
0.0
 10
291.2047736021495
 20
-164.787776971807
 30
0.0
 10
285.712504082936
 20
-164.9161276928708
 30
0.0
 10
280.2236284227647
 20
-164.8276736703356
 30
0.0
 10
278.4908999733552
 20
-164.799756037246
 30
0.0
 10
277.9991675075898
 20
-165.378107327695
 30
0.0
 10
278.0020334330038
 20
-167.0632840409598
 30
0.0
 10
278.0475614235702
 20
-193.761704694045
 30
0.0
 10
278.0383100152176
 20
-220.4602133360659
 30
0.0
 10
278.0472346075148
 20
-247.1587094082388
 30
0.0
 10
278.0482150556827
 20
-250.0992745814583
 30
0.0
 10
278.0598295955187
 20
-250.1243639986787
 30
0.0
 10
275.0819822522217
 20
-250.1249924910953
 30
0.0
 10
248.5907001293863
 20
-250.1304729449548
 30
0.0
 10
222.0994180065518
 20
-250.1299701510234
 30
0.0
 10
195.6081358837155
 20
-250.1253444468457
 30
0.0
 10
192.780975881923
 20
-250.124866792612
 30
0.0
 10
192.7677021221098
 20
-250.0811739998971
 30
0.0
 10
192.7688836878515
 20
-247.2422988994804
 30
0.0
 10
192.7740247558086
 20
-234.9568685502254
 30
0.0
 10
192.7346685607599
 20
-222.6712370834011
 30
0.0
 10
192.807510831698
 20
-210.386234108988
 30
0.0
 10
192.819527606679
 20
-208.3619354582534
 30
0.0
 10
192.2339737931516
 20
-207.6298800627064
 30
0.0
 10
190.1318175020033
 20
-207.6372334239641
 30
0.0
 10
170.572052529521
 20
-207.7057642369346
 30
0.0
 10
151.0118978917417
 20
-207.7141231860605
 30
0.0
 10
131.4521580589571
 20
-207.6478926553318
 30
0.0
 10
129.3818914729627
 20
-207.6408786799748
 30
0.0
 10
129.318338319923
 20
-208.6522863842911
 30
0.0
 10
129.3221218442632
 20
-210.1870020133229
 30
0.0
 10
129.3524151786823
 20
-222.4723318037904
 30
0.0
 10
129.3494738341797
 20
-234.7577747228934
 30
0.0
 10
129.3338620825825
 20
-247.0431673626044
 30
0.0
 10
129.3300031391527
 20
-250.0754421490674
 30
0.0
 10
129.2915016937877
 20
-250.0907270846092
 30
0.0
 10
126.288225547366
 20
-250.0911795991487
 30
0.0
 10
100.0028626794947
 20
-250.0952522299995
 30
0.0
 10
73.71749981162338
 20
-250.0950762521243
 30
0.0
 10
47.43213694375027
 20
-250.0909784815776
 30
0.0
 10
44.54967746556213
 20
-250.090551106734
 30
0.0
 10
44.50842479465064
 20
-250.0755175681588
 30
0.0
 10
44.5072573699872
 20
-247.1296981983487
 30
0.0
 10
44.49713549963963
 20
-221.5980108651092
 30
0.0
 10
44.53129563364473
 20
-196.0662858223259
 30
0.0
 10
44.48462221565023
 20
-170.5346864780258
 30
0.0
 10
44.47264786390588
 20
-163.9840483012176
 30
0.0
 10
45.45444100561235
 20
-164.8952366049853
 30
0.0
 10
38.86595972924806
 20
-164.8616248306134
 30
0.0
 10
34.40501483899334
 20
-164.838860835328
 30
0.0
 10
29.94212712155968
 20
-164.7847853479134
 30
0.0
 10
25.48364238630438
 20
-164.8918678856398
 30
0.0
 10
23.65534812987244
 20
-164.9357743657738
 30
0.0
 10
23.16150432239829
 20
-164.3013364121789
 30
0.0
 10
23.16784934613861
 20
-162.515802030035
 30
0.0
 10
23.22784876737751
 20
-145.6310767551386
 30
0.0
 10
23.20356185640958
 20
-128.7460560888021
 30
0.0
 10
23.20358267522079
 20
-111.8611234114078
 30
0.0
  0
HATCH
  5
42
330
1F
100
AcDbEntity
  8
Layer 1
 62
    18
420
    65793
100
AcDbHatch
 10
0.0
 20
0.0
 30
0.0
210
0.0
220
0.0
230
1.0
  2
SOLID
 70
     1
 71
     0
 91
        1
 92
        1
 93
        1
 72
     4
 94
        3
 73
     0
 74
     1
 95
      152
 96
      148
 40
0.0
 40
0.0
 40
0.0
 40
0.0
 40
1.0
 40
1.0
 40
1.0
 40
2.0
 40
2.0
 40
2.0
 40
3.0
 40
3.0
 40
3.0
 40
4.0
 40
4.0
 40
4.0
 40
5.0
 40
5.0
 40
5.0
 40
6.0
 40
6.0
 40
6.0
 40
7.0
 40
7.0
 40
7.0
 40
8.0
 40
8.0
 40
8.0
 40
9.0
 40
9.0
 40
9.0
 40
10.0
 40
10.0
 40
10.0
 40
11.0
 40
11.0
 40
11.0
 40
12.0
 40
12.0
 40
12.0
 40
13.0
 40
13.0
 40
13.0
 40
14.0
 40
14.0
 40
14.0
 40
15.0
 40
15.0
 40
15.0
 40
16.0
 40
16.0
 40
16.0
 40
17.0
 40
17.0
 40
17.0
 40
18.0
 40
18.0
 40
18.0
 40
19.0
 40
19.0
 40
19.0
 40
20.0
 40
20.0
 40
20.0
 40
21.0
 40
21.0
 40
21.0
 40
22.0
 40
22.0
 40
22.0
 40
23.0
 40
23.0
 40
23.0
 40
24.0
 40
24.0
 40
24.0
 40
25.0
 40
25.0
 40
25.0
 40
26.0
 40
26.0
 40
26.0
 40
27.0
 40
27.0
 40
27.0
 40
28.0
 40
28.0
 40
28.0
 40
29.0
 40
29.0
 40
29.0
 40
30.0
 40
30.0
 40
30.0
 40
31.0
 40
31.0
 40
31.0
 40
32.0
 40
32.0
 40
32.0
 40
33.0
 40
33.0
 40
33.0
 40
34.0
 40
34.0
 40
34.0
 40
35.0
 40
35.0
 40
35.0
 40
36.0
 40
36.0
 40
36.0
 40
37.0
 40
37.0
 40
37.0
 40
38.0
 40
38.0
 40
38.0
 40
39.0
 40
39.0
 40
39.0
 40
40.0
 40
40.0
 40
40.0
 40
41.0
 40
41.0
 40
41.0
 40
42.0
 40
42.0
 40
42.0
 40
43.0
 40
43.0
 40
43.0
 40
44.0
 40
44.0
 40
44.0
 40
45.0
 40
45.0
 40
45.0
 40
46.0
 40
46.0
 40
46.0
 40
47.0
 40
47.0
 40
47.0
 40
48.0
 40
48.0
 40
48.0
 40
49.0
 40
49.0
 40
49.0
 40
49.0
 10
23.20358267522079
 20
-111.8611234114078
 10
23.203603494032
 20
-95.11346604737264
 10
23.24350254940509
 20
-78.36559185345232
 10
23.15385321285703
 20
-61.61841528611239
 10
23.14245707413465
 20
-59.48953235500085
 10
23.80359181430231
 20
-58.94739793998906
 10
25.83042918158844
 20
-58.95997093075584
 10
38.04638205117226
 20
-59.03575768866085
 10
50.26304590280142
 20
-58.99169094295939
 10
62.47945835746486
 20
-59.00312007753291
 10
65.53959107024002
 20
-59.00598286048626
 10
65.52143706682273
 20
-59.03199616155507
 10
65.51046673171277
 20
-55.95283112721336
 10
65.49139512937018
 20
-50.59952756595521
 10
65.54975379259577
 20
-45.24528283730524
 10
65.46307211867133
 20
-39.89325668688343
 10
65.43408604847627
 20
-38.10364653142278
 10
66.04955610097477
 20
-37.52527402935721
 10
67.84584713080949
 20
-37.52983609867624
 10
87.47418691073017
 20
-37.57968418898054
 10
107.1028220820845
 20
-37.5887533345367
 10
126.7310361635218
 20
-37.51697753666576
 10
128.8567609202455
 20
-37.50920387110091
 10
129.4355395855364
 20
-38.24537864162357
 10
129.3930534982601
 20
-40.2562849046044
 10
129.2814081055976
 20
-45.53884064589693
 10
129.3516484179363
 20
-50.82512334721378
 10
129.3364766110308
 20
-56.10988352565073
 10
129.3282182206931
 20
-58.98307431194644
 10
129.3163020044976
 20
-58.97736760081534
 10
132.1049982704717
 20
-58.97912737957722
 10
137.4582829769561
 20
-58.98251181123487
 10
142.8121081869185
 20
-59.03860790176623
 10
148.1645255738713
 20
-58.97416228949623
 10
149.8815794224411
 20
-58.953488031495
 10
150.4114990873632
 20
-59.6097346719007
 10
150.3859320159081
 20
-61.27729160029958
 10
150.3028201789011
 20
-66.69827750976492
 10
150.3983384561861
 20
-72.1220822077139
 10
150.307408173534
 20
-77.54282614759904
 10
150.2763103688221
 20
-79.3969856165777
 10
150.8776770515215
 20
-80.08659891931256
 10
152.7875398032711
 20
-80.04954614896724
 10
158.413414240139
 20
-79.94039901365613
 10
164.0429213631678
 20
-79.94338121016608
 10
169.6697888180515
 20
-80.00836104099199
 10
171.2910604225244
 20
-80.02708068757875
 10
171.8029423551252
 20
-79.48559990468038
 10
171.7824786420824
 20
-77.87269667671717
 10
171.7119492232314
 20
-72.31434118003108
 10
171.8222873516697
 20
-66.75372939557292
 10
171.7560065415473
 20
-61.19526391271211
 10
171.7355679682005
 20
-59.4828514806286
 10
172.356380206229
 20
-58.93027466413332
 10
174.0343166868679
 20
-58.95503412283415
 10
179.4551014787621
 20
-59.03502549499717
 10
184.8784379498611
 20
-58.94449116256874
 10
190.2991724623616
 20
-59.02626116826741
 10
192.1402530041751
 20
-59.05403424809901
 10
192.8319591866557
 20
-58.4518159581794
 10
192.7989884745457
 20
-56.53974719805137
 10
192.7031182415094
 20
-50.9822228825833
 10
192.8259633690132
 20
-45.42116801097018
 10
192.7589535076877
 20
-39.86275202189063
 10
192.7391811363022
 20
-38.22225483443162
 10
193.1836006930398
 20
-37.55864304853094
 10
194.9469744326216
 20
-37.56291758257066
 10
214.7125958108254
 20
-37.61082048885601
 10
234.4784308764501
 20
-37.61579264947522
 10
254.2439642657164
 20
-37.55384647298069
 10
256.2046092046248
 20
-37.54770217400619
 10
256.6681097910932
 20
-38.26218295757735
 10
256.6393751178639
 20
-40.07912939064045
 10
256.5526180248489
 20
-45.56822266631298
 10
256.6894785332152
 20
-51.06089127820815
 10
256.5992773017661
 20
-56.54986592593832
 10
256.5677772619074
 20
-58.46741513992583
 10
257.2770435224729
 20
-59.01453349979511
 10
259.1169424985465
 20
-59.00658935566389
 10
271.4703882969889
 20
-58.95325548929941
 10
283.8242363305781
 20
-58.9909807465292
 10
296.1779335259853
 20
-58.98798912263373
 10
298.9828197565803
 20
-58.98731035082528
 10
299.0219622642062
 20
-58.97639343756964
 10
299.0230684108592
 20
-61.62732416610015
 10
299.0370963615696
 20
-95.2587672088739
 10
299.0303840625747
 20
-128.8902322488857
 10
299.0816941833627
 20
-162.5216092999508
 10
299.0844846896862
 20
-164.3490641262024
 10
298.4625537351585
 20
-164.8895424637021
 10
296.6940012180739
 20
-164.8647547228402
 10
291.2047736021495
 20
-164.787776971807
 10
285.712504082936
 20
-164.9161276928708
 10
280.2236284227647
 20
-164.8276736703356
 10
278.4908999733552
 20
-164.799756037246
 10
277.9991675075898
 20
-165.378107327695
 10
278.0020334330038
 20
-167.0632840409598
 10
278.0475614235702
 20
-193.761704694045
 10
278.0383100152176
 20
-220.4602133360659
 10
278.0472346075148
 20
-247.1587094082388
 10
278.0482150556827
 20
-250.0992745814583
 10
278.0598295955187
 20
-250.1243639986787
 10
275.0819822522217
 20
-250.1249924910953
 10
248.5907001293863
 20
-250.1304729449548
 10
222.0994180065518
 20
-250.1299701510234
 10
195.6081358837155
 20
-250.1253444468457
 10
192.780975881923
 20
-250.124866792612
 10
192.7677021221098
 20
-250.0811739998971
 10
192.7688836878515
 20
-247.2422988994804
 10
192.7740247558086
 20
-234.9568685502254
 10
192.7346685607599
 20
-222.6712370834011
 10
192.807510831698
 20
-210.386234108988
 10
192.819527606679
 20
-208.3619354582534
 10
192.2339737931516
 20
-207.6298800627064
 10
190.1318175020033
 20
-207.6372334239641
 10
170.572052529521
 20
-207.7057642369346
 10
151.0118978917417
 20
-207.7141231860605
 10
131.4521580589571
 20
-207.6478926553318
 10
129.3818914729627
 20
-207.6408786799748
 10
129.318338319923
 20
-208.6522863842911
 10
129.3221218442632
 20
-210.1870020133229
 10
129.3524151786823
 20
-222.4723318037904
 10
129.3494738341797
 20
-234.7577747228934
 10
129.3338620825825
 20
-247.0431673626044
 10
129.3300031391527
 20
-250.0754421490674
 10
129.2915016937877
 20
-250.0907270846092
 10
126.288225547366
 20
-250.0911795991487
 10
100.0028626794947
 20
-250.0952522299995
 10
73.71749981162338
 20
-250.0950762521243
 10
47.43213694375027
 20
-250.0909784815776
 10
44.54967746556213
 20
-250.090551106734
 10
44.50842479465064
 20
-250.0755175681588
 10
44.5072573699872
 20
-247.1296981983487
 10
44.49713549963963
 20
-221.5980108651092
 10
44.53129563364473
 20
-196.0662858223259
 10
44.48462221565023
 20
-170.5346864780258
 10
44.47264786390588
 20
-163.9840483012176
 10
45.45444100561235
 20
-164.8952366049853
 10
38.86595972924806
 20
-164.8616248306134
 10
34.40501483899334
 20
-164.838860835328
 10
29.94212712155968
 20
-164.7847853479134
 10
25.48364238630438
 20
-164.8918678856398
 10
23.65534812987244
 20
-164.9357743657738
 10
23.16150432239829
 20
-164.3013364121789
 10
23.16784934613861
 20
-162.515802030035
 10
23.22784876737751
 20
-145.6310767551386
 10
23.20356185640958
 20
-128.7460560888021
 10
23.20358267522079
 20
-111.8611234114078
 97
        0
 97
        0
 75
     2
 76
     1
 98
        0
  0
SPLINE
  5
43
330
1F
100
AcDbEntity
  8
Layer 1
370
     0
100
AcDbSpline
210
0.0
220
0.0
230
1.0
 70
    11
 71
     3
 72
   146
 73
   142
 74
     0
 42
0.0000000001
 43
0.0000000001
 12
1.0
 22
0.0
 32
0.0
 13
1.0
 23
0.0
 33
0.0
 40
0.0
 40
0.0
 40
0.0
 40
0.0
 40
1.0
 40
1.0
 40
1.0
 40
2.0
 40
2.0
 40
2.0
 40
3.0
 40
3.0
 40
3.0
 40
4.0
 40
4.0
 40
4.0
 40
5.0
 40
5.0
 40
5.0
 40
6.0
 40
6.0
 40
6.0
 40
7.0
 40
7.0
 40
7.0
 40
8.0
 40
8.0
 40
8.0
 40
9.0
 40
9.0
 40
9.0
 40
10.0
 40
10.0
 40
10.0
 40
11.0
 40
11.0
 40
11.0
 40
12.0
 40
12.0
 40
12.0
 40
13.0
 40
13.0
 40
13.0
 40
14.0
 40
14.0
 40
14.0
 40
15.0
 40
15.0
 40
15.0
 40
16.0
 40
16.0
 40
16.0
 40
17.0
 40
17.0
 40
17.0
 40
18.0
 40
18.0
 40
18.0
 40
19.0
 40
19.0
 40
19.0
 40
20.0
 40
20.0
 40
20.0
 40
21.0
 40
21.0
 40
21.0
 40
22.0
 40
22.0
 40
22.0
 40
23.0
 40
23.0
 40
23.0
 40
24.0
 40
24.0
 40
24.0
 40
25.0
 40
25.0
 40
25.0
 40
26.0
 40
26.0
 40
26.0
 40
27.0
 40
27.0
 40
27.0
 40
28.0
 40
28.0
 40
28.0
 40
29.0
 40
29.0
 40
29.0
 40
30.0
 40
30.0
 40
30.0
 40
31.0
 40
31.0
 40
31.0
 40
32.0
 40
32.0
 40
32.0
 40
33.0
 40
33.0
 40
33.0
 40
34.0
 40
34.0
 40
34.0
 40
35.0
 40
35.0
 40
35.0
 40
36.0
 40
36.0
 40
36.0
 40
37.0
 40
37.0
 40
37.0
 40
38.0
 40
38.0
 40
38.0
 40
39.0
 40
39.0
 40
39.0
 40
40.0
 40
40.0
 40
40.0
 40
41.0
 40
41.0
 40
41.0
 40
42.0
 40
42.0
 40
42.0
 40
43.0
 40
43.0
 40
43.0
 40
44.0
 40
44.0
 40
44.0
 40
45.0
 40
45.0
 40
45.0
 40
46.0
 40
46.0
 40
46.0
 40
47.0
 40
47.0
 40
47.0
 40
47.0
 10
604.252021926226
 20
-913.3590611211439
 30
0.0
 10
566.000092981918
 20
-913.3590611211439
 30
0.0
 10
527.7481640376154
 20
-913.3590611211439
 30
0.0
 10
489.4962350933056
 20
-913.3590611211439
 30
0.0
 10
489.4949997357417
 20
-903.0362999826775
 30
0.0
 10
489.4644218026515
 20
-892.7133348402076
 30
0.0
 10
489.5243196441625
 20
-882.3909363755265
 30
0.0
 10
489.5332391524444
 20
-880.8524061986209
 30
0.0
 10
489.2559070461539
 20
-880.2551504839794
 30
0.0
 10
487.526236453532
 20
-880.2675720609532
 30
0.0
 10
476.1531040462996
 20
-880.3493096641632
 30
0.0
 10
464.7789062848406
 20
-880.3364347449642
 30
0.0
 10
453.4055132058256
 20
-880.2742588587771
 30
0.0
 10
451.7816073543545
 20
-880.2653960182706
 30
0.0
 10
451.1781295176716
 20
-880.6085987498882
 30
0.0
 10
451.193792491551
 20
-882.3908230399702
 30
0.0
 10
451.2844156023766
 20
-892.7129268322096
 30
0.0
 10
451.2418241003161
 20
-903.0361866471176
 30
0.0
 10
451.244306149003
 20
-913.3590611211439
 30
0.0
 10
412.9923772046968
 20
-913.3590611211439
 30
0.0
 10
374.7404482603906
 20
-913.3590611211439
 30
0.0
 10
336.4885193160862
 20
-913.3590611211439
 30
0.0
 10
336.4868008657104
 20
-891.4551741625073
 30
0.0
 10
336.4827873703252
 20
-869.5513098709816
 30
0.0
 10
336.4839023088571
 20
-847.6474229123396
 30
0.0
 10
336.4855881752592
 20
-814.4820617365476
 30
0.0
 10
336.5016053227537
 20
-781.3166778936429
 30
0.0
 10
336.4610510273196
 20
-748.1513960527409
 30
0.0
 10
336.4591314063327
 20
-746.5824466125196
 30
0.0
 10
336.9161032027587
 20
-746.1830861127528
 30
0.0
 10
338.4440308383728
 20
-746.2102639791556
 30
0.0
 10
343.5161809074289
 20
-746.3004677484223
 30
0.0
 10
348.5917168762262
 20
-746.1907249292453
 30
0.0
 10
353.6644860407596
 20
-746.2620469948324
 30
0.0
 10
355.0500047164805
 20
-746.2815180434081
 30
0.0
 10
355.4734348550191
 20
-745.8704953148936
 30
0.0
 10
355.454366147671
 20
-744.4820894158765
 30
0.0
 10
355.3821515645795
 20
-739.2236369426682
 30
0.0
 10
355.4672552338125
 20
-733.9630424274401
 30
0.0
 10
355.395516660059
 20
-728.7045786206727
 30
0.0
 10
355.3768956281547
 20
-727.3397918515911
 30
0.0
 10
355.7426719691994
 20
-726.8872089745819
 30
0.0
 10
357.1570685446677
 20
-726.9071333653792
 30
0.0
 10
362.4771755605143
 20
-726.9820708352127
 30
0.0
 10
367.7993509502594
 20
-726.9002992313362
 30
0.0
 10
373.1200728114982
 20
-726.949872203666
 30
0.0
 10
374.2828276178989
 20
-726.9607184164033
 30
0.0
 10
374.7691108225808
 20
-726.7035373720246
 30
0.0
 10
374.7558165618266
 20
-725.4285463642045
 30
0.0
 10
374.7010018200162
 20
-720.1698332192154
 30
0.0
 10
374.7058355814916
 20
-714.9096807126589
 30
0.0
 10
374.7723012184888
 20
-709.6511149038906
 30
0.0
 10
374.7887462077106
 20
-708.350192720789
 30
0.0
 10
374.3675856136852
 20
-707.94614012899
 30
0.0
 10
373.0780876546614
 20
-707.9612250915343
 30
0.0
 10
367.8811537214115
 20
-708.0220522846084
 30
0.0
 10
362.6818822423174
 20
-707.9267937495279
 30
0.0
 10
357.4862488345789
 20
-708.0294644299884
 30
0.0
 10
355.8715288299463
 20
-708.0613683890897
 30
0.0
 10
355.3940036303793
 20
-707.6424915065254
 30
0.0
 10
355.3974490312939
 20
-705.978419533898
 30
0.0
 10
355.4476708496823
 20
-681.723159788502
 30
0.0
 10
355.4373884813358
 20
-657.4677357065502
 30
0.0
 10
355.3926067696484
 20
-633.2124419604934
 30
0.0
 10
355.3899972184645
 20
-631.7990229041952
 30
0.0
 10
355.8343179334188
 20
-631.4291579829587
 30
0.0
 10
357.1946874491969
 20
-631.4482096899719
 30
0.0
 10
362.3912785423836
 20
-631.5210107845687
 30
0.0
 10
367.5902978498671
 20
-631.4316230313052
 30
0.0
 10
372.7864356008322
 20
-631.5194354203359
 30
0.0
 10
374.3163636090139
 20
-631.5452872607311
 30
0.0
 10
374.7744885947286
 20
-631.1038396021249
 30
0.0
 10
374.7659317602247
 20
-629.5481447552174
 30
0.0
 10
374.7033251989214
 20
-618.1636136244106
 30
0.0
 10
374.7623276895338
 20
-606.7784194806009
 30
0.0
 10
374.7019991729103
 20
-595.3938628492906
 30
0.0
 10
374.6933970041846
 20
-593.7717434495225
 30
0.0
 10
375.0056704624876
 20
-593.1414943377476
 30
0.0
 10
376.8139959311884
 20
-593.1902399605169
 30
0.0
 10
381.8220844937332
 20
-593.3252438584968
 30
0.0
 10
386.837341530214
 20
-593.1738714727962
 30
0.0
 10
391.8476628032204
 20
-593.2591961463622
 30
0.0
 10
393.3391303903682
 20
-593.2845960612267
 30
0.0
 10
393.7371761976829
 20
-592.8132915670049
 30
0.0
 10
393.7173311417737
 20
-591.3668904471324
 30
0.0
 10
393.6409259764878
 20
-585.7995985829766
 30
0.0
 10
393.68288846621
 20
-580.2306814161093
 30
0.0
 10
393.6807237570829
 20
-574.6623698861204
 30
0.0
 10
438.369874295111
 20
-574.6623698861204
 30
0.0
 10
483.0590134995855
 20
-574.6623698861204
 30
0.0
 10
527.7481640376154
 20
-574.6623698861204
 30
0.0
 10
527.7457839909312
 20
-580.1089236112712
 30
0.0
 10
527.8177520691897
 20
-585.5571001599183
 30
0.0
 10
527.6989084048437
 20
-591.0011098560044
 30
0.0
 10
527.6596716352506
 20
-592.797914765406
 30
0.0
 10
528.1871579814233
 20
-593.2691611751488
 30
0.0
 10
529.9667982208211
 20
-593.2625976297477
 30
0.0
 10
547.6678854119382
 20
-593.1973135159242
 30
0.0
 10
565.3693579439441
 20
-593.2462149750809
 30
0.0
 10
583.0704451350612
 20
-593.1832273229684
 30
0.0
 10
584.83174768145
 20
-593.1769598667051
 30
0.0
 10
585.3584180116177
 20
-593.6122619047692
 30
0.0
 10
585.3510285333468
 20
-595.4334353754712
 30
0.0
 10
585.2794457959826
 20
-613.0729147748716
 30
0.0
 10
585.3254600318451
 20
-630.7128545999676
 30
0.0
 10
585.2745723670614
 20
-648.3524799188981
 30
0.0
 10
585.2700616119182
 20
-649.9215426946721
 30
0.0
 10
585.6024294643539
 20
-650.5055211488943
 30
0.0
 10
587.3062708836896
 20
-650.4655590317361
 30
0.0
 10
592.3788530445581
 20
-650.3465850315006
 30
0.0
 10
597.4562633001224
 20
-650.4479240191758
 30
0.0
 10
602.531089504997
 20
-650.3965773453892
 30
0.0
 10
603.7398585472638
 20
-650.3843484388599
 30
0.0
 10
604.2853199126712
 20
-650.6246028179066
 30
0.0
 10
604.2818291775347
 20
-652.0119886969169
 30
0.0
 10
604.2364269536811
 20
-670.0850715177294
 30
0.0
 10
604.2331175554355
 20
-688.158330008655
 30
0.0
 10
604.2737596859279
 20
-706.231418496247
 30
0.0
 10
604.2768877472845
 20
-707.6214450937205
 30
0.0
 10
603.8793972841904
 20
-708.032875830233
 30
0.0
 10
602.4941194465282
 20
-708.0134161152182
 30
0.0
 10
597.2960068234988
 20
-707.9403713491756
 30
0.0
 10
592.0959448288959
 20
-708.0159434981215
 30
0.0
 10
586.8973788636358
 20
-707.9615877653159
 30
0.0
 10
585.7005100547831
 20
-707.9490755199004
 30
0.0
 10
585.2904846791662
 20
-708.2894448626084
 30
0.0
 10
585.2946554276405
 20
-709.5261851201722
 30
0.0
 10
585.3340055327899
 20
-721.2239445613413
 30
0.0
 10
585.3380176114842
 20
-732.9219760078468
 30
0.0
 10
585.2904846791662
 20
-744.6196787812369
 30
0.0
 10
585.2849992382417
 20
-745.9731093275768
 30
0.0
 10
585.7828823371074
 20
-746.2740378966919
 30
0.0
 10
587.0192599208931
 20
-746.2610723090474
 30
0.0
 10
592.0940407915477
 20
-746.2078612653604
 30
0.0
 10
597.171451047112
 20
-746.314623359407
 30
0.0
 10
602.2439878737532
 20
-746.1956550259492
 30
0.0
 10
603.9334810116634
 20
-746.156010248349
 30
0.0
 10
604.2828038633215
 20
-746.6860579781005
 30
0.0
 10
604.2816705077603
 20
-748.2861860298581
 30
0.0
 10
604.2422524012727
 20
-803.3104626155455
 30
0.0
 10
604.2505485639958
 20
-858.3347618683456
 30
0.0
 10
604.252021926226
 20
-913.3590611211439
 30
0.0
  0
HATCH
  5
44
330
1F
100
AcDbEntity
  8
Layer 1
 62
    18
420
    65793
100
AcDbHatch
 10
0.0
 20
0.0
 30
0.0
210
0.0
220
0.0
230
1.0
  2
SOLID
 70
     1
 71
     0
 91
        1
 92
        1
 93
        1
 72
     4
 94
        3
 73
     0
 74
     1
 95
      146
 96
      142
 40
0.0
 40
0.0
 40
0.0
 40
0.0
 40
1.0
 40
1.0
 40
1.0
 40
2.0
 40
2.0
 40
2.0
 40
3.0
 40
3.0
 40
3.0
 40
4.0
 40
4.0
 40
4.0
 40
5.0
 40
5.0
 40
5.0
 40
6.0
 40
6.0
 40
6.0
 40
7.0
 40
7.0
 40
7.0
 40
8.0
 40
8.0
 40
8.0
 40
9.0
 40
9.0
 40
9.0
 40
10.0
 40
10.0
 40
10.0
 40
11.0
 40
11.0
 40
11.0
 40
12.0
 40
12.0
 40
12.0
 40
13.0
 40
13.0
 40
13.0
 40
14.0
 40
14.0
 40
14.0
 40
15.0
 40
15.0
 40
15.0
 40
16.0
 40
16.0
 40
16.0
 40
17.0
 40
17.0
 40
17.0
 40
18.0
 40
18.0
 40
18.0
 40
19.0
 40
19.0
 40
19.0
 40
20.0
 40
20.0
 40
20.0
 40
21.0
 40
21.0
 40
21.0
 40
22.0
 40
22.0
 40
22.0
 40
23.0
 40
23.0
 40
23.0
 40
24.0
 40
24.0
 40
24.0
 40
25.0
 40
25.0
 40
25.0
 40
26.0
 40
26.0
 40
26.0
 40
27.0
 40
27.0
 40
27.0
 40
28.0
 40
28.0
 40
28.0
 40
29.0
 40
29.0
 40
29.0
 40
30.0
 40
30.0
 40
30.0
 40
31.0
 40
31.0
 40
31.0
 40
32.0
 40
32.0
 40
32.0
 40
33.0
 40
33.0
 40
33.0
 40
34.0
 40
34.0
 40
34.0
 40
35.0
 40
35.0
 40
35.0
 40
36.0
 40
36.0
 40
36.0
 40
37.0
 40
37.0
 40
37.0
 40
38.0
 40
38.0
 40
38.0
 40
39.0
 40
39.0
 40
39.0
 40
40.0
 40
40.0
 40
40.0
 40
41.0
 40
41.0
 40
41.0
 40
42.0
 40
42.0
 40
42.0
 40
43.0
 40
43.0
 40
43.0
 40
44.0
 40
44.0
 40
44.0
 40
45.0
 40
45.0
 40
45.0
 40
46.0
 40
46.0
 40
46.0
 40
47.0
 40
47.0
 40
47.0
 40
47.0
 10
604.252021926226
 20
-913.3590611211439
 10
566.000092981918
 20
-913.3590611211439
 10
527.7481640376154
 20
-913.3590611211439
 10
489.4962350933056
 20
-913.3590611211439
 10
489.4949997357417
 20
-903.0362999826775
 10
489.4644218026515
 20
-892.7133348402076
 10
489.5243196441625
 20
-882.3909363755265
 10
489.5332391524444
 20
-880.8524061986209
 10
489.2559070461539
 20
-880.2551504839794
 10
487.526236453532
 20
-880.2675720609532
 10
476.1531040462996
 20
-880.3493096641632
 10
464.7789062848406
 20
-880.3364347449642
 10
453.4055132058256
 20
-880.2742588587771
 10
451.7816073543545
 20
-880.2653960182706
 10
451.1781295176716
 20
-880.6085987498882
 10
451.193792491551
 20
-882.3908230399702
 10
451.2844156023766
 20
-892.7129268322096
 10
451.2418241003161
 20
-903.0361866471176
 10
451.244306149003
 20
-913.3590611211439
 10
412.9923772046968
 20
-913.3590611211439
 10
374.7404482603906
 20
-913.3590611211439
 10
336.4885193160862
 20
-913.3590611211439
 10
336.4868008657104
 20
-891.4551741625073
 10
336.4827873703252
 20
-869.5513098709816
 10
336.4839023088571
 20
-847.6474229123396
 10
336.4855881752592
 20
-814.4820617365476
 10
336.5016053227537
 20
-781.3166778936429
 10
336.4610510273196
 20
-748.1513960527409
 10
336.4591314063327
 20
-746.5824466125196
 10
336.9161032027587
 20
-746.1830861127528
 10
338.4440308383728
 20
-746.2102639791556
 10
343.5161809074289
 20
-746.3004677484223
 10
348.5917168762262
 20
-746.1907249292453
 10
353.6644860407596
 20
-746.2620469948324
 10
355.0500047164805
 20
-746.2815180434081
 10
355.4734348550191
 20
-745.8704953148936
 10
355.454366147671
 20
-744.4820894158765
 10
355.3821515645795
 20
-739.2236369426682
 10
355.4672552338125
 20
-733.9630424274401
 10
355.395516660059
 20
-728.7045786206727
 10
355.3768956281547
 20
-727.3397918515911
 10
355.7426719691994
 20
-726.8872089745819
 10
357.1570685446677
 20
-726.9071333653792
 10
362.4771755605143
 20
-726.9820708352127
 10
367.7993509502594
 20
-726.9002992313362
 10
373.1200728114982
 20
-726.949872203666
 10
374.2828276178989
 20
-726.9607184164033
 10
374.7691108225808
 20
-726.7035373720246
 10
374.7558165618266
 20
-725.4285463642045
 10
374.7010018200162
 20
-720.1698332192154
 10
374.7058355814916
 20
-714.9096807126589
 10
374.7723012184888
 20
-709.6511149038906
 10
374.7887462077106
 20
-708.350192720789
 10
374.3675856136852
 20
-707.94614012899
 10
373.0780876546614
 20
-707.9612250915343
 10
367.8811537214115
 20
-708.0220522846084
 10
362.6818822423174
 20
-707.9267937495279
 10
357.4862488345789
 20
-708.0294644299884
 10
355.8715288299463
 20
-708.0613683890897
 10
355.3940036303793
 20
-707.6424915065254
 10
355.3974490312939
 20
-705.978419533898
 10
355.4476708496823
 20
-681.723159788502
 10
355.4373884813358
 20
-657.4677357065502
 10
355.3926067696484
 20
-633.2124419604934
 10
355.3899972184645
 20
-631.7990229041952
 10
355.8343179334188
 20
-631.4291579829587
 10
357.1946874491969
 20
-631.4482096899719
 10
362.3912785423836
 20
-631.5210107845687
 10
367.5902978498671
 20
-631.4316230313052
 10
372.7864356008322
 20
-631.5194354203359
 10
374.3163636090139
 20
-631.5452872607311
 10
374.7744885947286
 20
-631.1038396021249
 10
374.7659317602247
 20
-629.5481447552174
 10
374.7033251989214
 20
-618.1636136244106
 10
374.7623276895338
 20
-606.7784194806009
 10
374.7019991729103
 20
-595.3938628492906
 10
374.6933970041846
 20
-593.7717434495225
 10
375.0056704624876
 20
-593.1414943377476
 10
376.8139959311884
 20
-593.1902399605169
 10
381.8220844937332
 20
-593.3252438584968
 10
386.837341530214
 20
-593.1738714727962
 10
391.8476628032204
 20
-593.2591961463622
 10
393.3391303903682
 20
-593.2845960612267
 10
393.7371761976829
 20
-592.8132915670049
 10
393.7173311417737
 20
-591.3668904471324
 10
393.6409259764878
 20
-585.7995985829766
 10
393.68288846621
 20
-580.2306814161093
 10
393.6807237570829
 20
-574.6623698861204
 10
438.369874295111
 20
-574.6623698861204
 10
483.0590134995855
 20
-574.6623698861204
 10
527.7481640376154
 20
-574.6623698861204
 10
527.7457839909312
 20
-580.1089236112712
 10
527.8177520691897
 20
-585.5571001599183
 10
527.6989084048437
 20
-591.0011098560044
 10
527.6596716352506
 20
-592.797914765406
 10
528.1871579814233
 20
-593.2691611751488
 10
529.9667982208211
 20
-593.2625976297477
 10
547.6678854119382
 20
-593.1973135159242
 10
565.3693579439441
 20
-593.2462149750809
 10
583.0704451350612
 20
-593.1832273229684
 10
584.83174768145
 20
-593.1769598667051
 10
585.3584180116177
 20
-593.6122619047692
 10
585.3510285333468
 20
-595.4334353754712
 10
585.2794457959826
 20
-613.0729147748716
 10
585.3254600318451
 20
-630.7128545999676
 10
585.2745723670614
 20
-648.3524799188981
 10
585.2700616119182
 20
-649.9215426946721
 10
585.6024294643539
 20
-650.5055211488943
 10
587.3062708836896
 20
-650.4655590317361
 10
592.3788530445581
 20
-650.3465850315006
 10
597.4562633001224
 20
-650.4479240191758
 10
602.531089504997
 20
-650.3965773453892
 10
603.7398585472638
 20
-650.3843484388599
 10
604.2853199126712
 20
-650.6246028179066
 10
604.2818291775347
 20
-652.0119886969169
 10
604.2364269536811
 20
-670.0850715177294
 10
604.2331175554355
 20
-688.158330008655
 10
604.2737596859279
 20
-706.231418496247
 10
604.2768877472845
 20
-707.6214450937205
 10
603.8793972841904
 20
-708.032875830233
 10
602.4941194465282
 20
-708.0134161152182
 10
597.2960068234988
 20
-707.9403713491756
 10
592.0959448288959
 20
-708.0159434981215
 10
586.8973788636358
 20
-707.9615877653159
 10
585.7005100547831
 20
-707.9490755199004
 10
585.2904846791662
 20
-708.2894448626084
 10
585.2946554276405
 20
-709.5261851201722
 10
585.3340055327899
 20
-721.2239445613413
 10
585.3380176114842
 20
-732.9219760078468
 10
585.2904846791662
 20
-744.6196787812369
 10
585.2849992382417
 20
-745.9731093275768
 10
585.7828823371074
 20
-746.2740378966919
 10
587.0192599208931
 20
-746.2610723090474
 10
592.0940407915477
 20
-746.2078612653604
 10
597.171451047112
 20
-746.314623359407
 10
602.2439878737532
 20
-746.1956550259492
 10
603.9334810116634
 20
-746.156010248349
 10
604.2828038633215
 20
-746.6860579781005
 10
604.2816705077603
 20
-748.2861860298581
 10
604.2422524012727
 20
-803.3104626155455
 10
604.2505485639958
 20
-858.3347618683456
 10
604.252021926226
 20
-913.3590611211439
 97
        0
 97
        0
 75
     2
 76
     1
 98
        0
  0
SPLINE
  5
45
330
1F
100
AcDbEntity
  8
Layer 1
370
     0
100
AcDbSpline
210
0.0
220
0.0
230
1.0
 70
    11
 71
     3
 72
   125
 73
   121
 74
     0
 42
0.0000000001
 43
0.0000000001
 12
1.0
 22
0.0
 32
0.0
 13
1.0
 23
0.0
 33
0.0
 40
0.0
 40
0.0
 40
0.0
 40
0.0
 40
1.0
 40
1.0
 40
1.0
 40
2.0
 40
2.0
 40
2.0
 40
3.0
 40
3.0
 40
3.0
 40
4.0
 40
4.0
 40
4.0
 40
5.0
 40
5.0
 40
5.0
 40
6.0
 40
6.0
 40
6.0
 40
7.0
 40
7.0
 40
7.0
 40
8.0
 40
8.0
 40
8.0
 40
9.0
 40
9.0
 40
9.0
 40
10.0
 40
10.0
 40
10.0
 40
11.0
 40
11.0
 40
11.0
 40
12.0
 40
12.0
 40
12.0
 40
13.0
 40
13.0
 40
13.0
 40
14.0
 40
14.0
 40
14.0
 40
15.0
 40
15.0
 40
15.0
 40
16.0
 40
16.0
 40
16.0
 40
17.0
 40
17.0
 40
17.0
 40
18.0
 40
18.0
 40
18.0
 40
19.0
 40
19.0
 40
19.0
 40
20.0
 40
20.0
 40
20.0
 40
21.0
 40
21.0
 40
21.0
 40
22.0
 40
22.0
 40
22.0
 40
23.0
 40
23.0
 40
23.0
 40
24.0
 40
24.0
 40
24.0
 40
25.0
 40
25.0
 40
25.0
 40
26.0
 40
26.0
 40
26.0
 40
27.0
 40
27.0
 40
27.0
 40
28.0
 40
28.0
 40
28.0
 40
29.0
 40
29.0
 40
29.0
 40
30.0
 40
30.0
 40
30.0
 40
31.0
 40
31.0
 40
31.0
 40
32.0
 40
32.0
 40
32.0
 40
33.0
 40
33.0
 40
33.0
 40
34.0
 40
34.0
 40
34.0
 40
35.0
 40
35.0
 40
35.0
 40
36.0
 40
36.0
 40
36.0
 40
37.0
 40
37.0
 40
37.0
 40
38.0
 40
38.0
 40
38.0
 40
39.0
 40
39.0
 40
39.0
 40
40.0
 40
40.0
 40
40.0
 40
40.0
 10
10.21922349694432
 20
-537.1206463872186
 30
0.0
 10
10.21922349694432
 20
-515.9770176788261
 30
0.0
 10
10.21922349694432
 20
-494.8334015402816
 30
0.0
 10
10.21922349694432
 20
-473.6897728318891
 30
0.0
 10
16.11730899751456
 20
-473.6927141763954
 30
0.0
 10
22.01602063365499
 20
-473.6492225012535
 30
0.0
 10
27.91307304981819
 20
-473.7287519314905
 30
0.0
 10
29.54319382749873
 20
-473.7507240263294
 30
0.0
 10
30.08918247224756
 20
-473.1892540421577
 30
0.0
 10
30.02672289601287
 20
-471.5899293928305
 30
0.0
 10
29.92508938752781
 20
-468.9875685581592
 30
0.0
 10
29.98847284761541
 20
-466.3786211229708
 30
0.0
 10
29.98815231648314
 20
-463.7724516242615
 30
0.0
 10
29.98430122920763
 20
-432.4296479996556
 30
0.0
 10
29.99841245516382
 20
-401.0868129504306
 30
0.0
 10
29.93900578083503
 20
-369.7441193119976
 30
0.0
 10
29.9352112578772
 20
-367.7425595168461
 30
0.0
 10
30.70850046956184
 20
-367.3483690739413
 30
0.0
 10
32.48079723020965
 20
-367.3780276310263
 30
0.0
 10
37.96597892620957
 20
-367.4698252332073
 30
0.0
 10
43.45426380351091
 20
-367.374696621222
 30
0.0
 10
48.93953505967966
 20
-367.4636502952271
 30
0.0
 10
50.75089733763525
 20
-367.4930228882586
 30
0.0
 10
51.48887941665635
 20
-366.9748748862767
 30
0.0
 10
51.44954521884301
 20
-365.0332952647859
 30
0.0
 10
51.33981672804839
 20
-359.6172964426369
 30
0.0
 10
51.42182556086391
 20
-354.1975580906164
 30
0.0
 10
51.4123039007718
 20
-348.7793249779279
 30
0.0
 10
51.40745822424924
 20
-346.0219496314712
 30
0.0
 10
51.39207587238343
 20
-346.0208246300463
 30
0.0
 10
54.06375942046907
 20
-346.0185840545892
 30
0.0
 10
66.61431929513583
 20
-346.008053664169
 30
0.0
 10
79.16498601351395
 20
-345.9721557486373
 30
0.0
 10
91.71531963091184
 20
-346.02032969227
 30
0.0
 10
93.32647879242086
 20
-346.0265124864054
 30
0.0
 10
93.8664731907611
 20
-345.5625483867843
 30
0.0
 10
93.8465876907394
 20
-343.927899321252
 30
0.0
 10
93.77317349170335
 20
-337.8933359070725
 30
0.0
 10
93.8267901796562
 20
-331.857226008744
 30
0.0
 10
93.83264772896655
 20
-325.8216974659008
 30
0.0
 10
136.2571930289587
 20
-325.8216974659008
 30
0.0
 10
178.6817383289508
 20
-325.8216974659008
 30
0.0
 10
221.106283628942
 20
-325.8216974659008
 30
0.0
 10
221.1026383729331
 20
-331.7239926872317
 30
0.0
 10
221.1557082724858
 20
-337.6271897951756
 30
0.0
 10
221.0617863659354
 20
-343.5280477329179
 30
0.0
 10
221.0325740384696
 20
-345.364141187416
 30
0.0
 10
221.5477115617832
 20
-346.0381395960922
 30
0.0
 10
223.486334126459
 20
-346.0269759995645
 30
0.0
 10
235.9073805690959
 20
-345.9554582763903
 30
0.0
 10
248.3290806438454
 20
-346.0022275394804
 30
0.0
 10
260.7505796010228
 20
-345.9975892654529
 30
0.0
 10
263.5239155123654
 20
-345.9965522529674
 30
0.0
 10
263.522281432085
 20
-345.9735871401117
 30
0.0
 10
263.5225579687476
 20
-348.6625715131613
 30
0.0
 10
263.5231110420737
 20
-354.22175819107
 30
0.0
 10
263.5706502083713
 20
-359.7815215107657
 30
0.0
 10
263.4991780508963
 20
-365.3397670212798
 30
0.0
 10
263.4783623821004
 20
-366.9602090157641
 30
0.0
 10
264.0431256665297
 20
-367.4879478120074
 30
0.0
 10
265.6460578623228
 20
-367.4629746658793
 30
0.0
 10
270.9978467568581
 20
-367.3796051469872
 30
0.0
 10
276.3514708492467
 20
-367.4168118979724
 30
0.0
 10
281.7043910301318
 20
-367.4055650262017
 30
0.0
 10
284.9766745001689
 20
-367.3986893191795
 30
0.0
 10
284.9633756006606
 20
-367.3968258391687
 30
0.0
 10
284.9623448730981
 20
-370.6561529380633
 30
0.0
 10
284.9517359211295
 20
-404.2162903738517
 30
0.0
 10
284.9611884470542
 20
-437.7764592342628
 30
0.0
 10
284.8993447933844
 20
-471.3364961112675
 30
0.0
 10
284.8957246770733
 20
-473.3027974819161
 30
0.0
 10
285.5798512410238
 20
-473.7475941341036
 30
0.0
 10
287.4017753340177
 20
-473.7143594551799
 30
0.0
 10
292.8215168284996
 20
-473.6154473188508
 30
0.0
 10
298.2454063729274
 20
-473.74833575515
 30
0.0
 10
303.6654244040728
 20
-473.657330053411
 30
0.0
 10
305.4758847954108
 20
-473.6269361602044
 30
0.0
 10
306.028656444556
 20
-474.2238531166004
 30
0.0
 10
305.9974329413599
 20
-476.0233274605234
 30
0.0
 10
305.8961702434008
 20
-481.8552971302306
 30
0.0
 10
305.9539915456135
 20
-487.6900573062594
 30
0.0
 10
305.9546954571179
 20
-493.5237490451873
 30
0.0
 10
305.956379816791
 20
-507.2500736757065
 30
0.0
 10
305.9291535253578
 20
-520.9765742841082
 30
0.0
 10
305.999871491932
 20
-534.7025469588734
 30
0.0
 10
306.009600554522
 20
-536.5924110819687
 30
0.0
 10
305.4094154375643
 20
-537.3651299367884
 30
0.0
 10
303.5404801119021
 20
-537.1285905313471
 30
0.0
 10
303.1359321139935
 20
-537.0773809693455
 30
0.0
 10
302.7180600768779
 20
-537.1362329991189
 30
0.0
 10
302.306322125738
 20
-537.1362329991189
 30
0.0
 10
276.0219397060355
 20
-537.1365598151715
 30
0.0
 10
249.7375321466334
 20
-537.1161212418265
 30
0.0
 10
223.4533005651083
 20
-537.1755012052272
 30
0.0
 10
221.4717896780103
 20
-537.1799760712274
 30
0.0
 10
221.0312416345487
 20
-536.4475812897781
 30
0.0
 10
221.063772401968
 20
-534.6536376791137
 30
0.0
 10
221.1583982200218
 20
-529.439438344145
 30
0.0
 10
221.1064093274244
 20
-524.222624480728
 30
0.0
 10
221.1177976099907
 20
-519.0068539147178
 30
0.0
 10
221.1240071150542
 20
-516.173069602868
 30
0.0
 10
221.1294121498267
 20
-516.1357622930955
 30
0.0
 10
218.3362787273991
 20
-516.1331351947993
 30
0.0
 10
197.9537417641413
 20
-516.1140164555254
 30
0.0
 10
177.5712048008836
 20
-516.1076309725795
 30
0.0
 10
157.1886678376268
 20
-516.1040108562702
 30
0.0
 10
136.9433181987906
 20
-516.1004284495029
 30
0.0
 10
116.697880571016
 20
-516.1305835155908
 30
0.0
 10
96.45273833467581
 20
-516.0661253334729
 30
0.0
 10
94.40235724870399
 20
-516.0596015822011
 30
0.0
 10
93.71156866515139
 20
-516.6179542439968
 30
0.0
 10
93.77228103247216
 20
-518.7310840127138
 30
0.0
 10
93.92398653168857
 20
-524.0114761688674
 30
0.0
 10
93.76017626855264
 20
-529.3005289505054
 30
0.0
 10
93.8836813130929
 20
-534.5823540693636
 30
0.0
 10
93.92955497448747
 20
-536.5441428644699
 30
0.0
 10
93.33752768908198
 20
-537.1788950642713
 30
0.0
 10
91.33697348179885
 20
-537.174344779185
 30
0.0
 10
64.29782823558344
 20
-537.1128279415716
 30
0.0
 10
37.25850386902857
 20
-537.1259760028988
 30
0.0
 10
10.21922349694432
 20
-537.1206463872186
 30
0.0
  0
HATCH
  5
46
330
1F
100
AcDbEntity
  8
Layer 1
 62
    18
420
    65793
100
AcDbHatch
 10
0.0
 20
0.0
 30
0.0
210
0.0
220
0.0
230
1.0
  2
SOLID
 70
     1
 71
     0
 91
        1
 92
        1
 93
        1
 72
     4
 94
        3
 73
     0
 74
     1
 95
      125
 96
      121
 40
0.0
 40
0.0
 40
0.0
 40
0.0
 40
1.0
 40
1.0
 40
1.0
 40
2.0
 40
2.0
 40
2.0
 40
3.0
 40
3.0
 40
3.0
 40
4.0
 40
4.0
 40
4.0
 40
5.0
 40
5.0
 40
5.0
 40
6.0
 40
6.0
 40
6.0
 40
7.0
 40
7.0
 40
7.0
 40
8.0
 40
8.0
 40
8.0
 40
9.0
 40
9.0
 40
9.0
 40
10.0
 40
10.0
 40
10.0
 40
11.0
 40
11.0
 40
11.0
 40
12.0
 40
12.0
 40
12.0
 40
13.0
 40
13.0
 40
13.0
 40
14.0
 40
14.0
 40
14.0
 40
15.0
 40
15.0
 40
15.0
 40
16.0
 40
16.0
 40
16.0
 40
17.0
 40
17.0
 40
17.0
 40
18.0
 40
18.0
 40
18.0
 40
19.0
 40
19.0
 40
19.0
 40
20.0
 40
20.0
 40
20.0
 40
21.0
 40
21.0
 40
21.0
 40
22.0
 40
22.0
 40
22.0
 40
23.0
 40
23.0
 40
23.0
 40
24.0
 40
24.0
 40
24.0
 40
25.0
 40
25.0
 40
25.0
 40
26.0
 40
26.0
 40
26.0
 40
27.0
 40
27.0
 40
27.0
 40
28.0
 40
28.0
 40
28.0
 40
29.0
 40
29.0
 40
29.0
 40
30.0
 40
30.0
 40
30.0
 40
31.0
 40
31.0
 40
31.0
 40
32.0
 40
32.0
 40
32.0
 40
33.0
 40
33.0
 40
33.0
 40
34.0
 40
34.0
 40
34.0
 40
35.0
 40
35.0
 40
35.0
 40
36.0
 40
36.0
 40
36.0
 40
37.0
 40
37.0
 40
37.0
 40
38.0
 40
38.0
 40
38.0
 40
39.0
 40
39.0
 40
39.0
 40
40.0
 40
40.0
 40
40.0
 40
40.0
 10
10.21922349694432
 20
-537.1206463872186
 10
10.21922349694432
 20
-515.9770176788261
 10
10.21922349694432
 20
-494.8334015402816
 10
10.21922349694432
 20
-473.6897728318891
 10
16.11730899751456
 20
-473.6927141763954
 10
22.01602063365499
 20
-473.6492225012535
 10
27.91307304981819
 20
-473.7287519314905
 10
29.54319382749873
 20
-473.7507240263294
 10
30.08918247224756
 20
-473.1892540421577
 10
30.02672289601287
 20
-471.5899293928305
 10
29.92508938752781
 20
-468.9875685581592
 10
29.98847284761541
 20
-466.3786211229708
 10
29.98815231648314
 20
-463.7724516242615
 10
29.98430122920763
 20
-432.4296479996556
 10
29.99841245516382
 20
-401.0868129504306
 10
29.93900578083503
 20
-369.7441193119976
 10
29.9352112578772
 20
-367.7425595168461
 10
30.70850046956184
 20
-367.3483690739413
 10
32.48079723020965
 20
-367.3780276310263
 10
37.96597892620957
 20
-367.4698252332073
 10
43.45426380351091
 20
-367.374696621222
 10
48.93953505967966
 20
-367.4636502952271
 10
50.75089733763525
 20
-367.4930228882586
 10
51.48887941665635
 20
-366.9748748862767
 10
51.44954521884301
 20
-365.0332952647859
 10
51.33981672804839
 20
-359.6172964426369
 10
51.42182556086391
 20
-354.1975580906164
 10
51.4123039007718
 20
-348.7793249779279
 10
51.40745822424924
 20
-346.0219496314712
 10
51.39207587238343
 20
-346.0208246300463
 10
54.06375942046907
 20
-346.0185840545892
 10
66.61431929513583
 20
-346.008053664169
 10
79.16498601351395
 20
-345.9721557486373
 10
91.71531963091184
 20
-346.02032969227
 10
93.32647879242086
 20
-346.0265124864054
 10
93.8664731907611
 20
-345.5625483867843
 10
93.8465876907394
 20
-343.927899321252
 10
93.77317349170335
 20
-337.8933359070725
 10
93.8267901796562
 20
-331.857226008744
 10
93.83264772896655
 20
-325.8216974659008
 10
136.2571930289587
 20
-325.8216974659008
 10
178.6817383289508
 20
-325.8216974659008
 10
221.106283628942
 20
-325.8216974659008
 10
221.1026383729331
 20
-331.7239926872317
 10
221.1557082724858
 20
-337.6271897951756
 10
221.0617863659354
 20
-343.5280477329179
 10
221.0325740384696
 20
-345.364141187416
 10
221.5477115617832
 20
-346.0381395960922
 10
223.486334126459
 20
-346.0269759995645
 10
235.9073805690959
 20
-345.9554582763903
 10
248.3290806438454
 20
-346.0022275394804
 10
260.7505796010228
 20
-345.9975892654529
 10
263.5239155123654
 20
-345.9965522529674
 10
263.522281432085
 20
-345.9735871401117
 10
263.5225579687476
 20
-348.6625715131613
 10
263.5231110420737
 20
-354.22175819107
 10
263.5706502083713
 20
-359.7815215107657
 10
263.4991780508963
 20
-365.3397670212798
 10
263.4783623821004
 20
-366.9602090157641
 10
264.0431256665297
 20
-367.4879478120074
 10
265.6460578623228
 20
-367.4629746658793
 10
270.9978467568581
 20
-367.3796051469872
 10
276.3514708492467
 20
-367.4168118979724
 10
281.7043910301318
 20
-367.4055650262017
 10
284.9766745001689
 20
-367.3986893191795
 10
284.9633756006606
 20
-367.3968258391687
 10
284.9623448730981
 20
-370.6561529380633
 10
284.9517359211295
 20
-404.2162903738517
 10
284.9611884470542
 20
-437.7764592342628
 10
284.8993447933844
 20
-471.3364961112675
 10
284.8957246770733
 20
-473.3027974819161
 10
285.5798512410238
 20
-473.7475941341036
 10
287.4017753340177
 20
-473.7143594551799
 10
292.8215168284996
 20
-473.6154473188508
 10
298.2454063729274
 20
-473.74833575515
 10
303.6654244040728
 20
-473.657330053411
 10
305.4758847954108
 20
-473.6269361602044
 10
306.028656444556
 20
-474.2238531166004
 10
305.9974329413599
 20
-476.0233274605234
 10
305.8961702434008
 20
-481.8552971302306
 10
305.9539915456135
 20
-487.6900573062594
 10
305.9546954571179
 20
-493.5237490451873
 10
305.956379816791
 20
-507.2500736757065
 10
305.9291535253578
 20
-520.9765742841082
 10
305.999871491932
 20
-534.7025469588734
 10
306.009600554522
 20
-536.5924110819687
 10
305.4094154375643
 20
-537.3651299367884
 10
303.5404801119021
 20
-537.1285905313471
 10
303.1359321139935
 20
-537.0773809693455
 10
302.7180600768779
 20
-537.1362329991189
 10
302.306322125738
 20
-537.1362329991189
 10
276.0219397060355
 20
-537.1365598151715
 10
249.7375321466334
 20
-537.1161212418265
 10
223.4533005651083
 20
-537.1755012052272
 10
221.4717896780103
 20
-537.1799760712274
 10
221.0312416345487
 20
-536.4475812897781
 10
221.063772401968
 20
-534.6536376791137
 10
221.1583982200218
 20
-529.439438344145
 10
221.1064093274244
 20
-524.222624480728
 10
221.1177976099907
 20
-519.0068539147178
 10
221.1240071150542
 20
-516.173069602868
 10
221.1294121498267
 20
-516.1357622930955
 10
218.3362787273991
 20
-516.1331351947993
 10
197.9537417641413
 20
-516.1140164555254
 10
177.5712048008836
 20
-516.1076309725795
 10
157.1886678376268
 20
-516.1040108562702
 10
136.9433181987906
 20
-516.1004284495029
 10
116.697880571016
 20
-516.1305835155908
 10
96.45273833467581
 20
-516.0661253334729
 10
94.40235724870399
 20
-516.0596015822011
 10
93.71156866515139
 20
-516.6179542439968
 10
93.77228103247216
 20
-518.7310840127138
 10
93.92398653168857
 20
-524.0114761688674
 10
93.76017626855264
 20
-529.3005289505054
 10
93.8836813130929
 20
-534.5823540693636
 10
93.92955497448747
 20
-536.5441428644699
 10
93.33752768908198
 20
-537.1788950642713
 10
91.33697348179885
 20
-537.174344779185
 10
64.29782823558344
 20
-537.1128279415716
 10
37.25850386902857
 20
-537.1259760028988
 10
10.21922349694432
 20
-537.1206463872186
 97
        0
 97
        0
 75
     2
 76
     1
 98
        0
  0
SPLINE
  5
47
330
1F
100
AcDbEntity
  8
Layer 1
370
     0
100
AcDbSpline
210
0.0
220
0.0
230
1.0
 70
    11
 71
     3
 72
   131
 73
   127
 74
     0
 42
0.0000000001
 43
0.0000000001
 12
1.0
 22
0.0
 32
0.0
 13
1.0
 23
0.0
 33
0.0
 40
0.0
 40
0.0
 40
0.0
 40
0.0
 40
1.0
 40
1.0
 40
1.0
 40
2.0
 40
2.0
 40
2.0
 40
3.0
 40
3.0
 40
3.0
 40
4.0
 40
4.0
 40
4.0
 40
5.0
 40
5.0
 40
5.0
 40
6.0
 40
6.0
 40
6.0
 40
7.0
 40
7.0
 40
7.0
 40
8.0
 40
8.0
 40
8.0
 40
9.0
 40
9.0
 40
9.0
 40
10.0
 40
10.0
 40
10.0
 40
11.0
 40
11.0
 40
11.0
 40
12.0
 40
12.0
 40
12.0
 40
13.0
 40
13.0
 40
13.0
 40
14.0
 40
14.0
 40
14.0
 40
15.0
 40
15.0
 40
15.0
 40
16.0
 40
16.0
 40
16.0
 40
17.0
 40
17.0
 40
17.0
 40
18.0
 40
18.0
 40
18.0
 40
19.0
 40
19.0
 40
19.0
 40
20.0
 40
20.0
 40
20.0
 40
21.0
 40
21.0
 40
21.0
 40
22.0
 40
22.0
 40
22.0
 40
23.0
 40
23.0
 40
23.0
 40
24.0
 40
24.0
 40
24.0
 40
25.0
 40
25.0
 40
25.0
 40
26.0
 40
26.0
 40
26.0
 40
27.0
 40
27.0
 40
27.0
 40
28.0
 40
28.0
 40
28.0
 40
29.0
 40
29.0
 40
29.0
 40
30.0
 40
30.0
 40
30.0
 40
31.0
 40
31.0
 40
31.0
 40
32.0
 40
32.0
 40
32.0
 40
33.0
 40
33.0
 40
33.0
 40
34.0
 40
34.0
 40
34.0
 40
35.0
 40
35.0
 40
35.0
 40
36.0
 40
36.0
 40
36.0
 40
37.0
 40
37.0
 40
37.0
 40
38.0
 40
38.0
 40
38.0
 40
39.0
 40
39.0
 40
39.0
 40
40.0
 40
40.0
 40
40.0
 40
41.0
 40
41.0
 40
41.0
 40
42.0
 40
42.0
 40
42.0
 40
42.0
 10
270.9332382950779
 20
-740.1025060053234
 30
0.0
 10
270.5526478235188
 20
-740.1239279768106
 30
0.0
 10
270.1720396104702
 20
-740.1453499482996
 30
0.0
 10
269.7914313974215
 20
-740.166886126799
 30
0.0
 10
265.6774811682426
 20
-740.1583369165455
 30
0.0
 10
261.5626970889716
 20
-740.1897275282317
 30
0.0
 10
257.4501661790982
 20
-740.1154440277078
 30
0.0
 10
256.2795648410483
 20
-740.0942994160941
 30
0.0
 10
256.1165915018846
 20
-740.5161148394491
 30
0.0
 10
256.1188091882977
 20
-741.4434757377094
 30
0.0
 10
256.1452794933302
 20
-752.5266784336927
 30
0.0
 10
256.1330023813462
 20
-763.6099627061085
 30
0.0
 10
256.1315830620406
 20
-774.6932143479553
 30
0.0
 10
256.1313524226516
 20
-776.4291445417257
 30
0.0
 10
256.0689023732448
 20
-778.1680114871069
 30
0.0
 10
256.1604307269081
 20
-779.8999281203378
 30
0.0
 10
256.2180373491865
 20
-780.9896424369381
 30
0.0
 10
255.8790329332569
 20
-781.3624956847925
 30
0.0
 10
254.6401091121752
 20
-781.3410573980182
 30
0.0
 10
250.5757108682228
 20
-781.2707221968831
 30
0.0
 10
246.508243346274
 20
-781.3529838726245
 30
0.0
 10
242.4437741363545
 20
-781.2845412447514
 30
0.0
 10
241.2589973467493
 20
-781.2646202796441
 30
0.0
 10
240.9725077450912
 20
-781.6257102057571
 30
0.0
 10
240.9951458880023
 20
-782.653214334021
 30
0.0
 10
241.0637699763865
 20
-785.7677862572546
 30
0.0
 10
241.0287305310485
 20
-788.8842833843246
 30
0.0
 10
241.03417716888
 20
-791.9999973776321
 30
0.0
 10
181.1402686049132
 20
-791.9992958203038
 30
0.0
 10
121.2462358505036
 20
-791.9986105782609
 30
0.0
 10
61.35200793968943
 20
-791.9978763903582
 30
0.0
 10
61.36232461688996
 20
-788.7908783677449
 30
0.0
 10
61.3400324330596
 20
-785.5833582559553
 30
0.0
 10
61.40364011477504
 20
-782.377306519973
 30
0.0
 10
61.42237291190759
 20
-781.4330103540779
 30
0.0
 10
60.98371675698218
 20
-781.2912794581753
 30
0.0
 10
60.10274082917749
 20
-781.2980339868845
 30
0.0
 10
56.03412454566569
 20
-781.3292614457041
 30
0.0
 10
51.9635966164642
 20
-781.2520085629931
 30
0.0
 10
47.89692302624826
 20
-781.3389364107388
 30
0.0
 10
46.50902501149176
 20
-781.3686139173187
 30
0.0
 10
46.23874226214684
 20
-780.9340399397315
 30
0.0
 10
46.24268530859263
 20
-779.7561578135937
 30
0.0
 10
46.28487457492338
 20
-767.1499557310744
 30
0.0
 10
46.26747460732258
 20
-754.5435904956867
 30
0.0
 10
46.26963574273032
 20
-741.9372578908715
 30
0.0
 10
46.26994067461419
 20
-740.160947362423
 30
0.0
 10
46.27793210760501
 20
-740.1545191394471
 30
0.0
 10
44.31928033785152
 20
-740.1504240024751
 30
0.0
 10
40.54108450516287
 20
-740.1424947731211
 30
0.0
 10
36.76215350942948
 20
-740.1037785976878
 30
0.0
 10
32.98509119170922
 20
-740.1626767828166
 30
0.0
 10
31.82956097331407
 20
-740.1806725440911
 30
0.0
 10
31.40511104034522
 20
-739.9560926221257
 30
0.0
 10
31.40689960443524
 20
-738.7900227635855
 30
0.0
 10
31.44392914611308
 20
-714.6466288162737
 30
0.0
 10
31.4337480250033
 20
-690.503161450175
 30
0.0
 10
31.4343883819547
 20
-666.3597185570034
 30
0.0
 10
31.43469802641994
 20
-654.688904493818
 30
0.0
 10
31.45961317885303
 20
-643.0180006965529
 30
0.0
 10
31.40909455956535
 20
-631.3473783379886
 30
0.0
 10
31.40359109351994
 20
-630.0760136976533
 30
0.0
 10
31.73745324907577
 20
-629.6729282234774
 30
0.0
 10
33.16564108175407
 20
-629.7099598455516
 30
0.0
 10
36.94101324521762
 20
-629.807851565989
 30
0.0
 10
40.72275294079373
 20
-629.692624853391
 30
0.0
 10
44.49867010069283
 20
-629.781016998124
 30
0.0
 10
45.86007008933848
 20
-629.8128807531266
 30
0.0
 10
46.29883269321181
 20
-629.528138211308
 30
0.0
 10
46.29268526647138
 20
-628.1935355195728
 30
0.0
 10
46.23441001174069
 20
-615.542890595978
 30
0.0
 10
46.28272341910088
 20
-602.8918255537465
 30
0.0
 10
46.22476640236891
 20
-590.2411724725025
 30
0.0
 10
46.21860456066861
 20
-588.8962574998441
 30
0.0
 10
46.56484750505479
 20
-588.5014877233734
 30
0.0
 10
48.05798028435493
 20
-588.542598167136
 30
0.0
 10
51.92973476261614
 20
-588.6492032703954
 30
0.0
 10
55.80796266751895
 20
-588.5414489591258
 30
0.0
 10
59.68184168936568
 20
-588.6072515696615
 30
0.0
 10
60.95109015446542
 20
-588.6288122210863
 30
0.0
 10
61.44381572184284
 20
-588.3719004993309
 30
0.0
 10
61.40917102468848
 20
-587.0814490129233
 30
0.0
 10
61.30997834678055
 20
-583.3865698724185
 30
0.0
 10
61.42590125099377
 20
-579.6870944097282
 30
0.0
 10
61.35380426568736
 20
-575.9911333617747
 30
0.0
 10
61.33268745565692
 20
-574.9085906334003
 30
0.0
 10
61.6930792393614
 20
-574.6614051168781
 30
0.0
 10
62.82556076565015
 20
-574.6623710328386
 30
0.0
 10
91.93704826271642
 20
-574.687202134477
 30
0.0
 10
121.0485690250862
 20
-574.6772826950655
 30
0.0
 10
150.1600853520831
 20
-574.6758303796196
 30
0.0
 10
179.320009338111
 20
-574.674375769835
 30
0.0
 10
208.4799421948901
 20
-574.6766071402217
 30
0.0
 10
237.6398750516692
 20
-574.6741389432536
 30
0.0
 10
241.0335207337048
 20
-574.6738516412497
 30
0.0
 10
241.026991864901
 20
-574.6647311410379
 30
0.0
 10
241.0174824255591
 20
-577.8372202927858
 30
0.0
 10
241.007866537273
 20
-581.0444808895427
 30
0.0
 10
241.0416640782114
 20
-584.2521468192062
 30
0.0
 10
240.9928927186047
 20
-587.4588175163808
 30
0.0
 10
240.9795688586346
 20
-588.3354358334691
 30
0.0
 10
241.2794532862299
 20
-588.6026679937931
 30
0.0
 10
242.2324907163602
 20
-588.5932958812664
 30
0.0
 10
246.2524642660755
 20
-588.5537588429688
 30
0.0
 10
250.2746377607109
 20
-588.638413767334
 30
0.0
 10
254.2929436102422
 20
-588.5545287205641
 30
0.0
 10
255.7050421279928
 20
-588.5250480171308
 30
0.0
 10
256.1751916476769
 20
-588.7904151362382
 30
0.0
 10
256.1674740989583
 20
-590.2064922911286
 30
0.0
 10
256.0985838882043
 20
-602.8570189288985
 30
0.0
 10
256.1490229479969
 20
-615.5080737740755
 30
0.0
 10
256.0928356450204
 20
-628.158702382385
 30
0.0
 10
256.0869986943835
 20
-629.4715404816088
 30
0.0
 10
256.5067268957646
 20
-629.8035484091124
 30
0.0
 10
257.8794393028074
 20
-629.7753923030214
 30
0.0
 10
261.7526729779111
 20
-629.6959572507094
 30
0.0
 10
265.6297210736375
 20
-629.7837375721883
 30
0.0
 10
269.5038595647966
 20
-629.7256633090383
 30
0.0
 10
270.6257250262224
 20
-629.7088422484121
 30
0.0
 10
270.9871901701517
 20
-629.9688059484924
 30
0.0
 10
270.9855579529485
 20
-631.0533156886231
 30
0.0
 10
270.9516539630586
 20
-653.771218560596
 30
0.0
 10
270.963718177145
 20
-676.4891703784269
 30
0.0
 10
270.9595844096712
 20
-699.207114038616
 30
0.0
 10
270.9570828593969
 20
-712.8389113608537
 30
0.0
 10
270.942428387576
 20
-726.470724998373
 30
0.0
 10
270.9332382950779
 20
-740.1025060053234
 30
0.0
  0
HATCH
  5
48
330
1F
100
AcDbEntity
  8
Layer 1
 62
    18
420
    65793
100
AcDbHatch
 10
0.0
 20
0.0
 30
0.0
210
0.0
220
0.0
230
1.0
  2
SOLID
 70
     1
 71
     0
 91
        1
 92
        1
 93
        1
 72
     4
 94
        3
 73
     0
 74
     1
 95
      131
 96
      127
 40
0.0
 40
0.0
 40
0.0
 40
0.0
 40
1.0
 40
1.0
 40
1.0
 40
2.0
 40
2.0
 40
2.0
 40
3.0
 40
3.0
 40
3.0
 40
4.0
 40
4.0
 40
4.0
 40
5.0
 40
5.0
 40
5.0
 40
6.0
 40
6.0
 40
6.0
 40
7.0
 40
7.0
 40
7.0
 40
8.0
 40
8.0
 40
8.0
 40
9.0
 40
9.0
 40
9.0
 40
10.0
 40
10.0
 40
10.0
 40
11.0
 40
11.0
 40
11.0
 40
12.0
 40
12.0
 40
12.0
 40
13.0
 40
13.0
 40
13.0
 40
14.0
 40
14.0
 40
14.0
 40
15.0
 40
15.0
 40
15.0
 40
16.0
 40
16.0
 40
16.0
 40
17.0
 40
17.0
 40
17.0
 40
18.0
 40
18.0
 40
18.0
 40
19.0
 40
19.0
 40
19.0
 40
20.0
 40
20.0
 40
20.0
 40
21.0
 40
21.0
 40
21.0
 40
22.0
 40
22.0
 40
22.0
 40
23.0
 40
23.0
 40
23.0
 40
24.0
 40
24.0
 40
24.0
 40
25.0
 40
25.0
 40
25.0
 40
26.0
 40
26.0
 40
26.0
 40
27.0
 40
27.0
 40
27.0
 40
28.0
 40
28.0
 40
28.0
 40
29.0
 40
29.0
 40
29.0
 40
30.0
 40
30.0
 40
30.0
 40
31.0
 40
31.0
 40
31.0
 40
32.0
 40
32.0
 40
32.0
 40
33.0
 40
33.0
 40
33.0
 40
34.0
 40
34.0
 40
34.0
 40
35.0
 40
35.0
 40
35.0
 40
36.0
 40
36.0
 40
36.0
 40
37.0
 40
37.0
 40
37.0
 40
38.0
 40
38.0
 40
38.0
 40
39.0
 40
39.0
 40
39.0
 40
40.0
 40
40.0
 40
40.0
 40
41.0
 40
41.0
 40
41.0
 40
42.0
 40
42.0
 40
42.0
 40
42.0
 10
270.9332382950779
 20
-740.1025060053234
 10
270.5526478235188
 20
-740.1239279768106
 10
270.1720396104702
 20
-740.1453499482996
 10
269.7914313974215
 20
-740.166886126799
 10
265.6774811682426
 20
-740.1583369165455
 10
261.5626970889716
 20
-740.1897275282317
 10
257.4501661790982
 20
-740.1154440277078
 10
256.2795648410483
 20
-740.0942994160941
 10
256.1165915018846
 20
-740.5161148394491
 10
256.1188091882977
 20
-741.4434757377094
 10
256.1452794933302
 20
-752.5266784336927
 10
256.1330023813462
 20
-763.6099627061085
 10
256.1315830620406
 20
-774.6932143479553
 10
256.1313524226516
 20
-776.4291445417257
 10
256.0689023732448
 20
-778.1680114871069
 10
256.1604307269081
 20
-779.8999281203378
 10
256.2180373491865
 20
-780.9896424369381
 10
255.8790329332569
 20
-781.3624956847925
 10
254.6401091121752
 20
-781.3410573980182
 10
250.5757108682228
 20
-781.2707221968831
 10
246.508243346274
 20
-781.3529838726245
 10
242.4437741363545
 20
-781.2845412447514
 10
241.2589973467493
 20
-781.2646202796441
 10
240.9725077450912
 20
-781.6257102057571
 10
240.9951458880023
 20
-782.653214334021
 10
241.0637699763865
 20
-785.7677862572546
 10
241.0287305310485
 20
-788.8842833843246
 10
241.03417716888
 20
-791.9999973776321
 10
181.1402686049132
 20
-791.9992958203038
 10
121.2462358505036
 20
-791.9986105782609
 10
61.35200793968943
 20
-791.9978763903582
 10
61.36232461688996
 20
-788.7908783677449
 10
61.3400324330596
 20
-785.5833582559553
 10
61.40364011477504
 20
-782.377306519973
 10
61.42237291190759
 20
-781.4330103540779
 10
60.98371675698218
 20
-781.2912794581753
 10
60.10274082917749
 20
-781.2980339868845
 10
56.03412454566569
 20
-781.3292614457041
 10
51.9635966164642
 20
-781.2520085629931
 10
47.89692302624826
 20
-781.3389364107388
 10
46.50902501149176
 20
-781.3686139173187
 10
46.23874226214684
 20
-780.9340399397315
 10
46.24268530859263
 20
-779.7561578135937
 10
46.28487457492338
 20
-767.1499557310744
 10
46.26747460732258
 20
-754.5435904956867
 10
46.26963574273032
 20
-741.9372578908715
 10
46.26994067461419
 20
-740.160947362423
 10
46.27793210760501
 20
-740.1545191394471
 10
44.31928033785152
 20
-740.1504240024751
 10
40.54108450516287
 20
-740.1424947731211
 10
36.76215350942948
 20
-740.1037785976878
 10
32.98509119170922
 20
-740.1626767828166
 10
31.82956097331407
 20
-740.1806725440911
 10
31.40511104034522
 20
-739.9560926221257
 10
31.40689960443524
 20
-738.7900227635855
 10
31.44392914611308
 20
-714.6466288162737
 10
31.4337480250033
 20
-690.503161450175
 10
31.4343883819547
 20
-666.3597185570034
 10
31.43469802641994
 20
-654.688904493818
 10
31.45961317885303
 20
-643.0180006965529
 10
31.40909455956535
 20
-631.3473783379886
 10
31.40359109351994
 20
-630.0760136976533
 10
31.73745324907577
 20
-629.6729282234774
 10
33.16564108175407
 20
-629.7099598455516
 10
36.94101324521762
 20
-629.807851565989
 10
40.72275294079373
 20
-629.692624853391
 10
44.49867010069283
 20
-629.781016998124
 10
45.86007008933848
 20
-629.8128807531266
 10
46.29883269321181
 20
-629.528138211308
 10
46.29268526647138
 20
-628.1935355195728
 10
46.23441001174069
 20
-615.542890595978
 10
46.28272341910088
 20
-602.8918255537465
 10
46.22476640236891
 20
-590.2411724725025
 10
46.21860456066861
 20
-588.8962574998441
 10
46.56484750505479
 20
-588.5014877233734
 10
48.05798028435493
 20
-588.542598167136
 10
51.92973476261614
 20
-588.6492032703954
 10
55.80796266751895
 20
-588.5414489591258
 10
59.68184168936568
 20
-588.6072515696615
 10
60.95109015446542
 20
-588.6288122210863
 10
61.44381572184284
 20
-588.3719004993309
 10
61.40917102468848
 20
-587.0814490129233
 10
61.30997834678055
 20
-583.3865698724185
 10
61.42590125099377
 20
-579.6870944097282
 10
61.35380426568736
 20
-575.9911333617747
 10
61.33268745565692
 20
-574.9085906334003
 10
61.6930792393614
 20
-574.6614051168781
 10
62.82556076565015
 20
-574.6623710328386
 10
91.93704826271642
 20
-574.687202134477
 10
121.0485690250862
 20
-574.6772826950655
 10
150.1600853520831
 20
-574.6758303796196
 10
179.320009338111
 20
-574.674375769835
 10
208.4799421948901
 20
-574.6766071402217
 10
237.6398750516692
 20
-574.6741389432536
 10
241.0335207337048
 20
-574.6738516412497
 10
241.026991864901
 20
-574.6647311410379
 10
241.0174824255591
 20
-577.8372202927858
 10
241.007866537273
 20
-581.0444808895427
 10
241.0416640782114
 20
-584.2521468192062
 10
240.9928927186047
 20
-587.4588175163808
 10
240.9795688586346
 20
-588.3354358334691
 10
241.2794532862299
 20
-588.6026679937931
 10
242.2324907163602
 20
-588.5932958812664
 10
246.2524642660755
 20
-588.5537588429688
 10
250.2746377607109
 20
-588.638413767334
 10
254.2929436102422
 20
-588.5545287205641
 10
255.7050421279928
 20
-588.5250480171308
 10
256.1751916476769
 20
-588.7904151362382
 10
256.1674740989583
 20
-590.2064922911286
 10
256.0985838882043
 20
-602.8570189288985
 10
256.1490229479969
 20
-615.5080737740755
 10
256.0928356450204
 20
-628.158702382385
 10
256.0869986943835
 20
-629.4715404816088
 10
256.5067268957646
 20
-629.8035484091124
 10
257.8794393028074
 20
-629.7753923030214
 10
261.7526729779111
 20
-629.6959572507094
 10
265.6297210736375
 20
-629.7837375721883
 10
269.5038595647966
 20
-629.7256633090383
 10
270.6257250262224
 20
-629.7088422484121
 10
270.9871901701517
 20
-629.9688059484924
 10
270.9855579529485
 20
-631.0533156886231
 10
270.9516539630586
 20
-653.771218560596
 10
270.963718177145
 20
-676.4891703784269
 10
270.9595844096712
 20
-699.207114038616
 10
270.9570828593969
 20
-712.8389113608537
 10
270.942428387576
 20
-726.470724998373
 10
270.9332382950779
 20
-740.1025060053234
 97
        0
 97
        0
 75
     2
 76
     1
 98
        0
  0
SPLINE
  5
49
330
1F
100
AcDbEntity
  8
Layer 1
370
     0
100
AcDbSpline
210
0.0
220
0.0
230
1.0
 70
    11
 71
     3
 72
   203
 73
   199
 74
     0
 42
0.0000000001
 43
0.0000000001
 12
1.0
 22
0.0
 32
0.0
 13
1.0
 23
0.0
 33
0.0
 40
0.0
 40
0.0
 40
0.0
 40
0.0
 40
1.0
 40
1.0
 40
1.0
 40
2.0
 40
2.0
 40
2.0
 40
3.0
 40
3.0
 40
3.0
 40
4.0
 40
4.0
 40
4.0
 40
5.0
 40
5.0
 40
5.0
 40
6.0
 40
6.0
 40
6.0
 40
7.0
 40
7.0
 40
7.0
 40
8.0
 40
8.0
 40
8.0
 40
9.0
 40
9.0
 40
9.0
 40
10.0
 40
10.0
 40
10.0
 40
11.0
 40
11.0
 40
11.0
 40
12.0
 40
12.0
 40
12.0
 40
13.0
 40
13.0
 40
13.0
 40
14.0
 40
14.0
 40
14.0
 40
15.0
 40
15.0
 40
15.0
 40
16.0
 40
16.0
 40
16.0
 40
17.0
 40
17.0
 40
17.0
 40
18.0
 40
18.0
 40
18.0
 40
19.0
 40
19.0
 40
19.0
 40
20.0
 40
20.0
 40
20.0
 40
21.0
 40
21.0
 40
21.0
 40
22.0
 40
22.0
 40
22.0
 40
23.0
 40
23.0
 40
23.0
 40
24.0
 40
24.0
 40
24.0
 40
25.0
 40
25.0
 40
25.0
 40
26.0
 40
26.0
 40
26.0
 40
27.0
 40
27.0
 40
27.0
 40
28.0
 40
28.0
 40
28.0
 40
29.0
 40
29.0
 40
29.0
 40
30.0
 40
30.0
 40
30.0
 40
31.0
 40
31.0
 40
31.0
 40
32.0
 40
32.0
 40
32.0
 40
33.0
 40
33.0
 40
33.0
 40
34.0
 40
34.0
 40
34.0
 40
35.0
 40
35.0
 40
35.0
 40
36.0
 40
36.0
 40
36.0
 40
37.0
 40
37.0
 40
37.0
 40
38.0
 40
38.0
 40
38.0
 40
39.0
 40
39.0
 40
39.0
 40
40.0
 40
40.0
 40
40.0
 40
41.0
 40
41.0
 40
41.0
 40
42.0
 40
42.0
 40
42.0
 40
43.0
 40
43.0
 40
43.0
 40
44.0
 40
44.0
 40
44.0
 40
45.0
 40
45.0
 40
45.0
 40
46.0
 40
46.0
 40
46.0
 40
47.0
 40
47.0
 40
47.0
 40
48.0
 40
48.0
 40
48.0
 40
49.0
 40
49.0
 40
49.0
 40
50.0
 40
50.0
 40
50.0
 40
51.0
 40
51.0
 40
51.0
 40
52.0
 40
52.0
 40
52.0
 40
53.0
 40
53.0
 40
53.0
 40
54.0
 40
54.0
 40
54.0
 40
55.0
 40
55.0
 40
55.0
 40
56.0
 40
56.0
 40
56.0
 40
57.0
 40
57.0
 40
57.0
 40
58.0
 40
58.0
 40
58.0
 40
59.0
 40
59.0
 40
59.0
 40
60.0
 40
60.0
 40
60.0
 40
61.0
 40
61.0
 40
61.0
 40
62.0
 40
62.0
 40
62.0
 40
63.0
 40
63.0
 40
63.0
 40
64.0
 40
64.0
 40
64.0
 40
65.0
 40
65.0
 40
65.0
 40
66.0
 40
66.0
 40
66.0
 40
66.0
 10
431.4080253140546
 20
-296.6949130867233
 30
0.0
 10
466.6525106143999
 20
-296.6949130867233
 30
0.0
 10
501.8969869764387
 20
-296.6949130867233
 30
0.0
 10
537.141472276784
 20
-296.6949130867233
 30
0.0
 10
537.1395416025334
 20
-300.8447890162151
 30
0.0
 10
537.1880229782128
 20
-304.9956604496165
 30
0.0
 10
537.1060944587662
 20
-309.1439576506809
 30
0.0
 10
537.0802448757113
 20
-310.4529737880021
 30
0.0
 10
537.4912639722024
 20
-310.7869569706882
 30
0.0
 10
538.7662776734505
 20
-310.7796789544354
 30
0.0
 10
547.7469519734022
 20
-310.728404357902
 30
0.0
 10
556.7282519548207
 20
-310.7793314777618
 30
0.0
 10
565.7088905015426
 20
-310.7236726417777
 30
0.0
 10
567.0214272144276
 20
-310.71553766537
 30
0.0
 10
567.3660883217835
 20
-311.1126398182878
 30
0.0
 10
567.3406856540678
 20
-312.3855183815149
 30
0.0
 10
567.2617782822908
 20
-316.3374946136491
 30
0.0
 10
567.3458519953547
 20
-320.2925836111008
 30
0.0
 10
567.2814246804737
 20
-324.2450760304482
 30
0.0
 10
567.2622788274675
 20
-325.4192701009788
 30
0.0
 10
567.6587463606102
 20
-325.7410402048099
 30
0.0
 10
568.7978262931647
 20
-325.7208306933017
 30
0.0
 10
572.5549898956269
 20
-325.6541755054686
 30
0.0
 10
576.3140484191154
 20
-325.6743604366329
 30
0.0
 10
580.0722309885459
 20
-325.6905901670725
 30
0.0
 10
582.8017753433251
 20
-325.702377559066
 30
0.0
 10
582.5376841327961
 20
-325.3588873698891
 30
0.0
 10
582.5410985659673
 20
-328.07327459104
 30
0.0
 10
582.5520748066247
 20
-336.8098280922632
 30
0.0
 10
582.5570266285522
 20
-345.5465089643585
 30
0.0
 10
582.5112624981157
 20
-354.2828680574121
 30
0.0
 10
582.5050593132473
 20
-355.4672249826899
 30
0.0
 10
582.8210284560137
 20
-355.9075080954017
 30
0.0
 10
584.0633100780287
 20
-355.8858014175166
 30
0.0
 10
587.9668473914389
 20
-355.8176066063506
 30
0.0
 10
591.8734058525206
 20
-355.9116375931089
 30
0.0
 10
595.7764604973672
 20
-355.8310766345885
 30
0.0
 10
597.1001700936577
 20
-355.8037611692316
 30
0.0
 10
597.5137276692549
 20
-356.1514478934168
 30
0.0
 10
597.505790452884
 20
-357.5321660100062
 30
0.0
 10
597.447137284149
 20
-367.7328521407635
 30
0.0
 10
597.478296221394
 20
-377.9340477550049
 30
0.0
 10
597.477759922991
 20
-388.1350869488779
 30
0.0
 10
597.476258287461
 20
-417.1274859052337
 30
0.0
 10
597.4617961071781
 20
-446.1199116765129
 30
0.0
 10
597.5032698503874
 20
-475.1122391264144
 30
0.0
 10
597.5053792907729
 20
-476.5919758049131
 30
0.0
 10
597.0152383031455
 20
-476.8855276744107
 30
0.0
 10
595.6597262115229
 20
-476.8539396984415
 30
0.0
 10
591.8546890382349
 20
-476.7652001892639
 30
0.0
 10
588.0452542180392
 20
-476.8702967997506
 30
0.0
 10
584.2398416358701
 20
-476.7902810779378
 30
0.0
 10
582.9027424561027
 20
-476.7621432883643
 30
0.0
 10
582.5084916230298
 20
-477.1666374209453
 30
0.0
 10
582.5171081507142
 20
-478.5174658398428
 30
0.0
 10
582.5740094113335
 20
-487.4488721931193
 30
0.0
 10
582.5180198579983
 20
-496.3810114875487
 30
0.0
 10
582.574277560534
 20
-505.3124357174347
 30
0.0
 10
582.5828225817622
 20
-506.6703969051014
 30
0.0
 10
582.1900912608326
 20
-507.0421053286118
 30
0.0
 10
580.8443576767695
 20
-507.0141105519469
 30
0.0
 10
576.7952689766316
 20
-506.9298401961314
 30
0.0
 10
572.7425155707406
 20
-507.0316117565144
 30
0.0
 10
568.6924972867055
 20
-506.9724580426009
 30
0.0
 10
567.5677186449102
 20
-506.9560294348394
 30
0.0
 10
567.2819967321047
 20
-507.337605748975
 30
0.0
 10
567.2948678937919
 20
-508.4017647945529
 30
0.0
 10
567.3421157831435
 20
-512.305820529753
 30
0.0
 10
567.2302081829348
 20
-516.2130761787594
 30
0.0
 10
567.3409716798833
 20
-520.1144861751673
 30
0.0
 10
567.3842330844363
 20
-521.6383065824411
 30
0.0
 10
566.9090011924272
 20
-521.9748695839044
 30
0.0
 10
565.4519141831679
 20
-521.9637682069515
 30
0.0
 10
556.6669172940656
 20
-521.8969275492527
 30
0.0
 10
547.8811517105842
 20
-521.9288015510392
 30
0.0
 10
539.095636399692
 20
-521.9351835020407
 30
0.0
 10
537.1500709278553
 20
-521.9365957545015
 30
0.0
 10
537.1382187331365
 20
-521.9505037597683
 30
0.0
 10
537.1357160072548
 20
-523.961444007
 30
0.0
 10
537.1308535683947
 20
-527.8661254236686
 30
0.0
 10
537.1036453627203
 20
-531.7714325218076
 30
0.0
 10
537.1675185025852
 20
-535.6751307247396
 30
0.0
 10
537.186235316869
 20
-536.8193054921285
 30
0.0
 10
536.8527113396922
 20
-537.1819504726191
 30
0.0
 10
535.682436716661
 20
-537.1727618933037
 30
0.0
 10
529.2401521438478
 20
-537.1222247070764
 30
0.0
 10
522.7972329512559
 20
-537.1541880919285
 30
0.0
 10
516.3545282780269
 20
-537.1539914491805
 30
0.0
 10
488.5825478454353
 20
-537.1531512483489
 30
0.0
 10
460.8105584745335
 20
-537.1427828125452
 30
0.0
 10
433.0386227334766
 20
-537.1755327683895
 30
0.0
 10
431.7742411480813
 20
-537.1770165273083
 30
0.0
 10
431.3479509545505
 20
-536.8816233666221
 30
0.0
 10
431.3765222519996
 20
-535.5556434404243
 30
0.0
 10
431.4627188129125
 20
-531.5552506353324
 30
0.0
 10
431.3553697491297
 20
-527.5507998389858
 30
0.0
 10
431.4327844236832
 20
-523.5500495016258
 30
0.0
 10
431.4578295591309
 20
-522.2558899473715
 30
0.0
 10
431.0680568177286
 20
-521.89753535411
 30
0.0
 10
429.7816333679439
 20
-521.9051865446672
 30
0.0
 10
420.8500169644631
 20
-521.9582085801667
 30
0.0
 10
411.9177123113586
 20
-521.9021832736071
 30
0.0
 10
402.9862344516296
 20
-521.9659849070176
 30
0.0
 10
401.5543065412312
 20
-521.9761924532977
 30
0.0
 10
401.1675169596965
 20
-521.5466174320427
 30
0.0
 10
401.2020545768864
 20
-520.1514550117863
 30
0.0
 10
401.296244218589
 20
-516.3466323578614
 30
0.0
 10
401.1785647068118
 20
-512.5364467198979
 30
0.0
 10
401.2799899078072
 20
-508.731981598241
 30
0.0
 10
401.3186145657473
 20
-507.2830999545586
 30
0.0
 10
400.84704291034
 20
-506.9303228646932
 30
0.0
 10
399.4532681622004
 20
-506.9638236383034
 30
0.0
 10
395.5998412308763
 20
-507.0564066193729
 30
0.0
 10
391.7420468194268
 20
-506.9528652742574
 30
0.0
 10
387.8872121047898
 20
-507.009998930851
 30
0.0
 10
386.7315393230856
 20
-507.0271247265373
 30
0.0
 10
386.2661105189763
 20
-506.7682534871383
 30
0.0
 10
386.2688769249071
 20
-505.4925247213541
 30
0.0
 10
386.3101651982506
 20
-486.4574173344499
 30
0.0
 10
386.3184074343408
 20
-467.422202687867
 30
0.0
 10
386.2768822958697
 20
-448.3871310541927
 30
0.0
 10
386.2737348946121
 20
-446.9444883486049
 30
0.0
 10
386.7295751301826
 20
-446.6145396941174
 30
0.0
 10
388.1034029295733
 20
-446.6237461500459
 30
0.0
 10
396.9375705612656
 20
-446.6830428768662
 30
0.0
 10
405.7725236466613
 20
-446.6255159347784
 30
0.0
 10
414.6066856919097
 20
-446.6851880704799
 30
0.0
 10
416.0266116909534
 20
-446.6947699352913
 30
0.0
 10
416.5696540469435
 20
-446.4067240627373
 30
0.0
 10
416.5159839842072
 20
-444.8487950769977
 30
0.0
 10
416.3883360258515
 20
-441.1436166664535
 30
0.0
 10
416.4678824865568
 20
-437.4313233637549
 30
0.0
 10
416.4633954565834
 20
-433.7218992575181
 30
0.0
 10
416.4606201123424
 20
-431.4248795652111
 30
0.0
 10
416.4603564322952
 20
-431.4186316888117
 30
0.0
 10
418.733189066601
 20
-431.4187031952642
 30
0.0
 10
432.4483593030545
 20
-431.4191501105997
 30
0.0
 10
446.1635831693493
 20
-431.405912478338
 30
0.0
 10
459.8786059237409
 20
-431.4518643132178
 30
0.0
 10
461.2101454767235
 20
-431.4563245282734
 30
0.0
 10
461.6148720052825
 20
-431.0859479124665
 30
0.0
 10
461.6058532537972
 20
-429.733519536665
 30
0.0
 10
461.5462705011578
 20
-420.8019344172535
 30
0.0
 10
461.5403890953312
 20
-411.8695895417713
 30
0.0
 10
461.598997572537
 20
-402.9380312372814
 30
0.0
 10
461.6079358792613
 20
-401.5747338805013
 30
0.0
 10
461.221389866585
 20
-401.2223679527451
 30
0.0
 10
459.8807689939713
 20
-401.2265689569067
 30
0.0
 10
445.9217081201878
 20
-401.2703219683317
 30
0.0
 10
431.9624014429719
 20
-401.2344078519054
 30
0.0
 10
418.0033137542687
 20
-401.273602326899
 30
0.0
 10
416.7722318305823
 20
-401.2770614516048
 30
0.0
 10
416.4261227175339
 20
-400.9232564564663
 30
0.0
 10
416.4468014901449
 20
-399.7082902998045
 30
0.0
 10
416.5157426499245
 20
-395.6583971520631
 30
0.0
 10
416.4278120575073
 20
-391.605867203838
 30
0.0
 10
416.4945231097572
 20
-387.5559025496432
 30
0.0
 10
416.5150052396166
 20
-386.3125125775923
 30
0.0
 10
416.0777209288135
 20
-385.9596371663547
 30
0.0
 10
414.8929707180414
 20
-386.0011198478696
 30
0.0
 10
412.6992242216475
 20
-386.0779267175667
 30
0.0
 10
410.5009616457828
 20
-386.0263079962242
 30
0.0
 10
408.3045783489051
 20
-386.0268800478543
 30
0.0
 10
401.520206901072
 20
-386.0286498325868
 30
0.0
 10
394.7356298721825
 20
-386.0030058305892
 30
0.0
 10
387.95165506171
 20
-386.0556167039795
 30
0.0
 10
386.7132202634511
 20
-386.0652164454032
 30
0.0
 10
386.1513113765377
 20
-385.7784666273237
 30
0.0
 10
386.2733717759002
 20
-384.4357184377059
 30
0.0
 10
386.383411270006
 20
-383.225221434408
 30
0.0
 10
386.3050100298497
 20
-381.9973394245289
 30
0.0
 10
386.3048167389661
 20
-380.7771264818193
 30
0.0
 10
386.302004524212
 20
-363.0109324018231
 30
0.0
 10
386.3123740773008
 20
-345.2447025685997
 30
0.0
 10
386.2675708148363
 20
-327.4786112791298
 30
0.0
 10
386.264093813521
 20
-326.1002573446704
 30
0.0
 10
386.605872316959
 20
-325.6154391186965
 30
0.0
 10
388.0517026461839
 20
-325.6522939919032
 30
0.0
 10
391.9539651335945
 20
-325.7517684074583
 30
0.0
 10
395.8608085032047
 20
-325.6578491495338
 30
0.0
 10
399.764643015309
 20
-325.7179749043034
 30
0.0
 10
400.8923981132448
 20
-325.7353420342724
 30
0.0
 10
401.2859629312788
 20
-325.4364629339652
 30
0.0
 10
401.2635702383523
 20
-324.2432302701091
 30
0.0
 10
401.1903230493081
 20
-320.3400035628592
 30
0.0
 10
401.2977525578481
 20
-316.4332372861454
 30
0.0
 10
401.2141436367328
 20
-312.5304373830422
 30
0.0
 10
401.1844215322926
 20
-311.1429630238572
 30
0.0
 10
401.5618527066836
 20
-310.7100070880824
 30
0.0
 10
402.9959168723908
 20
-310.7203408879459
 30
0.0
 10
411.9764369865497
 20
-310.7850519940666
 30
0.0
 10
420.9577459062766
 20
-310.7339807440103
 30
0.0
 10
429.9385408733688
 20
-310.7757002906537
 30
0.0
 10
431.0895132230235
 20
-310.7810453980765
 30
0.0
 10
431.4550676223535
 20
-310.4456287344501
 30
0.0
 10
431.4380490863459
 20
-309.2871012810347
 30
0.0
 10
431.3763881773957
 20
-305.0904640412627
 30
0.0
 10
431.4102241375076
 20
-300.8924237666552
 30
0.0
 10
431.4080253140546
 20
-296.6949130867233
 30
0.0
  0
HATCH
  5
4A
330
1F
100
AcDbEntity
  8
Layer 1
 62
    18
420
    65793
100
AcDbHatch
 10
0.0
 20
0.0
 30
0.0
210
0.0
220
0.0
230
1.0
  2
SOLID
 70
     1
 71
     0
 91
        1
 92
        1
 93
        1
 72
     4
 94
        3
 73
     0
 74
     1
 95
      203
 96
      199
 40
0.0
 40
0.0
 40
0.0
 40
0.0
 40
1.0
 40
1.0
 40
1.0
 40
2.0
 40
2.0
 40
2.0
 40
3.0
 40
3.0
 40
3.0
 40
4.0
 40
4.0
 40
4.0
 40
5.0
 40
5.0
 40
5.0
 40
6.0
 40
6.0
 40
6.0
 40
7.0
 40
7.0
 40
7.0
 40
8.0
 40
8.0
 40
8.0
 40
9.0
 40
9.0
 40
9.0
 40
10.0
 40
10.0
 40
10.0
 40
11.0
 40
11.0
 40
11.0
 40
12.0
 40
12.0
 40
12.0
 40
13.0
 40
13.0
 40
13.0
 40
14.0
 40
14.0
 40
14.0
 40
15.0
 40
15.0
 40
15.0
 40
16.0
 40
16.0
 40
16.0
 40
17.0
 40
17.0
 40
17.0
 40
18.0
 40
18.0
 40
18.0
 40
19.0
 40
19.0
 40
19.0
 40
20.0
 40
20.0
 40
20.0
 40
21.0
 40
21.0
 40
21.0
 40
22.0
 40
22.0
 40
22.0
 40
23.0
 40
23.0
 40
23.0
 40
24.0
 40
24.0
 40
24.0
 40
25.0
 40
25.0
 40
25.0
 40
26.0
 40
26.0
 40
26.0
 40
27.0
 40
27.0
 40
27.0
 40
28.0
 40
28.0
 40
28.0
 40
29.0
 40
29.0
 40
29.0
 40
30.0
 40
30.0
 40
30.0
 40
31.0
 40
31.0
 40
31.0
 40
32.0
 40
32.0
 40
32.0
 40
33.0
 40
33.0
 40
33.0
 40
34.0
 40
34.0
 40
34.0
 40
35.0
 40
35.0
 40
35.0
 40
36.0
 40
36.0
 40
36.0
 40
37.0
 40
37.0
 40
37.0
 40
38.0
 40
38.0
 40
38.0
 40
39.0
 40
39.0
 40
39.0
 40
40.0
 40
40.0
 40
40.0
 40
41.0
 40
41.0
 40
41.0
 40
42.0
 40
42.0
 40
42.0
 40
43.0
 40
43.0
 40
43.0
 40
44.0
 40
44.0
 40
44.0
 40
45.0
 40
45.0
 40
45.0
 40
46.0
 40
46.0
 40
46.0
 40
47.0
 40
47.0
 40
47.0
 40
48.0
 40
48.0
 40
48.0
 40
49.0
 40
49.0
 40
49.0
 40
50.0
 40
50.0
 40
50.0
 40
51.0
 40
51.0
 40
51.0
 40
52.0
 40
52.0
 40
52.0
 40
53.0
 40
53.0
 40
53.0
 40
54.0
 40
54.0
 40
54.0
 40
55.0
 40
55.0
 40
55.0
 40
56.0
 40
56.0
 40
56.0
 40
57.0
 40
57.0
 40
57.0
 40
58.0
 40
58.0
 40
58.0
 40
59.0
 40
59.0
 40
59.0
 40
60.0
 40
60.0
 40
60.0
 40
61.0
 40
61.0
 40
61.0
 40
62.0
 40
62.0
 40
62.0
 40
63.0
 40
63.0
 40
63.0
 40
64.0
 40
64.0
 40
64.0
 40
65.0
 40
65.0
 40
65.0
 40
66.0
 40
66.0
 40
66.0
 40
66.0
 10
431.4080253140546
 20
-296.6949130867233
 10
466.6525106143999
 20
-296.6949130867233
 10
501.8969869764387
 20
-296.6949130867233
 10
537.141472276784
 20
-296.6949130867233
 10
537.1395416025334
 20
-300.8447890162151
 10
537.1880229782128
 20
-304.9956604496165
 10
537.1060944587662
 20
-309.1439576506809
 10
537.0802448757113
 20
-310.4529737880021
 10
537.4912639722024
 20
-310.7869569706882
 10
538.7662776734505
 20
-310.7796789544354
 10
547.7469519734022
 20
-310.728404357902
 10
556.7282519548207
 20
-310.7793314777618
 10
565.7088905015426
 20
-310.7236726417777
 10
567.0214272144276
 20
-310.71553766537
 10
567.3660883217835
 20
-311.1126398182878
 10
567.3406856540678
 20
-312.3855183815149
 10
567.2617782822908
 20
-316.3374946136491
 10
567.3458519953547
 20
-320.2925836111008
 10
567.2814246804737
 20
-324.2450760304482
 10
567.2622788274675
 20
-325.4192701009788
 10
567.6587463606102
 20
-325.7410402048099
 10
568.7978262931647
 20
-325.7208306933017
 10
572.5549898956269
 20
-325.6541755054686
 10
576.3140484191154
 20
-325.6743604366329
 10
580.0722309885459
 20
-325.6905901670725
 10
582.8017753433251
 20
-325.702377559066
 10
582.5376841327961
 20
-325.3588873698891
 10
582.5410985659673
 20
-328.07327459104
 10
582.5520748066247
 20
-336.8098280922632
 10
582.5570266285522
 20
-345.5465089643585
 10
582.5112624981157
 20
-354.2828680574121
 10
582.5050593132473
 20
-355.4672249826899
 10
582.8210284560137
 20
-355.9075080954017
 10
584.0633100780287
 20
-355.8858014175166
 10
587.9668473914389
 20
-355.8176066063506
 10
591.8734058525206
 20
-355.9116375931089
 10
595.7764604973672
 20
-355.8310766345885
 10
597.1001700936577
 20
-355.8037611692316
 10
597.5137276692549
 20
-356.1514478934168
 10
597.505790452884
 20
-357.5321660100062
 10
597.447137284149
 20
-367.7328521407635
 10
597.478296221394
 20
-377.9340477550049
 10
597.477759922991
 20
-388.1350869488779
 10
597.476258287461
 20
-417.1274859052337
 10
597.4617961071781
 20
-446.1199116765129
 10
597.5032698503874
 20
-475.1122391264144
 10
597.5053792907729
 20
-476.5919758049131
 10
597.0152383031455
 20
-476.8855276744107
 10
595.6597262115229
 20
-476.8539396984415
 10
591.8546890382349
 20
-476.7652001892639
 10
588.0452542180392
 20
-476.8702967997506
 10
584.2398416358701
 20
-476.7902810779378
 10
582.9027424561027
 20
-476.7621432883643
 10
582.5084916230298
 20
-477.1666374209453
 10
582.5171081507142
 20
-478.5174658398428
 10
582.5740094113335
 20
-487.4488721931193
 10
582.5180198579983
 20
-496.3810114875487
 10
582.574277560534
 20
-505.3124357174347
 10
582.5828225817622
 20
-506.6703969051014
 10
582.1900912608326
 20
-507.0421053286118
 10
580.8443576767695
 20
-507.0141105519469
 10
576.7952689766316
 20
-506.9298401961314
 10
572.7425155707406
 20
-507.0316117565144
 10
568.6924972867055
 20
-506.9724580426009
 10
567.5677186449102
 20
-506.9560294348394
 10
567.2819967321047
 20
-507.337605748975
 10
567.2948678937919
 20
-508.4017647945529
 10
567.3421157831435
 20
-512.305820529753
 10
567.2302081829348
 20
-516.2130761787594
 10
567.3409716798833
 20
-520.1144861751673
 10
567.3842330844363
 20
-521.6383065824411
 10
566.9090011924272
 20
-521.9748695839044
 10
565.4519141831679
 20
-521.9637682069515
 10
556.6669172940656
 20
-521.8969275492527
 10
547.8811517105842
 20
-521.9288015510392
 10
539.095636399692
 20
-521.9351835020407
 10
537.1500709278553
 20
-521.9365957545015
 10
537.1382187331365
 20
-521.9505037597683
 10
537.1357160072548
 20
-523.961444007
 10
537.1308535683947
 20
-527.8661254236686
 10
537.1036453627203
 20
-531.7714325218076
 10
537.1675185025852
 20
-535.6751307247396
 10
537.186235316869
 20
-536.8193054921285
 10
536.8527113396922
 20
-537.1819504726191
 10
535.682436716661
 20
-537.1727618933037
 10
529.2401521438478
 20
-537.1222247070764
 10
522.7972329512559
 20
-537.1541880919285
 10
516.3545282780269
 20
-537.1539914491805
 10
488.5825478454353
 20
-537.1531512483489
 10
460.8105584745335
 20
-537.1427828125452
 10
433.0386227334766
 20
-537.1755327683895
 10
431.7742411480813
 20
-537.1770165273083
 10
431.3479509545505
 20
-536.8816233666221
 10
431.3765222519996
 20
-535.5556434404243
 10
431.4627188129125
 20
-531.5552506353324
 10
431.3553697491297
 20
-527.5507998389858
 10
431.4327844236832
 20
-523.5500495016258
 10
431.4578295591309
 20
-522.2558899473715
 10
431.0680568177286
 20
-521.89753535411
 10
429.7816333679439
 20
-521.9051865446672
 10
420.8500169644631
 20
-521.9582085801667
 10
411.9177123113586
 20
-521.9021832736071
 10
402.9862344516296
 20
-521.9659849070176
 10
401.5543065412312
 20
-521.9761924532977
 10
401.1675169596965
 20
-521.5466174320427
 10
401.2020545768864
 20
-520.1514550117863
 10
401.296244218589
 20
-516.3466323578614
 10
401.1785647068118
 20
-512.5364467198979
 10
401.2799899078072
 20
-508.731981598241
 10
401.3186145657473
 20
-507.2830999545586
 10
400.84704291034
 20
-506.9303228646932
 10
399.4532681622004
 20
-506.9638236383034
 10
395.5998412308763
 20
-507.0564066193729
 10
391.7420468194268
 20
-506.9528652742574
 10
387.8872121047898
 20
-507.009998930851
 10
386.7315393230856
 20
-507.0271247265373
 10
386.2661105189763
 20
-506.7682534871383
 10
386.2688769249071
 20
-505.4925247213541
 10
386.3101651982506
 20
-486.4574173344499
 10
386.3184074343408
 20
-467.422202687867
 10
386.2768822958697
 20
-448.3871310541927
 10
386.2737348946121
 20
-446.9444883486049
 10
386.7295751301826
 20
-446.6145396941174
 10
388.1034029295733
 20
-446.6237461500459
 10
396.9375705612656
 20
-446.6830428768662
 10
405.7725236466613
 20
-446.6255159347784
 10
414.6066856919097
 20
-446.6851880704799
 10
416.0266116909534
 20
-446.6947699352913
 10
416.5696540469435
 20
-446.4067240627373
 10
416.5159839842072
 20
-444.8487950769977
 10
416.3883360258515
 20
-441.1436166664535
 10
416.4678824865568
 20
-437.4313233637549
 10
416.4633954565834
 20
-433.7218992575181
 10
416.4606201123424
 20
-431.4248795652111
 10
416.4603564322952
 20
-431.4186316888117
 10
418.733189066601
 20
-431.4187031952642
 10
432.4483593030545
 20
-431.4191501105997
 10
446.1635831693493
 20
-431.405912478338
 10
459.8786059237409
 20
-431.4518643132178
 10
461.2101454767235
 20
-431.4563245282734
 10
461.6148720052825
 20
-431.0859479124665
 10
461.6058532537972
 20
-429.733519536665
 10
461.5462705011578
 20
-420.8019344172535
 10
461.5403890953312
 20
-411.8695895417713
 10
461.598997572537
 20
-402.9380312372814
 10
461.6079358792613
 20
-401.5747338805013
 10
461.221389866585
 20
-401.2223679527451
 10
459.8807689939713
 20
-401.2265689569067
 10
445.9217081201878
 20
-401.2703219683317
 10
431.9624014429719
 20
-401.2344078519054
 10
418.0033137542687
 20
-401.273602326899
 10
416.7722318305823
 20
-401.2770614516048
 10
416.4261227175339
 20
-400.9232564564663
 10
416.4468014901449
 20
-399.7082902998045
 10
416.5157426499245
 20
-395.6583971520631
 10
416.4278120575073
 20
-391.605867203838
 10
416.4945231097572
 20
-387.5559025496432
 10
416.5150052396166
 20
-386.3125125775923
 10
416.0777209288135
 20
-385.9596371663547
 10
414.8929707180414
 20
-386.0011198478696
 10
412.6992242216475
 20
-386.0779267175667
 10
410.5009616457828
 20
-386.0263079962242
 10
408.3045783489051
 20
-386.0268800478543
 10
401.520206901072
 20
-386.0286498325868
 10
394.7356298721825
 20
-386.0030058305892
 10
387.95165506171
 20
-386.0556167039795
 10
386.7132202634511
 20
-386.0652164454032
 10
386.1513113765377
 20
-385.7784666273237
 10
386.2733717759002
 20
-384.4357184377059
 10
386.383411270006
 20
-383.225221434408
 10
386.3050100298497
 20
-381.9973394245289
 10
386.3048167389661
 20
-380.7771264818193
 10
386.302004524212
 20
-363.0109324018231
 10
386.3123740773008
 20
-345.2447025685997
 10
386.2675708148363
 20
-327.4786112791298
 10
386.264093813521
 20
-326.1002573446704
 10
386.605872316959
 20
-325.6154391186965
 10
388.0517026461839
 20
-325.6522939919032
 10
391.9539651335945
 20
-325.7517684074583
 10
395.8608085032047
 20
-325.6578491495338
 10
399.764643015309
 20
-325.7179749043034
 10
400.8923981132448
 20
-325.7353420342724
 10
401.2859629312788
 20
-325.4364629339652
 10
401.2635702383523
 20
-324.2432302701091
 10
401.1903230493081
 20
-320.3400035628592
 10
401.2977525578481
 20
-316.4332372861454
 10
401.2141436367328
 20
-312.5304373830422
 10
401.1844215322926
 20
-311.1429630238572
 10
401.5618527066836
 20
-310.7100070880824
 10
402.9959168723908
 20
-310.7203408879459
 10
411.9764369865497
 20
-310.7850519940666
 10
420.9577459062766
 20
-310.7339807440103
 10
429.9385408733688
 20
-310.7757002906537
 10
431.0895132230235
 20
-310.7810453980765
 10
431.4550676223535
 20
-310.4456287344501
 10
431.4380490863459
 20
-309.2871012810347
 10
431.3763881773957
 20
-305.0904640412627
 10
431.4102241375076
 20
-300.8924237666552
 10
431.4080253140546
 20
-296.6949130867233
 97
        0
 97
        0
 75
     2
 76
     1
 98
        0
  0
SPLINE
  5
4B
330
1F
100
AcDbEntity
  8
Layer 1
370
     0
100
AcDbSpline
210
0.0
220
0.0
230
1.0
 70
    11
 71
     3
 72
   209
 73
   205
 74
     0
 42
0.0000000001
 43
0.0000000001
 12
1.0
 22
0.0
 32
0.0
 13
1.0
 23
0.0
 33
0.0
 40
0.0
 40
0.0
 40
0.0
 40
0.0
 40
1.0
 40
1.0
 40
1.0
 40
2.0
 40
2.0
 40
2.0
 40
3.0
 40
3.0
 40
3.0
 40
4.0
 40
4.0
 40
4.0
 40
5.0
 40
5.0
 40
5.0
 40
6.0
 40
6.0
 40
6.0
 40
7.0
 40
7.0
 40
7.0
 40
8.0
 40
8.0
 40
8.0
 40
9.0
 40
9.0
 40
9.0
 40
10.0
 40
10.0
 40
10.0
 40
11.0
 40
11.0
 40
11.0
 40
12.0
 40
12.0
 40
12.0
 40
13.0
 40
13.0
 40
13.0
 40
14.0
 40
14.0
 40
14.0
 40
15.0
 40
15.0
 40
15.0
 40
16.0
 40
16.0
 40
16.0
 40
17.0
 40
17.0
 40
17.0
 40
18.0
 40
18.0
 40
18.0
 40
19.0
 40
19.0
 40
19.0
 40
20.0
 40
20.0
 40
20.0
 40
21.0
 40
21.0
 40
21.0
 40
22.0
 40
22.0
 40
22.0
 40
23.0
 40
23.0
 40
23.0
 40
24.0
 40
24.0
 40
24.0
 40
25.0
 40
25.0
 40
25.0
 40
26.0
 40
26.0
 40
26.0
 40
27.0
 40
27.0
 40
27.0
 40
28.0
 40
28.0
 40
28.0
 40
29.0
 40
29.0
 40
29.0
 40
30.0
 40
30.0
 40
30.0
 40
31.0
 40
31.0
 40
31.0
 40
32.0
 40
32.0
 40
32.0
 40
33.0
 40
33.0
 40
33.0
 40
34.0
 40
34.0
 40
34.0
 40
35.0
 40
35.0
 40
35.0
 40
36.0
 40
36.0
 40
36.0
 40
37.0
 40
37.0
 40
37.0
 40
38.0
 40
38.0
 40
38.0
 40
39.0
 40
39.0
 40
39.0
 40
40.0
 40
40.0
 40
40.0
 40
41.0
 40
41.0
 40
41.0
 40
42.0
 40
42.0
 40
42.0
 40
43.0
 40
43.0
 40
43.0
 40
44.0
 40
44.0
 40
44.0
 40
45.0
 40
45.0
 40
45.0
 40
46.0
 40
46.0
 40
46.0
 40
47.0
 40
47.0
 40
47.0
 40
48.0
 40
48.0
 40
48.0
 40
49.0
 40
49.0
 40
49.0
 40
50.0
 40
50.0
 40
50.0
 40
51.0
 40
51.0
 40
51.0
 40
52.0
 40
52.0
 40
52.0
 40
53.0
 40
53.0
 40
53.0
 40
54.0
 40
54.0
 40
54.0
 40
55.0
 40
55.0
 40
55.0
 40
56.0
 40
56.0
 40
56.0
 40
57.0
 40
57.0
 40
57.0
 40
58.0
 40
58.0
 40
58.0
 40
59.0
 40
59.0
 40
59.0
 40
60.0
 40
60.0
 40
60.0
 40
61.0
 40
61.0
 40
61.0
 40
62.0
 40
62.0
 40
62.0
 40
63.0
 40
63.0
 40
63.0
 40
64.0
 40
64.0
 40
64.0
 40
65.0
 40
65.0
 40
65.0
 40
66.0
 40
66.0
 40
66.0
 40
67.0
 40
67.0
 40
67.0
 40
68.0
 40
68.0
 40
68.0
 40
68.0
 10
611.9666352771983
 20
-99.30099392036846
 30
0.0
 10
611.8607236117841
 20
-97.99454676158803
 30
0.0
 10
611.365994840713
 20
-97.49405823903908
 30
0.0
 10
610.0765558892399
 20
-97.38428415204635
 30
0.0
 10
609.546658753261
 20
-97.33915480517135
 30
0.0
 10
609.0137123370896
 20
-97.35372358832137
 30
0.0
 10
608.4820533947768
 20
-97.3533170176288
 30
0.0
 10
605.3884569950405
 20
-97.35080983169155
 30
0.0
 10
602.2947928335216
 20
-97.36158395504481
 30
0.0
 10
599.2011964337835
 20
-97.34877697822867
 30
0.0
 10
597.0729343817638
 20
-97.34003570833829
 30
0.0
 10
596.9340904902529
 20
-97.18818155466488
 30
0.0
 10
596.9155915237407
 20
-95.01072444884448
 30
0.0
 10
596.9110514843396
 20
-94.4789977447499
 30
0.0
 10
596.9144395734438
 20
-93.94727104065532
 30
0.0
 10
596.9141007645339
 20
-93.41554433656074
 30
0.0
 10
596.9092896780057
 20
-85.63317142480264
 30
0.0
 10
596.9330063017387
 20
-77.85073075126274
 30
0.0
 10
596.9005484081154
 20
-70.06842560128644
 30
0.0
 10
596.891807138225
 20
-67.97553519951998
 30
0.0
 10
596.4149674776272
 20
-67.5105538507878
 30
0.0
 10
594.3293953483262
 20
-67.4871760359656
 30
0.0
 10
591.1876880833024
 20
-67.45200767105871
 30
0.0
 10
588.045574247586
 20
-67.48039985775631
 30
0.0
 10
584.9035959354333
 20
-67.47450458271396
 30
0.0
 10
582.1412868883563
 20
-67.46935468727497
 30
0.0
 10
582.1268536287698
 20
-67.45566680729189
 30
0.0
 10
582.1209583537275
 20
-64.75868011815328
 30
0.0
 10
582.1138433666074
 20
-61.47175935410087
 30
0.0
 10
582.1461657366672
 20
-58.18456754292038
 30
0.0
 10
582.1061862852312
 20
-54.89785006421425
 30
0.0
 10
582.0819275672402
 20
-52.90761876232045
 30
0.0
 10
581.5972275399199
 20
-52.42766205974567
 30
0.0
 10
579.5947991172488
 20
-52.40469081561514
 30
0.0
 10
576.259699726128
 20
-52.36647317051393
 30
0.0
 10
572.9241937643128
 20
-52.39981196730514
 30
0.0
 10
569.5889588496284
 20
-52.38964769999075
 30
0.0
 10
567.1378796677091
 20
-52.38219390395989
 30
0.0
 10
567.0448427408937
 20
-52.29118983060744
 30
0.0
 10
567.0383376098125
 20
-49.87399153973638
 30
0.0
 10
567.0298673870511
 20
-46.7320132275845
 30
0.0
 10
567.0515511573212
 20
-43.58996715364992
 30
0.0
 10
567.0295963399221
 20
-40.44812436506163
 30
0.0
 10
567.0126558943994
 20
-38.00903901857419
 30
0.0
 10
566.6159106602372
 20
-37.63248679547542
 30
0.0
 10
564.1274947363854
 20
-37.60138413749428
 30
0.0
 10
563.5474538816561
 20
-37.59413362681062
 30
0.0
 10
562.9673452651477
 20
-37.59772500126201
 30
0.0
 10
562.3873044104184
 20
-37.59752171591481
 30
0.0
 10
554.6532456492951
 20
-37.59501452997756
 30
0.0
 10
546.9191868881699
 20
-37.60951555134579
 30
0.0
 10
539.1851958888274
 20
-37.58844163711456
 30
0.0
 10
537.3878823805553
 20
-37.58356278880365
 30
0.0
 10
537.1814799922959
 20
-37.36564089758849
 30
0.0
 10
537.1660980677607
 20
-35.57571342356459
 30
0.0
 10
537.1404163523475
 20
-32.57888084865863
 30
0.0
 10
537.169418395084
 20
-29.58184498840637
 30
0.0
 10
537.1521391406495
 20
-26.58494465171771
 30
0.0
 10
537.1478701483775
 20
-25.85745415915244
 30
0.0
 10
537.1756524790362
 20
-25.11817311650339
 30
0.0
 10
536.5408601043764
 20
-24.58217742013676
 30
0.0
 10
506.6633351433211
 20
-24.58217742013676
 30
0.0
 10
476.7857424204831
 20
-24.58217742013676
 30
0.0
 10
446.9082174594278
 20
-24.58217742013676
 30
0.0
 10
446.275119129321
 20
-25.11803759293889
 30
0.0
 10
446.3019527950291
 20
-25.85623444707471
 30
0.0
 10
446.2979548498843
 20
-26.58311508360202
 30
0.0
 10
446.2823018782219
 20
-29.4327013060165
 30
0.0
 10
446.2984291823595
 20
-32.28221976664918
 30
0.0
 10
446.289687912471
 20
-35.13180598906456
 30
0.0
 10
446.2824374017855
 20
-37.50529793048463
 30
0.0
 10
446.201462072182
 20
-37.59359153255355
 30
0.0
 10
443.8592760740903
 20
-37.5961664802735
 30
0.0
 10
435.6003345488643
 20
-37.60531432085554
 30
0.0
 10
427.3413930236347
 20
-37.58430816840701
 30
0.0
 10
419.0825192601897
 20
-37.60829583926716
 30
0.0
 10
416.8711135015401
 20
-37.61473320856749
 30
0.0
 10
416.4446208450372
 20
-38.04427514526378
 30
0.0
 10
416.4240212632812
 20
-40.23155770948779
 30
0.0
 10
416.3917666550042
 20
-43.66050716881
 30
0.0
 10
416.4341177688129
 20
-47.08986319882479
 30
0.0
 10
416.4047091553839
 20
-50.51888041992879
 30
0.0
 10
416.3906824664919
 20
-52.15498864859819
 30
0.0
 10
416.180756465561
 20
-52.3687770711058
 30
0.0
 10
414.560165684994
 20
-52.38273599821696
 30
0.0
 10
411.0828343132544
 20
-52.41255118233858
 30
0.0
 10
407.6052318943894
 20
-52.37541772575059
 30
0.0
 10
404.1279005226534
 20
-52.39947315839436
 30
0.0
 10
401.7293367218572
 20
-52.41607479500726
 30
0.0
 10
401.3527844987584
 20
-52.79208492384896
 30
0.0
 10
401.3365216710554
 20
-55.18095878980421
 30
0.0
 10
401.3125340001952
 20
-58.70660431217493
 30
0.0
 10
401.3551561611312
 20
-62.23258864345644
 30
0.0
 10
401.316328659992
 20
-65.75803088048087
 30
0.0
 10
401.300336879418
 20
-67.2113855828411
 30
0.0
 10
401.0663554458461
 20
-67.41338345526492
 30
0.0
 10
399.6093416072526
 20
-67.46725407202939
 30
0.0
 10
398.9337566397717
 20
-67.49219040784101
 30
0.0
 10
398.2570874837766
 20
-67.4740302502396
 30
0.0
 10
397.5809604220394
 20
-67.47613086548427
 30
0.0
 10
394.6348136601391
 20
-67.48521094428452
 30
0.0
 10
391.6881925657653
 20
-67.43581260513838
 30
0.0
 10
388.7427911834675
 20
-67.5005251070379
 30
0.0
 10
387.10634414589
 20
-67.53643885154816
 30
0.0
 10
386.6210342625291
 20
-68.0619992334723
 30
0.0
 10
386.551375150535
 20
-69.7082039676734
 30
0.0
 10
386.5248802937385
 20
-70.33554254630326
 30
0.0
 10
386.5363997966942
 20
-70.96376202809915
 30
0.0
 10
386.5362642731288
 20
-71.591642700987
 30
0.0
 10
386.5348412757048
 20
-79.4642065447124
 30
0.0
 10
386.5431082131217
 20
-87.3367703884378
 30
0.0
 10
386.5309788541254
 20
-95.2092664703805
 30
0.0
 10
386.527929573931
 20
-97.1880460311013
 30
0.0
 10
386.3669953414574
 20
-97.3399001847747
 30
0.0
 10
384.3680227696732
 20
-97.34959011961382
 30
0.0
 10
380.8906913979354
 20
-97.36639504157301
 30
0.0
 10
377.4131567408513
 20
-97.33956137586392
 30
0.0
 10
373.9358253691153
 20
-97.36429442632834
 30
0.0
 10
373.2187701909916
 20
-97.36937655998554
 30
0.0
 10
372.4652591741033
 20
-97.29782011809402
 30
0.0
 10
371.9307542369424
 20
-97.948265464418
 30
0.0
 10
371.7045654083104
 20
-98.45573345052253
 30
0.0
 10
371.7831013137584
 20
-98.99504947421156
 30
0.0
 10
371.7831013137584
 20
-99.52162628286715
 30
0.0
 10
371.7788323214882
 20
-153.2990705975226
 30
0.0
 10
371.7787645597036
 20
-207.0765149121771
 30
0.0
 10
371.7849986436559
 20
-260.8539592268316
 30
0.0
 10
371.7850664054386
 20
-261.4237002906812
 30
0.0
 10
371.6633662447966
 20
-262.0188520228166
 30
0.0
 10
371.991468793698
 20
-262.5529503892849
 30
0.0
 10
372.5318012441185
 20
-263.0789173419016
 30
0.0
 10
373.2212773769279
 20
-263.050525155204
 30
0.0
 10
373.8946939673842
 20
-263.0512027730256
 30
0.0
 10
387.6226211636676
 20
-263.0650261765732
 30
0.0
 10
401.3506161217319
 20
-263.072547734384
 30
0.0
 10
415.0784755562327
 20
-263.0457818304567
 30
0.0
 10
417.1466329075356
 20
-263.0417161235309
 30
0.0
 10
417.615002345372
 20
-262.54664854355
 30
0.0
 10
417.6369571627692
 20
-260.4469142017915
 30
0.0
 10
417.6738873340109
 20
-256.9184226845719
 30
0.0
 10
417.6228627120945
 20
-253.3894568348805
 30
0.0
 10
417.6610125954139
 20
-249.8611008412245
 30
0.0
 10
417.6783596116293
 20
-248.2530459903428
 30
0.0
 10
417.9291459671604
 20
-248.0023273965926
 30
0.0
 10
419.5287305952806
 20
-247.987623089879
 30
0.0
 10
422.7672016851357
 20
-247.9578079057574
 30
0.0
 10
426.0060793456832
 20
-247.9611959948634
 30
0.0
 10
429.2445504355383
 20
-247.9857935217624
 30
0.0
 10
430.9412376973996
 20
-247.9986682603594
 30
0.0
 10
431.1789460289874
 20
-248.2338016442282
 30
0.0
 10
431.1957509509448
 20
-249.9247969163935
 30
0.0
 10
431.2269213707095
 20
-253.0665719432
 30
0.0
 10
431.2017817495525
 20
-256.2086857789163
 30
0.0
 10
431.2069316449924
 20
-259.3505963292864
 30
0.0
 10
431.2126913964694
 20
-262.9117490254757
 30
0.0
 10
431.3512642408514
 20
-263.0586565690555
 30
0.0
 10
434.8529898541437
 20
-263.0589276161845
 30
0.0
 10
472.7499184407243
 20
-263.06136704034
 30
0.0
 10
510.6467792655203
 20
-263.0606216607357
 30
0.0
 10
548.5437078521009
 20
-263.059672995787
 30
0.0
 10
549.1719950956794
 20
-263.059672995787
 30
0.0
 10
549.8008921952969
 20
-263.0682787421138
 30
0.0
 10
550.4280274885805
 20
-263.0217941595947
 30
0.0
 10
551.5044911589321
 20
-262.9421740656362
 30
0.0
 10
552.1077065431364
 20
-262.3675541534758
 30
0.0
 10
552.2006757081708
 20
-261.2862793965942
 30
0.0
 10
552.2545463249353
 20
-260.6597539593495
 30
0.0
 10
552.2408584449513
 20
-260.0304502890394
 30
0.0
 10
552.2422136805944
 20
-259.4020952836781
 30
0.0
 10
552.2491931441491
 20
-256.1634886702595
 30
0.0
 10
552.2332013635751
 20
-252.9248142950582
 30
0.0
 10
552.2504806180095
 20
-249.6862076816396
 30
0.0
 10
552.2552917045377
 20
-248.7818589378076
 30
0.0
 10
552.4335051914459
 20
-248.0185224625147
 30
0.0
 10
553.5622809575743
 20
-248.0038181558011
 30
0.0
 10
557.1871974907135
 20
-247.9565881936796
 30
0.0
 10
560.8121817856354
 20
-247.9595019503104
 30
0.0
 10
564.4371660805555
 20
-248.0025306819407
 30
0.0
 10
565.3252519966845
 20
-248.0131692817286
 30
0.0
 10
565.7520157003164
 20
-248.4846557615419
 30
0.0
 10
565.7779007010759
 20
-249.3618320307542
 30
0.0
 10
565.7920629135333
 20
-249.8451768224331
 30
0.0
 10
565.7982292357046
 20
-250.3282505669831
 30
0.0
 10
565.7997199949095
 20
-250.8115275968812
 30
0.0
 10
565.8102908329165
 20
-254.1468302733483
 30
0.0
 10
565.7604859230778
 20
-257.4824717587253
 30
0.0
 10
565.8248596160665
 20
-260.8171645791554
 30
0.0
 10
565.8565043683047
 20
-262.4576095618777
 30
0.0
 10
566.3927711117994
 20
-262.9606052703639
 30
0.0
 10
568.0160046018718
 20
-263.0418516470963
 30
0.0
 10
568.4988072992928
 20
-263.0660426033028
 30
0.0
 10
568.9824908998835
 20
-263.0597407575697
 30
0.0
 10
569.4659034533452
 20
-263.0597407575697
 30
0.0
 10
582.420465430585
 20
-263.060824946082
 30
0.0
 10
595.374959646042
 20
-263.061976896377
 30
0.0
 10
608.3295216232818
 20
-263.0590631397481
 30
0.0
 10
611.8887769895719
 20
-263.0583177601438
 30
0.0
 10
611.9966537466662
 20
-262.9507120501785
 30
0.0
 10
611.9967215084489
 20
-259.3953868672506
 30
0.0
 10
611.9983477912192
 20
-206.6104493749326
 30
0.0
 10
611.9982122676538
 20
-153.8254441208319
 30
0.0
 10
611.9973313644878
 20
-101.040506628513
 30
0.0
 10
611.9972636027051
 20
-100.4604657737855
 30
0.0
 10
612.0135264304081
 20
-99.87920520697935
 30
0.0
 10
611.9666352771983
 20
-99.30099392036846
 30
0.0
  0
HATCH
  5
4C
330
1F
100
AcDbEntity
  8
Layer 1
 62
    18
420
    65792
100
AcDbHatch
 10
0.0
 20
0.0
 30
0.0
210
0.0
220
0.0
230
1.0
  2
SOLID
 70
     1
 71
     0
 91
        1
 92
        1
 93
        1
 72
     4
 94
        3
 73
     0
 74
     1
 95
      209
 96
      205
 40
0.0
 40
0.0
 40
0.0
 40
0.0
 40
1.0
 40
1.0
 40
1.0
 40
2.0
 40
2.0
 40
2.0
 40
3.0
 40
3.0
 40
3.0
 40
4.0
 40
4.0
 40
4.0
 40
5.0
 40
5.0
 40
5.0
 40
6.0
 40
6.0
 40
6.0
 40
7.0
 40
7.0
 40
7.0
 40
8.0
 40
8.0
 40
8.0
 40
9.0
 40
9.0
 40
9.0
 40
10.0
 40
10.0
 40
10.0
 40
11.0
 40
11.0
 40
11.0
 40
12.0
 40
12.0
 40
12.0
 40
13.0
 40
13.0
 40
13.0
 40
14.0
 40
14.0
 40
14.0
 40
15.0
 40
15.0
 40
15.0
 40
16.0
 40
16.0
 40
16.0
 40
17.0
 40
17.0
 40
17.0
 40
18.0
 40
18.0
 40
18.0
 40
19.0
 40
19.0
 40
19.0
 40
20.0
 40
20.0
 40
20.0
 40
21.0
 40
21.0
 40
21.0
 40
22.0
 40
22.0
 40
22.0
 40
23.0
 40
23.0
 40
23.0
 40
24.0
 40
24.0
 40
24.0
 40
25.0
 40
25.0
 40
25.0
 40
26.0
 40
26.0
 40
26.0
 40
27.0
 40
27.0
 40
27.0
 40
28.0
 40
28.0
 40
28.0
 40
29.0
 40
29.0
 40
29.0
 40
30.0
 40
30.0
 40
30.0
 40
31.0
 40
31.0
 40
31.0
 40
32.0
 40
32.0
 40
32.0
 40
33.0
 40
33.0
 40
33.0
 40
34.0
 40
34.0
 40
34.0
 40
35.0
 40
35.0
 40
35.0
 40
36.0
 40
36.0
 40
36.0
 40
37.0
 40
37.0
 40
37.0
 40
38.0
 40
38.0
 40
38.0
 40
39.0
 40
39.0
 40
39.0
 40
40.0
 40
40.0
 40
40.0
 40
41.0
 40
41.0
 40
41.0
 40
42.0
 40
42.0
 40
42.0
 40
43.0
 40
43.0
 40
43.0
 40
44.0
 40
44.0
 40
44.0
 40
45.0
 40
45.0
 40
45.0
 40
46.0
 40
46.0
 40
46.0
 40
47.0
 40
47.0
 40
47.0
 40
48.0
 40
48.0
 40
48.0
 40
49.0
 40
49.0
 40
49.0
 40
50.0
 40
50.0
 40
50.0
 40
51.0
 40
51.0
 40
51.0
 40
52.0
 40
52.0
 40
52.0
 40
53.0
 40
53.0
 40
53.0
 40
54.0
 40
54.0
 40
54.0
 40
55.0
 40
55.0
 40
55.0
 40
56.0
 40
56.0
 40
56.0
 40
57.0
 40
57.0
 40
57.0
 40
58.0
 40
58.0
 40
58.0
 40
59.0
 40
59.0
 40
59.0
 40
60.0
 40
60.0
 40
60.0
 40
61.0
 40
61.0
 40
61.0
 40
62.0
 40
62.0
 40
62.0
 40
63.0
 40
63.0
 40
63.0
 40
64.0
 40
64.0
 40
64.0
 40
65.0
 40
65.0
 40
65.0
 40
66.0
 40
66.0
 40
66.0
 40
67.0
 40
67.0
 40
67.0
 40
68.0
 40
68.0
 40
68.0
 40
68.0
 10
611.9666352771983
 20
-99.30099392036846
 10
611.8607236117841
 20
-97.99454676158803
 10
611.365994840713
 20
-97.49405823903908
 10
610.0765558892399
 20
-97.38428415204635
 10
609.546658753261
 20
-97.33915480517135
 10
609.0137123370896
 20
-97.35372358832137
 10
608.4820533947768
 20
-97.3533170176288
 10
605.3884569950405
 20
-97.35080983169155
 10
602.2947928335216
 20
-97.36158395504481
 10
599.2011964337835
 20
-97.34877697822867
 10
597.0729343817638
 20
-97.34003570833829
 10
596.9340904902529
 20
-97.18818155466488
 10
596.9155915237407
 20
-95.01072444884448
 10
596.9110514843396
 20
-94.4789977447499
 10
596.9144395734438
 20
-93.94727104065532
 10
596.9141007645339
 20
-93.41554433656074
 10
596.9092896780057
 20
-85.63317142480264
 10
596.9330063017387
 20
-77.85073075126274
 10
596.9005484081154
 20
-70.06842560128644
 10
596.891807138225
 20
-67.97553519951998
 10
596.4149674776272
 20
-67.5105538507878
 10
594.3293953483262
 20
-67.4871760359656
 10
591.1876880833024
 20
-67.45200767105871
 10
588.045574247586
 20
-67.48039985775631
 10
584.9035959354333
 20
-67.47450458271396
 10
582.1412868883563
 20
-67.46935468727497
 10
582.1268536287698
 20
-67.45566680729189
 10
582.1209583537275
 20
-64.75868011815328
 10
582.1138433666074
 20
-61.47175935410087
 10
582.1461657366672
 20
-58.18456754292038
 10
582.1061862852312
 20
-54.89785006421425
 10
582.0819275672402
 20
-52.90761876232045
 10
581.5972275399199
 20
-52.42766205974567
 10
579.5947991172488
 20
-52.40469081561514
 10
576.259699726128
 20
-52.36647317051393
 10
572.9241937643128
 20
-52.39981196730514
 10
569.5889588496284
 20
-52.38964769999075
 10
567.1378796677091
 20
-52.38219390395989
 10
567.0448427408937
 20
-52.29118983060744
 10
567.0383376098125
 20
-49.87399153973638
 10
567.0298673870511
 20
-46.7320132275845
 10
567.0515511573212
 20
-43.58996715364992
 10
567.0295963399221
 20
-40.44812436506163
 10
567.0126558943994
 20
-38.00903901857419
 10
566.6159106602372
 20
-37.63248679547542
 10
564.1274947363854
 20
-37.60138413749428
 10
563.5474538816561
 20
-37.59413362681062
 10
562.9673452651477
 20
-37.59772500126201
 10
562.3873044104184
 20
-37.59752171591481
 10
554.6532456492951
 20
-37.59501452997756
 10
546.9191868881699
 20
-37.60951555134579
 10
539.1851958888274
 20
-37.58844163711456
 10
537.3878823805553
 20
-37.58356278880365
 10
537.1814799922959
 20
-37.36564089758849
 10
537.1660980677607
 20
-35.57571342356459
 10
537.1404163523475
 20
-32.57888084865863
 10
537.169418395084
 20
-29.58184498840637
 10
537.1521391406495
 20
-26.58494465171771
 10
537.1478701483775
 20
-25.85745415915244
 10
537.1756524790362
 20
-25.11817311650339
 10
536.5408601043764
 20
-24.58217742013676
 10
506.6633351433211
 20
-24.58217742013676
 10
476.7857424204831
 20
-24.58217742013676
 10
446.9082174594278
 20
-24.58217742013676
 10
446.275119129321
 20
-25.11803759293889
 10
446.3019527950291
 20
-25.85623444707471
 10
446.2979548498843
 20
-26.58311508360202
 10
446.2823018782219
 20
-29.4327013060165
 10
446.2984291823595
 20
-32.28221976664918
 10
446.289687912471
 20
-35.13180598906456
 10
446.2824374017855
 20
-37.50529793048463
 10
446.201462072182
 20
-37.59359153255355
 10
443.8592760740903
 20
-37.5961664802735
 10
435.6003345488643
 20
-37.60531432085554
 10
427.3413930236347
 20
-37.58430816840701
 10
419.0825192601897
 20
-37.60829583926716
 10
416.8711135015401
 20
-37.61473320856749
 10
416.4446208450372
 20
-38.04427514526378
 10
416.4240212632812
 20
-40.23155770948779
 10
416.3917666550042
 20
-43.66050716881
 10
416.4341177688129
 20
-47.08986319882479
 10
416.4047091553839
 20
-50.51888041992879
 10
416.3906824664919
 20
-52.15498864859819
 10
416.180756465561
 20
-52.3687770711058
 10
414.560165684994
 20
-52.38273599821696
 10
411.0828343132544
 20
-52.41255118233858
 10
407.6052318943894
 20
-52.37541772575059
 10
404.1279005226534
 20
-52.39947315839436
 10
401.7293367218572
 20
-52.41607479500726
 10
401.3527844987584
 20
-52.79208492384896
 10
401.3365216710554
 20
-55.18095878980421
 10
401.3125340001952
 20
-58.70660431217493
 10
401.3551561611312
 20
-62.23258864345644
 10
401.316328659992
 20
-65.75803088048087
 10
401.300336879418
 20
-67.2113855828411
 10
401.0663554458461
 20
-67.41338345526492
 10
399.6093416072526
 20
-67.46725407202939
 10
398.9337566397717
 20
-67.49219040784101
 10
398.2570874837766
 20
-67.4740302502396
 10
397.5809604220394
 20
-67.47613086548427
 10
394.6348136601391
 20
-67.48521094428452
 10
391.6881925657653
 20
-67.43581260513838
 10
388.7427911834675
 20
-67.5005251070379
 10
387.10634414589
 20
-67.53643885154816
 10
386.6210342625291
 20
-68.0619992334723
 10
386.551375150535
 20
-69.7082039676734
 10
386.5248802937385
 20
-70.33554254630326
 10
386.5363997966942
 20
-70.96376202809915
 10
386.5362642731288
 20
-71.591642700987
 10
386.5348412757048
 20
-79.4642065447124
 10
386.5431082131217
 20
-87.3367703884378
 10
386.5309788541254
 20
-95.2092664703805
 10
386.527929573931
 20
-97.1880460311013
 10
386.3669953414574
 20
-97.3399001847747
 10
384.3680227696732
 20
-97.34959011961382
 10
380.8906913979354
 20
-97.36639504157301
 10
377.4131567408513
 20
-97.33956137586392
 10
373.9358253691153
 20
-97.36429442632834
 10
373.2187701909916
 20
-97.36937655998554
 10
372.4652591741033
 20
-97.29782011809402
 10
371.9307542369424
 20
-97.948265464418
 10
371.7045654083104
 20
-98.45573345052253
 10
371.7831013137584
 20
-98.99504947421156
 10
371.7831013137584
 20
-99.52162628286715
 10
371.7788323214882
 20
-153.2990705975226
 10
371.7787645597036
 20
-207.0765149121771
 10
371.7849986436559
 20
-260.8539592268316
 10
371.7850664054386
 20
-261.4237002906812
 10
371.6633662447966
 20
-262.0188520228166
 10
371.991468793698
 20
-262.5529503892849
 10
372.5318012441185
 20
-263.0789173419016
 10
373.2212773769279
 20
-263.050525155204
 10
373.8946939673842
 20
-263.0512027730256
 10
387.6226211636676
 20
-263.0650261765732
 10
401.3506161217319
 20
-263.072547734384
 10
415.0784755562327
 20
-263.0457818304567
 10
417.1466329075356
 20
-263.0417161235309
 10
417.615002345372
 20
-262.54664854355
 10
417.6369571627692
 20
-260.4469142017915
 10
417.6738873340109
 20
-256.9184226845719
 10
417.6228627120945
 20
-253.3894568348805
 10
417.6610125954139
 20
-249.8611008412245
 10
417.6783596116293
 20
-248.2530459903428
 10
417.9291459671604
 20
-248.0023273965926
 10
419.5287305952806
 20
-247.987623089879
 10
422.7672016851357
 20
-247.9578079057574
 10
426.0060793456832
 20
-247.9611959948634
 10
429.2445504355383
 20
-247.9857935217624
 10
430.9412376973996
 20
-247.9986682603594
 10
431.1789460289874
 20
-248.2338016442282
 10
431.1957509509448
 20
-249.9247969163935
 10
431.2269213707095
 20
-253.0665719432
 10
431.2017817495525
 20
-256.2086857789163
 10
431.2069316449924
 20
-259.3505963292864
 10
431.2126913964694
 20
-262.9117490254757
 10
431.3512642408514
 20
-263.0586565690555
 10
434.8529898541437
 20
-263.0589276161845
 10
472.7499184407243
 20
-263.06136704034
 10
510.6467792655203
 20
-263.0606216607357
 10
548.5437078521009
 20
-263.059672995787
 10
549.1719950956794
 20
-263.059672995787
 10
549.8008921952969
 20
-263.0682787421138
 10
550.4280274885805
 20
-263.0217941595947
 10
551.5044911589321
 20
-262.9421740656362
 10
552.1077065431364
 20
-262.3675541534758
 10
552.2006757081708
 20
-261.2862793965942
 10
552.2545463249353
 20
-260.6597539593495
 10
552.2408584449513
 20
-260.0304502890394
 10
552.2422136805944
 20
-259.4020952836781
 10
552.2491931441491
 20
-256.1634886702595
 10
552.2332013635751
 20
-252.9248142950582
 10
552.2504806180095
 20
-249.6862076816396
 10
552.2552917045377
 20
-248.7818589378076
 10
552.4335051914459
 20
-248.0185224625147
 10
553.5622809575743
 20
-248.0038181558011
 10
557.1871974907135
 20
-247.9565881936796
 10
560.8121817856354
 20
-247.9595019503104
 10
564.4371660805555
 20
-248.0025306819407
 10
565.3252519966845
 20
-248.0131692817286
 10
565.7520157003164
 20
-248.4846557615419
 10
565.7779007010759
 20
-249.3618320307542
 10
565.7920629135333
 20
-249.8451768224331
 10
565.7982292357046
 20
-250.3282505669831
 10
565.7997199949095
 20
-250.8115275968812
 10
565.8102908329165
 20
-254.1468302733483
 10
565.7604859230778
 20
-257.4824717587253
 10
565.8248596160665
 20
-260.8171645791554
 10
565.8565043683047
 20
-262.4576095618777
 10
566.3927711117994
 20
-262.9606052703639
 10
568.0160046018718
 20
-263.0418516470963
 10
568.4988072992928
 20
-263.0660426033028
 10
568.9824908998835
 20
-263.0597407575697
 10
569.4659034533452
 20
-263.0597407575697
 10
582.420465430585
 20
-263.060824946082
 10
595.374959646042
 20
-263.061976896377
 10
608.3295216232818
 20
-263.0590631397481
 10
611.8887769895719
 20
-263.0583177601438
 10
611.9966537466662
 20
-262.9507120501785
 10
611.9967215084489
 20
-259.3953868672506
 10
611.9983477912192
 20
-206.6104493749326
 10
611.9982122676538
 20
-153.8254441208319
 10
611.9973313644878
 20
-101.040506628513
 10
611.9972636027051
 20
-100.4604657737855
 10
612.0135264304081
 20
-99.87920520697935
 10
611.9666352771983
 20
-99.30099392036846
 97
        0
 97
        0
 75
     2
 76
     1
 98
        0
  0
ENDSEC
  0
SECTION
  2
OBJECTS
  0
DICTIONARY
  5
C
330
0
100
AcDbDictionary
281
     1
  3
ACAD_GROUP
350
D
  3
ACAD_LAYOUT
350
1A
  3
ACAD_MATERIAL
350
3B
  3
ACAD_MLEADERSTYLE
350
4E
  3
ACAD_MLINESTYLE
350
17
  3
ACAD_PLOTSETTINGS
350
19
  3
ACAD_PLOTSTYLENAME
350
E
  3
ACAD_TABLESTYLE
350
4D
  3
ACAD_VISUALSTYLE
350
2A
  0
SUN
  5
3F
330
29
100
AcDbSun
 90
        1
290
     0
 63
     7
421
 16777215
 40
1.0
291
     1
 91
  2455826
 92
 54000000
292
     0
 70
     2
 71
   256
280
     1
  0
DICTIONARY
  5
D
102
{ACAD_REACTORS
330
C
102
}
330
C
100
AcDbDictionary
281
     1
  0
DICTIONARY
  5
1A
102
{ACAD_REACTORS
330
C
102
}
330
C
100
AcDbDictionary
281
     1
  3
Layout1
350
1E
  3
Layout2
350
26
  3
Model
350
22
  0
DICTIONARY
  5
3B
102
{ACAD_REACTORS
330
C
102
}
330
C
100
AcDbDictionary
281
     1
  3
ByBlock
350
3D
  3
ByLayer
350
3C
  3
Global
350
3E
  0
DICTIONARY
  5
4E
102
{ACAD_REACTORS
330
C
102
}
330
C
100
AcDbDictionary
281
     1
  0
DICTIONARY
  5
17
102
{ACAD_REACTORS
330
C
102
}
330
C
100
AcDbDictionary
281
     1
  3
Standard
350
18
  0
DICTIONARY
  5
19
102
{ACAD_REACTORS
330
C
102
}
330
C
100
AcDbDictionary
281
     1
  0
ACDBDICTIONARYWDFLT
  5
E
102
{ACAD_REACTORS
330
C
102
}
330
C
100
AcDbDictionary
281
     1
  3
Normal
350
F
100
AcDbDictionaryWithDefault
340
F
  0
DICTIONARY
  5
4D
102
{ACAD_REACTORS
330
C
102
}
330
C
100
AcDbDictionary
281
     1
  0
DICTIONARY
  5
2A
102
{ACAD_REACTORS
330
C
102
}
330
C
100
AcDbDictionary
281
     1
  3
2dWireframe
350
2F
  3
3D Hidden
350
31
  3
3dWireframe
350
30
  3
Basic
350
32
  3
Brighten
350
36
  3
ColorChange
350
3A
  3
Conceptual
350
34
  3
Dim
350
35
  3
Facepattern
350
39
  3
Flat
350
2B
  3
FlatWithEdges
350
2C
  3
Gouraud
350
2D
  3
GouraudWithEdges
350
2E
  3
Linepattern
350
38
  3
Realistic
350
33
  3
Thicken
350
37
  0
LAYOUT
  5
1E
102
{ACAD_REACTORS
330
1A
102
}
330
1A
100
AcDbPlotSettings
  1

  2
none_device
  4

  6

 40
0.0
 41
0.0
 42
0.0
 43
0.0
 44
0.0
 45
0.0
 46
0.0
 47
0.0
 48
0.0
 49
0.0
140
0.0
141
0.0
142
1.0
143
1.0
 70
   688
 72
     0
 73
     0
 74
     5
  7

 75
    16
 76
     0
 77
     2
 78
   300
147
1.0
148
0.0
149
0.0
100
AcDbLayout
  1
Layout1
 70
     1
 71
     1
 10
0.0
 20
0.0
 11
12.0
 21
9.0
 12
0.0
 22
0.0
 32
0.0
 14
1.000000000000000E+20
 24
1.000000000000000E+20
 34
1.000000000000000E+20
 15
-1.000000000000000E+20
 25
-1.000000000000000E+20
 35
-1.000000000000000E+20
146
0.0
 13
0.0
 23
0.0
 33
0.0
 16
1.0
 26
0.0
 36
0.0
 17
0.0
 27
1.0
 37
0.0
 76
     0
330
1B
  0
LAYOUT
  5
26
102
{ACAD_REACTORS
330
1A
102
}
330
1A
100
AcDbPlotSettings
  1

  2
none_device
  4

  6

 40
0.0
 41
0.0
 42
0.0
 43
0.0
 44
0.0
 45
0.0
 46
0.0
 47
0.0
 48
0.0
 49
0.0
140
0.0
141
0.0
142
1.0
143
1.0
 70
   688
 72
     0
 73
     0
 74
     5
  7

 75
    16
 76
     0
 77
     2
 78
   300
147
1.0
148
0.0
149
0.0
100
AcDbLayout
  1
Layout2
 70
     1
 71
     2
 10
0.0
 20
0.0
 11
0.0
 21
0.0
 12
0.0
 22
0.0
 32
0.0
 14
0.0
 24
0.0
 34
0.0
 15
0.0
 25
0.0
 35
0.0
146
0.0
 13
0.0
 23
0.0
 33
0.0
 16
1.0
 26
0.0
 36
0.0
 17
0.0
 27
1.0
 37
0.0
 76
     0
330
23
  0
LAYOUT
  5
22
102
{ACAD_REACTORS
330
1A
102
}
330
1A
100
AcDbPlotSettings
  1

  2
none_device
  4

  6

 40
0.0
 41
0.0
 42
0.0
 43
0.0
 44
0.0
 45
0.0
 46
0.0
 47
0.0
 48
0.0
 49
0.0
140
0.0
141
0.0
142
1.0
143
1.0
 70
  1712
 72
     0
 73
     0
 74
     0
  7

 75
     0
 76
     0
 77
     2
 78
   300
147
1.0
148
0.0
149
0.0
100
AcDbLayout
  1
Model
 70
     1
 71
     0
 10
0.0
 20
0.0
 11
12.0
 21
9.0
 12
0.0
 22
0.0
 32
0.0
 14
1.000000000000000E+20
 24
1.000000000000000E+20
 34
1.000000000000000E+20
 15
-1.000000000000000E+20
 25
-1.000000000000000E+20
 35
-1.000000000000000E+20
146
0.0
 13
0.0
 23
0.0
 33
0.0
 16
1.0
 26
0.0
 36
0.0
 17
0.0
 27
1.0
 37
0.0
 76
     0
330
1F
331
29
  0
MATERIAL
  5
3D
102
{ACAD_REACTORS
330
3B
102
}
330
3B
100
AcDbMaterial
  1
ByBlock
 72
     1
 94
      127
  0
MATERIAL
  5
3C
102
{ACAD_REACTORS
330
3B
102
}
330
3B
100
AcDbMaterial
  1
ByLayer
 72
     1
 94
      127
  0
MATERIAL
  5
3E
102
{ACAD_REACTORS
330
3B
102
}
330
3B
100
AcDbMaterial
  1
Global
 72
     1
 94
      127
  0
MLINESTYLE
  5
18
102
{ACAD_REACTORS
330
17
102
}
330
17
100
AcDbMlineStyle
  2
Standard
 70
     0
  3

 62
   256
 51
90.0
 52
90.0
 71
     2
 49
0.5
 62
   256
  6
BYLAYER
 49
-0.5
 62
   256
  6
BYLAYER
  0
ACDBPLACEHOLDER
  5
F
102
{ACAD_REACTORS
330
E
102
}
330
E
  0
VISUALSTYLE
  5
2F
102
{ACAD_REACTORS
330
2A
102
}
330
2A
100
AcDbVisualStyle
  2
2dWireframe
 70
     4
177
     2
291
     0
 71
     0
176
     1
 72
     2
176
     1
 73
     0
176
     1
 90
        0
176
     1
 40
-0.6
176
     1
 41
-30.0
176
     1
 62
     5
 63
     7
421
 16777215
176
     1
 74
     1
176
     1
 91
        4
176
     1
 64
     7
176
     1
 65
   257
176
     1
 75
     1
176
     1
175
     1
176
     1
 42
1.0
176
     1
 92
        0
176
     1
 66
   257
176
     1
 43
1.0
176
     1
 76
     1
176
     1
 77
     6
176
     1
 78
     2
176
     1
 67
     7
176
     1
 79
     5
176
     1
170
     0
176
     1
171
     0
176
     1
290
     0
176
     1
 93
        1
176
     1
 44
0.0
176
     1
173
     0
176
     1
  0
VISUALSTYLE
  5
31
102
{ACAD_REACTORS
330
2A
102
}
330
2A
100
AcDbVisualStyle
  2
3D Hidden
 70
     6
177
     2
291
     0
 71
     1
176
     1
 72
     2
176
     1
 73
     2
176
     1
 90
        0
176
     1
 40
-0.6
176
     1
 41
-30.0
176
     1
 62
     5
 63
     7
421
 16777215
176
     1
 74
     2
176
     1
 91
        2
176
     1
 64
     7
176
     1
 65
   257
176
     1
 75
     2
176
     1
175
     1
176
     1
 42
40.0
176
     1
 92
        0
176
     1
 66
   257
176
     1
 43
1.0
176
     1
 76
     1
176
     1
 77
     6
176
     1
 78
     2
176
     1
 67
     7
176
     1
 79
     3
176
     1
170
     0
176
     1
171
     0
176
     1
290
     0
176
     1
 93
        1
176
     1
 44
0.0
176
     1
173
     0
176
     1
  0
VISUALSTYLE
  5
30
102
{ACAD_REACTORS
330
2A
102
}
330
2A
100
AcDbVisualStyle
  2
3dWireframe
 70
     5
177
     2
291
     0
 71
     0
176
     1
 72
     2
176
     1
 73
     0
176
     1
 90
        0
176
     1
 40
-0.6
176
     1
 41
-30.0
176
     1
 62
     5
 63
     7
421
 16777215
176
     1
 74
     1
176
     1
 91
        4
176
     1
 64
     7
176
     1
 65
   257
176
     1
 75
     1
176
     1
175
     1
176
     1
 42
1.0
176
     1
 92
        0
176
     1
 66
   257
176
     1
 43
1.0
176
     1
 76
     1
176
     1
 77
     6
176
     1
 78
     2
176
     1
 67
     7
176
     1
 79
     5
176
     1
170
     0
176
     1
171
     0
176
     1
290
     0
176
     1
 93
        1
176
     1
 44
0.0
176
     1
173
     0
176
     1
  0
VISUALSTYLE
  5
32
102
{ACAD_REACTORS
330
2A
102
}
330
2A
100
AcDbVisualStyle
  2
Basic
 70
     7
177
     2
291
     1
 71
     1
176
     1
 72
     0
176
     1
 73
     1
176
     1
 90
        0
176
     1
 40
-0.6
176
     1
 41
-30.0
176
     1
 62
     5
 63
     7
421
 16777215
176
     1
 74
     0
176
     1
 91
        4
176
     1
 64
     7
176
     1
 65
   257
176
     1
 75
     1
176
     1
175
     1
176
     1
 42
1.0
176
     1
 92
        8
176
     1
 66
     7
176
     1
 43
1.0
176
     1
 76
     1
176
     1
 77
     6
176
     1
 78
     2
176
     1
 67
     7
176
     1
 79
     5
176
     1
170
     0
176
     1
171
     0
176
     1
290
     0
176
     1
 93
        1
176
     1
 44
0.0
176
     1
173
     0
176
     1
  0
VISUALSTYLE
  5
36
102
{ACAD_REACTORS
330
2A
102
}
330
2A
100
AcDbVisualStyle
  2
Brighten
 70
    12
177
     2
291
     1
 71
     2
176
     1
 72
     2
176
     1
 73
     0
176
     1
 90
        0
176
     1
 40
-0.6
176
     1
 41
-30.0
176
     1
 62
     5
 63
     7
421
 16777215
176
     1
 74
     1
176
     1
 91
        4
176
     1
 64
     7
176
     1
 65
   257
176
     1
 75
     1
176
     1
175
     1
176
     1
 42
1.0
176
     1
 92
        8
176
     1
 66
     7
176
     1
 43
1.0
176
     1
 76
     1
176
     1
 77
     6
176
     1
 78
     2
176
     1
 67
     7
176
     1
 79
     5
176
     1
170
     0
176
     1
171
     0
176
     1
290
     0
176
     1
 93
        1
176
     1
 44
50.0
176
     1
173
     0
176
     1
  0
VISUALSTYLE
  5
3A
102
{ACAD_REACTORS
330
2A
102
}
330
2A
100
AcDbVisualStyle
  2
ColorChange
 70
    16
177
     2
291
     1
 71
     2
176
     1
 72
     2
176
     1
 73
     3
176
     1
 90
        0
176
     1
 40
-0.6
176
     1
 41
-30.0
176
     1
 62
     5
 63
     8
421
  8421504
176
     1
 74
     1
176
     1
 91
        4
176
     1
 64
     7
176
     1
 65
   257
176
     1
 75
     1
176
     1
175
     1
176
     1
 42
1.0
176
     1
 92
        8
176
     1
 66
     8
424
  8421504
176
     1
 43
1.0
176
     1
 76
     1
176
     1
 77
     6
176
     1
 78
     2
176
     1
 67
     7
176
     1
 79
     5
176
     1
170
     0
176
     1
171
     0
176
     1
290
     0
176
     1
 93
        1
176
     1
 44
0.0
176
     1
173
     0
176
     1
  0
VISUALSTYLE
  5
34
102
{ACAD_REACTORS
330
2A
102
}
330
2A
100
AcDbVisualStyle
  2
Conceptual
 70
     9
177
     2
291
     0
 71
     3
176
     1
 72
     2
176
     1
 73
     0
176
     1
 90
        0
176
     1
 40
-0.6
176
     1
 41
-30.0
176
     1
 62
     5
 63
     7
421
 16777215
176
     1
 74
     2
176
     1
 91
        2
176
     1
 64
     7
176
     1
 65
   257
176
     1
 75
     1
176
     1
175
     1
176
     1
 42
40.0
176
     1
 92
        8
176
     1
 66
     7
176
     1
 43
1.0
176
     1
 76
     1
176
     1
 77
     6
176
     1
 78
     2
176
     1
 67
     7
176
     1
 79
     3
176
     1
170
     0
176
     1
171
     0
176
     1
290
     0
176
     1
 93
        1
176
     1
 44
0.0
176
     1
173
     0
176
     1
  0
VISUALSTYLE
  5
35
102
{ACAD_REACTORS
330
2A
102
}
330
2A
100
AcDbVisualStyle
  2
Dim
 70
    11
177
     2
291
     1
 71
     2
176
     1
 72
     2
176
     1
 73
     0
176
     1
 90
        0
176
     1
 40
-0.6
176
     1
 41
-30.0
176
     1
 62
     5
 63
     7
421
 16777215
176
     1
 74
     1
176
     1
 91
        4
176
     1
 64
     7
176
     1
 65
   257
176
     1
 75
     1
176
     1
175
     1
176
     1
 42
1.0
176
     1
 92
        8
176
     1
 66
     7
176
     1
 43
1.0
176
     1
 76
     1
176
     1
 77
     6
176
     1
 78
     2
176
     1
 67
     7
176
     1
 79
     5
176
     1
170
     0
176
     1
171
     0
176
     1
290
     0
176
     1
 93
        1
176
     1
 44
-50.0
176
     1
173
     0
176
     1
  0
VISUALSTYLE
  5
39
102
{ACAD_REACTORS
330
2A
102
}
330
2A
100
AcDbVisualStyle
  2
Facepattern
 70
    15
177
     2
291
     1
 71
     2
176
     1
 72
     2
176
     1
 73
     0
176
     1
 90
        0
176
     1
 40
-0.6
176
     1
 41
-30.0
176
     1
 62
     5
 63
     7
421
 16777215
176
     1
 74
     1
176
     1
 91
        4
176
     1
 64
     7
176
     1
 65
   257
176
     1
 75
     1
176
     1
175
     1
176
     1
 42
1.0
176
     1
 92
        8
176
     1
 66
     7
176
     1
 43
1.0
176
     1
 76
     1
176
     1
 77
     6
176
     1
 78
     2
176
     1
 67
     7
176
     1
 79
     5
176
     1
170
     0
176
     1
171
     0
176
     1
290
     0
176
     1
 93
        1
176
     1
 44
0.0
176
     1
173
     0
176
     1
  0
VISUALSTYLE
  5
2B
102
{ACAD_REACTORS
330
2A
102
}
330
2A
100
AcDbVisualStyle
  2
Flat
 70
     0
177
     2
291
     1
 71
     2
176
     1
 72
     1
176
     1
 73
     1
176
     1
 90
        2
176
     1
 40
-0.6
176
     1
 41
30.0
176
     1
 62
     5
 63
     7
421
 16777215
176
     1
 74
     0
176
     1
 91
        4
176
     1
 64
     7
176
     1
 65
   257
176
     1
 75
     1
176
     1
175
     1
176
     1
 42
1.0
176
     1
 92
        8
176
     1
 66
     7
176
     1
 43
1.0
176
     1
 76
     1
176
     1
 77
     6
176
     1
 78
     2
176
     1
 67
     7
176
     1
 79
     5
176
     1
170
     0
176
     1
171
     0
176
     1
290
     0
176
     1
 93
       13
176
     1
 44
0.0
176
     1
173
     0
176
     1
  0
VISUALSTYLE
  5
2C
102
{ACAD_REACTORS
330
2A
102
}
330
2A
100
AcDbVisualStyle
  2
FlatWithEdges
 70
     1
177
     2
291
     1
 71
     2
176
     1
 72
     1
176
     1
 73
     1
176
     1
 90
        2
176
     1
 40
-0.6
176
     1
 41
30.0
176
     1
 62
     5
 63
     7
421
 16777215
176
     1
 74
     1
176
     1
 91
        4
176
     1
 64
     7
176
     1
 65
   257
176
     1
 75
     1
176
     1
175
     1
176
     1
 42
1.0
176
     1
 92
        0
176
     1
 66
   257
176
     1
 43
1.0
176
     1
 76
     1
176
     1
 77
     6
176
     1
 78
     2
176
     1
 67
     7
176
     1
 79
     5
176
     1
170
     0
176
     1
171
     0
176
     1
290
     0
176
     1
 93
       13
176
     1
 44
0.0
176
     1
173
     0
176
     1
  0
VISUALSTYLE
  5
2D
102
{ACAD_REACTORS
330
2A
102
}
330
2A
100
AcDbVisualStyle
  2
Gouraud
 70
     2
177
     2
291
     1
 71
     2
176
     1
 72
     2
176
     1
 73
     1
176
     1
 90
        2
176
     1
 40
-0.6
176
     1
 41
30.0
176
     1
 62
     5
 63
     7
421
 16777215
176
     1
 74
     0
176
     1
 91
        4
176
     1
 64
     7
176
     1
 65
   257
176
     1
 75
     1
176
     1
175
     1
176
     1
 42
1.0
176
     1
 92
        0
176
     1
 66
     7
176
     1
 43
1.0
176
     1
 76
     1
176
     1
 77
     6
176
     1
 78
     2
176
     1
 67
     7
176
     1
 79
     5
176
     1
170
     0
176
     1
171
     0
176
     1
290
     0
176
     1
 93
       13
176
     1
 44
0.0
176
     1
173
     0
176
     1
  0
VISUALSTYLE
  5
2E
102
{ACAD_REACTORS
330
2A
102
}
330
2A
100
AcDbVisualStyle
  2
GouraudWithEdges
 70
     3
177
     2
291
     1
 71
     2
176
     1
 72
     2
176
     1
 73
     1
176
     1
 90
        2
176
     1
 40
-0.6
176
     1
 41
30.0
176
     1
 62
     5
 63
     7
421
 16777215
176
     1
 74
     1
176
     1
 91
        4
176
     1
 64
     7
176
     1
 65
   257
176
     1
 75
     1
176
     1
175
     1
176
     1
 42
1.0
176
     1
 92
        0
176
     1
 66
   257
176
     1
 43
1.0
176
     1
 76
     1
176
     1
 77
     6
176
     1
 78
     2
176
     1
 67
     7
176
     1
 79
     5
176
     1
170
     0
176
     1
171
     0
176
     1
290
     0
176
     1
 93
       13
176
     1
 44
0.0
176
     1
173
     0
176
     1
  0
VISUALSTYLE
  5
38
102
{ACAD_REACTORS
330
2A
102
}
330
2A
100
AcDbVisualStyle
  2
Linepattern
 70
    14
177
     2
291
     1
 71
     2
176
     1
 72
     2
176
     1
 73
     0
176
     1
 90
        0
176
     1
 40
-0.6
176
     1
 41
-30.0
176
     1
 62
     5
 63
     7
421
 16777215
176
     1
 74
     1
176
     1
 91
        4
176
     1
 64
     7
176
     1
 65
   257
176
     1
 75
     7
176
     1
175
     7
176
     1
 42
1.0
176
     1
 92
        8
176
     1
 66
     7
176
     1
 43
1.0
176
     1
 76
     1
176
     1
 77
     6
176
     1
 78
     2
176
     1
 67
     7
176
     1
 79
     5
176
     1
170
     0
176
     1
171
     0
176
     1
290
     0
176
     1
 93
        1
176
     1
 44
0.0
176
     1
173
     0
176
     1
  0
VISUALSTYLE
  5
33
102
{ACAD_REACTORS
330
2A
102
}
330
2A
100
AcDbVisualStyle
  2
Realistic
 70
     8
177
     2
291
     0
 71
     2
176
     1
 72
     2
176
     1
 73
     0
176
     1
 90
        0
176
     1
 40
-0.6
176
     1
 41
-30.0
176
     1
 62
     5
 63
     7
421
 16777215
176
     1
 74
     1
176
     1
 91
        0
176
     1
 64
     7
176
     1
 65
   257
176
     1
 75
     1
176
     1
175
     1
176
     1
 42
1.0
176
     1
 92
        8
176
     1
 66
     8
424
  7895160
176
     1
 43
1.0
176
     1
 76
     1
176
     1
 77
     6
176
     1
 78
     2
176
     1
 67
     7
176
     1
 79
     5
176
     1
170
     0
176
     1
171
     0
176
     1
290
     0
176
     1
 93
       13
176
     1
 44
0.0
176
     1
173
     0
176
     1
  0
VISUALSTYLE
  5
37
102
{ACAD_REACTORS
330
2A
102
}
330
2A
100
AcDbVisualStyle
  2
Thicken
 70
    13
177
     2
291
     1
 71
     2
176
     1
 72
     2
176
     1
 73
     0
176
     1
 90
        0
176
     1
 40
-0.6
176
     1
 41
-30.0
176
     1
 62
     5
 63
     7
421
 16777215
176
     1
 74
     1
176
     1
 91
        4
176
     1
 64
     7
176
     1
 65
   257
176
     1
 75
     1
176
     1
175
     1
176
     1
 42
1.0
176
     1
 92
       12
176
     1
 66
     7
176
     1
 43
1.0
176
     1
 76
     1
176
     1
 77
     6
176
     1
 78
     2
176
     1
 67
     7
176
     1
 79
     5
176
     1
170
     0
176
     1
171
     0
176
     1
290
     0
176
     1
 93
        1
176
     1
 44
0.0
176
     1
173
     0
176
     1
  0
ENDSEC
  0
EOF
