  0
SECTION
  2
HEADER
  9
$ACADVER
  1
AC1014
  9
$HANDSEED
  5
FFFF
  9
$MEASUREMENT
 70
     1
  0
ENDSEC
  0
SECTION
  2
TABLES
  0
TABLE
  2
VPORT
  5
8
330
0
100
AcDbSymbolTable
 70
     4
  0
VPORT
  5
2E
330
8
100
AcDbSymbolTableRecord
100
AcDbViewportTableRecord
  2
*ACTIVE
 70
     0
 10
0.0
 20
0.0
 11
1.0
 21
1.0
 12
210.0
 22
148.5
 13
0.0
 23
0.0
 14
10.0
 24
10.0
 15
10.0
 25
10.0
 16
0.0
 26
0.0
 36
1.0
 17
0.0
 27
0.0
 37
0.0
 40
341.0
 41
1.24
 42
50.0
 43
0.0
 44
0.0
 50
0.0
 51
0.0
 71
     0
 72
   100
 73
     1
 74
     3
 75
     0
 76
     0
 77
     0
 78
     0
  0
ENDTAB
  0
TABLE
  2
LTYPE
  5
5
330
0
100
AcDbSymbolTable
 70
     1
  0
LTYPE
  5
14
330
5
100
AcDbSymbolTableRecord
100
AcDbLinetypeTableRecord
  2
BYBLOCK
 70
     0
  3

 72
    65
 73
     0
 40
0.0
  0
LTYPE
  5
15
330
5
100
AcDbSymbolTableRecord
100
AcDbLinetypeTableRecord
  2
BYLAYER
 70
     0
  3

 72
    65
 73
     0
 40
0.0
  0
LTYPE
  5
16
330
5
100
AcDbSymbolTableRecord
100
AcDbLinetypeTableRecord
  2
CONTINUOUS
 70
     0
  3
Solid line
 72
    65
 73
     0
 40
0.0
  0
ENDTAB
  0
TABLE
  2
LAYER
  5
2
100
AcDbSymbolTable
 70
2
  0
LAYER
  5
50
100
AcDbSymbolTableRecord
100
AcDbLayerTableRecord
  2
0
 70
0
  6
CONTINUOUS
  0
LAYER
  5
51
100
AcDbSymbolTableRecord
100
AcDbLayerTableRecord
  2
Layer_1
 70
0
  6
CONTINUOUS
  0
ENDTAB
  0
TABLE
  2
STYLE
  5
3
330
0
100
AcDbSymbolTable
 70
     1
  0
STYLE
  5
11
330
3
100
AcDbSymbolTableRecord
100
AcDbTextStyleTableRecord
  2
STANDARD
 70
     0
 40
0.0
 41
1.0
 50
0.0
 71
     0
 42
2.5
  3
txt
  4

  0
ENDTAB
  0
TABLE
  2
VIEW
  5
6
330
0
100
AcDbSymbolTable
 70
     0
  0
ENDTAB
  0
TABLE
  2
UCS
  5
7
330
0
100
AcDbSymbolTable
 70
     0
  0
ENDTAB
  0
TABLE
  2
APPID
  5
9
330
0
100
AcDbSymbolTable
 70
     2
  0
APPID
  5
12
330
9
100
AcDbSymbolTableRecord
100
AcDbRegAppTableRecord
  2
ACAD
 70
     0
  0
ENDTAB
  0
TABLE
  2
DIMSTYLE
  5
A
330
0
100
AcDbSymbolTable
 70
     1
  0
DIMSTYLE
105
27
330
A
100
AcDbSymbolTableRecord
100
AcDbDimStyleTableRecord
  2
ISO-25
 70
     0
  3

  4

  5

  6

  7

 40
1.0
 41
2.5
 42
0.625
 43
3.75
 44
1.25
 45
0.0
 46
0.0
 47
0.0
 48
0.0
140
2.5
141
2.5
142
0.0
143
0.03937007874016
144
1.0
145
0.0
146
1.0
147
0.625
 71
     0
 72
     0
 73
     0
 74
     0
 75
     0
 76
     0
 77
     1
 78
     8
170
     0
171
     3
172
     1
173
     0
174
     0
175
     0
176
     0
177
     0
178
     0
270
     2
271
     2
272
     2
273
     2
274
     3
340
11
275
     0
280
     0
281
     0
282
     0
283
     0
284
     8
285
     0
286
     0
287
     3
288
     0
  0
ENDTAB
  0
TABLE
  2
BLOCK_RECORD
  5
1
330
0
100
AcDbSymbolTable
 70
     1
  0
BLOCK_RECORD
  5
1F
330
1
100
AcDbSymbolTableRecord
100
AcDbBlockTableRecord
  2
*MODEL_SPACE
  0
BLOCK_RECORD
  5
1B
330
1
100
AcDbSymbolTableRecord
100
AcDbBlockTableRecord
  2
*PAPER_SPACE
  0
ENDTAB
  0
ENDSEC
  0
SECTION
  2
BLOCKS
  0
BLOCK
  5
20
330
1F
100
AcDbEntity
  8
0
100
AcDbBlockBegin
  2
*MODEL_SPACE
 70
     0
 10
0.0
 20
0.0
 30
0.0
  3
*MODEL_SPACE
  1

  0
ENDBLK
  5
21
330
1F
100
AcDbEntity
  8
0
100
AcDbBlockEnd
  0
BLOCK
  5
1C
330
1B
100
AcDbEntity
 67
     1
  8
0
100
AcDbBlockBegin
  2
*PAPER_SPACE
  1

  0
ENDBLK
  5
1D
330
1B
100
AcDbEntity
 67
     1
  8
0
100
AcDbBlockEnd
  0
ENDSEC
  0
SECTION
  2
ENTITIES
  0
SPLINE
  5
100
100
AcDbEntity
  8
Layer_1
 62
7
100
AcDbSpline
 70
8
 71
3
 72
8
 73
4
 74
0
 40
0
 40
0
 40
0
 40
0
 40
1
 40
1
 40
1
 40
1
 10
204.552245
 20
424.286252
 30
0.0
 10
204.033642
 20
419.996267
 30
0.0
 10
203.193560
 20
415.649424
 30
0.0
 10
201.999020
 20
411.473267
 30
0.0
  0
SPLINE
  5
101
100
AcDbEntity
  8
Layer_1
 62
7
100
AcDbSpline
 70
8
 71
3
 72
8
 73
4
 74
0
 40
0
 40
0
 40
0
 40
0
 40
1
 40
1
 40
1
 40
1
 10
201.999020
 20
411.473267
 30
0.0
 10
198.500705
 20
399.242957
 30
0.0
 10
197.365093
 20
397.915839
 30
0.0
 10
178.006348
 20
383.458127
 30
0.0
  0
SPLINE
  5
102
100
AcDbEntity
  8
Layer_1
 62
7
100
AcDbSpline
 70
8
 71
3
 72
8
 73
4
 74
0
 40
0
 40
0
 40
0
 40
0
 40
1
 40
1
 40
1
 40
1
 10
178.006348
 20
383.458127
 30
0.0
 10
162.812480
 20
372.110815
 30
0.0
 10
138.543568
 20
348.704770
 30
0.0
 10
129.653316
 20
336.824830
 30
0.0
  0
SPLINE
  5
103
100
AcDbEntity
  8
Layer_1
 62
7
100
AcDbSpline
 70
8
 71
3
 72
8
 73
4
 74
0
 40
0
 40
0
 40
0
 40
0
 40
1
 40
1
 40
1
 40
1
 10
129.653316
 20
336.824830
 30
0.0
 10
123.632886
 20
328.779768
 30
0.0
 10
124.560291
 20
319.627915
 30
0.0
 10
132.528808
 20
308.439086
 30
0.0
  0
SPLINE
  5
104
100
AcDbEntity
  8
Layer_1
 62
7
100
AcDbSpline
 70
8
 71
3
 72
8
 73
4
 74
0
 40
0
 40
0
 40
0
 40
0
 40
1
 40
1
 40
1
 40
1
 10
132.528808
 20
308.439086
 30
0.0
 10
135.739783
 20
303.930498
 30
0.0
 10
143.408016
 20
293.111103
 30
0.0
 10
149.569333
 20
284.396606
 30
0.0
  0
SPLINE
  5
105
100
AcDbEntity
  8
Layer_1
 62
7
100
AcDbSpline
 70
8
 71
3
 72
8
 73
4
 74
0
 40
0
 40
0
 40
0
 40
0
 40
1
 40
1
 40
1
 40
1
 10
149.569333
 20
284.396606
 30
0.0
 10
155.730643
 20
275.682056
 30
0.0
 10
165.423958
 20
262.032761
 30
0.0
 10
171.111328
 20
254.064086
 30
0.0
  0
SPLINE
  5
106
100
AcDbEntity
  8
Layer_1
 62
7
100
AcDbSpline
 70
8
 71
3
 72
8
 73
4
 74
0
 40
0
 40
0
 40
0
 40
0
 40
1
 40
1
 40
1
 40
1
 10
171.111328
 20
254.064086
 30
0.0
 10
176.798690
 20
246.095471
 30
0.0
 10
183.778880
 20
235.699781
 30
0.0
 10
186.622558
 20
230.962039
 30
0.0
  0
SPLINE
  5
107
100
AcDbEntity
  8
Layer_1
 62
7
100
AcDbSpline
 70
8
 71
3
 72
8
 73
4
 74
0
 40
0
 40
0
 40
0
 40
0
 40
1
 40
1
 40
1
 40
1
 10
187.770995
 20
209.887332
 30
0.0
 10
183.352340
 20
196.198714
 30
0.0
 10
174.465163
 20
184.463502
 30
0.0
 10
163.069333
 20
177.269652
 30
0.0
  0
SPLINE
  5
108
100
AcDbEntity
  8
Layer_1
 62
7
100
AcDbSpline
 70
8
 71
3
 72
8
 73
4
 74
0
 40
0
 40
0
 40
0
 40
0
 40
1
 40
1
 40
1
 40
1
 10
163.069333
 20
177.269652
 30
0.0
 10
150.653601
 20
169.431920
 30
0.0
 10
156.262176
 20
162.848757
 30
0.0
 10
173.358395
 20
165.192020
 30
0.0
  0
SPLINE
  5
109
100
AcDbEntity
  8
Layer_1
 62
7
100
AcDbSpline
 70
8
 71
3
 72
8
 73
4
 74
0
 40
0
 40
0
 40
0
 40
0
 40
1
 40
1
 40
1
 40
1
 10
173.358395
 20
165.192020
 30
0.0
 10
180.598115
 20
166.184345
 30
0.0
 10
188.800415
 20
169.410095
 30
0.0
 10
218.254392
 20
182.855105
 30
0.0
  0
SPLINE
  5
10a
100
AcDbEntity
  8
Layer_1
 62
7
100
AcDbSpline
 70
8
 71
3
 72
8
 73
4
 74
0
 40
0
 40
0
 40
0
 40
0
 40
1
 40
1
 40
1
 40
1
 10
218.254392
 20
182.855105
 30
0.0
 10
229.703577
 20
188.081457
 30
0.0
 10
239.188407
 20
195.500749
 30
0.0
 10
239.188474
 20
199.229127
 30
0.0
  0
SPLINE
  5
10b
100
AcDbEntity
  8
Layer_1
 62
7
100
AcDbSpline
 70
8
 71
3
 72
8
 73
4
 74
0
 40
0
 40
0
 40
0
 40
0
 40
1
 40
1
 40
1
 40
1
 10
239.188474
 20
199.229127
 30
0.0
 10
239.188542
 20
203.705659
 30
0.0
 10
225.423755
 20
223.119739
 30
0.0
 10
222.241700
 20
223.133914
 30
0.0
  0
SPLINE
  5
10c
100
AcDbEntity
  8
Layer_1
 62
7
100
AcDbSpline
 70
8
 71
3
 72
8
 73
4
 74
0
 40
0
 40
0
 40
0
 40
0
 40
1
 40
1
 40
1
 40
1
 10
222.241700
 20
223.133914
 30
0.0
 10
220.661315
 20
223.139922
 30
0.0
 10
217.854080
 20
225.659352
 30
0.0
 10
216.002930
 20
228.734007
 30
0.0
  0
SPLINE
  5
10d
100
AcDbEntity
  8
Layer_1
 62
7
100
AcDbSpline
 70
8
 71
3
 72
8
 73
4
 74
0
 40
0
 40
0
 40
0
 40
0
 40
1
 40
1
 40
1
 40
1
 10
216.002930
 20
228.734007
 30
0.0
 10
205.962387
 20
245.410856
 30
0.0
 10
197.244320
 20
262.992596
 30
0.0
 10
194.053708
 20
273.001586
 30
0.0
  0
SPLINE
  5
10e
100
AcDbEntity
  8
Layer_1
 62
7
100
AcDbSpline
 70
8
 71
3
 72
8
 73
4
 74
0
 40
0
 40
0
 40
0
 40
0
 40
1
 40
1
 40
1
 40
1
 10
194.053708
 20
273.001586
 30
0.0
 10
189.512608
 20
287.247011
 30
0.0
 10
185.428663
 20
295.451711
 30
0.0
 10
176.537105
 20
308.188601
 30
0.0
  0
LWPOLYLINE
  5
10f
100
AcDbEntity
  8
Layer_1
 62
7
100
AcDbPolyline
 90
3
 70
0
 10
186.622558
 20
230.962039
 30
0.0
 10
191.793455
 20
222.347292
 30
0.0
 10
187.770995
 20
209.887332
 30
0.0
  0
SPLINE
  5
110
100
AcDbEntity
  8
Layer_1
 62
7
100
AcDbSpline
 70
8
 71
3
 72
8
 73
4
 74
0
 40
0
 40
0
 40
0
 40
0
 40
1
 40
1
 40
1
 40
1
 10
174.829100
 20
323.056765
 30
0.0
 10
177.908720
 20
325.808380
 30
0.0
 10
187.008583
 20
330.123655
 30
0.0
 10
196.322750
 20
333.250608
 30
0.0
  0
SPLINE
  5
111
100
AcDbEntity
  8
Layer_1
 62
7
100
AcDbSpline
 70
8
 71
3
 72
8
 73
4
 74
0
 40
0
 40
0
 40
0
 40
0
 40
1
 40
1
 40
1
 40
1
 10
196.322750
 20
333.250608
 30
0.0
 10
205.206432
 20
336.233080
 30
0.0
 10
217.127052
 20
340.980895
 30
0.0
 10
222.814452
 20
343.801878
 30
0.0
  0
LWPOLYLINE
  5
112
100
AcDbEntity
  8
Layer_1
 62
7
100
AcDbPolyline
 90
3
 70
0
 10
176.537105
 20
308.188601
 30
0.0
 10
169.489745
 20
318.284305
 30
0.0
 10
174.829100
 20
323.056765
 30
0.0
  0
SPLINE
  5
113
100
AcDbEntity
  8
Layer_1
 62
7
100
AcDbSpline
 70
8
 71
3
 72
8
 73
4
 74
0
 40
0
 40
0
 40
0
 40
0
 40
1
 40
1
 40
1
 40
1
 10
238.965814
 20
342.470335
 30
0.0
 10
242.161159
 20
338.916340
 30
0.0
 10
251.582359
 20
327.476283
 30
0.0
 10
259.902829
 20
317.049438
 30
0.0
  0
SPLINE
  5
114
100
AcDbEntity
  8
Layer_1
 62
7
100
AcDbSpline
 70
8
 71
3
 72
8
 73
4
 74
0
 40
0
 40
0
 40
0
 40
0
 40
1
 40
1
 40
1
 40
1
 10
259.902829
 20
317.049438
 30
0.0
 10
268.223239
 20
306.622593
 30
0.0
 10
279.399604
 20
294.342926
 30
0.0
 10
284.737789
 20
289.760861
 30
0.0
  0
SPLINE
  5
115
100
AcDbEntity
  8
Layer_1
 62
7
100
AcDbSpline
 70
8
 71
3
 72
8
 73
4
 74
0
 40
0
 40
0
 40
0
 40
0
 40
1
 40
1
 40
1
 40
1
 10
284.737789
 20
289.760861
 30
0.0
 10
290.076049
 20
285.178856
 30
0.0
 10
297.415241
 20
277.423856
 30
0.0
 10
301.047356
 20
272.526978
 30
0.0
  0
SPLINE
  5
116
100
AcDbEntity
  8
Layer_1
 62
7
100
AcDbSpline
 70
8
 71
3
 72
8
 73
4
 74
0
 40
0
 40
0
 40
0
 40
0
 40
1
 40
1
 40
1
 40
1
 10
301.047356
 20
272.526978
 30
0.0
 10
305.729741
 20
266.214191
 30
0.0
 10
311.674699
 20
261.240979
 30
0.0
 10
321.478998
 20
255.436646
 30
0.0
  0
SPLINE
  5
117
100
AcDbEntity
  8
Layer_1
 62
7
100
AcDbSpline
 70
8
 71
3
 72
8
 73
4
 74
0
 40
0
 40
0
 40
0
 40
0
 40
1
 40
1
 40
1
 40
1
 10
321.478998
 20
255.436646
 30
0.0
 10
329.084328
 20
250.934126
 30
0.0
 10
335.977571
 20
247.237444
 30
0.0
 10
336.796871
 20
247.223269
 30
0.0
  0
SPLINE
  5
118
100
AcDbEntity
  8
Layer_1
 62
7
100
AcDbSpline
 70
8
 71
3
 72
8
 73
4
 74
0
 40
0
 40
0
 40
0
 40
0
 40
1
 40
1
 40
1
 40
1
 10
336.796871
 20
247.223269
 30
0.0
 10
337.616193
 20
247.208156
 30
0.0
 10
340.999766
 20
244.765121
 30
0.0
 10
344.317376
 20
241.794559
 30
0.0
  0
SPLINE
  5
119
100
AcDbEntity
  8
Layer_1
 62
7
100
AcDbSpline
 70
8
 71
3
 72
8
 73
4
 74
0
 40
0
 40
0
 40
0
 40
0
 40
1
 40
1
 40
1
 40
1
 10
344.317376
 20
241.794559
 30
0.0
 10
347.634993
 20
238.823936
 30
0.0
 10
360.820630
 20
228.618012
 30
0.0
 10
373.617183
 20
219.114379
 30
0.0
  0
SPLINE
  5
11a
100
AcDbEntity
  8
Layer_1
 62
7
100
AcDbSpline
 70
8
 71
3
 72
8
 73
4
 74
0
 40
0
 40
0
 40
0
 40
0
 40
1
 40
1
 40
1
 40
1
 10
373.617183
 20
219.114379
 30
0.0
 10
410.615972
 20
191.636434
 30
0.0
 10
415.019297
 20
187.596365
 30
0.0
 10
413.964835
 20
182.108037
 30
0.0
  0
SPLINE
  5
11b
100
AcDbEntity
  8
Layer_1
 62
7
100
AcDbSpline
 70
8
 71
3
 72
8
 73
4
 74
0
 40
0
 40
0
 40
0
 40
0
 40
1
 40
1
 40
1
 40
1
 10
413.964835
 20
182.108037
 30
0.0
 10
413.234012
 20
178.303572
 30
0.0
 10
414.046165
 20
176.820282
 30
0.0
 10
418.397455
 20
174.004520
 30
0.0
  0
SPLINE
  5
11c
100
AcDbEntity
  8
Layer_1
 62
7
100
AcDbSpline
 70
8
 71
3
 72
8
 73
4
 74
0
 40
0
 40
0
 40
0
 40
0
 40
1
 40
1
 40
1
 40
1
 10
418.397455
 20
174.004520
 30
0.0
 10
426.197462
 20
168.957035
 30
0.0
 10
442.226334
 20
149.277035
 30
0.0
 10
443.550287
 20
143.122685
 30
0.0
  0
SPLINE
  5
11d
100
AcDbEntity
  8
Layer_1
 62
7
100
AcDbSpline
 70
8
 71
3
 72
8
 73
4
 74
0
 40
0
 40
0
 40
0
 40
0
 40
1
 40
1
 40
1
 40
1
 10
443.550287
 20
143.122685
 30
0.0
 10
444.178584
 20
140.201893
 30
0.0
 10
445.782249
 20
135.679070
 30
0.0
 10
447.114249
 20
133.072393
 30
0.0
  0
SPLINE
  5
11e
100
AcDbEntity
  8
Layer_1
 62
7
100
AcDbSpline
 70
8
 71
3
 72
8
 73
4
 74
0
 40
0
 40
0
 40
0
 40
0
 40
1
 40
1
 40
1
 40
1
 10
447.114249
 20
133.072393
 30
0.0
 10
449.997909
 20
127.429288
 30
0.0
 10
451.745807
 20
127.184983
 30
0.0
 10
456.341304
 20
131.780398
 30
0.0
  0
SPLINE
  5
11f
100
AcDbEntity
  8
Layer_1
 62
7
100
AcDbSpline
 70
8
 71
3
 72
8
 73
4
 74
0
 40
0
 40
0
 40
0
 40
0
 40
1
 40
1
 40
1
 40
1
 10
456.341304
 20
131.780398
 30
0.0
 10
458.819604
 20
134.258698
 30
0.0
 10
459.860222
 20
137.769973
 30
0.0
 10
460.045892
 20
144.275518
 30
0.0
  0
SPLINE
  5
120
100
AcDbEntity
  8
Layer_1
 62
7
100
AcDbSpline
 70
8
 71
3
 72
8
 73
4
 74
0
 40
0
 40
0
 40
0
 40
0
 40
1
 40
1
 40
1
 40
1
 10
460.045892
 20
144.275518
 30
0.0
 10
460.489629
 20
159.829190
 30
0.0
 10
460.193379
 20
163.326072
 30
0.0
 10
457.379874
 20
175.728642
 30
0.0
  0
SPLINE
  5
121
100
AcDbEntity
  8
Layer_1
 62
7
100
AcDbSpline
 70
8
 71
3
 72
8
 73
4
 74
0
 40
0
 40
0
 40
0
 40
0
 40
1
 40
1
 40
1
 40
1
 10
457.379874
 20
175.728642
 30
0.0
 10
455.874707
 20
182.363840
 30
0.0
 10
454.205514
 20
192.165019
 30
0.0
 10
453.669429
 20
197.509399
 30
0.0
  0
SPLINE
  5
122
100
AcDbEntity
  8
Layer_1
 62
7
100
AcDbSpline
 70
8
 71
3
 72
8
 73
4
 74
0
 40
0
 40
0
 40
0
 40
0
 40
1
 40
1
 40
1
 40
1
 10
453.669429
 20
197.509399
 30
0.0
 10
452.237364
 20
211.789947
 30
0.0
 10
451.214004
 20
212.564779
 30
0.0
 10
433.075187
 20
213.104127
 30
0.0
  0
LWPOLYLINE
  5
123
100
AcDbEntity
  8
Layer_1
 62
7
100
AcDbPolyline
 90
3
 70
0
 10
222.814452
 20
343.801878
 30
0.0
 10
233.156247
 20
348.931765
 30
0.0
 10
238.965814
 20
342.470335
 30
0.0
  0
SPLINE
  5
124
100
AcDbEntity
  8
Layer_1
 62
7
100
AcDbSpline
 70
8
 71
3
 72
8
 73
4
 74
0
 40
0
 40
0
 40
0
 40
0
 40
1
 40
1
 40
1
 40
1
 10
399.461417
 20
231.700316
 30
0.0
 10
389.504898
 20
241.674701
 30
0.0
 10
380.086705
 20
252.276446
 30
0.0
 10
378.531730
 20
255.259399
 30
0.0
  0
SPLINE
  5
125
100
AcDbEntity
  8
Layer_1
 62
7
100
AcDbSpline
 70
8
 71
3
 72
8
 73
4
 74
0
 40
0
 40
0
 40
0
 40
0
 40
1
 40
1
 40
1
 40
1
 10
378.531730
 20
255.259399
 30
0.0
 10
376.976763
 20
258.242381
 30
0.0
 10
370.569490
 20
264.446336
 30
0.0
 10
364.294915
 20
269.046506
 30
0.0
  0
SPLINE
  5
126
100
AcDbEntity
  8
Layer_1
 62
7
100
AcDbSpline
 70
8
 71
3
 72
8
 73
4
 74
0
 40
0
 40
0
 40
0
 40
0
 40
1
 40
1
 40
1
 40
1
 10
364.294915
 20
269.046506
 30
0.0
 10
358.020318
 20
273.646683
 30
0.0
 10
347.931543
 20
281.064753
 30
0.0
 10
341.874018
 20
285.530396
 30
0.0
  0
SPLINE
  5
127
100
AcDbEntity
  8
Layer_1
 62
7
100
AcDbSpline
 70
8
 71
3
 72
8
 73
4
 74
0
 40
0
 40
0
 40
0
 40
0
 40
1
 40
1
 40
1
 40
1
 10
341.874018
 20
285.530396
 30
0.0
 10
334.072053
 20
291.282033
 30
0.0
 10
329.209278
 20
296.559648
 30
0.0
 10
325.199703
 20
303.627078
 30
0.0
  0
SPLINE
  5
128
100
AcDbEntity
  8
Layer_1
 62
7
100
AcDbSpline
 70
8
 71
3
 72
8
 73
4
 74
0
 40
0
 40
0
 40
0
 40
0
 40
1
 40
1
 40
1
 40
1
 10
325.199703
 20
303.627078
 30
0.0
 10
322.086551
 20
309.114295
 30
0.0
 10
315.226691
 20
320.028438
 30
0.0
 10
309.955076
 20
327.880495
 30
0.0
  0
SPLINE
  5
129
100
AcDbEntity
  8
Layer_1
 62
7
100
AcDbSpline
 70
8
 71
3
 72
8
 73
4
 74
0
 40
0
 40
0
 40
0
 40
0
 40
1
 40
1
 40
1
 40
1
 10
309.955076
 20
327.880495
 30
0.0
 10
291.692981
 20
355.082005
 30
0.0
 10
290.976784
 20
356.765297
 30
0.0
 10
290.931146
 20
372.596312
 30
0.0
  0
SPLINE
  5
12a
100
AcDbEntity
  8
Layer_1
 62
7
100
AcDbSpline
 70
8
 71
3
 72
8
 73
4
 74
0
 40
0
 40
0
 40
0
 40
0
 40
1
 40
1
 40
1
 40
1
 10
290.931146
 20
372.596312
 30
0.0
 10
290.886476
 20
388.337102
 30
0.0
 10
288.011119
 20
397.794392
 30
0.0
 10
280.308101
 20
407.531372
 30
0.0
  0
SPLINE
  5
12b
100
AcDbEntity
  8
Layer_1
 62
7
100
AcDbSpline
 70
8
 71
3
 72
8
 73
4
 74
0
 40
0
 40
0
 40
0
 40
0
 40
1
 40
1
 40
1
 40
1
 10
280.308101
 20
407.531372
 30
0.0
 10
277.683432
 20
410.848982
 30
0.0
 10
274.293462
 20
416.549949
 30
0.0
 10
272.775874
 20
420.200807
 30
0.0
  0
SPLINE
  5
12c
100
AcDbEntity
  8
Layer_1
 62
7
100
AcDbSpline
 70
8
 71
3
 72
8
 73
4
 74
0
 40
0
 40
0
 40
0
 40
0
 40
1
 40
1
 40
1
 40
1
 10
272.775874
 20
420.200807
 30
0.0
 10
272.345397
 20
421.236437
 30
0.0
 10
271.932664
 20
422.649459
 30
0.0
 10
271.541014
 20
424.286252
 30
0.0
  0
LWPOLYLINE
  5
12d
100
AcDbEntity
  8
Layer_1
 62
7
100
AcDbPolyline
 90
3
 70
0
 10
433.075187
 20
213.104127
 30
0.0
 10
417.563957
 20
213.565557
 30
0.0
 10
399.461417
 20
231.700316
 30
0.0
  0
SPLINE
  5
12e
100
AcDbEntity
  8
Layer_1
 62
7
100
AcDbSpline
 70
8
 71
3
 72
8
 73
4
 74
0
 40
0
 40
0
 40
0
 40
0
 40
1
 40
1
 40
1
 40
1
 10
216.828717
 20
726.276042
 30
0.0
 10
208.775857
 20
726.128016
 30
0.0
 10
193.354591
 20
722.250686
 30
0.0
 10
193.354591
 20
719.654941
 30
0.0
  0
SPLINE
  5
12f
100
AcDbEntity
  8
Layer_1
 62
7
100
AcDbSpline
 70
8
 71
3
 72
8
 73
4
 74
0
 40
0
 40
0
 40
0
 40
0
 40
1
 40
1
 40
1
 40
1
 10
193.354591
 20
719.654941
 30
0.0
 10
193.354591
 20
718.414982
 30
0.0
 10
192.384689
 20
717.049037
 30
0.0
 10
191.199835
 20
716.619790
 30
0.0
  0
SPLINE
  5
130
100
AcDbEntity
  8
Layer_1
 62
7
100
AcDbSpline
 70
8
 71
3
 72
8
 73
4
 74
0
 40
0
 40
0
 40
0
 40
0
 40
1
 40
1
 40
1
 40
1
 10
191.199835
 20
716.619790
 30
0.0
 10
189.500579
 20
716.004417
 30
0.0
 10
189.533999
 20
715.016441
 30
0.0
 10
191.356591
 20
711.941080
 30
0.0
  0
SPLINE
  5
131
100
AcDbEntity
  8
Layer_1
 62
7
100
AcDbSpline
 70
8
 71
3
 72
8
 73
4
 74
0
 40
0
 40
0
 40
0
 40
0
 40
1
 40
1
 40
1
 40
1
 10
191.356591
 20
711.941080
 30
0.0
 10
193.389968
 20
708.509852
 30
0.0
 10
193.211271
 20
707.426935
 30
0.0
 10
189.874157
 20
702.913249
 30
0.0
  0
SPLINE
  5
132
100
AcDbEntity
  8
Layer_1
 62
7
100
AcDbSpline
 70
8
 71
3
 72
8
 73
4
 74
0
 40
0
 40
0
 40
0
 40
0
 40
1
 40
1
 40
1
 40
1
 10
189.874157
 20
702.913249
 30
0.0
 10
187.788481
 20
700.092266
 30
0.0
 10
185.720238
 20
694.571587
 30
0.0
 10
185.277495
 20
690.645192
 30
0.0
  0
SPLINE
  5
133
100
AcDbEntity
  8
Layer_1
 62
7
100
AcDbSpline
 70
8
 71
3
 72
8
 73
4
 74
0
 40
0
 40
0
 40
0
 40
0
 40
1
 40
1
 40
1
 40
1
 10
185.277495
 20
690.645192
 30
0.0
 10
184.834752
 20
686.718811
 30
0.0
 10
183.639835
 20
681.787123
 30
0.0
 10
182.621716
 20
679.686678
 30
0.0
  0
SPLINE
  5
134
100
AcDbEntity
  8
Layer_1
 62
7
100
AcDbSpline
 70
8
 71
3
 72
8
 73
4
 74
0
 40
0
 40
0
 40
0
 40
0
 40
1
 40
1
 40
1
 40
1
 10
182.621716
 20
679.686678
 30
0.0
 10
181.325064
 20
677.010801
 30
0.0
 10
181.314349
 20
675.205075
 30
0.0
 10
182.585149
 20
673.654467
 30
0.0
  0
SPLINE
  5
135
100
AcDbEntity
  8
Layer_1
 62
7
100
AcDbSpline
 70
8
 71
3
 72
8
 73
4
 74
0
 40
0
 40
0
 40
0
 40
0
 40
1
 40
1
 40
1
 40
1
 10
182.585149
 20
673.654467
 30
0.0
 10
183.582660
 20
672.437299
 30
0.0
 10
184.789001
 20
667.220275
 30
0.0
 10
185.265816
 20
662.060228
 30
0.0
  0
SPLINE
  5
136
100
AcDbEntity
  8
Layer_1
 62
7
100
AcDbSpline
 70
8
 71
3
 72
8
 73
4
 74
0
 40
0
 40
0
 40
0
 40
0
 40
1
 40
1
 40
1
 40
1
 10
185.265816
 20
662.060228
 30
0.0
 10
186.213467
 20
651.805104
 30
0.0
 10
189.193558
 20
648.184541
 30
0.0
 10
196.700380
 20
648.164727
 30
0.0
  0
SPLINE
  5
137
100
AcDbEntity
  8
Layer_1
 62
7
100
AcDbSpline
 70
8
 71
3
 72
8
 73
4
 74
0
 40
0
 40
0
 40
0
 40
0
 40
1
 40
1
 40
1
 40
1
 10
196.700380
 20
648.164727
 30
0.0
 10
199.815117
 20
648.156223
 30
0.0
 10
201.995527
 20
646.597310
 30
0.0
 10
204.125678
 20
642.854642
 30
0.0
  0
SPLINE
  5
138
100
AcDbEntity
  8
Layer_1
 62
7
100
AcDbSpline
 70
8
 71
3
 72
8
 73
4
 74
0
 40
0
 40
0
 40
0
 40
0
 40
1
 40
1
 40
1
 40
1
 10
204.125678
 20
642.854642
 30
0.0
 10
208.838531
 20
634.574245
 30
0.0
 10
208.035618
 20
628.508302
 30
0.0
 10
201.541700
 20
623.354661
 30
0.0
  0
SPLINE
  5
139
100
AcDbEntity
  8
Layer_1
 62
7
100
AcDbSpline
 70
8
 71
3
 72
8
 73
4
 74
0
 40
0
 40
0
 40
0
 40
0
 40
1
 40
1
 40
1
 40
1
 10
201.541700
 20
623.354661
 30
0.0
 10
191.936191
 20
615.731647
 30
0.0
 10
190.862484
 20
613.939640
 30
0.0
 10
188.769722
 20
602.029451
 30
0.0
  0
SPLINE
  5
13a
100
AcDbEntity
  8
Layer_1
 62
7
100
AcDbSpline
 70
8
 71
3
 72
8
 73
4
 74
0
 40
0
 40
0
 40
0
 40
0
 40
1
 40
1
 40
1
 40
1
 10
188.769722
 20
602.029451
 30
0.0
 10
185.816843
 20
585.224169
 30
0.0
 10
186.091520
 20
574.186768
 30
0.0
 10
189.658894
 20
566.310677
 30
0.0
  0
SPLINE
  5
13b
100
AcDbEntity
  8
Layer_1
 62
7
100
AcDbSpline
 70
8
 71
3
 72
8
 73
4
 74
0
 40
0
 40
0
 40
0
 40
0
 40
1
 40
1
 40
1
 40
1
 10
189.658894
 20
566.310677
 30
0.0
 10
191.376235
 20
562.519054
 30
0.0
 10
193.317514
 20
557.266706
 30
0.0
 10
193.972856
 20
554.637345
 30
0.0
  0
LWPOLYLINE
  5
13c
100
AcDbEntity
  8
Layer_1
 62
7
100
AcDbPolyline
 90
3
 70
0
 10
271.541014
 20
424.286252
 30
0.0
 10
204.552245
 20
424.286252
 30
0.0
 10
204.552245
 20
424.286252
 30
0.0
  0
SPLINE
  5
13d
100
AcDbEntity
  8
Layer_1
 62
7
100
AcDbSpline
 70
8
 71
3
 72
8
 73
4
 74
0
 40
0
 40
0
 40
0
 40
0
 40
1
 40
1
 40
1
 40
1
 10
188.878119
 20
552.482561
 30
0.0
 10
185.421013
 20
553.927096
 30
0.0
 10
182.300295
 20
555.109058
 30
0.0
 10
181.942109
 20
555.109058
 30
0.0
  0
SPLINE
  5
13e
100
AcDbEntity
  8
Layer_1
 62
7
100
AcDbSpline
 70
8
 71
3
 72
8
 73
4
 74
0
 40
0
 40
0
 40
0
 40
0
 40
1
 40
1
 40
1
 40
1
 10
181.942109
 20
555.109058
 30
0.0
 10
181.583895
 20
555.109058
 30
0.0
 10
181.290254
 20
557.896961
 30
0.0
 10
181.290254
 20
561.305316
 30
0.0
  0
SPLINE
  5
13f
100
AcDbEntity
  8
Layer_1
 62
7
100
AcDbSpline
 70
8
 71
3
 72
8
 73
4
 74
0
 40
0
 40
0
 40
0
 40
0
 40
1
 40
1
 40
1
 40
1
 10
181.290254
 20
561.305316
 30
0.0
 10
181.290254
 20
569.478506
 30
0.0
 10
171.841048
 20
586.131483
 30
0.0
 10
167.202831
 20
586.131483
 30
0.0
  0
SPLINE
  5
140
100
AcDbEntity
  8
Layer_1
 62
7
100
AcDbSpline
 70
8
 71
3
 72
8
 73
4
 74
0
 40
0
 40
0
 40
0
 40
0
 40
1
 40
1
 40
1
 40
1
 10
167.202831
 20
586.131483
 30
0.0
 10
165.041215
 20
586.131483
 30
0.0
 10
165.502894
 20
580.202566
 30
0.0
 10
167.847372
 20
577.858059
 30
0.0
  0
SPLINE
  5
141
100
AcDbEntity
  8
Layer_1
 62
7
100
AcDbSpline
 70
8
 71
3
 72
8
 73
4
 74
0
 40
0
 40
0
 40
0
 40
0
 40
1
 40
1
 40
1
 40
1
 10
167.847372
 20
577.858059
 30
0.0
 10
169.455920
 20
576.249823
 30
0.0
 10
168.717835
 20
575.789703
 30
0.0
 10
164.526557
 20
575.789703
 30
0.0
  0
SPLINE
  5
142
100
AcDbEntity
  8
Layer_1
 62
7
100
AcDbSpline
 70
8
 71
3
 72
8
 73
4
 74
0
 40
0
 40
0
 40
0
 40
0
 40
1
 40
1
 40
1
 40
1
 10
164.526557
 20
575.789703
 30
0.0
 10
160.202843
 20
575.789703
 30
0.0
 10
158.602969
 20
574.716081
 30
0.0
 10
156.427464
 20
570.355121
 30
0.0
  0
SPLINE
  5
143
100
AcDbEntity
  8
Layer_1
 62
7
100
AcDbSpline
 70
8
 71
3
 72
8
 73
4
 74
0
 40
0
 40
0
 40
0
 40
0
 40
1
 40
1
 40
1
 40
1
 10
156.427464
 20
570.355121
 30
0.0
 10
153.061974
 20
563.608834
 30
0.0
 10
152.880897
 20
551.052964
 30
0.0
 10
156.111032
 20
548.372211
 30
0.0
  0
SPLINE
  5
144
100
AcDbEntity
  8
Layer_1
 62
7
100
AcDbSpline
 70
8
 71
3
 72
8
 73
4
 74
0
 40
0
 40
0
 40
0
 40
0
 40
1
 40
1
 40
1
 40
1
 10
156.111032
 20
548.372211
 30
0.0
 10
157.428717
 20
547.278605
 30
0.0
 10
163.051605
 20
544.580929
 30
0.0
 10
168.606150
 20
542.376624
 30
0.0
  0
SPLINE
  5
145
100
AcDbEntity
  8
Layer_1
 62
7
100
AcDbSpline
 70
8
 71
3
 72
8
 73
4
 74
0
 40
0
 40
0
 40
0
 40
0
 40
1
 40
1
 40
1
 40
1
 10
168.606150
 20
542.376624
 30
0.0
 10
174.160723
 20
540.172290
 30
0.0
 10
182.970377
 20
535.518057
 30
0.0
 10
188.183801
 20
532.034816
 30
0.0
  0
SPLINE
  5
146
100
AcDbEntity
  8
Layer_1
 62
7
100
AcDbSpline
 70
8
 71
3
 72
8
 73
4
 74
0
 40
0
 40
0
 40
0
 40
0
 40
1
 40
1
 40
1
 40
1
 10
188.183801
 20
532.034816
 30
0.0
 10
193.397224
 20
528.551518
 30
0.0
 10
199.372997
 20
525.262791
 30
0.0
 10
201.462613
 20
524.726731
 30
0.0
  0
SPLINE
  5
147
100
AcDbEntity
  8
Layer_1
 62
7
100
AcDbSpline
 70
8
 71
3
 72
8
 73
4
 74
0
 40
0
 40
0
 40
0
 40
0
 40
1
 40
1
 40
1
 40
1
 10
201.462613
 20
524.726731
 30
0.0
 10
207.849694
 20
523.088249
 30
0.0
 10
210.698853
 20
507.406479
 30
0.0
 10
208.698925
 20
490.862438
 30
0.0
  0
LWPOLYLINE
  5
148
100
AcDbEntity
  8
Layer_1
 62
7
100
AcDbPolyline
 90
3
 70
0
 10
193.972856
 20
554.637345
 30
0.0
 10
195.163775
 20
549.856091
 30
0.0
 10
188.878119
 20
552.482561
 30
0.0
  0
SPLINE
  5
149
100
AcDbEntity
  8
Layer_1
 62
7
100
AcDbSpline
 70
8
 71
3
 72
8
 73
4
 74
0
 40
0
 40
0
 40
0
 40
0
 40
1
 40
1
 40
1
 40
1
 10
275.687697
 20
490.862438
 30
0.0
 10
273.280572
 20
500.922283
 30
0.0
 10
271.775999
 20
520.437203
 30
0.0
 10
273.286837
 20
526.456687
 30
0.0
  0
SPLINE
  5
14a
100
AcDbEntity
  8
Layer_1
 62
7
100
AcDbSpline
 70
8
 71
3
 72
8
 73
4
 74
0
 40
0
 40
0
 40
0
 40
0
 40
1
 40
1
 40
1
 40
1
 10
273.286837
 20
526.456687
 30
0.0
 10
275.299520
 20
534.476098
 30
0.0
 10
277.248396
 20
531.270283
 30
0.0
 10
276.421586
 20
521.300438
 30
0.0
  0
LWPOLYLINE
  5
14b
100
AcDbEntity
  8
Layer_1
 62
7
100
AcDbPolyline
 90
2
 70
0
 10
208.698925
 20
490.862438
 30
0.0
 10
275.687697
 20
490.862438
 30
0.0
  0
SPLINE
  5
14c
100
AcDbEntity
  8
Layer_1
 62
7
100
AcDbSpline
 70
8
 71
3
 72
8
 73
4
 74
0
 40
0
 40
0
 40
0
 40
0
 40
1
 40
1
 40
1
 40
1
 10
287.333206
 20
512.678353
 30
0.0
 10
293.776129
 20
513.260334
 30
0.0
 10
299.172756
 20
513.932683
 30
0.0
 10
299.324409
 20
514.172494
 30
0.0
  0
SPLINE
  5
14d
100
AcDbEntity
  8
Layer_1
 62
7
100
AcDbSpline
 70
8
 71
3
 72
8
 73
4
 74
0
 40
0
 40
0
 40
0
 40
0
 40
1
 40
1
 40
1
 40
1
 10
299.324409
 20
514.172494
 30
0.0
 10
299.476346
 20
514.412306
 30
0.0
 10
301.288564
 20
517.055017
 30
0.0
 10
303.351250
 20
520.045058
 30
0.0
  0
SPLINE
  5
14e
100
AcDbEntity
  8
Layer_1
 62
7
100
AcDbSpline
 70
8
 71
3
 72
8
 73
4
 74
0
 40
0
 40
0
 40
0
 40
0
 40
1
 40
1
 40
1
 40
1
 10
303.351250
 20
520.045058
 30
0.0
 10
305.414050
 20
523.035014
 30
0.0
 10
307.101260
 20
527.144910
 30
0.0
 10
307.101260
 20
529.178400
 30
0.0
  0
SPLINE
  5
14f
100
AcDbEntity
  8
Layer_1
 62
7
100
AcDbSpline
 70
8
 71
3
 72
8
 73
4
 74
0
 40
0
 40
0
 40
0
 40
0
 40
1
 40
1
 40
1
 40
1
 10
307.101260
 20
529.178400
 30
0.0
 10
307.101260
 20
535.129767
 30
0.0
 10
311.902214
 20
542.808907
 30
0.0
 10
325.376646
 20
558.409351
 30
0.0
  0
SPLINE
  5
150
100
AcDbEntity
  8
Layer_1
 62
7
100
AcDbSpline
 70
8
 71
3
 72
8
 73
4
 74
0
 40
0
 40
0
 40
0
 40
0
 40
1
 40
1
 40
1
 40
1
 10
325.376646
 20
558.409351
 30
0.0
 10
332.327594
 20
566.457029
 30
0.0
 10
340.388107
 20
577.344025
 30
0.0
 10
343.288772
 20
582.602689
 30
0.0
  0
SPLINE
  5
151
100
AcDbEntity
  8
Layer_1
 62
7
100
AcDbSpline
 70
8
 71
3
 72
8
 73
4
 74
0
 40
0
 40
0
 40
0
 40
0
 40
1
 40
1
 40
1
 40
1
 10
343.288772
 20
582.602689
 30
0.0
 10
346.189436
 20
587.861297
 30
0.0
 10
349.479893
 20
593.478771
 30
0.0
 10
350.601250
 20
595.087574
 30
0.0
  0
SPLINE
  5
152
100
AcDbEntity
  8
Layer_1
 62
7
100
AcDbSpline
 70
8
 71
3
 72
8
 73
4
 74
0
 40
0
 40
0
 40
0
 40
0
 40
1
 40
1
 40
1
 40
1
 10
350.601250
 20
595.087574
 30
0.0
 10
354.404183
 20
600.543785
 30
0.0
 10
350.095011
 20
607.082066
 30
0.0
 10
336.361521
 20
616.692535
 30
0.0
  0
SPLINE
  5
153
100
AcDbEntity
  8
Layer_1
 62
7
100
AcDbSpline
 70
8
 71
3
 72
8
 73
4
 74
0
 40
0
 40
0
 40
0
 40
0
 40
1
 40
1
 40
1
 40
1
 10
336.361521
 20
616.692535
 30
0.0
 10
329.273263
 20
621.652711
 30
0.0
 10
318.433436
 20
628.108475
 30
0.0
 10
312.272164
 20
631.039243
 30
0.0
  0
SPLINE
  5
154
100
AcDbEntity
  8
Layer_1
 62
7
100
AcDbSpline
 70
8
 71
3
 72
8
 73
4
 74
0
 40
0
 40
0
 40
0
 40
0
 40
1
 40
1
 40
1
 40
1
 10
312.272164
 20
631.039243
 30
0.0
 10
306.110835
 20
633.969927
 30
0.0
 10
295.641326
 20
638.981637
 30
0.0
 10
289.006044
 20
642.174951
 30
0.0
  0
SPLINE
  5
155
100
AcDbEntity
  8
Layer_1
 62
7
100
AcDbSpline
 70
8
 71
3
 72
8
 73
4
 74
0
 40
0
 40
0
 40
0
 40
0
 40
1
 40
1
 40
1
 40
1
 10
289.006044
 20
642.174951
 30
0.0
 10
282.370771
 20
645.368207
 30
0.0
 10
273.450821
 20
648.427640
 30
0.0
 10
269.185246
 20
648.974755
 30
0.0
  0
SPLINE
  5
156
100
AcDbEntity
  8
Layer_1
 62
7
100
AcDbSpline
 70
8
 71
3
 72
8
 73
4
 74
0
 40
0
 40
0
 40
0
 40
0
 40
1
 40
1
 40
1
 40
1
 10
269.185246
 20
648.974755
 30
0.0
 10
245.117205
 20
652.061526
 30
0.0
 10
236.427854
 20
654.119308
 30
0.0
 10
235.531936
 20
656.942049
 30
0.0
  0
SPLINE
  5
157
100
AcDbEntity
  8
Layer_1
 62
7
100
AcDbSpline
 70
8
 71
3
 72
8
 73
4
 74
0
 40
0
 40
0
 40
0
 40
0
 40
1
 40
1
 40
1
 40
1
 10
235.531936
 20
656.942049
 30
0.0
 10
234.516963
 20
660.139954
 30
0.0
 10
239.956676
 20
670.711822
 30
0.0
 10
246.096377
 20
677.473302
 30
0.0
  0
SPLINE
  5
158
100
AcDbEntity
  8
Layer_1
 62
7
100
AcDbSpline
 70
8
 71
3
 72
8
 73
4
 74
0
 40
0
 40
0
 40
0
 40
0
 40
1
 40
1
 40
1
 40
1
 10
246.096377
 20
677.473302
 30
0.0
 10
252.511832
 20
684.538345
 30
0.0
 10
253.861832
 20
690.151312
 30
0.0
 10
251.592472
 20
700.329266
 30
0.0
  0
SPLINE
  5
159
100
AcDbEntity
  8
Layer_1
 62
7
100
AcDbSpline
 70
8
 71
3
 72
8
 73
4
 74
0
 40
0
 40
0
 40
0
 40
0
 40
1
 40
1
 40
1
 40
1
 10
251.592472
 20
700.329266
 30
0.0
 10
250.485401
 20
705.294595
 30
0.0
 10
247.727999
 20
711.619832
 30
0.0
 10
245.465045
 20
714.384437
 30
0.0
  0
SPLINE
  5
15a
100
AcDbEntity
  8
Layer_1
 62
7
100
AcDbSpline
 70
8
 71
3
 72
8
 73
4
 74
0
 40
0
 40
0
 40
0
 40
0
 40
1
 40
1
 40
1
 40
1
 10
245.465045
 20
714.384437
 30
0.0
 10
240.490525
 20
720.461809
 30
0.0
 10
230.100868
 20
726.310502
 30
0.0
 10
226.640333
 20
724.982581
 30
0.0
  0
SPLINE
  5
15b
100
AcDbEntity
  8
Layer_1
 62
7
100
AcDbSpline
 70
8
 71
3
 72
8
 73
4
 74
0
 40
0
 40
0
 40
0
 40
0
 40
1
 40
1
 40
1
 40
1
 10
226.640333
 20
724.982581
 30
0.0
 10
225.258103
 20
724.452160
 30
0.0
 10
222.695300
 20
724.784978
 30
0.0
 10
220.946494
 20
725.720859
 30
0.0
  0
SPLINE
  5
15c
100
AcDbEntity
  8
Layer_1
 62
7
100
AcDbSpline
 70
8
 71
3
 72
8
 73
4
 74
0
 40
0
 40
0
 40
0
 40
0
 40
1
 40
1
 40
1
 40
1
 10
220.946494
 20
725.720859
 30
0.0
 10
220.153105
 20
726.145466
 30
0.0
 10
218.687168
 20
726.310196
 30
0.0
 10
216.828802
 20
726.276042
 30
0.0
  0
LWPOLYLINE
  5
15d
100
AcDbEntity
  8
Layer_1
 62
7
100
AcDbPolyline
 90
3
 70
0
 10
276.421586
 20
521.300438
 30
0.0
 10
275.618843
 20
511.619272
 30
0.0
 10
287.333206
 20
512.678353
 30
0.0
  0
LWPOLYLINE
  5
15e
100
AcDbEntity
  8
Layer_1
 62
7
100
AcDbPolyline
 90
1
 70
1
 10
216.828802
 20
726.276042
 30
0.0
  0
SPLINE
  5
15f
100
AcDbEntity
  8
Layer_1
 62
7
100
AcDbSpline
 70
8
 71
3
 72
8
 73
4
 74
0
 40
0
 40
0
 40
0
 40
0
 40
1
 40
1
 40
1
 40
1
 10
294.241323
 20
602.320938
 30
0.0
 10
301.386643
 20
600.051974
 30
0.0
 10
309.620551
 20
598.194516
 30
0.0
 10
312.538677
 20
598.194516
 30
0.0
  0
SPLINE
  5
160
100
AcDbEntity
  8
Layer_1
 62
7
100
AcDbSpline
 70
8
 71
3
 72
8
 73
4
 74
0
 40
0
 40
0
 40
0
 40
0
 40
1
 40
1
 40
1
 40
1
 10
312.538677
 20
598.194516
 30
0.0
 10
317.221313
 20
598.194516
 30
0.0
 10
317.713578
 20
597.739385
 30
0.0
 10
316.732535
 20
594.317061
 30
0.0
  0
SPLINE
  5
161
100
AcDbEntity
  8
Layer_1
 62
7
100
AcDbSpline
 70
8
 71
3
 72
8
 73
4
 74
0
 40
0
 40
0
 40
0
 40
0
 40
1
 40
1
 40
1
 40
1
 10
316.732535
 20
594.317061
 30
0.0
 10
316.121187
 20
592.184302
 30
0.0
 10
314.395115
 20
585.822365
 30
0.0
 10
312.896098
 20
580.179861
 30
0.0
  0
SPLINE
  5
162
100
AcDbEntity
  8
Layer_1
 62
7
100
AcDbSpline
 70
8
 71
3
 72
8
 73
4
 74
0
 40
0
 40
0
 40
0
 40
0
 40
1
 40
1
 40
1
 40
1
 10
312.896098
 20
580.179861
 30
0.0
 10
309.879156
 20
568.823675
 30
0.0
 10
307.720772
 20
564.865971
 30
0.0
 10
298.194917
 20
553.220872
 30
0.0
  0
LWPOLYLINE
  5
163
100
AcDbEntity
  8
Layer_1
 62
7
100
AcDbPolyline
 90
2
 70
0
 10
281.249612
 20
606.445971
 30
0.0
 10
294.241323
 20
602.320938
 30
0.0
  0
SPLINE
  5
164
100
AcDbEntity
  8
Layer_1
 62
7
100
AcDbSpline
 70
8
 71
3
 72
8
 73
4
 74
0
 40
0
 40
0
 40
0
 40
0
 40
1
 40
1
 40
1
 40
1
 10
298.196419
 20
553.220872
 30
0.0
 10
293.429225
 20
547.393153
 30
0.0
 10
289.196787
 20
544.372781
 30
0.0
 10
282.175435
 20
541.786252
 30
0.0
  0
LWPOLYLINE
  5
165
100
AcDbEntity
  8
Layer_1
 62
7
100
AcDbPolyline
 90
2
 70
0
 10
298.194917
 20
553.220872
 30
0.0
 10
298.196419
 20
553.220872
 30
0.0
  0
SPLINE
  5
166
100
AcDbEntity
  8
Layer_1
 62
7
100
AcDbSpline
 70
8
 71
3
 72
8
 73
4
 74
0
 40
0
 40
0
 40
0
 40
0
 40
1
 40
1
 40
1
 40
1
 10
272.672909
 20
545.398583
 30
0.0
 10
272.695586
 20
549.317849
 30
0.0
 10
274.631224
 20
562.218355
 30
0.0
 10
276.975164
 20
574.067061
 30
0.0
  0
SPLINE
  5
167
100
AcDbEntity
  8
Layer_1
 62
7
100
AcDbSpline
 70
8
 71
3
 72
8
 73
4
 74
0
 40
0
 40
0
 40
0
 40
0
 40
1
 40
1
 40
1
 40
1
 10
276.975164
 20
574.067061
 30
0.0
 10
279.319076
 20
585.915681
 30
0.0
 10
281.240314
 20
598.047511
 30
0.0
 10
281.243716
 20
601.027489
 30
0.0
  0
LWPOLYLINE
  5
168
100
AcDbEntity
  8
Layer_1
 62
7
100
AcDbPolyline
 90
3
 70
0
 10
282.175435
 20
541.786252
 30
0.0
 10
272.634925
 20
538.272113
 30
0.0
 10
272.672909
 20
545.398583
 30
0.0
  0
LWPOLYLINE
  5
169
100
AcDbEntity
  8
Layer_1
 62
7
100
AcDbPolyline
 90
2
 70
0
 10
281.243716
 20
601.027489
 30
0.0
 10
281.249612
 20
606.445971
 30
0.0
  0
ENDSEC
  0
SECTION
  2
OBJECTS
  0
DICTIONARY
  5
C
330
0
100
AcDbDictionary
  3
ACAD_GROUP
350
D
  3
ACAD_MLINESTYLE
350
17
  0
DICTIONARY
  5
D
330
C
100
AcDbDictionary
  0
DICTIONARY
  5
1A
330
C
100
AcDbDictionary
  0
DICTIONARY
  5
17
330
C
100
AcDbDictionary
  3
STANDARD
350
18
  0
DICTIONARY
  5
19
330
C
100
AcDbDictionary
  0
ENDSEC
  0
EOF
