  0
SECTION
  2
HEADER
  9
$ACADVER
  1
AC1014
  9
$ACADMAINTVER
 70
     0
  9
$DWGCODEPAGE
  3
ANSI_1252
  9
$INSBASE
 10
0.0
 20
0.0
 30
0.0
  9
$EXTMIN
 10
1.485372
 20
1.318044
 30
0.0
  9
$EXTMAX
 10
15.989133
 20
19.993019
 30
0.0
  9
$LIMMIN
 10
1.485372
 20
1.318044
  9
$LIMMAX
 10
15.989133
 20
19.993019
  9
$ORTHOMODE
 70
     0
  9
$REGENMODE
 70
     1
  9
$FILLMODE
 70
     1
  9
$QTEXTMODE
 70
     0
  9
$MIRRTEXT
 70
     1
  9
$DRAGMODE
 70
     0
  9
$LTSCALE
 40
100.0
  9
$OSMODE
 70
     0
  9
$ATTMODE
 70
     1
  9
$TEXTSIZE
 40
0.2
  9
$TRACEWID
 40
0.05
  9
$TEXTSTYLE
  7
STANDARD
  9
$CLAYER
  8
0
  9
$CELTYPE
  6
CONTINUOUS
  9
$CECOLOR
 62
     7
  9
$CELTSCALE
 40
1.0
  9
$DELOBJ
 70
     1
  9
$DISPSILH
 70
     0
  9
$DIMSCALE
 40
1.0
  9
$DIMASZ
 40
0.18
  9
$DIMEXO
 40
0.0625
  9
$DIMDLI
 40
0.38
  9
$DIMRND
 40
0.0
  9
$DIMDLE
 40
0.0
  9
$DIMEXE
 40
0.18
  9
$DIMTP
 40
0.0
  9
$DIMTM
 40
0.0
  9
$DIMTXT
 40
0.18
  9
$DIMCEN
 40
0.09
  9
$DIMTSZ
 40
0.0
  9
$DIMTOL
 70
     0
  9
$DIMLIM
 70
     0
  9
$DIMTIH
 70
     1
  9
$DIMTOH
 70
     1
  9
$DIMSE1
 70
     0
  9
$DIMSE2
 70
     0
  9
$DIMTAD
 70
     0
  9
$DIMZIN
 70
     0
  9
$DIMBLK
  1

  9
$DIMASO
 70
     0
  9
$DIMSHO
 70
     1
  9
$DIMPOST
  1
<>
  9
$DIMAPOST
  1

  9
$DIMALT
 70
     0
  9
$DIMALTD
 70
     2
  9
$DIMALTF
 40
25.4
  9
$DIMLFAC
 40
1.0
  9
$DIMTOFL
 70
     0
  9
$DIMTVP
 40
0.0
  9
$DIMTIX
 70
     0
  9
$DIMSOXD
 70
     0
  9
$DIMSAH
 70
     0
  9
$DIMBLK1
  1

  9
$DIMBLK2
  1

  9
$DIMSTYLE
  2
STANDARD
  9
$DIMCLRD
 70
     0
  9
$DIMCLRE
 70
     0
  9
$DIMCLRT
 70
     0
  9
$DIMTFAC
 40
1.0
  9
$DIMGAP
 40
0.09
  9
$DIMJUST
 70
     0
  9
$DIMSD1
 70
     0
  9
$DIMSD2
 70
     0
  9
$DIMTOLJ
 70
     1
  9
$DIMTZIN
 70
     0
  9
$DIMALTZ
 70
     0
  9
$DIMALTTZ
 70
     0
  9
$DIMFIT
 70
     3
  9
$DIMUPT
 70
     0
  9
$DIMUNIT
 70
     2
  9
$DIMDEC
 70
     4
  9
$DIMTDEC
 70
     4
  9
$DIMALTU
 70
     2
  9
$DIMALTTD
 70
     2
  9
$DIMTXSTY
  7
STANDARD
  9
$DIMAUNIT
 70
     0
  9
$LUNITS
 70
     2
  9
$LUPREC
 70
     4
  9
$SKETCHINC
 40
0.1
  9
$FILLETRAD
 40
0.0
  9
$AUNITS
 70
     0
  9
$AUPREC
 70
     0
  9
$MENU
  1
acad
  9
$ELEVATION
 40
0.0
  9
$PELEVATION
 40
0.0
  9
$THICKNESS
 40
0.0
  9
$LIMCHECK
 70
     0
  9
$BLIPMODE
 70
     1
  9
$CHAMFERA
 40
0.0
  9
$CHAMFERB
 40
0.0
  9
$CHAMFERC
 40
0.0
  9
$CHAMFERD
 40
0.0
  9
$SKPOLY
 70
     0
  9
$TDCREATE
 40
0.000000000
  9
$TDUPDATE
 40
0.000000000
  9
$TDINDWG
 40
0.0000000000
  9
$TDUSRTIMER
 40
0.0000000000
  9
$USRTIMER
 70
     1
  9
$ANGBASE
 50
0.0
  9
$ANGDIR
 70
     0
  9
$PDMODE
 70
    35
  9
$PDSIZE
 40
80.0
  9
$PLINEWID
 40
0.0
  9
$COORDS
 70
     0
  9
$SPLFRAME
 70
     0
  9
$SPLINETYPE
 70
     6
  9
$SPLINESEGS
 70
     8
  9
$ATTDIA
 70
     0
  9
$ATTREQ
 70
     1
  9
$HANDLING
 70
     1
  9
$HANDSEED
  5
86D
  9
$SURFTAB1
 70
     6
  9
$SURFTAB2
 70
     6
  9
$SURFTYPE
 70
     6
  9
$SURFU
 70
     6
  9
$SURFV
 70
     6
  9
$UCSNAME
  2

  9
$UCSORG
 10
0.0
 20
0.0
 30
0.0
  9
$UCSXDIR
 10
1.0
 20
0.0
 30
0.0
  9
$UCSYDIR
 10
0.0
 20
1.0
 30
0.0
  9
$PUCSNAME
  2

  9
$PUCSORG
 10
0.0
 20
0.0
 30
0.0
  9
$PUCSXDIR
 10
1.0
 20
0.0
 30
0.0
  9
$PUCSYDIR
 10
0.0
 20
1.0
 30
0.0
  9
$USERI1
 70
     0
  9
$USERI2
 70
     0
  9
$USERI3
 70
     0
  9
$USERI4
 70
     0
  9
$USERI5
 70
     0
  9
$USERR1
 40
0.0
  9
$USERR2
 40
0.0
  9
$USERR3
 40
0.0
  9
$USERR4
 40
0.0
  9
$USERR5
 40
0.0
  9
$WORLDVIEW
 70
     1
  9
$SHADEDGE
 70
     3
  9
$SHADEDIF
 70
    70
  9
$TILEMODE
 70
     1
  9
$MAXACTVP
 70
    16
  9
$PINSBASE
 10
0.0
 20
0.0
 30
0.0
  9
$PLIMCHECK
 70
     0
  9
$PEXTMIN
 10
0.0
 20
0.0
 30
0.0
  9
$PEXTMAX
 10
0.0
 20
0.0
 30
0.0
  9
$PLIMMIN
 10
0.0
 20
0.0
  9
$PLIMMAX
 10
0.0
 20
0.0
  9
$UNITMODE
 70
     0
  9
$VISRETAIN
 70
     0
  9
$PLINEGEN
 70
     1
  9
$PSLTSCALE
 70
     0
  9
$TREEDEPTH
 70
  3020
  9
$PICKSTYLE
 70
     1
  9
$CMLSTYLE
  2
STANDARD
  9
$CMLJUST
 70
     0
  9
$CMLSCALE
 40
1.0
  9
$PROXYGRAPHICS
 70
     0
  9
$MEASUREMENT
 70
     0
  0
ENDSEC
  0
SECTION
  2
CLASSES
  0
CLASS
  1
LWPOLYLINE
  2
AcDbPolyline
  3
"AutoCAD"
 90
        0
280
     0
281
     1
  0
CLASS
  1
IMAGE
  2
AcDbRasterImage
  3
ISM
 90
      127
280
     0
281
     1
  0
CLASS
  1
OLE2FRAME
  2
AcDbOle2Frame
  3
""
 90
        0
280
     0
281
     1
  0
CLASS
  1
HATCH
  2
AcDbHatch
  3
"ACAD_SEDONA"
 90
        0
280
     0
281
     1
  0
CLASS
  1
DICTIONARYVAR
  2
AcDbDictionaryVar
  3
"AutoCAD"
 90
        0
280
     0
281
     0
  0
CLASS
  1
RASTERVARIABLES
  2
AcDbRasterVariables
  3
ISM
 90
        0
280
     0
281
     0
  0
CLASS
  1
IMAGEDEF
  2
AcDbRasterImageDef
  3
ISM
 90
        0
280
     0
281
     0
  0
CLASS
  1
IMAGEDEF_REACTOR
  2
AcDbRasterImageDefReactor
  3
ISM
 90
        1
280
     0
281
     0
  0
CLASS
  1
IDBUFFER
  2
AcDbIdBuffer
  3
"Acad"
 90
        0
280
     0
281
     0
  0
CLASS
  1
SPATIAL_FILTER
  2
AcDbSpatialFilter
  3
"Acad"
 90
        0
280
     0
281
     0
  0
CLASS
  1
XRECORD
  2
AcDbXrecord
  3
"<Built In>"
 90
        0
280
     0
281
     0
  0
CLASS
  1
SORTENTSTABLE
  2
AcDbSortentsTable
  3
"AutoCAD"
 90
        0
280
     0
281
     0
  0
CLASS
  1
LAYER_INDEX
  2
AcDbLayerIndex
  3
"Acad"
 90
        0
280
     0
281
     0
  0
CLASS
  1
SPATIAL_INDEX
  2
AcDbSpatialIndex
  3
"Acad"
 90
        0
280
     0
281
     0
  0
CLASS
  1
OBJECT_PTR
  2
CAseDLPNTableRecord
  3
"ASE-LPNTableRecord"
 90
        1
280
     0
281
     0
  0
CLASS
  1
LAYOUT
  2
AcDbLayout
  3
"AutoCAD 2000"
 90
        1
280
     0
281
     0
  0
CLASS
  1
PLOTSETTINGS
  2
AcDbPlotSettings
  3
"AutoCAD 2000"
 90
        1
280
     0
281
     0
  0
CLASS
  1
ACDBDICTIONARYWDFLT
  2
AcDbDictionaryWithDefault
  3
"AutoCAD 2000"
 90
        1
280
     0
281
     0
  0
CLASS
  1
ACDBPLACEHOLDER
  2
AcDbPlaceHolder
  3
"AutoCAD 2000"
 90
        1
280
     0
281
     0
  0
CLASS
  1
VBA_PROJECT
  2
AcDbVbaProject
  3
"acadvba"
 90
        1
280
     0
281
     0
  0
CLASS
  1
WIPEOUT
  2
AcDbWipeout
  3
WipeOut|AutoCAD Express Tool|expresstools@autodesk.com
 90
      127
280
     0
281
     1
  0
CLASS
  1
WIPEOUTVARIABLES
  2
AcDbWipeoutVariables
  3
WipeOut|AutoCAD Express Tool|expresstools@autodesk.com
 90
        0
280
     0
281
     0
  0
CLASS
  1
RTEXT
  2
RText
  3
RText|AutoCAD Express Tool|expresstools@autodesk.com
 90
        0
280
     0
281
     1
  0
CLASS
  1
ARCALIGNEDTEXT
  2
AcDbArcAlignedText
  3
ATEXT|AutoCAD Express Tool|expresstools@autodesk.com
 90
        0
280
     0
281
     1
  0
ENDSEC
  0
SECTION
  2
TABLES
  0
TABLE
  2
VPORT
  5
7
100
AcDbSymbolTable
 70
     1
  0
VPORT
  5
15
100
AcDbSymbolTableRecord
100
AcDbViewportTableRecord
  2
*ACTIVE
 70
     0
 10
0.0
 20
0.0
 11
1.0
 21
1.0
 12
0.0
 22
0.0
 13
0.0
 23
0.0
 14
0.0
 24
0.0
 15
0.0
 25
0.0
 16
0.0
 26
0.0
 36
1.0
 17
2.27
 27
19.175334
 37
1.0
 40
2.289592
 41
1.77634
 42
50.0
 43
0.0
 44
0.0
 50
0.0
 51
0.0
 71
     0
 72
   100
 73
     1
 74
     1
 75
     0
 76
     0
 77
     0
 78
     0
  0
ENDTAB
  0
TABLE
  2
LTYPE
  5
4
100
AcDbSymbolTable
 70
    13
  0
LTYPE
  5
11
100
AcDbSymbolTableRecord
100
AcDbLinetypeTableRecord
  2
BYBLOCK
 70
    64
  3

 72
    65
 73
     0
 40
0.0
  0
LTYPE
  5
12
100
AcDbSymbolTableRecord
100
AcDbLinetypeTableRecord
  2
BYLAYER
 70
    64
  3

 72
    65
 73
     0
 40
0.0
  0
LTYPE
  5
13
100
AcDbSymbolTableRecord
100
AcDbLinetypeTableRecord
  2
CONTINUOUS
 70
    64
  3
Solid line
 72
    65
 73
     0
 40
0.0
  0
LTYPE
  5
1E
100
AcDbSymbolTableRecord
100
AcDbLinetypeTableRecord
  2
BORDER
 70
     0
  3
BORDER
 72
    65
 73
     6
 40
1.75
 49
0.5
 74
     0
 49
-0.25
 74
     0
 49
0.5
 74
     0
 49
-0.25
 74
     0
 49
0.0
 74
     0
 49
-0.25
 74
     0
  0
LTYPE
  5
1F
100
AcDbSymbolTableRecord
100
AcDbLinetypeTableRecord
  2
CENTER
 70
     0
  3
CENTER
 72
    65
 73
     4
 40
2.0
 49
1.25
 74
     0
 49
-0.25
 74
     0
 49
0.25
 74
     0
 49
-0.25
 74
     0
  0
LTYPE
  5
20
100
AcDbSymbolTableRecord
100
AcDbLinetypeTableRecord
  2
DASHDOT
 70
     0
  3
DASHDOT
 72
    65
 73
     4
 40
1.0
 49
0.5
 74
     0
 49
-0.25
 74
     0
 49
0.0
 74
     0
 49
-0.25
 74
     0
  0
LTYPE
  5
21
100
AcDbSymbolTableRecord
100
AcDbLinetypeTableRecord
  2
DASHED
 70
     0
  3
DASHED
 72
    65
 73
     2
 40
0.75
 49
0.5
 74
     0
 49
-0.25
 74
     0
  0
LTYPE
  5
22
100
AcDbSymbolTableRecord
100
AcDbLinetypeTableRecord
  2
DIVIDE
 70
     0
  3
DIVIDE
 72
    65
 73
     6
 40
1.25
 49
0.5
 74
     0
 49
-0.25
 74
     0
 49
0.0
 74
     0
 49
-0.25
 74
     0
 49
0.0
 74
     0
 49
-0.25
 74
     0
  0
LTYPE
  5
23
100
AcDbSymbolTableRecord
100
AcDbLinetypeTableRecord
  2
DOT
 70
     0
  3
DOT
 72
    65
 73
     2
 40
0.25
 49
0.0
 74
     0
 49
-0.25
 74
     0
  0
LTYPE
  5
24
100
AcDbSymbolTableRecord
100
AcDbLinetypeTableRecord
  2
HIDDEN
 70
     0
  3
HIDDEN
 72
    65
 73
     2
 40
0.375
 49
0.25
 74
     0
 49
-0.125
 74
     0
  0
LTYPE
  5
25
100
AcDbSymbolTableRecord
100
AcDbLinetypeTableRecord
  2
PHANTOM
 70
     0
  3
PHANTOM
 72
    65
 73
     6
 40
2.5
 49
1.25
 74
     0
 49
-0.25
 74
     0
 49
0.25
 74
     0
 49
-0.25
 74
     0
 49
0.25
 74
     0
 49
-0.25
 74
     0
  0
LTYPE
  5
26
100
AcDbSymbolTableRecord
100
AcDbLinetypeTableRecord
  2
$INVISIBLE
 70
     0
  3
$INVISIBLE
 72
    65
 73
     2
 40
200.0
 49
-100.0
 74
     0
 49
-100.0
 74
     0
  0
LTYPE
  5
27
100
AcDbSymbolTableRecord
100
AcDbLinetypeTableRecord
  2
$SNAPEXT
 70
     0
  3
$SNAPEXT
 72
    65
 73
     2
 40
0.04
 49
0.02
 74
     0
 49
-0.02
 74
     0
  0
ENDTAB
  0
TABLE
  2
LAYER
  5
2
100
AcDbSymbolTable
 70
     2
  0
LAYER
  5
14
100
AcDbSymbolTableRecord
100
AcDbLayerTableRecord
  2
0
 70
     0
 62
     7
  6
CONTINUOUS
1001
TCAD
1000
TCW_LAYER_ORDER
1002
{
1071
        0
1002
}
  0
LAYER
  5
28
100
AcDbSymbolTableRecord
100
AcDbLayerTableRecord
  2
BLACK
 70
     0
 62
     7
  6
CONTINUOUS
1001
TCAD
1000
TCW_LAYER_ORDER
1002
{
1071
        0
1002
}
  0
ENDTAB
  0
TABLE
  2
STYLE
  5
3
100
AcDbSymbolTable
 70
     1
  0
STYLE
  5
17
100
AcDbSymbolTableRecord
100
AcDbTextStyleTableRecord
  2
STANDARD
 70
     0
 40
0.0
 41
1.0
 50
0.0
 71
     0
 42
0.0
  3
TXT.SHX
  4

  0
ENDTAB
  0
TABLE
  2
VIEW
  5
5
100
AcDbSymbolTable
 70
     1
  0
VIEW
  5
29
100
AcDbSymbolTableRecord
100
AcDbViewTableRecord
  2
VIEW_0
 70
     0
 40
8.267716
 10
5.846457
 20
4.133858
 41
11.692913
 11
0.0
 21
0.0
 31
1.0
 12
0.0
 22
0.0
 32
0.0
 42
50.0
 43
0.0
 44
0.0
 50
0.0
 71
     0
  0
ENDTAB
  0
TABLE
  2
UCS
  5
6
100
AcDbSymbolTable
 70
     0
  0
ENDTAB
  0
TABLE
  2
APPID
  5
8
100
AcDbSymbolTable
 70
     2
  0
APPID
  5
16
100
AcDbSymbolTableRecord
100
AcDbRegAppTableRecord
  2
ACAD
 70
     0
  0
APPID
  5
1D
100
AcDbSymbolTableRecord
100
AcDbRegAppTableRecord
  2
TCAD
 70
     0
  0
ENDTAB
  0
TABLE
  2
DIMSTYLE
  5
9
100
AcDbSymbolTable
 70
     1
  0
DIMSTYLE
105
18
100
AcDbSymbolTableRecord
100
AcDbDimStyleTableRecord
  2
STANDARD
 70
     0
  3
<>
  4

  5

  6

  7

 40
1.0
 41
0.18
 42
0.0625
 43
0.38
 44
0.18
 45
0.0
 46
0.0
 47
0.0
 48
0.0
 71
     0
 72
     0
 73
     1
 74
     1
 75
     0
 76
     0
 77
     0
 78
     0
140
0.18
141
0.09
142
0.0
143
25.4
144
1.0
145
0.0
146
1.0
147
0.09
170
     0
171
     2
172
     0
173
     0
174
     0
175
     0
176
     0
177
     0
178
     0
270
     2
271
     4
272
     4
273
     2
274
     2
275
     0
280
     0
281
     0
282
     0
283
     1
284
     0
285
     0
286
     0
287
     3
288
     0
340
17
  0
ENDTAB
  0
TABLE
  2
BLOCK_RECORD
  5
1
100
AcDbSymbolTable
 70
     0
  0
BLOCK_RECORD
  5
A
100
AcDbSymbolTableRecord
100
AcDbBlockTableRecord
  2
*MODEL_SPACE
  0
BLOCK_RECORD
  5
B
100
AcDbSymbolTableRecord
100
AcDbBlockTableRecord
  2
*PAPER_SPACE
  0
ENDTAB
  0
ENDSEC
  0
SECTION
  2
BLOCKS
  0
BLOCK
  5
D
100
AcDbEntity
  8
0
100
AcDbBlockBegin
  2
*MODEL_SPACE
 70
     0
 10
0.0
 20
0.0
 30
0.0
  3
*MODEL_SPACE
  1

  0
ENDBLK
  5
E
100
AcDbEntity
  8
0
100
AcDbBlockEnd
  0
BLOCK
  5
F
100
AcDbEntity
 67
     1
  8
0
100
AcDbBlockBegin
  2
*PAPER_SPACE
 70
     0
 10
0.0
 20
0.0
 30
0.0
  3
*PAPER_SPACE
  1

  0
ENDBLK
  5
10
100
AcDbEntity
 67
     1
  8
0
100
AcDbBlockEnd
  0
ENDSEC
  0
SECTION
  2
ENTITIES
  0
POLYLINE
  5
2A
100
AcDbEntity
  8
BLACK
 62
     7
100
AcDb2dPolyline
 66
     1
 10
0.0
 20
0.0
 30
0.0
 70
     1
  0
VERTEX
  5
2B
100
AcDbEntity
  8
BLACK
 62
     7
100
AcDbVertex
100
AcDb2dVertex
 10
9.447
 20
19.957
 30
0.0
  0
VERTEX
  5
2C
100
AcDbEntity
  8
BLACK
 62
     7
100
AcDbVertex
100
AcDb2dVertex
 10
5.619
 20
19.109
 30
0.0
 42
-0.068
  0
VERTEX
  5
2D
100
AcDbEntity
  8
BLACK
 62
     7
100
AcDbVertex
100
AcDb2dVertex
 10
5.557
 20
19.101
 30
0.0
 42
-0.009
  0
VERTEX
  5
2E
100
AcDbEntity
  8
BLACK
 62
     7
100
AcDbVertex
100
AcDb2dVertex
 10
5.306
 20
19.095
 30
0.0
 42
-0.122
  0
VERTEX
  5
2F
100
AcDbEntity
  8
BLACK
 62
     7
100
AcDbVertex
100
AcDb2dVertex
 10
5.13
 20
19.144
 30
0.0
  0
VERTEX
  5
30
100
AcDbEntity
  8
BLACK
 62
     7
100
AcDbVertex
100
AcDb2dVertex
 10
4.976
 20
19.229
 30
0.0
 42
0.03
  0
VERTEX
  5
31
100
AcDbEntity
  8
BLACK
 62
     7
100
AcDbVertex
100
AcDb2dVertex
 10
4.861
 20
19.288
 30
0.0
 42
0.077
  0
VERTEX
  5
32
100
AcDbEntity
  8
BLACK
 62
     7
100
AcDbVertex
100
AcDb2dVertex
 10
4.749
 20
19.316
 30
0.0
 42
0.059
  0
VERTEX
  5
33
100
AcDbEntity
  8
BLACK
 62
     7
100
AcDbVertex
100
AcDb2dVertex
 10
4.602
 20
19.31
 30
0.0
 42
0.02
  0
VERTEX
  5
34
100
AcDbEntity
  8
BLACK
 62
     7
100
AcDbVertex
100
AcDb2dVertex
 10
4.355
 20
19.262
 30
0.0
 42
0.027
  0
VERTEX
  5
35
100
AcDbEntity
  8
BLACK
 62
     7
100
AcDbVertex
100
AcDb2dVertex
 10
4.329
 20
19.255
 30
0.0
 42
0.039
  0
VERTEX
  5
36
100
AcDbEntity
  8
BLACK
 62
     7
100
AcDbVertex
100
AcDb2dVertex
 10
4.326
 20
19.254
 30
0.0
 42
0.079
  0
VERTEX
  5
37
100
AcDbEntity
  8
BLACK
 62
     7
100
AcDbVertex
100
AcDb2dVertex
 10
4.325
 20
19.253
 30
0.0
 42
0.201
  0
VERTEX
  5
38
100
AcDbEntity
  8
BLACK
 62
     7
100
AcDbVertex
100
AcDb2dVertex
 10
4.324
 20
19.25
 30
0.0
  0
VERTEX
  5
39
100
AcDbEntity
  8
BLACK
 62
     7
100
AcDbVertex
100
AcDb2dVertex
 10
4.324
 20
19.246
 30
0.0
 42
-0.083
  0
VERTEX
  5
3A
100
AcDbEntity
  8
BLACK
 62
     7
100
AcDbVertex
100
AcDb2dVertex
 10
4.324
 20
19.244
 30
0.0
 42
-0.145
  0
VERTEX
  5
3B
100
AcDbEntity
  8
BLACK
 62
     7
100
AcDbVertex
100
AcDb2dVertex
 10
4.323
 20
19.243
 30
0.0
 42
-0.1
  0
VERTEX
  5
3C
100
AcDbEntity
  8
BLACK
 62
     7
100
AcDbVertex
100
AcDb2dVertex
 10
4.322
 20
19.242
 30
0.0
 42
-0.045
  0
VERTEX
  5
3D
100
AcDbEntity
  8
BLACK
 62
     7
100
AcDbVertex
100
AcDb2dVertex
 10
4.319
 20
19.242
 30
0.0
 42
-0.028
  0
VERTEX
  5
3E
100
AcDbEntity
  8
BLACK
 62
     7
100
AcDbVertex
100
AcDb2dVertex
 10
4.293
 20
19.243
 30
0.0
 42
-0.092
  0
VERTEX
  5
3F
100
AcDbEntity
  8
BLACK
 62
     7
100
AcDbVertex
100
AcDb2dVertex
 10
4.091
 20
19.283
 30
0.0
  0
VERTEX
  5
40
100
AcDbEntity
  8
BLACK
 62
     7
100
AcDbVertex
100
AcDb2dVertex
 10
3.989
 20
19.329
 30
0.0
 42
0.011
  0
VERTEX
  5
41
100
AcDbEntity
  8
BLACK
 62
     7
100
AcDbVertex
100
AcDb2dVertex
 10
3.833
 20
19.396
 30
0.0
 42
0.087
  0
VERTEX
  5
42
100
AcDbEntity
  8
BLACK
 62
     7
100
AcDbVertex
100
AcDb2dVertex
 10
3.249
 20
19.516
 30
0.0
 42
0.019
  0
VERTEX
  5
43
100
AcDbEntity
  8
BLACK
 62
     7
100
AcDbVertex
100
AcDb2dVertex
 10
2.957
 20
19.516
 30
0.0
  0
VERTEX
  5
44
100
AcDbEntity
  8
BLACK
 62
     7
100
AcDbVertex
100
AcDb2dVertex
 10
2.657
 20
19.505
 30
0.0
 42
0.042
  0
VERTEX
  5
45
100
AcDbEntity
  8
BLACK
 62
     7
100
AcDbVertex
100
AcDb2dVertex
 10
2.335
 20
19.454
 30
0.0
 42
0.022
  0
VERTEX
  5
46
100
AcDbEntity
  8
BLACK
 62
     7
100
AcDbVertex
100
AcDb2dVertex
 10
2.186
 20
19.414
 30
0.0
 42
0.028
  0
VERTEX
  5
47
100
AcDbEntity
  8
BLACK
 62
     7
100
AcDbVertex
100
AcDb2dVertex
 10
2.137
 20
19.396
 30
0.0
 42
-0.02725
  0
VERTEX
  5
48
100
AcDbEntity
  8
BLACK
 62
     7
100
AcDbVertex
100
AcDb2dVertex
 10
2.116056
 20
19.385355
 30
0.0
  0
VERTEX
  5
49
100
AcDbEntity
  8
BLACK
 62
     7
100
AcDbVertex
100
AcDb2dVertex
 10
2.094895
 20
19.370542
 30
0.0
 42
0.213697
  0
VERTEX
  5
4A
100
AcDbEntity
  8
BLACK
 62
     7
100
AcDbVertex
100
AcDb2dVertex
 10
2.076636
 20
19.333944
 30
0.0
 42
0.013997
  0
VERTEX
  5
4B
100
AcDbEntity
  8
BLACK
 62
     7
100
AcDbVertex
100
AcDb2dVertex
 10
2.079
 20
19.321
 30
0.0
  0
VERTEX
  5
4C
100
AcDbEntity
  8
BLACK
 62
     7
100
AcDbVertex
100
AcDb2dVertex
 10
2.122404
 20
19.117671
 30
0.0
  0
VERTEX
  5
4D
100
AcDbEntity
  8
BLACK
 62
     7
100
AcDbVertex
100
AcDb2dVertex
 10
2.532
 20
19.187
 30
0.0
  0
VERTEX
  5
4E
100
AcDbEntity
  8
BLACK
 62
     7
100
AcDbVertex
100
AcDb2dVertex
 10
2.121346
 20
19.117671
 30
0.0
 42
-0.004126
  0
VERTEX
  5
4F
100
AcDbEntity
  8
BLACK
 62
     7
100
AcDbVertex
100
AcDb2dVertex
 10
2.136
 20
18.955
 30
0.0
 42
0.084
  0
VERTEX
  5
50
100
AcDbEntity
  8
BLACK
 62
     7
100
AcDbVertex
100
AcDb2dVertex
 10
2.148
 20
18.908
 30
0.0
 42
0.163
  0
VERTEX
  5
51
100
AcDbEntity
  8
BLACK
 62
     7
100
AcDbVertex
100
AcDb2dVertex
 10
2.176
 20
18.88
 30
0.0
 42
0.081
  0
VERTEX
  5
52
100
AcDbEntity
  8
BLACK
 62
     7
100
AcDbVertex
100
AcDb2dVertex
 10
2.226
 20
18.866
 30
0.0
 42
0.048
  0
VERTEX
  5
53
100
AcDbEntity
  8
BLACK
 62
     7
100
AcDbVertex
100
AcDb2dVertex
 10
2.401
 20
18.861
 30
0.0
  0
VERTEX
  5
54
100
AcDbEntity
  8
BLACK
 62
     7
100
AcDbVertex
100
AcDb2dVertex
 10
2.504
 20
18.867
 30
0.0
 42
-0.006
  0
VERTEX
  5
55
100
AcDbEntity
  8
BLACK
 62
     7
100
AcDbVertex
100
AcDb2dVertex
 10
2.854
 20
18.895
 30
0.0
 42
-0.03
  0
VERTEX
  5
56
100
AcDbEntity
  8
BLACK
 62
     7
100
AcDbVertex
100
AcDb2dVertex
 10
3.101
 20
18.894
 30
0.0
 42
-0.05
  0
VERTEX
  5
57
100
AcDbEntity
  8
BLACK
 62
     7
100
AcDbVertex
100
AcDb2dVertex
 10
3.202
 20
18.87
 30
0.0
 42
-0.014
  0
VERTEX
  5
58
100
AcDbEntity
  8
BLACK
 62
     7
100
AcDbVertex
100
AcDb2dVertex
 10
3.366
 20
18.812
 30
0.0
 42
-0.008
  0
VERTEX
  5
59
100
AcDbEntity
  8
BLACK
 62
     7
100
AcDbVertex
100
AcDb2dVertex
 10
3.826
 20
18.627
 30
0.0
  0
VERTEX
  5
5A
100
AcDbEntity
  8
BLACK
 62
     7
100
AcDbVertex
100
AcDb2dVertex
 10
4.376
 20
18.398
 30
0.0
 42
0.007
  0
VERTEX
  5
5B
100
AcDbEntity
  8
BLACK
 62
     7
100
AcDbVertex
100
AcDb2dVertex
 10
4.907
 20
18.185
 30
0.0
 42
0.045
  0
VERTEX
  5
5C
100
AcDbEntity
  8
BLACK
 62
     7
100
AcDbVertex
100
AcDb2dVertex
 10
5.923
 20
17.912
 30
0.0
 42
0.033
  0
VERTEX
  5
5D
100
AcDbEntity
  8
BLACK
 62
     7
100
AcDbVertex
100
AcDb2dVertex
 10
7.054
 20
17.786
 30
0.0
 42
0.03
  0
VERTEX
  5
5E
100
AcDbEntity
  8
BLACK
 62
     7
100
AcDbVertex
100
AcDb2dVertex
 10
8.196
 20
17.801
 30
0.0
 42
0.035
  0
VERTEX
  5
5F
100
AcDbEntity
  8
BLACK
 62
     7
100
AcDbVertex
100
AcDb2dVertex
 10
9.242
 20
17.949
 30
0.0
 42
0.029
  0
VERTEX
  5
60
100
AcDbEntity
  8
BLACK
 62
     7
100
AcDbVertex
100
AcDb2dVertex
 10
10.0
 20
18.16
 30
0.0
 42
0.03
  0
VERTEX
  5
61
100
AcDbEntity
  8
BLACK
 62
     7
100
AcDbVertex
100
AcDb2dVertex
 10
10.662
 20
18.434
 30
0.0
 42
0.019
  0
VERTEX
  5
62
100
AcDbEntity
  8
BLACK
 62
     7
100
AcDbVertex
100
AcDb2dVertex
 10
11.323
 20
18.788
 30
0.0
 42
0.005
  0
VERTEX
  5
63
100
AcDbEntity
  8
BLACK
 62
     7
100
AcDbVertex
100
AcDb2dVertex
 10
12.077
 20
19.239
 30
0.0
  0
VERTEX
  5
64
100
AcDbEntity
  8
BLACK
 62
     7
100
AcDbVertex
100
AcDb2dVertex
 10
12.091
 20
19.248
 30
0.0
 42
0.082
  0
VERTEX
  5
65
100
AcDbEntity
  8
BLACK
 62
     7
100
AcDbVertex
100
AcDb2dVertex
 10
12.1
 20
19.257
 30
0.0
 42
0.082
  0
VERTEX
  5
66
100
AcDbEntity
  8
BLACK
 62
     7
100
AcDbVertex
100
AcDb2dVertex
 10
12.105
 20
19.269
 30
0.0
  0
VERTEX
  5
67
100
AcDbEntity
  8
BLACK
 62
     7
100
AcDbVertex
100
AcDb2dVertex
 10
12.108
 20
19.286
 30
0.0
  0
VERTEX
  5
68
100
AcDbEntity
  8
BLACK
 62
     7
100
AcDbVertex
100
AcDb2dVertex
 10
12.114
 20
19.331
 30
0.0
 42
0.042
  0
VERTEX
  5
69
100
AcDbEntity
  8
BLACK
 62
     7
100
AcDbVertex
100
AcDb2dVertex
 10
12.116
 20
19.349
 30
0.0
 42
0.067
  0
VERTEX
  5
6A
100
AcDbEntity
  8
BLACK
 62
     7
100
AcDbVertex
100
AcDb2dVertex
 10
12.116
 20
19.35
 30
0.0
 42
0.128
  0
VERTEX
  5
6B
100
AcDbEntity
  8
BLACK
 62
     7
100
AcDbVertex
100
AcDb2dVertex
 10
12.115
 20
19.351
 30
0.0
 42
0.126
  0
VERTEX
  5
6C
100
AcDbEntity
  8
BLACK
 62
     7
100
AcDbVertex
100
AcDb2dVertex
 10
12.114
 20
19.352
 30
0.0
 42
0.058
  0
VERTEX
  5
6D
100
AcDbEntity
  8
BLACK
 62
     7
100
AcDbVertex
100
AcDb2dVertex
 10
12.113
 20
19.352
 30
0.0
  0
VERTEX
  5
6E
100
AcDbEntity
  8
BLACK
 62
     7
100
AcDbVertex
100
AcDb2dVertex
 10
12.108
 20
19.352
 30
0.0
 42
-0.105
  0
VERTEX
  5
6F
100
AcDbEntity
  8
BLACK
 62
     7
100
AcDbVertex
100
AcDb2dVertex
 10
12.106
 20
19.352
 30
0.0
 42
-0.21
  0
VERTEX
  5
70
100
AcDbEntity
  8
BLACK
 62
     7
100
AcDbVertex
100
AcDb2dVertex
 10
12.104
 20
19.354
 30
0.0
 42
-0.07
  0
VERTEX
  5
71
100
AcDbEntity
  8
BLACK
 62
     7
100
AcDbVertex
100
AcDb2dVertex
 10
12.104
 20
19.358
 30
0.0
  0
VERTEX
  5
72
100
AcDbEntity
  8
BLACK
 62
     7
100
AcDbVertex
100
AcDb2dVertex
 10
12.104
 20
19.364
 30
0.0
  0
VERTEX
  5
73
100
AcDbEntity
  8
BLACK
 62
     7
100
AcDbVertex
100
AcDb2dVertex
 10
12.104
 20
19.389
 30
0.0
 42
0.069
  0
VERTEX
  5
74
100
AcDbEntity
  8
BLACK
 62
     7
100
AcDbVertex
100
AcDb2dVertex
 10
12.103
 20
19.399
 30
0.0
 42
0.264
  0
VERTEX
  5
75
100
AcDbEntity
  8
BLACK
 62
     7
100
AcDbVertex
100
AcDb2dVertex
 10
12.099
 20
19.403
 30
0.0
 42
0.083
  0
VERTEX
  5
76
100
AcDbEntity
  8
BLACK
 62
     7
100
AcDbVertex
100
AcDb2dVertex
 10
12.095
 20
19.404
 30
0.0
 42
0.039
  0
VERTEX
  5
77
100
AcDbEntity
  8
BLACK
 62
     7
100
AcDbVertex
100
AcDb2dVertex
 10
12.09
 20
19.403
 30
0.0
  0
VERTEX
  5
78
100
AcDbEntity
  8
BLACK
 62
     7
100
AcDbVertex
100
AcDb2dVertex
 10
12.073
 20
19.399
 30
0.0
 42
0.009
  0
VERTEX
  5
79
100
AcDbEntity
  8
BLACK
 62
     7
100
AcDbVertex
100
AcDb2dVertex
 10
11.912
 20
19.345
 30
0.0
 42
-0.032
  0
VERTEX
  5
7A
100
AcDbEntity
  8
BLACK
 62
     7
100
AcDbVertex
100
AcDb2dVertex
 10
11.838
 20
19.325
 30
0.0
 42
-0.042
  0
VERTEX
  5
7B
100
AcDbEntity
  8
BLACK
 62
     7
100
AcDbVertex
100
AcDb2dVertex
 10
11.807
 20
19.321
 30
0.0
 42
-0.087
  0
VERTEX
  5
7C
100
AcDbEntity
  8
BLACK
 62
     7
100
AcDbVertex
100
AcDb2dVertex
 10
11.784
 20
19.324
 30
0.0
 42
-0.219
  0
VERTEX
  5
7D
100
AcDbEntity
  8
BLACK
 62
     7
100
AcDbVertex
100
AcDb2dVertex
 10
11.743
 20
19.369
 30
0.0
 42
-0.187
  0
VERTEX
  5
7E
100
AcDbEntity
  8
BLACK
 62
     7
100
AcDbVertex
100
AcDb2dVertex
 10
11.742
 20
19.43
 30
0.0
 42
-0.184
  0
VERTEX
  5
7F
100
AcDbEntity
  8
BLACK
 62
     7
100
AcDbVertex
100
AcDb2dVertex
 10
11.776
 20
19.463
 30
0.0
 42
-0.059
  0
VERTEX
  5
80
100
AcDbEntity
  8
BLACK
 62
     7
100
AcDbVertex
100
AcDb2dVertex
 10
11.885
 20
19.502
 30
0.0
  0
VERTEX
  5
81
100
AcDbEntity
  8
BLACK
 62
     7
100
AcDbVertex
100
AcDb2dVertex
 10
11.969
 20
19.521
 30
0.0
 42
0.093
  0
VERTEX
  5
82
100
AcDbEntity
  8
BLACK
 62
     7
100
AcDbVertex
100
AcDb2dVertex
 10
11.993
 20
19.533
 30
0.0
 42
0.224
  0
VERTEX
  5
83
100
AcDbEntity
  8
BLACK
 62
     7
100
AcDbVertex
100
AcDb2dVertex
 10
12.003
 20
19.552
 30
0.0
 42
0.129
  0
VERTEX
  5
84
100
AcDbEntity
  8
BLACK
 62
     7
100
AcDbVertex
100
AcDb2dVertex
 10
11.994
 20
19.58
 30
0.0
 42
0.046
  0
VERTEX
  5
85
100
AcDbEntity
  8
BLACK
 62
     7
100
AcDbVertex
100
AcDb2dVertex
 10
11.965
 20
19.623
 30
0.0
 42
0.049
  0
VERTEX
  5
86
100
AcDbEntity
  8
BLACK
 62
     7
100
AcDbVertex
100
AcDb2dVertex
 10
11.931
 20
19.658
 30
0.0
 42
0.069
  0
VERTEX
  5
87
100
AcDbEntity
  8
BLACK
 62
     7
100
AcDbVertex
100
AcDb2dVertex
 10
11.895
 20
19.677
 30
0.0
  0
VERTEX
  5
88
100
AcDbEntity
  8
BLACK
 62
     7
100
AcDbVertex
100
AcDb2dVertex
 10
11.832
 20
19.7
 30
0.0
 42
0.017
  0
VERTEX
  5
89
100
AcDbEntity
  8
BLACK
 62
     7
100
AcDbVertex
100
AcDb2dVertex
 10
11.637
 20
19.753
 30
0.0
 42
0.021
  0
VERTEX
  5
8A
100
AcDbEntity
  8
BLACK
 62
     7
100
AcDbVertex
100
AcDb2dVertex
 10
10.535
 20
19.964
 30
0.0
 42
0.029
  0
VERTEX
  5
8B
100
AcDbEntity
  8
BLACK
 62
     7
100
AcDbVertex
100
AcDb2dVertex
 10
10.268
 20
19.993
 30
0.0
 42
0.051
  0
VERTEX
  5
8C
100
AcDbEntity
  8
BLACK
 62
     7
100
AcDbVertex
100
AcDb2dVertex
 10
10.228
 20
19.991
 30
0.0
 42
0.039
  0
VERTEX
  5
8D
100
AcDbEntity
  8
BLACK
 62
     7
100
AcDbVertex
100
AcDb2dVertex
 10
10.132
 20
19.962
 30
0.0
  0
VERTEX
  5
8E
100
AcDbEntity
  8
BLACK
 62
     7
100
AcDbVertex
100
AcDb2dVertex
 10
10.038
 20
19.925
 30
0.0
 42
-0.099
  0
VERTEX
  5
8F
100
AcDbEntity
  8
BLACK
 62
     7
100
AcDbVertex
100
AcDb2dVertex
 10
9.839
 20
19.88
 30
0.0
 42
-0.062
  0
VERTEX
  5
90
100
AcDbEntity
  8
BLACK
 62
     7
100
AcDbVertex
100
AcDb2dVertex
 10
9.676
 20
19.908
 30
0.0
  0
VERTEX
  5
91
100
AcDbEntity
  8
BLACK
 62
     7
100
AcDbVertex
100
AcDb2dVertex
 10
9.508
 20
19.956
 30
0.0
 42
0.058
  0
VERTEX
  5
92
100
AcDbEntity
  8
BLACK
 62
     7
100
AcDbVertex
100
AcDb2dVertex
 10
9.478
 20
19.961
 30
0.0
 42
0.058
  0
VERTEX
  5
93
100
AcDbEntity
  8
BLACK
 62
     7
100
AcDbVertex
100
AcDb2dVertex
 10
9.447
 20
19.957
 30
0.0
  0
SEQEND
  5
94
100
AcDbEntity
  8
BLACK
 62
     7
  0
POLYLINE
  5
95
100
AcDbEntity
  8
BLACK
 62
     7
100
AcDb2dPolyline
 66
     1
 10
0.0
 20
0.0
 30
0.0
 70
     1
  0
VERTEX
  5
96
100
AcDbEntity
  8
BLACK
 62
     7
100
AcDbVertex
100
AcDb2dVertex
 10
8.349
 20
17.448
 30
0.0
  0
VERTEX
  5
97
100
AcDbEntity
  8
BLACK
 62
     7
100
AcDbVertex
100
AcDb2dVertex
 10
6.907
 20
17.422
 30
0.0
 42
0.047
  0
VERTEX
  5
98
100
AcDbEntity
  8
BLACK
 62
     7
100
AcDbVertex
100
AcDb2dVertex
 10
6.878
 20
17.42
 30
0.0
 42
0.107
  0
VERTEX
  5
99
100
AcDbEntity
  8
BLACK
 62
     7
100
AcDbVertex
100
AcDb2dVertex
 10
6.862
 20
17.412
 30
0.0
 42
0.2
  0
VERTEX
  5
9A
100
AcDbEntity
  8
BLACK
 62
     7
100
AcDbVertex
100
AcDb2dVertex
 10
6.83
 20
17.366
 30
0.0
 42
0.153
  0
VERTEX
  5
9B
100
AcDbEntity
  8
BLACK
 62
     7
100
AcDbVertex
100
AcDb2dVertex
 10
6.841
 20
17.301
 30
0.0
 42
0.052
  0
VERTEX
  5
9C
100
AcDbEntity
  8
BLACK
 62
     7
100
AcDbVertex
100
AcDb2dVertex
 10
6.86
 20
17.268
 30
0.0
  0
VERTEX
  5
9D
100
AcDbEntity
  8
BLACK
 62
     7
100
AcDbVertex
100
AcDb2dVertex
 10
6.883
 20
17.238
 30
0.0
 42
-0.118
  0
VERTEX
  5
9E
100
AcDbEntity
  8
BLACK
 62
     7
100
AcDbVertex
100
AcDb2dVertex
 10
6.918
 20
17.171
 30
0.0
 42
-0.086
  0
VERTEX
  5
9F
100
AcDbEntity
  8
BLACK
 62
     7
100
AcDbVertex
100
AcDb2dVertex
 10
6.915
 20
17.085
 30
0.0
  0
VERTEX
  5
A0
100
AcDbEntity
  8
BLACK
 62
     7
100
AcDbVertex
100
AcDb2dVertex
 10
6.899
 20
16.991
 30
0.0
 42
0.04
  0
VERTEX
  5
A1
100
AcDbEntity
  8
BLACK
 62
     7
100
AcDbVertex
100
AcDb2dVertex
 10
6.897
 20
16.975
 30
0.0
 42
0.065
  0
VERTEX
  5
A2
100
AcDbEntity
  8
BLACK
 62
     7
100
AcDbVertex
100
AcDb2dVertex
 10
6.898
 20
16.969
 30
0.0
 42
0.112
  0
VERTEX
  5
A3
100
AcDbEntity
  8
BLACK
 62
     7
100
AcDbVertex
100
AcDb2dVertex
 10
6.9
 20
16.966
 30
0.0
 42
0.112
  0
VERTEX
  5
A4
100
AcDbEntity
  8
BLACK
 62
     7
100
AcDbVertex
100
AcDb2dVertex
 10
6.904
 20
16.963
 30
0.0
 42
0.065
  0
VERTEX
  5
A5
100
AcDbEntity
  8
BLACK
 62
     7
100
AcDbVertex
100
AcDb2dVertex
 10
6.909
 20
16.962
 30
0.0
 42
0.04
  0
VERTEX
  5
A6
100
AcDbEntity
  8
BLACK
 62
     7
100
AcDbVertex
100
AcDb2dVertex
 10
6.926
 20
16.962
 30
0.0
  0
VERTEX
  5
A7
100
AcDbEntity
  8
BLACK
 62
     7
100
AcDbVertex
100
AcDb2dVertex
 10
7.187
 20
16.974
 30
0.0
 42
-0.018
  0
VERTEX
  5
A8
100
AcDbEntity
  8
BLACK
 62
     7
100
AcDbVertex
100
AcDb2dVertex
 10
7.45
 20
16.977
 30
0.0
 42
-0.03
  0
VERTEX
  5
A9
100
AcDbEntity
  8
BLACK
 62
     7
100
AcDbVertex
100
AcDb2dVertex
 10
7.79
 20
16.94
 30
0.0
 42
-0.009
  0
VERTEX
  5
AA
100
AcDbEntity
  8
BLACK
 62
     7
100
AcDbVertex
100
AcDb2dVertex
 10
8.2
 20
16.867
 30
0.0
  0
VERTEX
  5
AB
100
AcDbEntity
  8
BLACK
 62
     7
100
AcDbVertex
100
AcDb2dVertex
 10
8.635
 20
16.782
 30
0.0
 42
0.012
  0
VERTEX
  5
AC
100
AcDbEntity
  8
BLACK
 62
     7
100
AcDbVertex
100
AcDb2dVertex
 10
9.047
 20
16.713
 30
0.0
 42
0.034
  0
VERTEX
  5
AD
100
AcDbEntity
  8
BLACK
 62
     7
100
AcDbVertex
100
AcDb2dVertex
 10
9.847
 20
16.669
 30
0.0
 42
0.022
  0
VERTEX
  5
AE
100
AcDbEntity
  8
BLACK
 62
     7
100
AcDbVertex
100
AcDb2dVertex
 10
10.773
 20
16.717
 30
0.0
 42
0.021
  0
VERTEX
  5
AF
100
AcDbEntity
  8
BLACK
 62
     7
100
AcDbVertex
100
AcDb2dVertex
 10
11.683
 20
16.839
 30
0.0
 42
0.033
  0
VERTEX
  5
B0
100
AcDbEntity
  8
BLACK
 62
     7
100
AcDbVertex
100
AcDb2dVertex
 10
12.437
 20
17.018
 30
0.0
 42
0.026
  0
VERTEX
  5
B1
100
AcDbEntity
  8
BLACK
 62
     7
100
AcDbVertex
100
AcDb2dVertex
 10
13.429
 20
17.387
 30
0.0
 42
0.038
  0
VERTEX
  5
B2
100
AcDbEntity
  8
BLACK
 62
     7
100
AcDbVertex
100
AcDb2dVertex
 10
14.177
 20
17.781
 30
0.0
 42
0.027
  0
VERTEX
  5
B3
100
AcDbEntity
  8
BLACK
 62
     7
100
AcDbVertex
100
AcDb2dVertex
 10
14.868
 20
18.278
 30
0.0
 42
0.005
  0
VERTEX
  5
B4
100
AcDbEntity
  8
BLACK
 62
     7
100
AcDbVertex
100
AcDb2dVertex
 10
15.691
 20
18.952
 30
0.0
  0
VERTEX
  5
B5
100
AcDbEntity
  8
BLACK
 62
     7
100
AcDbVertex
100
AcDb2dVertex
 10
15.704
 20
18.964
 30
0.0
 42
0.073
  0
VERTEX
  5
B6
100
AcDbEntity
  8
BLACK
 62
     7
100
AcDbVertex
100
AcDb2dVertex
 10
15.712
 20
18.973
 30
0.0
 42
0.09
  0
VERTEX
  5
B7
100
AcDbEntity
  8
BLACK
 62
     7
100
AcDbVertex
100
AcDb2dVertex
 10
15.715
 20
18.983
 30
0.0
 42
0.036
  0
VERTEX
  5
B8
100
AcDbEntity
  8
BLACK
 62
     7
100
AcDbVertex
100
AcDb2dVertex
 10
15.715
 20
18.997
 30
0.0
  0
VERTEX
  5
B9
100
AcDbEntity
  8
BLACK
 62
     7
100
AcDbVertex
100
AcDb2dVertex
 10
15.715
 20
19.03
 30
0.0
 42
0.036
  0
VERTEX
  5
BA
100
AcDbEntity
  8
BLACK
 62
     7
100
AcDbVertex
100
AcDb2dVertex
 10
15.715
 20
19.044
 30
0.0
 42
0.054
  0
VERTEX
  5
BB
100
AcDbEntity
  8
BLACK
 62
     7
100
AcDbVertex
100
AcDb2dVertex
 10
15.715
 20
19.045
 30
0.0
 42
0.106
  0
VERTEX
  5
BC
100
AcDbEntity
  8
BLACK
 62
     7
100
AcDbVertex
100
AcDb2dVertex
 10
15.714
 20
19.046
 30
0.0
 42
0.124
  0
VERTEX
  5
BD
100
AcDbEntity
  8
BLACK
 62
     7
100
AcDbVertex
100
AcDb2dVertex
 10
15.713
 20
19.046
 30
0.0
 42
0.065
  0
VERTEX
  5
BE
100
AcDbEntity
  8
BLACK
 62
     7
100
AcDbVertex
100
AcDb2dVertex
 10
15.712
 20
19.046
 30
0.0
  0
VERTEX
  5
BF
100
AcDbEntity
  8
BLACK
 62
     7
100
AcDbVertex
100
AcDb2dVertex
 10
15.706
 20
19.046
 30
0.0
 42
-0.102
  0
VERTEX
  5
C0
100
AcDbEntity
  8
BLACK
 62
     7
100
AcDbVertex
100
AcDb2dVertex
 10
15.704
 20
19.047
 30
0.0
 42
-0.136
  0
VERTEX
  5
C1
100
AcDbEntity
  8
BLACK
 62
     7
100
AcDbVertex
100
AcDb2dVertex
 10
15.701
 20
19.049
 30
0.0
 42
-0.048
  0
VERTEX
  5
C2
100
AcDbEntity
  8
BLACK
 62
     7
100
AcDbVertex
100
AcDb2dVertex
 10
15.699
 20
19.053
 30
0.0
  0
VERTEX
  5
C3
100
AcDbEntity
  8
BLACK
 62
     7
100
AcDbVertex
100
AcDb2dVertex
 10
15.696
 20
19.06
 30
0.0
 42
0.045
  0
VERTEX
  5
C4
100
AcDbEntity
  8
BLACK
 62
     7
100
AcDbVertex
100
AcDb2dVertex
 10
15.687
 20
19.078
 30
0.0
 42
0.145
  0
VERTEX
  5
C5
100
AcDbEntity
  8
BLACK
 62
     7
100
AcDbVertex
100
AcDb2dVertex
 10
15.678
 20
19.086
 30
0.0
 42
0.169
  0
VERTEX
  5
C6
100
AcDbEntity
  8
BLACK
 62
     7
100
AcDbVertex
100
AcDb2dVertex
 10
15.667
 20
19.087
 30
0.0
 42
0.054
  0
VERTEX
  5
C7
100
AcDbEntity
  8
BLACK
 62
     7
100
AcDbVertex
100
AcDb2dVertex
 10
15.652
 20
19.081
 30
0.0
 42
-0.053
  0
VERTEX
  5
C8
100
AcDbEntity
  8
BLACK
 62
     7
100
AcDbVertex
100
AcDb2dVertex
 10
15.507
 20
19.019
 30
0.0
 42
-0.183
  0
VERTEX
  5
C9
100
AcDbEntity
  8
BLACK
 62
     7
100
AcDbVertex
100
AcDb2dVertex
 10
15.445
 20
19.019
 30
0.0
 42
-0.187
  0
VERTEX
  5
CA
100
AcDbEntity
  8
BLACK
 62
     7
100
AcDbVertex
100
AcDb2dVertex
 10
15.41
 20
19.056
 30
0.0
 42
-0.091
  0
VERTEX
  5
CB
100
AcDbEntity
  8
BLACK
 62
     7
100
AcDbVertex
100
AcDb2dVertex
 10
15.401
 20
19.089
 30
0.0
 42
-0.152
  0
VERTEX
  5
CC
100
AcDbEntity
  8
BLACK
 62
     7
100
AcDbVertex
100
AcDb2dVertex
 10
15.406
 20
19.112
 30
0.0
 42
-0.116
  0
VERTEX
  5
CD
100
AcDbEntity
  8
BLACK
 62
     7
100
AcDbVertex
100
AcDb2dVertex
 10
15.423
 20
19.129
 30
0.0
 42
-0.048
  0
VERTEX
  5
CE
100
AcDbEntity
  8
BLACK
 62
     7
100
AcDbVertex
100
AcDb2dVertex
 10
15.449
 20
19.142
 30
0.0
  0
VERTEX
  5
CF
100
AcDbEntity
  8
BLACK
 62
     7
100
AcDbVertex
100
AcDb2dVertex
 10
15.518
 20
19.168
 30
0.0
 42
0.085
  0
VERTEX
  5
D0
100
AcDbEntity
  8
BLACK
 62
     7
100
AcDbVertex
100
AcDb2dVertex
 10
15.59
 20
19.213
 30
0.0
 42
0.198
  0
VERTEX
  5
D1
100
AcDbEntity
  8
BLACK
 62
     7
100
AcDbVertex
100
AcDb2dVertex
 10
15.605
 20
19.242
 30
0.0
 42
0.149
  0
VERTEX
  5
D2
100
AcDbEntity
  8
BLACK
 62
     7
100
AcDbVertex
100
AcDb2dVertex
 10
15.597
 20
19.272
 30
0.0
 42
0.13
  0
VERTEX
  5
D3
100
AcDbEntity
  8
BLACK
 62
     7
100
AcDbVertex
100
AcDb2dVertex
 10
15.54
 20
19.324
 30
0.0
 42
0.075
  0
VERTEX
  5
D4
100
AcDbEntity
  8
BLACK
 62
     7
100
AcDbVertex
100
AcDb2dVertex
 10
15.405
 20
19.364
 30
0.0
 42
0.025
  0
VERTEX
  5
D5
100
AcDbEntity
  8
BLACK
 62
     7
100
AcDbVertex
100
AcDb2dVertex
 10
15.192
 20
19.389
 30
0.0
 42
0.023
  0
VERTEX
  5
D6
100
AcDbEntity
  8
BLACK
 62
     7
100
AcDbVertex
100
AcDb2dVertex
 10
14.633
 20
19.4
 30
0.0
 42
0.019
  0
VERTEX
  5
D7
100
AcDbEntity
  8
BLACK
 62
     7
100
AcDbVertex
100
AcDb2dVertex
 10
14.072
 20
19.369
 30
0.0
 42
0.017
  0
VERTEX
  5
D8
100
AcDbEntity
  8
BLACK
 62
     7
100
AcDbVertex
100
AcDb2dVertex
 10
13.856
 20
19.341
 30
0.0
 42
0.048
  0
VERTEX
  5
D9
100
AcDbEntity
  8
BLACK
 62
     7
100
AcDbVertex
100
AcDb2dVertex
 10
13.717
 20
19.307
 30
0.0
 42
0.027
  0
VERTEX
  5
DA
100
AcDbEntity
  8
BLACK
 62
     7
100
AcDbVertex
100
AcDb2dVertex
 10
13.56
 20
19.231
 30
0.0
 42
-0.053
  0
VERTEX
  5
DB
100
AcDbEntity
  8
BLACK
 62
     7
100
AcDbVertex
100
AcDb2dVertex
 10
13.423
 20
19.171
 30
0.0
 42
-0.093
  0
VERTEX
  5
DC
100
AcDbEntity
  8
BLACK
 62
     7
100
AcDbVertex
100
AcDb2dVertex
 10
13.271
 20
19.165
 30
0.0
 42
0.007
  0
VERTEX
  5
DD
100
AcDbEntity
  8
BLACK
 62
     7
100
AcDbVertex
100
AcDb2dVertex
 10
13.104
 20
19.185
 30
0.0
 42
0.054
  0
VERTEX
  5
DE
100
AcDbEntity
  8
BLACK
 62
     7
100
AcDbVertex
100
AcDb2dVertex
 10
13.097
 20
19.185
 30
0.0
  0
VERTEX
  5
DF
100
AcDbEntity
  8
BLACK
 62
     7
100
AcDbVertex
100
AcDb2dVertex
 10
13.057
 20
19.174
 30
0.0
  0
VERTEX
  5
E0
100
AcDbEntity
  8
BLACK
 62
     7
100
AcDbVertex
100
AcDb2dVertex
 10
12.962
 20
19.138
 30
0.0
 42
0.008
  0
VERTEX
  5
E1
100
AcDbEntity
  8
BLACK
 62
     7
100
AcDbVertex
100
AcDb2dVertex
 10
12.646
 20
19.005
 30
0.0
 42
0.002
  0
VERTEX
  5
E2
100
AcDbEntity
  8
BLACK
 62
     7
100
AcDbVertex
100
AcDb2dVertex
 10
11.083
 20
18.302
 30
0.0
  0
VERTEX
  5
E3
100
AcDbEntity
  8
BLACK
 62
     7
100
AcDbVertex
100
AcDb2dVertex
 10
10.499
 20
18.04
 30
0.0
 42
-0.007
  0
VERTEX
  5
E4
100
AcDbEntity
  8
BLACK
 62
     7
100
AcDbVertex
100
AcDb2dVertex
 10
9.492
 20
17.602
 30
0.0
 42
-0.046
  0
VERTEX
  5
E5
100
AcDbEntity
  8
BLACK
 62
     7
100
AcDbVertex
100
AcDb2dVertex
 10
9.156
 20
17.492
 30
0.0
 42
-0.047
  0
VERTEX
  5
E6
100
AcDbEntity
  8
BLACK
 62
     7
100
AcDbVertex
100
AcDb2dVertex
 10
8.986
 20
17.472
 30
0.0
 42
-0.072
  0
VERTEX
  5
E7
100
AcDbEntity
  8
BLACK
 62
     7
100
AcDbVertex
100
AcDb2dVertex
 10
8.825
 20
17.491
 30
0.0
 42
-0.013
  0
VERTEX
  5
E8
100
AcDbEntity
  8
BLACK
 62
     7
100
AcDbVertex
100
AcDb2dVertex
 10
8.712
 20
17.53
 30
0.0
 42
0.112
  0
VERTEX
  5
E9
100
AcDbEntity
  8
BLACK
 62
     7
100
AcDbVertex
100
AcDb2dVertex
 10
8.603
 20
17.546
 30
0.0
 42
0.085
  0
VERTEX
  5
EA
100
AcDbEntity
  8
BLACK
 62
     7
100
AcDbVertex
100
AcDb2dVertex
 10
8.506
 20
17.512
 30
0.0
  0
VERTEX
  5
EB
100
AcDbEntity
  8
BLACK
 62
     7
100
AcDbVertex
100
AcDb2dVertex
 10
8.409
 20
17.462
 30
0.0
 42
-0.144
  0
VERTEX
  5
EC
100
AcDbEntity
  8
BLACK
 62
     7
100
AcDbVertex
100
AcDb2dVertex
 10
8.349
 20
17.448
 30
0.0
  0
SEQEND
  5
ED
100
AcDbEntity
  8
BLACK
 62
     7
  0
POLYLINE
  5
EE
100
AcDbEntity
  8
BLACK
 62
     7
100
AcDb2dPolyline
 66
     1
 10
0.0
 20
0.0
 30
0.0
 70
     1
  0
VERTEX
  5
EF
100
AcDbEntity
  8
BLACK
 62
     7
100
AcDbVertex
100
AcDb2dVertex
 10
9.063
 20
18.661
 30
0.0
  0
VERTEX
  5
F0
100
AcDbEntity
  8
BLACK
 62
     7
100
AcDbVertex
100
AcDb2dVertex
 10
9.043
 20
18.681
 30
0.0
 42
-0.246
  0
VERTEX
  5
F1
100
AcDbEntity
  8
BLACK
 62
     7
100
AcDbVertex
100
AcDb2dVertex
 10
9.038
 20
18.694
 30
0.0
 42
-0.064
  0
VERTEX
  5
F2
100
AcDbEntity
  8
BLACK
 62
     7
100
AcDbVertex
100
AcDb2dVertex
 10
9.041
 20
18.704
 30
0.0
  0
VERTEX
  5
F3
100
AcDbEntity
  8
BLACK
 62
     7
100
AcDbVertex
100
AcDb2dVertex
 10
9.047
 20
18.717
 30
0.0
  0
VERTEX
  5
F4
100
AcDbEntity
  8
BLACK
 62
     7
100
AcDbVertex
100
AcDb2dVertex
 10
9.269
 20
19.157
 30
0.0
  0
VERTEX
  5
F5
100
AcDbEntity
  8
BLACK
 62
     7
100
AcDbVertex
100
AcDb2dVertex
 10
9.277
 20
19.172
 30
0.0
 42
-0.088
  0
VERTEX
  5
F6
100
AcDbEntity
  8
BLACK
 62
     7
100
AcDbVertex
100
AcDb2dVertex
 10
9.284
 20
19.18
 30
0.0
 42
-0.145
  0
VERTEX
  5
F7
100
AcDbEntity
  8
BLACK
 62
     7
100
AcDbVertex
100
AcDb2dVertex
 10
9.292
 20
19.183
 30
0.0
 42
-0.058
  0
VERTEX
  5
F8
100
AcDbEntity
  8
BLACK
 62
     7
100
AcDbVertex
100
AcDb2dVertex
 10
9.302
 20
19.183
 30
0.0
 42
-0.052
  0
VERTEX
  5
F9
100
AcDbEntity
  8
BLACK
 62
     7
100
AcDbVertex
100
AcDb2dVertex
 10
9.329
 20
19.177
 30
0.0
 42
-0.074
  0
VERTEX
  5
FA
100
AcDbEntity
  8
BLACK
 62
     7
100
AcDbVertex
100
AcDb2dVertex
 10
9.338
 20
19.173
 30
0.0
 42
-0.116
  0
VERTEX
  5
FB
100
AcDbEntity
  8
BLACK
 62
     7
100
AcDbVertex
100
AcDb2dVertex
 10
9.343
 20
19.167
 30
0.0
 42
-0.108
  0
VERTEX
  5
FC
100
AcDbEntity
  8
BLACK
 62
     7
100
AcDbVertex
100
AcDb2dVertex
 10
9.345
 20
19.159
 30
0.0
 42
-0.064
  0
VERTEX
  5
FD
100
AcDbEntity
  8
BLACK
 62
     7
100
AcDbVertex
100
AcDb2dVertex
 10
9.343
 20
19.148
 30
0.0
 42
-0.047
  0
VERTEX
  5
FE
100
AcDbEntity
  8
BLACK
 62
     7
100
AcDbVertex
100
AcDb2dVertex
 10
9.332
 20
19.118
 30
0.0
 42
-0.019
  0
VERTEX
  5
FF
100
AcDbEntity
  8
BLACK
 62
     7
100
AcDbVertex
100
AcDb2dVertex
 10
9.225
 20
18.911
 30
0.0
  0
VERTEX
  5
100
100
AcDbEntity
  8
BLACK
 62
     7
100
AcDbVertex
100
AcDb2dVertex
 10
9.093
 20
18.674
 30
0.0
  0
VERTEX
  5
101
100
AcDbEntity
  8
BLACK
 62
     7
100
AcDbVertex
100
AcDb2dVertex
 10
9.084
 20
18.66
 30
0.0
 42
-0.044
  0
VERTEX
  5
102
100
AcDbEntity
  8
BLACK
 62
     7
100
AcDbVertex
100
AcDb2dVertex
 10
9.081
 20
18.656
 30
0.0
 42
-0.093
  0
VERTEX
  5
103
100
AcDbEntity
  8
BLACK
 62
     7
100
AcDbVertex
100
AcDb2dVertex
 10
9.078
 20
18.653
 30
0.0
 42
-0.137
  0
VERTEX
  5
104
100
AcDbEntity
  8
BLACK
 62
     7
100
AcDbVertex
100
AcDb2dVertex
 10
9.075
 20
18.653
 30
0.0
 42
-0.098
  0
VERTEX
  5
105
100
AcDbEntity
  8
BLACK
 62
     7
100
AcDbVertex
100
AcDb2dVertex
 10
9.071
 20
18.654
 30
0.0
 42
-0.061
  0
VERTEX
  5
106
100
AcDbEntity
  8
BLACK
 62
     7
100
AcDbVertex
100
AcDb2dVertex
 10
9.063
 20
18.661
 30
0.0
  0
SEQEND
  5
107
100
AcDbEntity
  8
BLACK
 62
     7
  0
POLYLINE
  5
108
100
AcDbEntity
  8
BLACK
 62
     7
100
AcDb2dPolyline
 66
     1
 10
0.0
 20
0.0
 30
0.0
 70
     1
  0
VERTEX
  5
109
100
AcDbEntity
  8
BLACK
 62
     7
100
AcDbVertex
100
AcDb2dVertex
 10
13.009
 20
18.37
 30
0.0
  0
VERTEX
  5
10A
100
AcDbEntity
  8
BLACK
 62
     7
100
AcDbVertex
100
AcDb2dVertex
 10
12.837
 20
17.923
 30
0.0
  0
VERTEX
  5
10B
100
AcDbEntity
  8
BLACK
 62
     7
100
AcDbVertex
100
AcDb2dVertex
 10
12.83
 20
17.907
 30
0.0
 42
-0.09
  0
VERTEX
  5
10C
100
AcDbEntity
  8
BLACK
 62
     7
100
AcDbVertex
100
AcDb2dVertex
 10
12.824
 20
17.898
 30
0.0
 42
-0.12
  0
VERTEX
  5
10D
100
AcDbEntity
  8
BLACK
 62
     7
100
AcDbVertex
100
AcDb2dVertex
 10
12.816
 20
17.893
 30
0.0
 42
-0.045
  0
VERTEX
  5
10E
100
AcDbEntity
  8
BLACK
 62
     7
100
AcDbVertex
100
AcDb2dVertex
 10
12.803
 20
17.891
 30
0.0
 42
-0.05
  0
VERTEX
  5
10F
100
AcDbEntity
  8
BLACK
 62
     7
100
AcDbVertex
100
AcDb2dVertex
 10
12.767
 20
17.89
 30
0.0
 42
-0.101
  0
VERTEX
  5
110
100
AcDbEntity
  8
BLACK
 62
     7
100
AcDbVertex
100
AcDb2dVertex
 10
12.756
 20
17.894
 30
0.0
 42
-0.165
  0
VERTEX
  5
111
100
AcDbEntity
  8
BLACK
 62
     7
100
AcDbVertex
100
AcDb2dVertex
 10
12.749
 20
17.901
 30
0.0
 42
-0.109
  0
VERTEX
  5
112
100
AcDbEntity
  8
BLACK
 62
     7
100
AcDbVertex
100
AcDb2dVertex
 10
12.748
 20
17.913
 30
0.0
 42
-0.049
  0
VERTEX
  5
113
100
AcDbEntity
  8
BLACK
 62
     7
100
AcDbVertex
100
AcDb2dVertex
 10
12.75
 20
17.932
 30
0.0
 42
-0.031
  0
VERTEX
  5
114
100
AcDbEntity
  8
BLACK
 62
     7
100
AcDbVertex
100
AcDb2dVertex
 10
12.77
 20
17.991
 30
0.0
 42
-0.012
  0
VERTEX
  5
115
100
AcDbEntity
  8
BLACK
 62
     7
100
AcDbVertex
100
AcDb2dVertex
 10
12.952
 20
18.407
 30
0.0
 42
-0.037
  0
VERTEX
  5
116
100
AcDbEntity
  8
BLACK
 62
     7
100
AcDbVertex
100
AcDb2dVertex
 10
12.964
 20
18.431
 30
0.0
 42
-0.108
  0
VERTEX
  5
117
100
AcDbEntity
  8
BLACK
 62
     7
100
AcDbVertex
100
AcDb2dVertex
 10
12.968
 20
18.435
 30
0.0
 42
-0.111
  0
VERTEX
  5
118
100
AcDbEntity
  8
BLACK
 62
     7
100
AcDbVertex
100
AcDb2dVertex
 10
12.972
 20
18.436
 30
0.0
 42
-0.06
  0
VERTEX
  5
119
100
AcDbEntity
  8
BLACK
 62
     7
100
AcDbVertex
100
AcDb2dVertex
 10
12.983
 20
18.436
 30
0.0
 42
-0.103
  0
VERTEX
  5
11A
100
AcDbEntity
  8
BLACK
 62
     7
100
AcDbVertex
100
AcDb2dVertex
 10
12.991
 20
18.433
 30
0.0
 42
-0.074
  0
VERTEX
  5
11B
100
AcDbEntity
  8
BLACK
 62
     7
100
AcDbVertex
100
AcDb2dVertex
 10
13.0
 20
18.426
 30
0.0
 42
-0.032
  0
VERTEX
  5
11C
100
AcDbEntity
  8
BLACK
 62
     7
100
AcDbVertex
100
AcDb2dVertex
 10
13.011
 20
18.413
 30
0.0
 42
-0.056
  0
VERTEX
  5
11D
100
AcDbEntity
  8
BLACK
 62
     7
100
AcDbVertex
100
AcDb2dVertex
 10
13.016
 20
18.404
 30
0.0
 42
-0.112
  0
VERTEX
  5
11E
100
AcDbEntity
  8
BLACK
 62
     7
100
AcDbVertex
100
AcDb2dVertex
 10
13.017
 20
18.397
 30
0.0
 42
-0.063
  0
VERTEX
  5
11F
100
AcDbEntity
  8
BLACK
 62
     7
100
AcDbVertex
100
AcDb2dVertex
 10
13.015
 20
18.386
 30
0.0
  0
VERTEX
  5
120
100
AcDbEntity
  8
BLACK
 62
     7
100
AcDbVertex
100
AcDb2dVertex
 10
13.009
 20
18.37
 30
0.0
  0
SEQEND
  5
121
100
AcDbEntity
  8
BLACK
 62
     7
  0
POLYLINE
  5
122
100
AcDbEntity
  8
BLACK
 62
     7
100
AcDb2dPolyline
 66
     1
 10
0.0
 20
0.0
 30
0.0
 70
     1
  0
VERTEX
  5
123
100
AcDbEntity
  8
BLACK
 62
     7
100
AcDbVertex
100
AcDb2dVertex
 10
11.427
 20
14.684
 30
0.0
  0
VERTEX
  5
124
100
AcDbEntity
  8
BLACK
 62
     7
100
AcDbVertex
100
AcDb2dVertex
 10
11.432
 20
14.684
 30
0.0
 42
0.083
  0
VERTEX
  5
125
100
AcDbEntity
  8
BLACK
 62
     7
100
AcDbVertex
100
AcDb2dVertex
 10
11.433
 20
14.685
 30
0.0
 42
0.146
  0
VERTEX
  5
126
100
AcDbEntity
  8
BLACK
 62
     7
100
AcDbVertex
100
AcDb2dVertex
 10
11.435
 20
14.685
 30
0.0
 42
0.1
  0
VERTEX
  5
127
100
AcDbEntity
  8
BLACK
 62
     7
100
AcDbVertex
100
AcDb2dVertex
 10
11.435
 20
14.687
 30
0.0
 42
0.045
  0
VERTEX
  5
128
100
AcDbEntity
  8
BLACK
 62
     7
100
AcDbVertex
100
AcDb2dVertex
 10
11.436
 20
14.689
 30
0.0
 42
0.028
  0
VERTEX
  5
129
100
AcDbEntity
  8
BLACK
 62
     7
100
AcDbVertex
100
AcDb2dVertex
 10
11.435
 20
14.716
 30
0.0
  0
VERTEX
  5
12A
100
AcDbEntity
  8
BLACK
 62
     7
100
AcDbVertex
100
AcDb2dVertex
 10
11.428
 20
14.793
 30
0.0
 42
0.119
  0
VERTEX
  5
12B
100
AcDbEntity
  8
BLACK
 62
     7
100
AcDbVertex
100
AcDb2dVertex
 10
11.408
 20
14.845
 30
0.0
 42
0.089
  0
VERTEX
  5
12C
100
AcDbEntity
  8
BLACK
 62
     7
100
AcDbVertex
100
AcDb2dVertex
 10
11.356
 20
14.89
 30
0.0
 42
0.022
  0
VERTEX
  5
12D
100
AcDbEntity
  8
BLACK
 62
     7
100
AcDbVertex
100
AcDb2dVertex
 10
11.256
 20
14.948
 30
0.0
 42
0.017
  0
VERTEX
  5
12E
100
AcDbEntity
  8
BLACK
 62
     7
100
AcDbVertex
100
AcDb2dVertex
 10
10.91
 20
15.127
 30
0.0
 42
0.062
  0
VERTEX
  5
12F
100
AcDbEntity
  8
BLACK
 62
     7
100
AcDbVertex
100
AcDb2dVertex
 10
10.562
 20
15.24
 30
0.0
 42
0.02
  0
VERTEX
  5
130
100
AcDbEntity
  8
BLACK
 62
     7
100
AcDbVertex
100
AcDb2dVertex
 10
10.224
 20
15.285
 30
0.0
  0
VERTEX
  5
131
100
AcDbEntity
  8
BLACK
 62
     7
100
AcDbVertex
100
AcDb2dVertex
 10
9.85
 20
15.318
 30
0.0
 42
-0.01
  0
VERTEX
  5
132
100
AcDbEntity
  8
BLACK
 62
     7
100
AcDbVertex
100
AcDb2dVertex
 10
9.524
 20
15.35
 30
0.0
 42
-0.019
  0
VERTEX
  5
133
100
AcDbEntity
  8
BLACK
 62
     7
100
AcDbVertex
100
AcDb2dVertex
 10
9.403
 20
15.369
 30
0.0
 42
-0.057
  0
VERTEX
  5
134
100
AcDbEntity
  8
BLACK
 62
     7
100
AcDbVertex
100
AcDb2dVertex
 10
9.325
 20
15.393
 30
0.0
 42
-0.035
  0
VERTEX
  5
135
100
AcDbEntity
  8
BLACK
 62
     7
100
AcDbVertex
100
AcDb2dVertex
 10
9.237
 20
15.445
 30
0.0
  0
VERTEX
  5
136
100
AcDbEntity
  8
BLACK
 62
     7
100
AcDbVertex
100
AcDb2dVertex
 10
9.157
 20
15.501
 30
0.0
 42
0.088
  0
VERTEX
  5
137
100
AcDbEntity
  8
BLACK
 62
     7
100
AcDbVertex
100
AcDb2dVertex
 10
8.992
 20
15.587
 30
0.0
 42
0.081
  0
VERTEX
  5
138
100
AcDbEntity
  8
BLACK
 62
     7
100
AcDbVertex
100
AcDb2dVertex
 10
8.772
 20
15.599
 30
0.0
  0
VERTEX
  5
139
100
AcDbEntity
  8
BLACK
 62
     7
100
AcDbVertex
100
AcDb2dVertex
 10
8.591
 20
15.588
 30
0.0
 42
-0.036
  0
VERTEX
  5
13A
100
AcDbEntity
  8
BLACK
 62
     7
100
AcDbVertex
100
AcDb2dVertex
 10
8.465
 20
15.588
 30
0.0
 42
-0.058
  0
VERTEX
  5
13B
100
AcDbEntity
  8
BLACK
 62
     7
100
AcDbVertex
100
AcDb2dVertex
 10
8.353
 20
15.612
 30
0.0
 42
-0.031
  0
VERTEX
  5
13C
100
AcDbEntity
  8
BLACK
 62
     7
100
AcDbVertex
100
AcDb2dVertex
 10
8.214
 20
15.671
 30
0.0
 42
-0.016
  0
VERTEX
  5
13D
100
AcDbEntity
  8
BLACK
 62
     7
100
AcDbVertex
100
AcDb2dVertex
 10
8.035
 20
15.769
 30
0.0
  0
VERTEX
  5
13E
100
AcDbEntity
  8
BLACK
 62
     7
100
AcDbVertex
100
AcDb2dVertex
 10
7.724
 20
15.953
 30
0.0
 42
-0.002
  0
VERTEX
  5
13F
100
AcDbEntity
  8
BLACK
 62
     7
100
AcDbVertex
100
AcDb2dVertex
 10
5.771
 20
17.152
 30
0.0
  0
VERTEX
  5
140
100
AcDbEntity
  8
BLACK
 62
     7
100
AcDbVertex
100
AcDb2dVertex
 10
4.795
 20
17.752
 30
0.0
 42
0.061
  0
VERTEX
  5
141
100
AcDbEntity
  8
BLACK
 62
     7
100
AcDbVertex
100
AcDb2dVertex
 10
4.768
 20
17.766
 30
0.0
 42
0.061
  0
VERTEX
  5
142
100
AcDbEntity
  8
BLACK
 62
     7
100
AcDbVertex
100
AcDb2dVertex
 10
4.737
 20
17.77
 30
0.0
  0
VERTEX
  5
143
100
AcDbEntity
  8
BLACK
 62
     7
100
AcDbVertex
100
AcDb2dVertex
 10
4.572
 20
17.775
 30
0.0
 42
-0.07
  0
VERTEX
  5
144
100
AcDbEntity
  8
BLACK
 62
     7
100
AcDbVertex
100
AcDb2dVertex
 10
4.421
 20
17.796
 30
0.0
 42
-0.128
  0
VERTEX
  5
145
100
AcDbEntity
  8
BLACK
 62
     7
100
AcDbVertex
100
AcDb2dVertex
 10
4.291
 20
17.889
 30
0.0
  0
VERTEX
  5
146
100
AcDbEntity
  8
BLACK
 62
     7
100
AcDbVertex
100
AcDb2dVertex
 10
4.236
 20
17.949
 30
0.0
 42
0.048
  0
VERTEX
  5
147
100
AcDbEntity
  8
BLACK
 62
     7
100
AcDbVertex
100
AcDb2dVertex
 10
4.171
 20
18.005
 30
0.0
 42
0.065
  0
VERTEX
  5
148
100
AcDbEntity
  8
BLACK
 62
     7
100
AcDbVertex
100
AcDb2dVertex
 10
4.087
 20
18.041
 30
0.0
 42
0.02
  0
VERTEX
  5
149
100
AcDbEntity
  8
BLACK
 62
     7
100
AcDbVertex
100
AcDb2dVertex
 10
3.948
 20
18.078
 30
0.0
 42
0.031
  0
VERTEX
  5
14A
100
AcDbEntity
  8
BLACK
 62
     7
100
AcDbVertex
100
AcDb2dVertex
 10
2.879
 20
18.241
 30
0.0
 42
0.018
  0
VERTEX
  5
14B
100
AcDbEntity
  8
BLACK
 62
     7
100
AcDbVertex
100
AcDb2dVertex
 10
2.526
 20
18.247
 30
0.0
  0
VERTEX
  5
14C
100
AcDbEntity
  8
BLACK
 62
     7
100
AcDbVertex
100
AcDb2dVertex
 10
2.165
 20
18.241
 30
0.0
  0
VERTEX
  5
14D
100
AcDbEntity
  8
BLACK
 62
     7
100
AcDbVertex
100
AcDb2dVertex
 10
2.149
 20
18.24
 30
0.0
 42
0.059
  0
VERTEX
  5
14E
100
AcDbEntity
  8
BLACK
 62
     7
100
AcDbVertex
100
AcDb2dVertex
 10
2.145
 20
18.239
 30
0.0
 42
0.08
  0
VERTEX
  5
14F
100
AcDbEntity
  8
BLACK
 62
     7
100
AcDbVertex
100
AcDb2dVertex
 10
2.144
 20
18.239
 30
0.0
 42
0.154
  0
VERTEX
  5
150
100
AcDbEntity
  8
BLACK
 62
     7
100
AcDbVertex
100
AcDb2dVertex
 10
2.144
 20
18.238
 30
0.0
 42
0.154
  0
VERTEX
  5
151
100
AcDbEntity
  8
BLACK
 62
     7
100
AcDbVertex
100
AcDb2dVertex
 10
2.144
 20
18.237
 30
0.0
 42
0.08
  0
VERTEX
  5
152
100
AcDbEntity
  8
BLACK
 62
     7
100
AcDbVertex
100
AcDb2dVertex
 10
2.144
 20
18.236
 30
0.0
 42
0.059
  0
VERTEX
  5
153
100
AcDbEntity
  8
BLACK
 62
     7
100
AcDbVertex
100
AcDb2dVertex
 10
2.147
 20
18.233
 30
0.0
  0
VERTEX
  5
154
100
AcDbEntity
  8
BLACK
 62
     7
100
AcDbVertex
100
AcDb2dVertex
 10
2.161
 20
18.224
 30
0.0
 42
0.007
  0
VERTEX
  5
155
100
AcDbEntity
  8
BLACK
 62
     7
100
AcDbVertex
100
AcDb2dVertex
 10
2.336
 20
18.119
 30
0.0
 42
-0.044
  0
VERTEX
  5
156
100
AcDbEntity
  8
BLACK
 62
     7
100
AcDbVertex
100
AcDb2dVertex
 10
2.402
 20
18.075
 30
0.0
 42
-0.074
  0
VERTEX
  5
157
100
AcDbEntity
  8
BLACK
 62
     7
100
AcDbVertex
100
AcDb2dVertex
 10
2.418
 20
18.055
 30
0.0
 42
-0.255
  0
VERTEX
  5
158
100
AcDbEntity
  8
BLACK
 62
     7
100
AcDbVertex
100
AcDb2dVertex
 10
2.421
 20
18.014
 30
0.0
 42
-0.084
  0
VERTEX
  5
159
100
AcDbEntity
  8
BLACK
 62
     7
100
AcDbVertex
100
AcDb2dVertex
 10
2.402
 20
17.982
 30
0.0
 42
-0.162
  0
VERTEX
  5
15A
100
AcDbEntity
  8
BLACK
 62
     7
100
AcDbVertex
100
AcDb2dVertex
 10
2.371
 20
17.963
 30
0.0
 42
-0.091
  0
VERTEX
  5
15B
100
AcDbEntity
  8
BLACK
 62
     7
100
AcDbVertex
100
AcDb2dVertex
 10
2.344
 20
17.963
 30
0.0
 42
-0.046
  0
VERTEX
  5
15C
100
AcDbEntity
  8
BLACK
 62
     7
100
AcDbVertex
100
AcDb2dVertex
 10
2.312
 20
17.971
 30
0.0
 42
-0.03
  0
VERTEX
  5
15D
100
AcDbEntity
  8
BLACK
 62
     7
100
AcDbVertex
100
AcDb2dVertex
 10
2.24
 20
18.003
 30
0.0
  0
VERTEX
  5
15E
100
AcDbEntity
  8
BLACK
 62
     7
100
AcDbVertex
100
AcDb2dVertex
 10
2.167
 20
18.038
 30
0.0
 42
0.086
  0
VERTEX
  5
15F
100
AcDbEntity
  8
BLACK
 62
     7
100
AcDbVertex
100
AcDb2dVertex
 10
2.104
 20
18.056
 30
0.0
 42
0.199
  0
VERTEX
  5
160
100
AcDbEntity
  8
BLACK
 62
     7
100
AcDbVertex
100
AcDb2dVertex
 10
2.054
 20
18.04
 30
0.0
 42
0.145
  0
VERTEX
  5
161
100
AcDbEntity
  8
BLACK
 62
     7
100
AcDbVertex
100
AcDb2dVertex
 10
2.03
 20
17.997
 30
0.0
 42
0.132
  0
VERTEX
  5
162
100
AcDbEntity
  8
BLACK
 62
     7
100
AcDbVertex
100
AcDb2dVertex
 10
2.032
 20
17.893
 30
0.0
 42
0.059
  0
VERTEX
  5
163
100
AcDbEntity
  8
BLACK
 62
     7
100
AcDbVertex
100
AcDb2dVertex
 10
2.042
 20
17.873
 30
0.0
 42
0.03
  0
VERTEX
  5
164
100
AcDbEntity
  8
BLACK
 62
     7
100
AcDbVertex
100
AcDb2dVertex
 10
2.141
 20
17.745
 30
0.0
 42
0.015
  0
VERTEX
  5
165
100
AcDbEntity
  8
BLACK
 62
     7
100
AcDbVertex
100
AcDb2dVertex
 10
2.651
 20
17.171
 30
0.0
 42
0.016
  0
VERTEX
  5
166
100
AcDbEntity
  8
BLACK
 62
     7
100
AcDbVertex
100
AcDb2dVertex
 10
2.871
 20
16.949
 30
0.0
 42
0.024
  0
VERTEX
  5
167
100
AcDbEntity
  8
BLACK
 62
     7
100
AcDbVertex
100
AcDb2dVertex
 10
3.659
 20
16.292
 30
0.0
 42
0.029
  0
VERTEX
  5
168
100
AcDbEntity
  8
BLACK
 62
     7
100
AcDbVertex
100
AcDb2dVertex
 10
4.526
 20
15.712
 30
0.0
 42
0.072
  0
VERTEX
  5
169
100
AcDbEntity
  8
BLACK
 62
     7
100
AcDbVertex
100
AcDb2dVertex
 10
6.519
 20
14.893
 30
0.0
 42
0.022
  0
VERTEX
  5
16A
100
AcDbEntity
  8
BLACK
 62
     7
100
AcDbVertex
100
AcDb2dVertex
 10
7.36
 20
14.729
 30
0.0
 42
0.026
  0
VERTEX
  5
16B
100
AcDbEntity
  8
BLACK
 62
     7
100
AcDbVertex
100
AcDb2dVertex
 10
8.172
 20
14.643
 30
0.0
 42
0.016
  0
VERTEX
  5
16C
100
AcDbEntity
  8
BLACK
 62
     7
100
AcDbVertex
100
AcDb2dVertex
 10
8.732
 20
14.64
 30
0.0
  0
VERTEX
  5
16D
100
AcDbEntity
  8
BLACK
 62
     7
100
AcDbVertex
100
AcDb2dVertex
 10
9.024
 20
14.648
 30
0.0
 42
-0.003
  0
VERTEX
  5
16E
100
AcDbEntity
  8
BLACK
 62
     7
100
AcDbVertex
100
AcDb2dVertex
 10
9.877
 20
14.677
 30
0.0
 42
-0.02
  0
VERTEX
  5
16F
100
AcDbEntity
  8
BLACK
 62
     7
100
AcDbVertex
100
AcDb2dVertex
 10
10.367
 20
14.67
 30
0.0
 42
-0.033
  0
VERTEX
  5
170
100
AcDbEntity
  8
BLACK
 62
     7
100
AcDbVertex
100
AcDb2dVertex
 10
10.564
 20
14.648
 30
0.0
 42
-0.058
  0
VERTEX
  5
171
100
AcDbEntity
  8
BLACK
 62
     7
100
AcDbVertex
100
AcDb2dVertex
 10
10.756
 20
14.587
 30
0.0
 42
-0.024
  0
VERTEX
  5
172
100
AcDbEntity
  8
BLACK
 62
     7
100
AcDbVertex
100
AcDb2dVertex
 10
11.004
 20
14.459
 30
0.0
 42
0.02
  0
VERTEX
  5
173
100
AcDbEntity
  8
BLACK
 62
     7
100
AcDbVertex
100
AcDb2dVertex
 10
11.182
 20
14.361
 30
0.0
 42
0.06
  0
VERTEX
  5
174
100
AcDbEntity
  8
BLACK
 62
     7
100
AcDbVertex
100
AcDb2dVertex
 10
11.246
 20
14.339
 30
0.0
 42
0.148
  0
VERTEX
  5
175
100
AcDbEntity
  8
BLACK
 62
     7
100
AcDbVertex
100
AcDb2dVertex
 10
11.296
 20
14.342
 30
0.0
 42
0.174
  0
VERTEX
  5
176
100
AcDbEntity
  8
BLACK
 62
     7
100
AcDbVertex
100
AcDb2dVertex
 10
11.331
 20
14.376
 30
0.0
 42
0.082
  0
VERTEX
  5
177
100
AcDbEntity
  8
BLACK
 62
     7
100
AcDbVertex
100
AcDb2dVertex
 10
11.353
 20
14.448
 30
0.0
 42
0.048
  0
VERTEX
  5
178
100
AcDbEntity
  8
BLACK
 62
     7
100
AcDbVertex
100
AcDb2dVertex
 10
11.356
 20
14.479
 30
0.0
 42
0.096
  0
VERTEX
  5
179
100
AcDbEntity
  8
BLACK
 62
     7
100
AcDbVertex
100
AcDb2dVertex
 10
11.352
 20
14.502
 30
0.0
 42
0.118
  0
VERTEX
  5
17A
100
AcDbEntity
  8
BLACK
 62
     7
100
AcDbVertex
100
AcDb2dVertex
 10
11.34
 20
14.518
 30
0.0
 42
0.071
  0
VERTEX
  5
17B
100
AcDbEntity
  8
BLACK
 62
     7
100
AcDbVertex
100
AcDb2dVertex
 10
11.319
 20
14.53
 30
0.0
  0
VERTEX
  5
17C
100
AcDbEntity
  8
BLACK
 62
     7
100
AcDbVertex
100
AcDb2dVertex
 10
11.29
 20
14.54
 30
0.0
 42
-0.015
  0
VERTEX
  5
17D
100
AcDbEntity
  8
BLACK
 62
     7
100
AcDbVertex
100
AcDb2dVertex
 10
11.145
 20
14.587
 30
0.0
 42
-0.107
  0
VERTEX
  5
17E
100
AcDbEntity
  8
BLACK
 62
     7
100
AcDbVertex
100
AcDb2dVertex
 10
11.012
 20
14.665
 30
0.0
 42
-0.126
  0
VERTEX
  5
17F
100
AcDbEntity
  8
BLACK
 62
     7
100
AcDbVertex
100
AcDb2dVertex
 10
10.987
 20
14.706
 30
0.0
 42
-0.203
  0
VERTEX
  5
180
100
AcDbEntity
  8
BLACK
 62
     7
100
AcDbVertex
100
AcDb2dVertex
 10
10.992
 20
14.745
 30
0.0
 42
-0.137
  0
VERTEX
  5
181
100
AcDbEntity
  8
BLACK
 62
     7
100
AcDbVertex
100
AcDb2dVertex
 10
11.007
 20
14.76
 30
0.0
 42
-0.133
  0
VERTEX
  5
182
100
AcDbEntity
  8
BLACK
 62
     7
100
AcDbVertex
100
AcDb2dVertex
 10
11.033
 20
14.765
 30
0.0
 42
-0.06
  0
VERTEX
  5
183
100
AcDbEntity
  8
BLACK
 62
     7
100
AcDbVertex
100
AcDb2dVertex
 10
11.07
 20
14.759
 30
0.0
  0
VERTEX
  5
184
100
AcDbEntity
  8
BLACK
 62
     7
100
AcDbVertex
100
AcDb2dVertex
 10
11.117
 20
14.744
 30
0.0
  0
VERTEX
  5
185
100
AcDbEntity
  8
BLACK
 62
     7
100
AcDbVertex
100
AcDb2dVertex
 10
11.226
 20
14.7
 30
0.0
 42
0.03
  0
VERTEX
  5
186
100
AcDbEntity
  8
BLACK
 62
     7
100
AcDbVertex
100
AcDb2dVertex
 10
11.33
 20
14.662
 30
0.0
 42
0.052
  0
VERTEX
  5
187
100
AcDbEntity
  8
BLACK
 62
     7
100
AcDbVertex
100
AcDb2dVertex
 10
11.372
 20
14.654
 30
0.0
 42
0.139
  0
VERTEX
  5
188
100
AcDbEntity
  8
BLACK
 62
     7
100
AcDbVertex
100
AcDb2dVertex
 10
11.401
 20
14.659
 30
0.0
 42
0.117
  0
VERTEX
  5
189
100
AcDbEntity
  8
BLACK
 62
     7
100
AcDbVertex
100
AcDb2dVertex
 10
11.417
 20
14.675
 30
0.0
 42
-0.058
  0
VERTEX
  5
18A
100
AcDbEntity
  8
BLACK
 62
     7
100
AcDbVertex
100
AcDb2dVertex
 10
11.423
 20
14.683
 30
0.0
 42
-0.112
  0
VERTEX
  5
18B
100
AcDbEntity
  8
BLACK
 62
     7
100
AcDbVertex
100
AcDb2dVertex
 10
11.425
 20
14.684
 30
0.0
 42
-0.068
  0
VERTEX
  5
18C
100
AcDbEntity
  8
BLACK
 62
     7
100
AcDbVertex
100
AcDb2dVertex
 10
11.427
 20
14.684
 30
0.0
  0
SEQEND
  5
18D
100
AcDbEntity
  8
BLACK
 62
     7
  0
POLYLINE
  5
18E
100
AcDbEntity
  8
BLACK
 62
     7
100
AcDb2dPolyline
 66
     1
 10
0.0
 20
0.0
 30
0.0
 70
     1
  0
VERTEX
  5
18F
100
AcDbEntity
  8
BLACK
 62
     7
100
AcDbVertex
100
AcDb2dVertex
 10
15.983
 20
17.812
 30
0.0
  0
VERTEX
  5
190
100
AcDbEntity
  8
BLACK
 62
     7
100
AcDbVertex
100
AcDb2dVertex
 10
15.946
 20
17.925
 30
0.0
 42
0.049
  0
VERTEX
  5
191
100
AcDbEntity
  8
BLACK
 62
     7
100
AcDbVertex
100
AcDb2dVertex
 10
15.941
 20
17.937
 30
0.0
 42
0.081
  0
VERTEX
  5
192
100
AcDbEntity
  8
BLACK
 62
     7
100
AcDbVertex
100
AcDb2dVertex
 10
15.938
 20
17.941
 30
0.0
 42
0.131
  0
VERTEX
  5
193
100
AcDbEntity
  8
BLACK
 62
     7
100
AcDbVertex
100
AcDb2dVertex
 10
15.935
 20
17.942
 30
0.0
 42
0.108
  0
VERTEX
  5
194
100
AcDbEntity
  8
BLACK
 62
     7
100
AcDbVertex
100
AcDb2dVertex
 10
15.931
 20
17.942
 30
0.0
 42
0.055
  0
VERTEX
  5
195
100
AcDbEntity
  8
BLACK
 62
     7
100
AcDbVertex
100
AcDb2dVertex
 10
15.926
 20
17.94
 30
0.0
 42
0.033
  0
VERTEX
  5
196
100
AcDbEntity
  8
BLACK
 62
     7
100
AcDbVertex
100
AcDb2dVertex
 10
15.912
 20
17.932
 30
0.0
  0
VERTEX
  5
197
100
AcDbEntity
  8
BLACK
 62
     7
100
AcDbVertex
100
AcDb2dVertex
 10
15.528
 20
17.675
 30
0.0
 42
-0.033
  0
VERTEX
  5
198
100
AcDbEntity
  8
BLACK
 62
     7
100
AcDbVertex
100
AcDb2dVertex
 10
15.515
 20
17.667
 30
0.0
 42
-0.092
  0
VERTEX
  5
199
100
AcDbEntity
  8
BLACK
 62
     7
100
AcDbVertex
100
AcDb2dVertex
 10
15.505
 20
17.663
 30
0.0
 42
-0.142
  0
VERTEX
  5
19A
100
AcDbEntity
  8
BLACK
 62
     7
100
AcDbVertex
100
AcDb2dVertex
 10
15.496
 20
17.665
 30
0.0
 42
-0.078
  0
VERTEX
  5
19B
100
AcDbEntity
  8
BLACK
 62
     7
100
AcDbVertex
100
AcDb2dVertex
 10
15.488
 20
17.671
 30
0.0
  0
VERTEX
  5
19C
100
AcDbEntity
  8
BLACK
 62
     7
100
AcDbVertex
100
AcDb2dVertex
 10
15.46
 20
17.699
 30
0.0
 42
-0.042
  0
VERTEX
  5
19D
100
AcDbEntity
  8
BLACK
 62
     7
100
AcDbVertex
100
AcDb2dVertex
 10
15.449
 20
17.711
 30
0.0
 42
-0.169
  0
VERTEX
  5
19E
100
AcDbEntity
  8
BLACK
 62
     7
100
AcDbVertex
100
AcDb2dVertex
 10
15.446
 20
17.72
 30
0.0
 42
-0.158
  0
VERTEX
  5
19F
100
AcDbEntity
  8
BLACK
 62
     7
100
AcDbVertex
100
AcDb2dVertex
 10
15.45
 20
17.729
 30
0.0
 42
-0.038
  0
VERTEX
  5
1A0
100
AcDbEntity
  8
BLACK
 62
     7
100
AcDbVertex
100
AcDb2dVertex
 10
15.462
 20
17.741
 30
0.0
  0
VERTEX
  5
1A1
100
AcDbEntity
  8
BLACK
 62
     7
100
AcDbVertex
100
AcDb2dVertex
 10
15.608
 20
17.869
 30
0.0
 42
0.026
  0
VERTEX
  5
1A2
100
AcDbEntity
  8
BLACK
 62
     7
100
AcDbVertex
100
AcDb2dVertex
 10
15.708
 20
17.96
 30
0.0
 42
0.062
  0
VERTEX
  5
1A3
100
AcDbEntity
  8
BLACK
 62
     7
100
AcDbVertex
100
AcDb2dVertex
 10
15.733
 20
17.994
 30
0.0
 42
0.173
  0
VERTEX
  5
1A4
100
AcDbEntity
  8
BLACK
 62
     7
100
AcDbVertex
100
AcDb2dVertex
 10
15.739
 20
18.021
 30
0.0
 42
0.202
  0
VERTEX
  5
1A5
100
AcDbEntity
  8
BLACK
 62
     7
100
AcDbVertex
100
AcDb2dVertex
 10
15.723
 20
18.043
 30
0.0
 42
0.079
  0
VERTEX
  5
1A6
100
AcDbEntity
  8
BLACK
 62
     7
100
AcDbVertex
100
AcDb2dVertex
 10
15.682
 20
18.06
 30
0.0
 42
0.081
  0
VERTEX
  5
1A7
100
AcDbEntity
  8
BLACK
 62
     7
100
AcDbVertex
100
AcDb2dVertex
 10
15.567
 20
18.071
 30
0.0
 42
0.045
  0
VERTEX
  5
1A8
100
AcDbEntity
  8
BLACK
 62
     7
100
AcDbVertex
100
AcDb2dVertex
 10
15.428
 20
18.051
 30
0.0
 42
0.044
  0
VERTEX
  5
1A9
100
AcDbEntity
  8
BLACK
 62
     7
100
AcDbVertex
100
AcDb2dVertex
 10
15.107
 20
17.941
 30
0.0
 42
0.03
  0
VERTEX
  5
1AA
100
AcDbEntity
  8
BLACK
 62
     7
100
AcDbVertex
100
AcDb2dVertex
 10
14.485
 20
17.616
 30
0.0
 42
0.031
  0
VERTEX
  5
1AB
100
AcDbEntity
  8
BLACK
 62
     7
100
AcDbVertex
100
AcDb2dVertex
 10
13.909
 20
17.224
 30
0.0
 42
0.027
  0
VERTEX
  5
1AC
100
AcDbEntity
  8
BLACK
 62
     7
100
AcDbVertex
100
AcDb2dVertex
 10
13.359
 20
16.75
 30
0.0
 42
0.03
  0
VERTEX
  5
1AD
100
AcDbEntity
  8
BLACK
 62
     7
100
AcDbVertex
100
AcDb2dVertex
 10
12.88
 20
16.235
 30
0.0
 42
0.041
  0
VERTEX
  5
1AE
100
AcDbEntity
  8
BLACK
 62
     7
100
AcDbVertex
100
AcDb2dVertex
 10
12.52
 20
15.721
 30
0.0
 42
0.016
  0
VERTEX
  5
1AF
100
AcDbEntity
  8
BLACK
 62
     7
100
AcDbVertex
100
AcDb2dVertex
 10
12.242
 20
15.165
 30
0.0
 42
0.025
  0
VERTEX
  5
1B0
100
AcDbEntity
  8
BLACK
 62
     7
100
AcDbVertex
100
AcDb2dVertex
 10
12.088
 20
14.788
 30
0.0
 42
0.036
  0
VERTEX
  5
1B1
100
AcDbEntity
  8
BLACK
 62
     7
100
AcDbVertex
100
AcDb2dVertex
 10
12.048
 20
14.64
 30
0.0
 42
0.042
  0
VERTEX
  5
1B2
100
AcDbEntity
  8
BLACK
 62
     7
100
AcDbVertex
100
AcDb2dVertex
 10
12.042
 20
14.585
 30
0.0
 42
0.093
  0
VERTEX
  5
1B3
100
AcDbEntity
  8
BLACK
 62
     7
100
AcDbVertex
100
AcDb2dVertex
 10
12.048
 20
14.545
 30
0.0
 42
0.29
  0
VERTEX
  5
1B4
100
AcDbEntity
  8
BLACK
 62
     7
100
AcDbVertex
100
AcDb2dVertex
 10
12.156
 20
14.458
 30
0.0
 42
0.078
  0
VERTEX
  5
1B5
100
AcDbEntity
  8
BLACK
 62
     7
100
AcDbVertex
100
AcDb2dVertex
 10
12.239
 20
14.461
 30
0.0
 42
0.042
  0
VERTEX
  5
1B6
100
AcDbEntity
  8
BLACK
 62
     7
100
AcDbVertex
100
AcDb2dVertex
 10
12.335
 20
14.487
 30
0.0
 42
0.035
  0
VERTEX
  5
1B7
100
AcDbEntity
  8
BLACK
 62
     7
100
AcDbVertex
100
AcDb2dVertex
 10
12.554
 20
14.587
 30
0.0
  0
VERTEX
  5
1B8
100
AcDbEntity
  8
BLACK
 62
     7
100
AcDbVertex
100
AcDb2dVertex
 10
12.784
 20
14.712
 30
0.0
 42
0.023
  0
VERTEX
  5
1B9
100
AcDbEntity
  8
BLACK
 62
     7
100
AcDbVertex
100
AcDb2dVertex
 10
13.265
 20
15.004
 30
0.0
 42
0.018
  0
VERTEX
  5
1BA
100
AcDbEntity
  8
BLACK
 62
     7
100
AcDbVertex
100
AcDb2dVertex
 10
13.407
 20
15.113
 30
0.0
 42
0.008
  0
VERTEX
  5
1BB
100
AcDbEntity
  8
BLACK
 62
     7
100
AcDbVertex
100
AcDb2dVertex
 10
14.321
 20
15.879
 30
0.0
 42
0.004
  0
VERTEX
  5
1BC
100
AcDbEntity
  8
BLACK
 62
     7
100
AcDbVertex
100
AcDb2dVertex
 10
14.968
 20
16.44
 30
0.0
 42
0.005
  0
VERTEX
  5
1BD
100
AcDbEntity
  8
BLACK
 62
     7
100
AcDbVertex
100
AcDb2dVertex
 10
15.191
 20
16.64
 30
0.0
 42
0.026
  0
VERTEX
  5
1BE
100
AcDbEntity
  8
BLACK
 62
     7
100
AcDbVertex
100
AcDb2dVertex
 10
15.299
 20
16.746
 30
0.0
 42
0.024
  0
VERTEX
  5
1BF
100
AcDbEntity
  8
BLACK
 62
     7
100
AcDbVertex
100
AcDb2dVertex
 10
15.642
 20
17.236
 30
0.0
 42
-0.003
  0
VERTEX
  5
1C0
100
AcDbEntity
  8
BLACK
 62
     7
100
AcDbVertex
100
AcDb2dVertex
 10
15.976
 20
17.756
 30
0.0
  0
VERTEX
  5
1C1
100
AcDbEntity
  8
BLACK
 62
     7
100
AcDbVertex
100
AcDb2dVertex
 10
15.985
 20
17.771
 30
0.0
 42
0.085
  0
VERTEX
  5
1C2
100
AcDbEntity
  8
BLACK
 62
     7
100
AcDbVertex
100
AcDb2dVertex
 10
15.989
 20
17.783
 30
0.0
 42
0.085
  0
VERTEX
  5
1C3
100
AcDbEntity
  8
BLACK
 62
     7
100
AcDbVertex
100
AcDb2dVertex
 10
15.988
 20
17.795
 30
0.0
  0
VERTEX
  5
1C4
100
AcDbEntity
  8
BLACK
 62
     7
100
AcDbVertex
100
AcDb2dVertex
 10
15.983
 20
17.812
 30
0.0
  0
SEQEND
  5
1C5
100
AcDbEntity
  8
BLACK
 62
     7
  0
POLYLINE
  5
1C6
100
AcDbEntity
  8
BLACK
 62
     7
100
AcDb2dPolyline
 66
     1
 10
0.0
 20
0.0
 30
0.0
 70
     1
  0
VERTEX
  5
1C7
100
AcDbEntity
  8
BLACK
 62
     7
100
AcDbVertex
100
AcDb2dVertex
 10
4.824
 20
16.393
 30
0.0
 42
-0.18
  0
VERTEX
  5
1C8
100
AcDbEntity
  8
BLACK
 62
     7
100
AcDbVertex
100
AcDb2dVertex
 10
4.823
 20
16.391
 30
0.0
 42
-0.07
  0
VERTEX
  5
1C9
100
AcDbEntity
  8
BLACK
 62
     7
100
AcDbVertex
100
AcDb2dVertex
 10
4.821
 20
16.39
 30
0.0
 42
-0.05
  0
VERTEX
  5
1CA
100
AcDbEntity
  8
BLACK
 62
     7
100
AcDbVertex
100
AcDb2dVertex
 10
4.813
 20
16.386
 30
0.0
 42
-0.037
  0
VERTEX
  5
1CB
100
AcDbEntity
  8
BLACK
 62
     7
100
AcDbVertex
100
AcDb2dVertex
 10
4.789
 20
16.379
 30
0.0
 42
-0.039
  0
VERTEX
  5
1CC
100
AcDbEntity
  8
BLACK
 62
     7
100
AcDbVertex
100
AcDb2dVertex
 10
4.766
 20
16.376
 30
0.0
 42
-0.061
  0
VERTEX
  5
1CD
100
AcDbEntity
  8
BLACK
 62
     7
100
AcDbVertex
100
AcDb2dVertex
 10
4.758
 20
16.377
 30
0.0
 42
-0.098
  0
VERTEX
  5
1CE
100
AcDbEntity
  8
BLACK
 62
     7
100
AcDbVertex
100
AcDb2dVertex
 10
4.755
 20
16.378
 30
0.0
 42
-0.243
  0
VERTEX
  5
1CF
100
AcDbEntity
  8
BLACK
 62
     7
100
AcDbVertex
100
AcDb2dVertex
 10
4.755
 20
16.379
 30
0.0
  0
VERTEX
  5
1D0
100
AcDbEntity
  8
BLACK
 62
     7
100
AcDbVertex
100
AcDb2dVertex
 10
4.742
 20
16.917
 30
0.0
 42
-0.038
  0
VERTEX
  5
1D1
100
AcDbEntity
  8
BLACK
 62
     7
100
AcDbVertex
100
AcDb2dVertex
 10
4.742
 20
16.933
 30
0.0
 42
-0.107
  0
VERTEX
  5
1D2
100
AcDbEntity
  8
BLACK
 62
     7
100
AcDbVertex
100
AcDb2dVertex
 10
4.745
 20
16.944
 30
0.0
 42
-0.143
  0
VERTEX
  5
1D3
100
AcDbEntity
  8
BLACK
 62
     7
100
AcDbVertex
100
AcDb2dVertex
 10
4.752
 20
16.95
 30
0.0
 42
-0.065
  0
VERTEX
  5
1D4
100
AcDbEntity
  8
BLACK
 62
     7
100
AcDbVertex
100
AcDb2dVertex
 10
4.764
 20
16.953
 30
0.0
  0
VERTEX
  5
1D5
100
AcDbEntity
  8
BLACK
 62
     7
100
AcDbVertex
100
AcDb2dVertex
 10
4.793
 20
16.959
 30
0.0
 42
-0.038
  0
VERTEX
  5
1D6
100
AcDbEntity
  8
BLACK
 62
     7
100
AcDbVertex
100
AcDb2dVertex
 10
4.807
 20
16.961
 30
0.0
 42
-0.062
  0
VERTEX
  5
1D7
100
AcDbEntity
  8
BLACK
 62
     7
100
AcDbVertex
100
AcDb2dVertex
 10
4.809
 20
16.961
 30
0.0
 42
-0.13
  0
VERTEX
  5
1D8
100
AcDbEntity
  8
BLACK
 62
     7
100
AcDbVertex
100
AcDb2dVertex
 10
4.81
 20
16.961
 30
0.0
 42
-0.14
  0
VERTEX
  5
1D9
100
AcDbEntity
  8
BLACK
 62
     7
100
AcDbVertex
100
AcDb2dVertex
 10
4.81
 20
16.96
 30
0.0
 42
-0.064
  0
VERTEX
  5
1DA
100
AcDbEntity
  8
BLACK
 62
     7
100
AcDbVertex
100
AcDb2dVertex
 10
4.81
 20
16.959
 30
0.0
  0
VERTEX
  5
1DB
100
AcDbEntity
  8
BLACK
 62
     7
100
AcDbVertex
100
AcDb2dVertex
 10
4.81
 20
16.952
 30
0.0
 42
0.04
  0
VERTEX
  5
1DC
100
AcDbEntity
  8
BLACK
 62
     7
100
AcDbVertex
100
AcDb2dVertex
 10
4.81
 20
16.95
 30
0.0
 42
0.158
  0
VERTEX
  5
1DD
100
AcDbEntity
  8
BLACK
 62
     7
100
AcDbVertex
100
AcDb2dVertex
 10
4.811
 20
16.949
 30
0.0
 42
0.158
  0
VERTEX
  5
1DE
100
AcDbEntity
  8
BLACK
 62
     7
100
AcDbVertex
100
AcDb2dVertex
 10
4.812
 20
16.949
 30
0.0
 42
0.04
  0
VERTEX
  5
1DF
100
AcDbEntity
  8
BLACK
 62
     7
100
AcDbVertex
100
AcDb2dVertex
 10
4.814
 20
16.949
 30
0.0
  0
VERTEX
  5
1E0
100
AcDbEntity
  8
BLACK
 62
     7
100
AcDbVertex
100
AcDb2dVertex
 10
4.819
 20
16.949
 30
0.0
 42
-0.082
  0
VERTEX
  5
1E1
100
AcDbEntity
  8
BLACK
 62
     7
100
AcDbVertex
100
AcDb2dVertex
 10
4.821
 20
16.949
 30
0.0
 42
-0.138
  0
VERTEX
  5
1E2
100
AcDbEntity
  8
BLACK
 62
     7
100
AcDbVertex
100
AcDb2dVertex
 10
4.822
 20
16.948
 30
0.0
 42
-0.095
  0
VERTEX
  5
1E3
100
AcDbEntity
  8
BLACK
 62
     7
100
AcDbVertex
100
AcDb2dVertex
 10
4.823
 20
16.946
 30
0.0
 42
-0.044
  0
VERTEX
  5
1E4
100
AcDbEntity
  8
BLACK
 62
     7
100
AcDbVertex
100
AcDb2dVertex
 10
4.823
 20
16.944
 30
0.0
 42
-0.028
  0
VERTEX
  5
1E5
100
AcDbEntity
  8
BLACK
 62
     7
100
AcDbVertex
100
AcDb2dVertex
 10
4.824
 20
16.917
 30
0.0
  0
VERTEX
  5
1E6
100
AcDbEntity
  8
BLACK
 62
     7
100
AcDbVertex
100
AcDb2dVertex
 10
4.824
 20
16.393
 30
0.0
  0
SEQEND
  5
1E7
100
AcDbEntity
  8
BLACK
 62
     7
  0
POLYLINE
  5
1E8
100
AcDbEntity
  8
BLACK
 62
     7
100
AcDb2dPolyline
 66
     1
 10
0.0
 20
0.0
 30
0.0
 70
     1
  0
VERTEX
  5
1E9
100
AcDbEntity
  8
BLACK
 62
     7
100
AcDbVertex
100
AcDb2dVertex
 10
14.297
 20
16.347
 30
0.0
  0
VERTEX
  5
1EA
100
AcDbEntity
  8
BLACK
 62
     7
100
AcDbVertex
100
AcDb2dVertex
 10
13.84
 20
16.495
 30
0.0
  0
VERTEX
  5
1EB
100
AcDbEntity
  8
BLACK
 62
     7
100
AcDbVertex
100
AcDb2dVertex
 10
13.826
 20
16.5
 30
0.0
 42
-0.088
  0
VERTEX
  5
1EC
100
AcDbEntity
  8
BLACK
 62
     7
100
AcDbVertex
100
AcDb2dVertex
 10
13.818
 20
16.505
 30
0.0
 42
-0.17
  0
VERTEX
  5
1ED
100
AcDbEntity
  8
BLACK
 62
     7
100
AcDbVertex
100
AcDb2dVertex
 10
13.815
 20
16.511
 30
0.0
 42
-0.085
  0
VERTEX
  5
1EE
100
AcDbEntity
  8
BLACK
 62
     7
100
AcDbVertex
100
AcDb2dVertex
 10
13.815
 20
16.52
 30
0.0
  0
VERTEX
  5
1EF
100
AcDbEntity
  8
BLACK
 62
     7
100
AcDbVertex
100
AcDb2dVertex
 10
13.822
 20
16.551
 30
0.0
 42
-0.054
  0
VERTEX
  5
1F0
100
AcDbEntity
  8
BLACK
 62
     7
100
AcDbVertex
100
AcDb2dVertex
 10
13.825
 20
16.563
 30
0.0
 42
-0.2
  0
VERTEX
  5
1F1
100
AcDbEntity
  8
BLACK
 62
     7
100
AcDbVertex
100
AcDb2dVertex
 10
13.83
 20
16.568
 30
0.0
 42
-0.136
  0
VERTEX
  5
1F2
100
AcDbEntity
  8
BLACK
 62
     7
100
AcDbVertex
100
AcDb2dVertex
 10
13.84
 20
16.569
 30
0.0
 42
-0.03
  0
VERTEX
  5
1F3
100
AcDbEntity
  8
BLACK
 62
     7
100
AcDbVertex
100
AcDb2dVertex
 10
13.856
 20
16.565
 30
0.0
  0
VERTEX
  5
1F4
100
AcDbEntity
  8
BLACK
 62
     7
100
AcDbVertex
100
AcDb2dVertex
 10
14.164
 20
16.483
 30
0.0
 42
-0.018
  0
VERTEX
  5
1F5
100
AcDbEntity
  8
BLACK
 62
     7
100
AcDbVertex
100
AcDb2dVertex
 10
14.298
 20
16.442
 30
0.0
  0
VERTEX
  5
1F6
100
AcDbEntity
  8
BLACK
 62
     7
100
AcDbVertex
100
AcDb2dVertex
 10
14.343
 20
16.424
 30
0.0
  0
VERTEX
  5
1F7
100
AcDbEntity
  8
BLACK
 62
     7
100
AcDbVertex
100
AcDb2dVertex
 10
14.359
 20
16.415
 30
0.0
 42
-0.074
  0
VERTEX
  5
1F8
100
AcDbEntity
  8
BLACK
 62
     7
100
AcDbVertex
100
AcDb2dVertex
 10
14.368
 20
16.407
 30
0.0
 42
-0.089
  0
VERTEX
  5
1F9
100
AcDbEntity
  8
BLACK
 62
     7
100
AcDbVertex
100
AcDb2dVertex
 10
14.37
 20
16.402
 30
0.0
 42
-0.049
  0
VERTEX
  5
1FA
100
AcDbEntity
  8
BLACK
 62
     7
100
AcDbVertex
100
AcDb2dVertex
 10
14.371
 20
16.395
 30
0.0
 42
-0.087
  0
VERTEX
  5
1FB
100
AcDbEntity
  8
BLACK
 62
     7
100
AcDbVertex
100
AcDb2dVertex
 10
14.37
 20
16.377
 30
0.0
 42
-0.256
  0
VERTEX
  5
1FC
100
AcDbEntity
  8
BLACK
 62
     7
100
AcDbVertex
100
AcDb2dVertex
 10
14.336
 20
16.341
 30
0.0
 42
-0.146
  0
VERTEX
  5
1FD
100
AcDbEntity
  8
BLACK
 62
     7
100
AcDbVertex
100
AcDb2dVertex
 10
14.323
 20
16.34
 30
0.0
 42
-0.035
  0
VERTEX
  5
1FE
100
AcDbEntity
  8
BLACK
 62
     7
100
AcDbVertex
100
AcDb2dVertex
 10
14.297
 20
16.347
 30
0.0
  0
SEQEND
  5
1FF
100
AcDbEntity
  8
BLACK
 62
     7
  0
POLYLINE
  5
200
100
AcDbEntity
  8
BLACK
 62
     7
100
AcDb2dPolyline
 66
     1
 10
0.0
 20
0.0
 30
0.0
 70
     1
  0
VERTEX
  5
201
100
AcDbEntity
  8
BLACK
 62
     7
100
AcDbVertex
100
AcDb2dVertex
 10
14.311
 20
15.042
 30
0.0
  0
VERTEX
  5
202
100
AcDbEntity
  8
BLACK
 62
     7
100
AcDbVertex
100
AcDb2dVertex
 10
14.3
 20
14.757
 30
0.0
 42
0.072
  0
VERTEX
  5
203
100
AcDbEntity
  8
BLACK
 62
     7
100
AcDbVertex
100
AcDb2dVertex
 10
14.301
 20
14.727
 30
0.0
 42
0.072
  0
VERTEX
  5
204
100
AcDbEntity
  8
BLACK
 62
     7
100
AcDbVertex
100
AcDb2dVertex
 10
14.314
 20
14.699
 30
0.0
 42
0.073
  0
VERTEX
  5
205
100
AcDbEntity
  8
BLACK
 62
     7
100
AcDbVertex
100
AcDb2dVertex
 10
14.365
 20
14.633
 30
0.0
 42
0.129
  0
VERTEX
  5
206
100
AcDbEntity
  8
BLACK
 62
     7
100
AcDbVertex
100
AcDb2dVertex
 10
14.417
 20
14.604
 30
0.0
 42
0.132
  0
VERTEX
  5
207
100
AcDbEntity
  8
BLACK
 62
     7
100
AcDbVertex
100
AcDb2dVertex
 10
14.47
 20
14.606
 30
0.0
 42
0.073
  0
VERTEX
  5
208
100
AcDbEntity
  8
BLACK
 62
     7
100
AcDbVertex
100
AcDb2dVertex
 10
14.527
 20
14.634
 30
0.0
 42
0.038
  0
VERTEX
  5
209
100
AcDbEntity
  8
BLACK
 62
     7
100
AcDbVertex
100
AcDb2dVertex
 10
14.656
 20
14.741
 30
0.0
 42
-0.022
  0
VERTEX
  5
20A
100
AcDbEntity
  8
BLACK
 62
     7
100
AcDbVertex
100
AcDb2dVertex
 10
14.818
 20
14.879
 30
0.0
 42
-0.05
  0
VERTEX
  5
20B
100
AcDbEntity
  8
BLACK
 62
     7
100
AcDbVertex
100
AcDb2dVertex
 10
15.046
 20
15.01
 30
0.0
  0
VERTEX
  5
20C
100
AcDbEntity
  8
BLACK
 62
     7
100
AcDbVertex
100
AcDb2dVertex
 10
15.16
 20
15.066
 30
0.0
 42
0.033
  0
VERTEX
  5
20D
100
AcDbEntity
  8
BLACK
 62
     7
100
AcDbVertex
100
AcDb2dVertex
 10
15.264
 20
15.129
 30
0.0
 42
0.118
  0
VERTEX
  5
20E
100
AcDbEntity
  8
BLACK
 62
     7
100
AcDbVertex
100
AcDb2dVertex
 10
15.581
 20
15.496
 30
0.0
 42
0.08
  0
VERTEX
  5
20F
100
AcDbEntity
  8
BLACK
 62
     7
100
AcDbVertex
100
AcDb2dVertex
 10
15.729
 20
15.949
 30
0.0
 42
0.014
  0
VERTEX
  5
210
100
AcDbEntity
  8
BLACK
 62
     7
100
AcDbVertex
100
AcDb2dVertex
 10
15.751
 20
16.095
 30
0.0
 42
0.044
  0
VERTEX
  5
211
100
AcDbEntity
  8
BLACK
 62
     7
100
AcDbVertex
100
AcDb2dVertex
 10
15.755
 20
16.198
 30
0.0
 42
0.057
  0
VERTEX
  5
212
100
AcDbEntity
  8
BLACK
 62
     7
100
AcDbVertex
100
AcDb2dVertex
 10
15.738
 20
16.287
 30
0.0
 42
0.024
  0
VERTEX
  5
213
100
AcDbEntity
  8
BLACK
 62
     7
100
AcDbVertex
100
AcDb2dVertex
 10
15.7
 20
16.392
 30
0.0
 42
0.033
  0
VERTEX
  5
214
100
AcDbEntity
  8
BLACK
 62
     7
100
AcDbVertex
100
AcDb2dVertex
 10
15.692
 20
16.408
 30
0.0
 42
0.1
  0
VERTEX
  5
215
100
AcDbEntity
  8
BLACK
 62
     7
100
AcDbVertex
100
AcDb2dVertex
 10
15.685
 20
16.417
 30
0.0
 42
0.1
  0
VERTEX
  5
216
100
AcDbEntity
  8
BLACK
 62
     7
100
AcDbVertex
100
AcDb2dVertex
 10
15.674
 20
16.422
 30
0.0
 42
0.033
  0
VERTEX
  5
217
100
AcDbEntity
  8
BLACK
 62
     7
100
AcDbVertex
100
AcDb2dVertex
 10
15.657
 20
16.425
 30
0.0
  0
VERTEX
  5
218
100
AcDbEntity
  8
BLACK
 62
     7
100
AcDbVertex
100
AcDb2dVertex
 10
15.608
 20
16.431
 30
0.0
 42
0.039
  0
VERTEX
  5
219
100
AcDbEntity
  8
BLACK
 62
     7
100
AcDbVertex
100
AcDb2dVertex
 10
15.591
 20
16.432
 30
0.0
 42
0.136
  0
VERTEX
  5
21A
100
AcDbEntity
  8
BLACK
 62
     7
100
AcDbVertex
100
AcDb2dVertex
 10
15.58
 20
16.429
 30
0.0
 42
0.135
  0
VERTEX
  5
21B
100
AcDbEntity
  8
BLACK
 62
     7
100
AcDbVertex
100
AcDb2dVertex
 10
15.573
 20
16.421
 30
0.0
 42
0.039
  0
VERTEX
  5
21C
100
AcDbEntity
  8
BLACK
 62
     7
100
AcDbVertex
100
AcDb2dVertex
 10
15.567
 20
16.405
 30
0.0
 42
-0.087
  0
VERTEX
  5
21D
100
AcDbEntity
  8
BLACK
 62
     7
100
AcDbVertex
100
AcDb2dVertex
 10
15.347
 20
15.978
 30
0.0
 42
-0.067
  0
VERTEX
  5
21E
100
AcDbEntity
  8
BLACK
 62
     7
100
AcDbVertex
100
AcDb2dVertex
 10
15.181
 20
15.814
 30
0.0
 42
-0.09
  0
VERTEX
  5
21F
100
AcDbEntity
  8
BLACK
 62
     7
100
AcDbVertex
100
AcDb2dVertex
 10
14.979
 20
15.712
 30
0.0
 42
-0.05
  0
VERTEX
  5
220
100
AcDbEntity
  8
BLACK
 62
     7
100
AcDbVertex
100
AcDb2dVertex
 10
14.917
 20
15.701
 30
0.0
  0
VERTEX
  5
221
100
AcDbEntity
  8
BLACK
 62
     7
100
AcDbVertex
100
AcDb2dVertex
 10
14.859
 20
15.699
 30
0.0
 42
0.082
  0
VERTEX
  5
222
100
AcDbEntity
  8
BLACK
 62
     7
100
AcDbVertex
100
AcDb2dVertex
 10
14.743
 20
15.685
 30
0.0
 42
0.064
  0
VERTEX
  5
223
100
AcDbEntity
  8
BLACK
 62
     7
100
AcDbVertex
100
AcDb2dVertex
 10
14.708
 20
15.665
 30
0.0
  0
VERTEX
  5
224
100
AcDbEntity
  8
BLACK
 62
     7
100
AcDbVertex
100
AcDb2dVertex
 10
14.659
 20
15.627
 30
0.0
 42
0.015
  0
VERTEX
  5
225
100
AcDbEntity
  8
BLACK
 62
     7
100
AcDbVertex
100
AcDb2dVertex
 10
14.393
 20
15.378
 30
0.0
 42
-0.007
  0
VERTEX
  5
226
100
AcDbEntity
  8
BLACK
 62
     7
100
AcDbVertex
100
AcDb2dVertex
 10
14.261
 20
15.253
 30
0.0
 42
0.033
  0
VERTEX
  5
227
100
AcDbEntity
  8
BLACK
 62
     7
100
AcDbVertex
100
AcDb2dVertex
 10
14.249
 20
15.241
 30
0.0
 42
0.069
  0
VERTEX
  5
228
100
AcDbEntity
  8
BLACK
 62
     7
100
AcDbVertex
100
AcDb2dVertex
 10
14.247
 20
15.238
 30
0.0
 42
0.18
  0
VERTEX
  5
229
100
AcDbEntity
  8
BLACK
 62
     7
100
AcDbVertex
100
AcDb2dVertex
 10
14.246
 20
15.235
 30
0.0
 42
0.18
  0
VERTEX
  5
22A
100
AcDbEntity
  8
BLACK
 62
     7
100
AcDbVertex
100
AcDb2dVertex
 10
14.248
 20
15.232
 30
0.0
 42
0.069
  0
VERTEX
  5
22B
100
AcDbEntity
  8
BLACK
 62
     7
100
AcDbVertex
100
AcDb2dVertex
 10
14.253
 20
15.23
 30
0.0
 42
0.033
  0
VERTEX
  5
22C
100
AcDbEntity
  8
BLACK
 62
     7
100
AcDbVertex
100
AcDb2dVertex
 10
14.269
 20
15.228
 30
0.0
  0
VERTEX
  5
22D
100
AcDbEntity
  8
BLACK
 62
     7
100
AcDbVertex
100
AcDb2dVertex
 10
14.361
 20
15.217
 30
0.0
  0
VERTEX
  5
22E
100
AcDbEntity
  8
BLACK
 62
     7
100
AcDbVertex
100
AcDb2dVertex
 10
14.446
 20
15.209
 30
0.0
 42
-0.027
  0
VERTEX
  5
22F
100
AcDbEntity
  8
BLACK
 62
     7
100
AcDbVertex
100
AcDb2dVertex
 10
14.584
 20
15.192
 30
0.0
 42
-0.052
  0
VERTEX
  5
230
100
AcDbEntity
  8
BLACK
 62
     7
100
AcDbVertex
100
AcDb2dVertex
 10
14.631
 20
15.178
 30
0.0
 42
-0.12
  0
VERTEX
  5
231
100
AcDbEntity
  8
BLACK
 62
     7
100
AcDbVertex
100
AcDb2dVertex
 10
14.662
 20
15.157
 30
0.0
 42
-0.182
  0
VERTEX
  5
232
100
AcDbEntity
  8
BLACK
 62
     7
100
AcDbVertex
100
AcDb2dVertex
 10
14.672
 20
15.126
 30
0.0
 42
-0.109
  0
VERTEX
  5
233
100
AcDbEntity
  8
BLACK
 62
     7
100
AcDbVertex
100
AcDb2dVertex
 10
14.66
 20
15.082
 30
0.0
 42
-0.177
  0
VERTEX
  5
234
100
AcDbEntity
  8
BLACK
 62
     7
100
AcDbVertex
100
AcDb2dVertex
 10
14.62
 20
15.043
 30
0.0
 42
-0.114
  0
VERTEX
  5
235
100
AcDbEntity
  8
BLACK
 62
     7
100
AcDbVertex
100
AcDb2dVertex
 10
14.557
 20
15.032
 30
0.0
 42
-0.038
  0
VERTEX
  5
236
100
AcDbEntity
  8
BLACK
 62
     7
100
AcDbVertex
100
AcDb2dVertex
 10
14.465
 20
15.043
 30
0.0
  0
VERTEX
  5
237
100
AcDbEntity
  8
BLACK
 62
     7
100
AcDbVertex
100
AcDb2dVertex
 10
14.343
 20
15.067
 30
0.0
 42
0.04
  0
VERTEX
  5
238
100
AcDbEntity
  8
BLACK
 62
     7
100
AcDbVertex
100
AcDb2dVertex
 10
14.327
 20
15.069
 30
0.0
 42
0.064
  0
VERTEX
  5
239
100
AcDbEntity
  8
BLACK
 62
     7
100
AcDbVertex
100
AcDb2dVertex
 10
14.321
 20
15.069
 30
0.0
 42
0.11
  0
VERTEX
  5
23A
100
AcDbEntity
  8
BLACK
 62
     7
100
AcDbVertex
100
AcDb2dVertex
 10
14.317
 20
15.067
 30
0.0
 42
0.11
  0
VERTEX
  5
23B
100
AcDbEntity
  8
BLACK
 62
     7
100
AcDbVertex
100
AcDb2dVertex
 10
14.314
 20
15.064
 30
0.0
 42
0.064
  0
VERTEX
  5
23C
100
AcDbEntity
  8
BLACK
 62
     7
100
AcDbVertex
100
AcDb2dVertex
 10
14.313
 20
15.059
 30
0.0
 42
0.04
  0
VERTEX
  5
23D
100
AcDbEntity
  8
BLACK
 62
     7
100
AcDbVertex
100
AcDb2dVertex
 10
14.311
 20
15.042
 30
0.0
  0
SEQEND
  5
23E
100
AcDbEntity
  8
BLACK
 62
     7
  0
POLYLINE
  5
23F
100
AcDbEntity
  8
BLACK
 62
     7
100
AcDb2dPolyline
 66
     1
 10
0.0
 20
0.0
 30
0.0
 70
     1
  0
VERTEX
  5
240
100
AcDbEntity
  8
BLACK
 62
     7
100
AcDbVertex
100
AcDb2dVertex
 10
11.082
 20
16.218
 30
0.0
  0
VERTEX
  5
241
100
AcDbEntity
  8
BLACK
 62
     7
100
AcDbVertex
100
AcDb2dVertex
 10
11.204
 20
16.028
 30
0.0
 42
-0.038
  0
VERTEX
  5
242
100
AcDbEntity
  8
BLACK
 62
     7
100
AcDbVertex
100
AcDb2dVertex
 10
11.213
 20
16.014
 30
0.0
 42
-0.129
  0
VERTEX
  5
243
100
AcDbEntity
  8
BLACK
 62
     7
100
AcDbVertex
100
AcDb2dVertex
 10
11.215
 20
16.003
 30
0.0
 42
-0.129
  0
VERTEX
  5
244
100
AcDbEntity
  8
BLACK
 62
     7
100
AcDbVertex
100
AcDb2dVertex
 10
11.211
 20
15.992
 30
0.0
 42
-0.038
  0
VERTEX
  5
245
100
AcDbEntity
  8
BLACK
 62
     7
100
AcDbVertex
100
AcDb2dVertex
 10
11.2
 20
15.979
 30
0.0
  0
VERTEX
  5
246
100
AcDbEntity
  8
BLACK
 62
     7
100
AcDbVertex
100
AcDb2dVertex
 10
11.175
 20
15.953
 30
0.0
 42
-0.097
  0
VERTEX
  5
247
100
AcDbEntity
  8
BLACK
 62
     7
100
AcDbVertex
100
AcDb2dVertex
 10
11.15
 20
15.935
 30
0.0
 42
-0.143
  0
VERTEX
  5
248
100
AcDbEntity
  8
BLACK
 62
     7
100
AcDbVertex
100
AcDb2dVertex
 10
11.141
 20
15.934
 30
0.0
 42
-0.101
  0
VERTEX
  5
249
100
AcDbEntity
  8
BLACK
 62
     7
100
AcDbVertex
100
AcDb2dVertex
 10
11.131
 20
15.938
 30
0.0
 42
-0.084
  0
VERTEX
  5
24A
100
AcDbEntity
  8
BLACK
 62
     7
100
AcDbVertex
100
AcDb2dVertex
 10
11.111
 20
15.96
 30
0.0
 42
-0.033
  0
VERTEX
  5
24B
100
AcDbEntity
  8
BLACK
 62
     7
100
AcDbVertex
100
AcDb2dVertex
 10
11.067
 20
16.039
 30
0.0
  0
VERTEX
  5
24C
100
AcDbEntity
  8
BLACK
 62
     7
100
AcDbVertex
100
AcDb2dVertex
 10
11.042
 20
16.085
 30
0.0
  0
VERTEX
  5
24D
100
AcDbEntity
  8
BLACK
 62
     7
100
AcDbVertex
100
AcDb2dVertex
 10
11.016
 20
16.131
 30
0.0
 42
0.099
  0
VERTEX
  5
24E
100
AcDbEntity
  8
BLACK
 62
     7
100
AcDbVertex
100
AcDb2dVertex
 10
10.959
 20
16.199
 30
0.0
 42
0.138
  0
VERTEX
  5
24F
100
AcDbEntity
  8
BLACK
 62
     7
100
AcDbVertex
100
AcDb2dVertex
 10
10.926
 20
16.209
 30
0.0
 42
0.078
  0
VERTEX
  5
250
100
AcDbEntity
  8
BLACK
 62
     7
100
AcDbVertex
100
AcDb2dVertex
 10
10.886
 20
16.203
 30
0.0
 42
0.077
  0
VERTEX
  5
251
100
AcDbEntity
  8
BLACK
 62
     7
100
AcDbVertex
100
AcDb2dVertex
 10
10.791
 20
16.158
 30
0.0
 42
0.056
  0
VERTEX
  5
252
100
AcDbEntity
  8
BLACK
 62
     7
100
AcDbVertex
100
AcDb2dVertex
 10
10.702
 20
16.085
 30
0.0
 42
0.089
  0
VERTEX
  5
253
100
AcDbEntity
  8
BLACK
 62
     7
100
AcDbVertex
100
AcDb2dVertex
 10
10.645
 20
16.004
 30
0.0
 42
0.308
  0
VERTEX
  5
254
100
AcDbEntity
  8
BLACK
 62
     7
100
AcDbVertex
100
AcDb2dVertex
 10
10.677
 20
15.815
 30
0.0
 42
0.149
  0
VERTEX
  5
255
100
AcDbEntity
  8
BLACK
 62
     7
100
AcDbVertex
100
AcDb2dVertex
 10
10.867
 20
15.712
 30
0.0
 42
0.048
  0
VERTEX
  5
256
100
AcDbEntity
  8
BLACK
 62
     7
100
AcDbVertex
100
AcDb2dVertex
 10
11.008
 20
15.697
 30
0.0
 42
0.023
  0
VERTEX
  5
257
100
AcDbEntity
  8
BLACK
 62
     7
100
AcDbVertex
100
AcDb2dVertex
 10
11.195
 20
15.701
 30
0.0
 42
0.026
  0
VERTEX
  5
258
100
AcDbEntity
  8
BLACK
 62
     7
100
AcDbVertex
100
AcDb2dVertex
 10
11.643
 20
15.755
 30
0.0
 42
0.025
  0
VERTEX
  5
259
100
AcDbEntity
  8
BLACK
 62
     7
100
AcDbVertex
100
AcDb2dVertex
 10
12.079
 20
15.851
 30
0.0
 42
0.021
  0
VERTEX
  5
25A
100
AcDbEntity
  8
BLACK
 62
     7
100
AcDbVertex
100
AcDb2dVertex
 10
12.253
 20
15.906
 30
0.0
 42
0.045
  0
VERTEX
  5
25B
100
AcDbEntity
  8
BLACK
 62
     7
100
AcDbVertex
100
AcDb2dVertex
 10
12.376
 20
15.962
 30
0.0
 42
0.143
  0
VERTEX
  5
25C
100
AcDbEntity
  8
BLACK
 62
     7
100
AcDbVertex
100
AcDb2dVertex
 10
12.42
 20
16.006
 30
0.0
 42
0.137
  0
VERTEX
  5
25D
100
AcDbEntity
  8
BLACK
 62
     7
100
AcDbVertex
100
AcDb2dVertex
 10
12.425
 20
16.033
 30
0.0
 42
0.116
  0
VERTEX
  5
25E
100
AcDbEntity
  8
BLACK
 62
     7
100
AcDbVertex
100
AcDb2dVertex
 10
12.413
 20
16.065
 30
0.0
 42
0.18
  0
VERTEX
  5
25F
100
AcDbEntity
  8
BLACK
 62
     7
100
AcDbVertex
100
AcDb2dVertex
 10
12.385
 20
16.087
 30
0.0
 42
0.099
  0
VERTEX
  5
260
100
AcDbEntity
  8
BLACK
 62
     7
100
AcDbVertex
100
AcDb2dVertex
 10
12.344
 20
16.091
 30
0.0
 42
0.051
  0
VERTEX
  5
261
100
AcDbEntity
  8
BLACK
 62
     7
100
AcDbVertex
100
AcDb2dVertex
 10
12.236
 20
16.065
 30
0.0
 42
-0.025
  0
VERTEX
  5
262
100
AcDbEntity
  8
BLACK
 62
     7
100
AcDbVertex
100
AcDb2dVertex
 10
12.113
 20
16.032
 30
0.0
 42
-0.124
  0
VERTEX
  5
263
100
AcDbEntity
  8
BLACK
 62
     7
100
AcDbVertex
100
AcDb2dVertex
 10
12.002
 20
16.032
 30
0.0
 42
-0.207
  0
VERTEX
  5
264
100
AcDbEntity
  8
BLACK
 62
     7
100
AcDbVertex
100
AcDb2dVertex
 10
11.967
 20
16.064
 30
0.0
 42
-0.199
  0
VERTEX
  5
265
100
AcDbEntity
  8
BLACK
 62
     7
100
AcDbVertex
100
AcDb2dVertex
 10
11.965
 20
16.12
 30
0.0
 42
-0.125
  0
VERTEX
  5
266
100
AcDbEntity
  8
BLACK
 62
     7
100
AcDbVertex
100
AcDb2dVertex
 10
11.982
 20
16.145
 30
0.0
 42
-0.068
  0
VERTEX
  5
267
100
AcDbEntity
  8
BLACK
 62
     7
100
AcDbVertex
100
AcDb2dVertex
 10
12.014
 20
16.166
 30
0.0
 42
-0.055
  0
VERTEX
  5
268
100
AcDbEntity
  8
BLACK
 62
     7
100
AcDbVertex
100
AcDb2dVertex
 10
12.104
 20
16.196
 30
0.0
 42
-0.01
  0
VERTEX
  5
269
100
AcDbEntity
  8
BLACK
 62
     7
100
AcDbVertex
100
AcDb2dVertex
 10
12.255
 20
16.225
 30
0.0
  0
VERTEX
  5
26A
100
AcDbEntity
  8
BLACK
 62
     7
100
AcDbVertex
100
AcDb2dVertex
 10
12.295
 20
16.233
 30
0.0
 42
0.034
  0
VERTEX
  5
26B
100
AcDbEntity
  8
BLACK
 62
     7
100
AcDbVertex
100
AcDb2dVertex
 10
12.312
 20
16.238
 30
0.0
 42
0.122
  0
VERTEX
  5
26C
100
AcDbEntity
  8
BLACK
 62
     7
100
AcDbVertex
100
AcDb2dVertex
 10
12.321
 20
16.244
 30
0.0
 42
0.139
  0
VERTEX
  5
26D
100
AcDbEntity
  8
BLACK
 62
     7
100
AcDbVertex
100
AcDb2dVertex
 10
12.325
 20
16.253
 30
0.0
 42
0.043
  0
VERTEX
  5
26E
100
AcDbEntity
  8
BLACK
 62
     7
100
AcDbVertex
100
AcDb2dVertex
 10
12.326
 20
16.268
 30
0.0
  0
VERTEX
  5
26F
100
AcDbEntity
  8
BLACK
 62
     7
100
AcDbVertex
100
AcDb2dVertex
 10
12.326
 20
16.296
 30
0.0
 42
0.043
  0
VERTEX
  5
270
100
AcDbEntity
  8
BLACK
 62
     7
100
AcDbVertex
100
AcDb2dVertex
 10
12.325
 20
16.311
 30
0.0
 42
0.138
  0
VERTEX
  5
271
100
AcDbEntity
  8
BLACK
 62
     7
100
AcDbVertex
100
AcDb2dVertex
 10
12.321
 20
16.32
 30
0.0
 42
0.121
  0
VERTEX
  5
272
100
AcDbEntity
  8
BLACK
 62
     7
100
AcDbVertex
100
AcDb2dVertex
 10
12.312
 20
16.326
 30
0.0
 42
0.034
  0
VERTEX
  5
273
100
AcDbEntity
  8
BLACK
 62
     7
100
AcDbVertex
100
AcDb2dVertex
 10
12.295
 20
16.331
 30
0.0
 42
0.039
  0
VERTEX
  5
274
100
AcDbEntity
  8
BLACK
 62
     7
100
AcDbVertex
100
AcDb2dVertex
 10
11.981
 20
16.386
 30
0.0
 42
0.047
  0
VERTEX
  5
275
100
AcDbEntity
  8
BLACK
 62
     7
100
AcDbVertex
100
AcDb2dVertex
 10
11.704
 20
16.385
 30
0.0
 42
0.032
  0
VERTEX
  5
276
100
AcDbEntity
  8
BLACK
 62
     7
100
AcDbVertex
100
AcDb2dVertex
 10
11.424
 20
16.337
 30
0.0
 42
0.01
  0
VERTEX
  5
277
100
AcDbEntity
  8
BLACK
 62
     7
100
AcDbVertex
100
AcDb2dVertex
 10
11.095
 20
16.252
 30
0.0
 42
0.04
  0
VERTEX
  5
278
100
AcDbEntity
  8
BLACK
 62
     7
100
AcDbVertex
100
AcDb2dVertex
 10
11.079
 20
16.247
 30
0.0
 42
0.068
  0
VERTEX
  5
279
100
AcDbEntity
  8
BLACK
 62
     7
100
AcDbVertex
100
AcDb2dVertex
 10
11.075
 20
16.245
 30
0.0
 42
0.126
  0
VERTEX
  5
27A
100
AcDbEntity
  8
BLACK
 62
     7
100
AcDbVertex
100
AcDb2dVertex
 10
11.073
 20
16.241
 30
0.0
 42
0.126
  0
VERTEX
  5
27B
100
AcDbEntity
  8
BLACK
 62
     7
100
AcDbVertex
100
AcDb2dVertex
 10
11.072
 20
16.237
 30
0.0
 42
0.068
  0
VERTEX
  5
27C
100
AcDbEntity
  8
BLACK
 62
     7
100
AcDbVertex
100
AcDb2dVertex
 10
11.074
 20
16.232
 30
0.0
 42
0.04
  0
VERTEX
  5
27D
100
AcDbEntity
  8
BLACK
 62
     7
100
AcDbVertex
100
AcDb2dVertex
 10
11.082
 20
16.218
 30
0.0
  0
SEQEND
  5
27E
100
AcDbEntity
  8
BLACK
 62
     7
  0
POLYLINE
  5
27F
100
AcDbEntity
  8
BLACK
 62
     7
100
AcDb2dPolyline
 66
     1
 10
0.0
 20
0.0
 30
0.0
 70
     1
  0
VERTEX
  5
280
100
AcDbEntity
  8
BLACK
 62
     7
100
AcDbVertex
100
AcDb2dVertex
 10
2.566
 20
15.715
 30
0.0
  0
VERTEX
  5
281
100
AcDbEntity
  8
BLACK
 62
     7
100
AcDbVertex
100
AcDb2dVertex
 10
2.511
 20
15.503
 30
0.0
 42
0.053
  0
VERTEX
  5
282
100
AcDbEntity
  8
BLACK
 62
     7
100
AcDbVertex
100
AcDb2dVertex
 10
2.509
 20
15.489
 30
0.0
 42
0.142
  0
VERTEX
  5
283
100
AcDbEntity
  8
BLACK
 62
     7
100
AcDbVertex
100
AcDb2dVertex
 10
2.511
 20
15.479
 30
0.0
 42
0.126
  0
VERTEX
  5
284
100
AcDbEntity
  8
BLACK
 62
     7
100
AcDbVertex
100
AcDb2dVertex
 10
2.518
 20
15.472
 30
0.0
 42
0.043
  0
VERTEX
  5
285
100
AcDbEntity
  8
BLACK
 62
     7
100
AcDbVertex
100
AcDb2dVertex
 10
2.533
 20
15.465
 30
0.0
  0
VERTEX
  5
286
100
AcDbEntity
  8
BLACK
 62
     7
100
AcDbVertex
100
AcDb2dVertex
 10
4.1
 20
14.835
 30
0.0
 42
0.04
  0
VERTEX
  5
287
100
AcDbEntity
  8
BLACK
 62
     7
100
AcDbVertex
100
AcDb2dVertex
 10
4.116
 20
14.83
 30
0.0
 42
0.167
  0
VERTEX
  5
288
100
AcDbEntity
  8
BLACK
 62
     7
100
AcDbVertex
100
AcDb2dVertex
 10
4.126
 20
14.83
 30
0.0
 42
0.167
  0
VERTEX
  5
289
100
AcDbEntity
  8
BLACK
 62
     7
100
AcDbVertex
100
AcDb2dVertex
 10
4.133
 20
14.837
 30
0.0
 42
0.04
  0
VERTEX
  5
28A
100
AcDbEntity
  8
BLACK
 62
     7
100
AcDbVertex
100
AcDb2dVertex
 10
4.139
 20
14.853
 30
0.0
  0
VERTEX
  5
28B
100
AcDbEntity
  8
BLACK
 62
     7
100
AcDbVertex
100
AcDb2dVertex
 10
4.169
 20
14.944
 30
0.0
 42
-0.05
  0
VERTEX
  5
28C
100
AcDbEntity
  8
BLACK
 62
     7
100
AcDbVertex
100
AcDb2dVertex
 10
4.207
 20
15.027
 30
0.0
 42
-0.067
  0
VERTEX
  5
28D
100
AcDbEntity
  8
BLACK
 62
     7
100
AcDbVertex
100
AcDb2dVertex
 10
4.229
 20
15.055
 30
0.0
 42
-0.137
  0
VERTEX
  5
28E
100
AcDbEntity
  8
BLACK
 62
     7
100
AcDbVertex
100
AcDb2dVertex
 10
4.255
 20
15.069
 30
0.0
 42
-0.176
  0
VERTEX
  5
28F
100
AcDbEntity
  8
BLACK
 62
     7
100
AcDbVertex
100
AcDb2dVertex
 10
4.282
 20
15.064
 30
0.0
 42
-0.102
  0
VERTEX
  5
290
100
AcDbEntity
  8
BLACK
 62
     7
100
AcDbVertex
100
AcDb2dVertex
 10
4.313
 20
15.037
 30
0.0
 42
-0.052
  0
VERTEX
  5
291
100
AcDbEntity
  8
BLACK
 62
     7
100
AcDbVertex
100
AcDb2dVertex
 10
4.319
 20
15.029
 30
0.0
 42
-0.108
  0
VERTEX
  5
292
100
AcDbEntity
  8
BLACK
 62
     7
100
AcDbVertex
100
AcDb2dVertex
 10
4.321
 20
15.021
 30
0.0
 42
-0.064
  0
VERTEX
  5
293
100
AcDbEntity
  8
BLACK
 62
     7
100
AcDbVertex
100
AcDb2dVertex
 10
4.32
 20
15.01
 30
0.0
  0
VERTEX
  5
294
100
AcDbEntity
  8
BLACK
 62
     7
100
AcDbVertex
100
AcDb2dVertex
 10
4.315
 20
14.993
 30
0.0
  0
VERTEX
  5
295
100
AcDbEntity
  8
BLACK
 62
     7
100
AcDbVertex
100
AcDb2dVertex
 10
4.263
 20
14.812
 30
0.0
 42
0.04
  0
VERTEX
  5
296
100
AcDbEntity
  8
BLACK
 62
     7
100
AcDbVertex
100
AcDb2dVertex
 10
4.259
 20
14.795
 30
0.0
 42
0.162
  0
VERTEX
  5
297
100
AcDbEntity
  8
BLACK
 62
     7
100
AcDbVertex
100
AcDb2dVertex
 10
4.261
 20
14.785
 30
0.0
 42
0.162
  0
VERTEX
  5
298
100
AcDbEntity
  8
BLACK
 62
     7
100
AcDbVertex
100
AcDb2dVertex
 10
4.269
 20
14.779
 30
0.0
 42
0.04
  0
VERTEX
  5
299
100
AcDbEntity
  8
BLACK
 62
     7
100
AcDbVertex
100
AcDb2dVertex
 10
4.285
 20
14.774
 30
0.0
  0
VERTEX
  5
29A
100
AcDbEntity
  8
BLACK
 62
     7
100
AcDbVertex
100
AcDb2dVertex
 10
4.341
 20
14.759
 30
0.0
 42
0.1
  0
VERTEX
  5
29B
100
AcDbEntity
  8
BLACK
 62
     7
100
AcDbVertex
100
AcDb2dVertex
 10
4.393
 20
14.754
 30
0.0
 42
0.16
  0
VERTEX
  5
29C
100
AcDbEntity
  8
BLACK
 62
     7
100
AcDbVertex
100
AcDb2dVertex
 10
4.435
 20
14.777
 30
0.0
 42
0.047
  0
VERTEX
  5
29D
100
AcDbEntity
  8
BLACK
 62
     7
100
AcDbVertex
100
AcDb2dVertex
 10
4.468
 20
14.821
 30
0.0
  0
VERTEX
  5
29E
100
AcDbEntity
  8
BLACK
 62
     7
100
AcDbVertex
100
AcDb2dVertex
 10
4.502
 20
14.869
 30
0.0
 42
-0.102
  0
VERTEX
  5
29F
100
AcDbEntity
  8
BLACK
 62
     7
100
AcDbVertex
100
AcDb2dVertex
 10
4.546
 20
14.907
 30
0.0
 42
-0.119
  0
VERTEX
  5
2A0
100
AcDbEntity
  8
BLACK
 62
     7
100
AcDbVertex
100
AcDb2dVertex
 10
4.647
 20
14.929
 30
0.0
 42
-0.027
  0
VERTEX
  5
2A1
100
AcDbEntity
  8
BLACK
 62
     7
100
AcDbVertex
100
AcDb2dVertex
 10
4.696
 20
14.926
 30
0.0
  0
VERTEX
  5
2A2
100
AcDbEntity
  8
BLACK
 62
     7
100
AcDbVertex
100
AcDb2dVertex
 10
4.785
 20
14.917
 30
0.0
 42
0.069
  0
VERTEX
  5
2A3
100
AcDbEntity
  8
BLACK
 62
     7
100
AcDbVertex
100
AcDb2dVertex
 10
4.82
 20
14.921
 30
0.0
 42
0.284
  0
VERTEX
  5
2A4
100
AcDbEntity
  8
BLACK
 62
     7
100
AcDbVertex
100
AcDb2dVertex
 10
4.866
 20
14.968
 30
0.0
 42
0.052
  0
VERTEX
  5
2A5
100
AcDbEntity
  8
BLACK
 62
     7
100
AcDbVertex
100
AcDb2dVertex
 10
4.875
 20
15.029
 30
0.0
  0
VERTEX
  5
2A6
100
AcDbEntity
  8
BLACK
 62
     7
100
AcDbVertex
100
AcDb2dVertex
 10
4.878
 20
15.098
 30
0.0
 42
0.04
  0
VERTEX
  5
2A7
100
AcDbEntity
  8
BLACK
 62
     7
100
AcDbVertex
100
AcDb2dVertex
 10
4.878
 20
15.114
 30
0.0
 42
0.067
  0
VERTEX
  5
2A8
100
AcDbEntity
  8
BLACK
 62
     7
100
AcDbVertex
100
AcDb2dVertex
 10
4.877
 20
15.119
 30
0.0
 42
0.123
  0
VERTEX
  5
2A9
100
AcDbEntity
  8
BLACK
 62
     7
100
AcDbVertex
100
AcDb2dVertex
 10
4.874
 20
15.123
 30
0.0
 42
0.123
  0
VERTEX
  5
2AA
100
AcDbEntity
  8
BLACK
 62
     7
100
AcDbVertex
100
AcDb2dVertex
 10
4.871
 20
15.124
 30
0.0
 42
0.067
  0
VERTEX
  5
2AB
100
AcDbEntity
  8
BLACK
 62
     7
100
AcDbVertex
100
AcDb2dVertex
 10
4.866
 20
15.125
 30
0.0
 42
0.04
  0
VERTEX
  5
2AC
100
AcDbEntity
  8
BLACK
 62
     7
100
AcDbVertex
100
AcDb2dVertex
 10
4.849
 20
15.122
 30
0.0
  0
VERTEX
  5
2AD
100
AcDbEntity
  8
BLACK
 62
     7
100
AcDbVertex
100
AcDb2dVertex
 10
4.582
 20
15.057
 30
0.0
 42
-0.039
  0
VERTEX
  5
2AE
100
AcDbEntity
  8
BLACK
 62
     7
100
AcDbVertex
100
AcDb2dVertex
 10
4.566
 20
15.054
 30
0.0
 42
-0.069
  0
VERTEX
  5
2AF
100
AcDbEntity
  8
BLACK
 62
     7
100
AcDbVertex
100
AcDb2dVertex
 10
4.561
 20
15.054
 30
0.0
 42
-0.132
  0
VERTEX
  5
2B0
100
AcDbEntity
  8
BLACK
 62
     7
100
AcDbVertex
100
AcDb2dVertex
 10
4.558
 20
15.056
 30
0.0
 42
-0.132
  0
VERTEX
  5
2B1
100
AcDbEntity
  8
BLACK
 62
     7
100
AcDbVertex
100
AcDb2dVertex
 10
4.555
 20
15.059
 30
0.0
 42
-0.069
  0
VERTEX
  5
2B2
100
AcDbEntity
  8
BLACK
 62
     7
100
AcDbVertex
100
AcDb2dVertex
 10
4.555
 20
15.064
 30
0.0
 42
-0.039
  0
VERTEX
  5
2B3
100
AcDbEntity
  8
BLACK
 62
     7
100
AcDbVertex
100
AcDb2dVertex
 10
4.556
 20
15.08
 30
0.0
 42
-0.044
  0
VERTEX
  5
2B4
100
AcDbEntity
  8
BLACK
 62
     7
100
AcDbVertex
100
AcDb2dVertex
 10
4.571
 20
15.167
 30
0.0
 42
-0.227
  0
VERTEX
  5
2B5
100
AcDbEntity
  8
BLACK
 62
     7
100
AcDbVertex
100
AcDb2dVertex
 10
4.61
 20
15.212
 30
0.0
 42
-0.045
  0
VERTEX
  5
2B6
100
AcDbEntity
  8
BLACK
 62
     7
100
AcDbVertex
100
AcDb2dVertex
 10
4.69
 20
15.24
 30
0.0
  0
VERTEX
  5
2B7
100
AcDbEntity
  8
BLACK
 62
     7
100
AcDbVertex
100
AcDb2dVertex
 10
4.75
 20
15.254
 30
0.0
 42
0.082
  0
VERTEX
  5
2B8
100
AcDbEntity
  8
BLACK
 62
     7
100
AcDbVertex
100
AcDb2dVertex
 10
4.791
 20
15.267
 30
0.0
 42
0.22
  0
VERTEX
  5
2B9
100
AcDbEntity
  8
BLACK
 62
     7
100
AcDbVertex
100
AcDb2dVertex
 10
4.81
 20
15.296
 30
0.0
 42
0.168
  0
VERTEX
  5
2BA
100
AcDbEntity
  8
BLACK
 62
     7
100
AcDbVertex
100
AcDb2dVertex
 10
4.799
 20
15.357
 30
0.0
 42
0.161
  0
VERTEX
  5
2BB
100
AcDbEntity
  8
BLACK
 62
     7
100
AcDbVertex
100
AcDb2dVertex
 10
4.749
 20
15.407
 30
0.0
 42
0.091
  0
VERTEX
  5
2BC
100
AcDbEntity
  8
BLACK
 62
     7
100
AcDbVertex
100
AcDb2dVertex
 10
4.724
 20
15.412
 30
0.0
 42
0.036
  0
VERTEX
  5
2BD
100
AcDbEntity
  8
BLACK
 62
     7
100
AcDbVertex
100
AcDb2dVertex
 10
4.686
 20
15.412
 30
0.0
 42
0.026
  0
VERTEX
  5
2BE
100
AcDbEntity
  8
BLACK
 62
     7
100
AcDbVertex
100
AcDb2dVertex
 10
4.475
 20
15.375
 30
0.0
 42
-0.012
  0
VERTEX
  5
2BF
100
AcDbEntity
  8
BLACK
 62
     7
100
AcDbVertex
100
AcDb2dVertex
 10
4.369
 20
15.356
 30
0.0
 42
-0.066
  0
VERTEX
  5
2C0
100
AcDbEntity
  8
BLACK
 62
     7
100
AcDbVertex
100
AcDb2dVertex
 10
4.338
 20
15.354
 30
0.0
 42
-0.066
  0
VERTEX
  5
2C1
100
AcDbEntity
  8
BLACK
 62
     7
100
AcDbVertex
100
AcDb2dVertex
 10
4.309
 20
15.363
 30
0.0
  0
VERTEX
  5
2C2
100
AcDbEntity
  8
BLACK
 62
     7
100
AcDbVertex
100
AcDb2dVertex
 10
2.761
 20
15.979
 30
0.0
 42
-0.058
  0
VERTEX
  5
2C3
100
AcDbEntity
  8
BLACK
 62
     7
100
AcDbVertex
100
AcDb2dVertex
 10
2.733
 20
15.992
 30
0.0
 42
-0.058
  0
VERTEX
  5
2C4
100
AcDbEntity
  8
BLACK
 62
     7
100
AcDbVertex
100
AcDb2dVertex
 10
2.711
 20
16.013
 30
0.0
  0
VERTEX
  5
2C5
100
AcDbEntity
  8
BLACK
 62
     7
100
AcDbVertex
100
AcDb2dVertex
 10
2.649
 20
16.086
 30
0.0
  0
VERTEX
  5
2C6
100
AcDbEntity
  8
BLACK
 62
     7
100
AcDbVertex
100
AcDb2dVertex
 10
2.595
 20
16.151
 30
0.0
 42
0.024
  0
VERTEX
  5
2C7
100
AcDbEntity
  8
BLACK
 62
     7
100
AcDbVertex
100
AcDb2dVertex
 10
2.504
 20
16.256
 30
0.0
 42
0.091
  0
VERTEX
  5
2C8
100
AcDbEntity
  8
BLACK
 62
     7
100
AcDbVertex
100
AcDb2dVertex
 10
2.415
 20
16.32
 30
0.0
 42
0.129
  0
VERTEX
  5
2C9
100
AcDbEntity
  8
BLACK
 62
     7
100
AcDbVertex
100
AcDb2dVertex
 10
2.31
 20
16.337
 30
0.0
 42
0.058
  0
VERTEX
  5
2CA
100
AcDbEntity
  8
BLACK
 62
     7
100
AcDbVertex
100
AcDb2dVertex
 10
2.275
 20
16.332
 30
0.0
 42
0.162
  0
VERTEX
  5
2CB
100
AcDbEntity
  8
BLACK
 62
     7
100
AcDbVertex
100
AcDb2dVertex
 10
2.257
 20
16.321
 30
0.0
 42
0.206
  0
VERTEX
  5
2CC
100
AcDbEntity
  8
BLACK
 62
     7
100
AcDbVertex
100
AcDb2dVertex
 10
2.255
 20
16.304
 30
0.0
 42
0.074
  0
VERTEX
  5
2CD
100
AcDbEntity
  8
BLACK
 62
     7
100
AcDbVertex
100
AcDb2dVertex
 10
2.263
 20
16.282
 30
0.0
  0
VERTEX
  5
2CE
100
AcDbEntity
  8
BLACK
 62
     7
100
AcDbVertex
100
AcDb2dVertex
 10
2.302
 20
16.219
 30
0.0
 42
-0.043
  0
VERTEX
  5
2CF
100
AcDbEntity
  8
BLACK
 62
     7
100
AcDbVertex
100
AcDb2dVertex
 10
2.348
 20
16.129
 30
0.0
 42
-0.202
  0
VERTEX
  5
2D0
100
AcDbEntity
  8
BLACK
 62
     7
100
AcDbVertex
100
AcDb2dVertex
 10
2.351
 20
16.032
 30
0.0
 42
-0.108
  0
VERTEX
  5
2D1
100
AcDbEntity
  8
BLACK
 62
     7
100
AcDbVertex
100
AcDb2dVertex
 10
2.331
 20
16.003
 30
0.0
 42
-0.203
  0
VERTEX
  5
2D2
100
AcDbEntity
  8
BLACK
 62
     7
100
AcDbVertex
100
AcDb2dVertex
 10
2.309
 20
15.996
 30
0.0
 42
-0.135
  0
VERTEX
  5
2D3
100
AcDbEntity
  8
BLACK
 62
     7
100
AcDbVertex
100
AcDb2dVertex
 10
2.285
 20
16.006
 30
0.0
 42
-0.056
  0
VERTEX
  5
2D4
100
AcDbEntity
  8
BLACK
 62
     7
100
AcDbVertex
100
AcDb2dVertex
 10
2.26
 20
16.03
 30
0.0
 42
-0.033
  0
VERTEX
  5
2D5
100
AcDbEntity
  8
BLACK
 62
     7
100
AcDbVertex
100
AcDb2dVertex
 10
2.205
 20
16.105
 30
0.0
  0
VERTEX
  5
2D6
100
AcDbEntity
  8
BLACK
 62
     7
100
AcDbVertex
100
AcDb2dVertex
 10
2.146
 20
16.193
 30
0.0
 42
0.04
  0
VERTEX
  5
2D7
100
AcDbEntity
  8
BLACK
 62
     7
100
AcDbVertex
100
AcDb2dVertex
 10
2.136
 20
16.206
 30
0.0
 42
0.065
  0
VERTEX
  5
2D8
100
AcDbEntity
  8
BLACK
 62
     7
100
AcDbVertex
100
AcDb2dVertex
 10
2.132
 20
16.21
 30
0.0
 42
0.111
  0
VERTEX
  5
2D9
100
AcDbEntity
  8
BLACK
 62
     7
100
AcDbVertex
100
AcDb2dVertex
 10
2.127
 20
16.211
 30
0.0
 42
0.111
  0
VERTEX
  5
2DA
100
AcDbEntity
  8
BLACK
 62
     7
100
AcDbVertex
100
AcDb2dVertex
 10
2.123
 20
16.211
 30
0.0
 42
0.064
  0
VERTEX
  5
2DB
100
AcDbEntity
  8
BLACK
 62
     7
100
AcDbVertex
100
AcDb2dVertex
 10
2.118
 20
16.208
 30
0.0
 42
0.04
  0
VERTEX
  5
2DC
100
AcDbEntity
  8
BLACK
 62
     7
100
AcDbVertex
100
AcDb2dVertex
 10
2.106
 20
16.197
 30
0.0
  0
VERTEX
  5
2DD
100
AcDbEntity
  8
BLACK
 62
     7
100
AcDbVertex
100
AcDb2dVertex
 10
2.051
 20
16.142
 30
0.0
 42
0.055
  0
VERTEX
  5
2DE
100
AcDbEntity
  8
BLACK
 62
     7
100
AcDbVertex
100
AcDb2dVertex
 10
2.012
 20
16.092
 30
0.0
 42
0.243
  0
VERTEX
  5
2DF
100
AcDbEntity
  8
BLACK
 62
     7
100
AcDbVertex
100
AcDb2dVertex
 10
2.004
 20
15.976
 30
0.0
 42
0.071
  0
VERTEX
  5
2E0
100
AcDbEntity
  8
BLACK
 62
     7
100
AcDbVertex
100
AcDb2dVertex
 10
2.074
 20
15.864
 30
0.0
 42
-0.041
  0
VERTEX
  5
2E1
100
AcDbEntity
  8
BLACK
 62
     7
100
AcDbVertex
100
AcDb2dVertex
 10
2.154
 20
15.746
 30
0.0
 42
0.031
  0
VERTEX
  5
2E2
100
AcDbEntity
  8
BLACK
 62
     7
100
AcDbVertex
100
AcDb2dVertex
 10
2.24
 20
15.583
 30
0.0
 42
0.044
  0
VERTEX
  5
2E3
100
AcDbEntity
  8
BLACK
 62
     7
100
AcDbVertex
100
AcDb2dVertex
 10
2.267
 20
15.55
 30
0.0
 42
0.091
  0
VERTEX
  5
2E4
100
AcDbEntity
  8
BLACK
 62
     7
100
AcDbVertex
100
AcDb2dVertex
 10
2.295
 20
15.53
 30
0.0
 42
0.173
  0
VERTEX
  5
2E5
100
AcDbEntity
  8
BLACK
 62
     7
100
AcDbVertex
100
AcDb2dVertex
 10
2.323
 20
15.527
 30
0.0
 42
0.152
  0
VERTEX
  5
2E6
100
AcDbEntity
  8
BLACK
 62
     7
100
AcDbVertex
100
AcDb2dVertex
 10
2.351
 20
15.546
 30
0.0
 42
0.075
  0
VERTEX
  5
2E7
100
AcDbEntity
  8
BLACK
 62
     7
100
AcDbVertex
100
AcDb2dVertex
 10
2.371
 20
15.579
 30
0.0
  0
VERTEX
  5
2E8
100
AcDbEntity
  8
BLACK
 62
     7
100
AcDbVertex
100
AcDb2dVertex
 10
2.388
 20
15.624
 30
0.0
  0
VERTEX
  5
2E9
100
AcDbEntity
  8
BLACK
 62
     7
100
AcDbVertex
100
AcDb2dVertex
 10
2.404
 20
15.673
 30
0.0
  0
VERTEX
  5
2EA
100
AcDbEntity
  8
BLACK
 62
     7
100
AcDbVertex
100
AcDb2dVertex
 10
2.421
 20
15.721
 30
0.0
 42
-0.068
  0
VERTEX
  5
2EB
100
AcDbEntity
  8
BLACK
 62
     7
100
AcDbVertex
100
AcDb2dVertex
 10
2.45
 20
15.772
 30
0.0
 42
-0.148
  0
VERTEX
  5
2EC
100
AcDbEntity
  8
BLACK
 62
     7
100
AcDbVertex
100
AcDb2dVertex
 10
2.482
 20
15.797
 30
0.0
 42
-0.189
  0
VERTEX
  5
2ED
100
AcDbEntity
  8
BLACK
 62
     7
100
AcDbVertex
100
AcDb2dVertex
 10
2.518
 20
15.794
 30
0.0
 42
-0.099
  0
VERTEX
  5
2EE
100
AcDbEntity
  8
BLACK
 62
     7
100
AcDbVertex
100
AcDb2dVertex
 10
2.556
 20
15.763
 30
0.0
 42
-0.039
  0
VERTEX
  5
2EF
100
AcDbEntity
  8
BLACK
 62
     7
100
AcDbVertex
100
AcDb2dVertex
 10
2.565
 20
15.753
 30
0.0
 42
-0.103
  0
VERTEX
  5
2F0
100
AcDbEntity
  8
BLACK
 62
     7
100
AcDbVertex
100
AcDb2dVertex
 10
2.57
 20
15.743
 30
0.0
 42
-0.084
  0
VERTEX
  5
2F1
100
AcDbEntity
  8
BLACK
 62
     7
100
AcDbVertex
100
AcDb2dVertex
 10
2.569
 20
15.731
 30
0.0
  0
VERTEX
  5
2F2
100
AcDbEntity
  8
BLACK
 62
     7
100
AcDbVertex
100
AcDb2dVertex
 10
2.566
 20
15.715
 30
0.0
  0
SEQEND
  5
2F3
100
AcDbEntity
  8
BLACK
 62
     7
  0
POLYLINE
  5
2F4
100
AcDbEntity
  8
BLACK
 62
     7
100
AcDb2dPolyline
 66
     1
 10
0.0
 20
0.0
 30
0.0
 70
     1
  0
VERTEX
  5
2F5
100
AcDbEntity
  8
BLACK
 62
     7
100
AcDbVertex
100
AcDb2dVertex
 10
11.798
 20
16.051
 30
0.0
 42
-0.206
  0
VERTEX
  5
2F6
100
AcDbEntity
  8
BLACK
 62
     7
100
AcDbVertex
100
AcDb2dVertex
 10
11.797
 20
16.009
 30
0.0
 42
-0.129
  0
VERTEX
  5
2F7
100
AcDbEntity
  8
BLACK
 62
     7
100
AcDbVertex
100
AcDb2dVertex
 10
11.77
 20
15.978
 30
0.0
 42
-0.099
  0
VERTEX
  5
2F8
100
AcDbEntity
  8
BLACK
 62
     7
100
AcDbVertex
100
AcDb2dVertex
 10
11.701
 20
15.949
 30
0.0
 42
-0.075
  0
VERTEX
  5
2F9
100
AcDbEntity
  8
BLACK
 62
     7
100
AcDbVertex
100
AcDb2dVertex
 10
11.591
 20
15.942
 30
0.0
 42
-0.103
  0
VERTEX
  5
2FA
100
AcDbEntity
  8
BLACK
 62
     7
100
AcDbVertex
100
AcDb2dVertex
 10
11.539
 20
15.959
 30
0.0
 42
-0.184
  0
VERTEX
  5
2FB
100
AcDbEntity
  8
BLACK
 62
     7
100
AcDbVertex
100
AcDb2dVertex
 10
11.506
 20
15.999
 30
0.0
 42
-0.217
  0
VERTEX
  5
2FC
100
AcDbEntity
  8
BLACK
 62
     7
100
AcDbVertex
100
AcDb2dVertex
 10
11.51
 20
16.033
 30
0.0
 42
-0.104
  0
VERTEX
  5
2FD
100
AcDbEntity
  8
BLACK
 62
     7
100
AcDbVertex
100
AcDb2dVertex
 10
11.538
 20
16.063
 30
0.0
 42
-0.084
  0
VERTEX
  5
2FE
100
AcDbEntity
  8
BLACK
 62
     7
100
AcDbVertex
100
AcDb2dVertex
 10
11.617
 20
16.101
 30
0.0
 42
-0.104
  0
VERTEX
  5
2FF
100
AcDbEntity
  8
BLACK
 62
     7
100
AcDbVertex
100
AcDb2dVertex
 10
11.717
 20
16.108
 30
0.0
 42
-0.101
  0
VERTEX
  5
300
100
AcDbEntity
  8
BLACK
 62
     7
100
AcDbVertex
100
AcDb2dVertex
 10
11.766
 20
16.09
 30
0.0
 42
-0.166
  0
VERTEX
  5
301
100
AcDbEntity
  8
BLACK
 62
     7
100
AcDbVertex
100
AcDb2dVertex
 10
11.798
 20
16.051
 30
0.0
  0
SEQEND
  5
302
100
AcDbEntity
  8
BLACK
 62
     7
  0
POLYLINE
  5
303
100
AcDbEntity
  8
BLACK
 62
     7
100
AcDb2dPolyline
 66
     1
 10
0.0
 20
0.0
 30
0.0
 70
     1
  0
VERTEX
  5
304
100
AcDbEntity
  8
BLACK
 62
     7
100
AcDbVertex
100
AcDb2dVertex
 10
1.948
 20
12.088
 30
0.0
  0
VERTEX
  5
305
100
AcDbEntity
  8
BLACK
 62
     7
100
AcDbVertex
100
AcDb2dVertex
 10
1.948
 20
12.013
 30
0.0
 42
0.049
  0
VERTEX
  5
306
100
AcDbEntity
  8
BLACK
 62
     7
100
AcDbVertex
100
AcDb2dVertex
 10
1.949
 20
12.0
 30
0.0
 42
0.188
  0
VERTEX
  5
307
100
AcDbEntity
  8
BLACK
 62
     7
100
AcDbVertex
100
AcDb2dVertex
 10
1.953
 20
11.993
 30
0.0
 42
0.145
  0
VERTEX
  5
308
100
AcDbEntity
  8
BLACK
 62
     7
100
AcDbVertex
100
AcDb2dVertex
 10
1.962
 20
11.991
 30
0.0
 42
0.034
  0
VERTEX
  5
309
100
AcDbEntity
  8
BLACK
 62
     7
100
AcDbVertex
100
AcDb2dVertex
 10
1.977
 20
11.991
 30
0.0
  0
VERTEX
  5
30A
100
AcDbEntity
  8
BLACK
 62
     7
100
AcDbVertex
100
AcDb2dVertex
 10
2.283
 20
12.015
 30
0.0
 42
-0.06
  0
VERTEX
  5
30B
100
AcDbEntity
  8
BLACK
 62
     7
100
AcDbVertex
100
AcDb2dVertex
 10
2.312
 20
12.015
 30
0.0
 42
-0.132
  0
VERTEX
  5
30C
100
AcDbEntity
  8
BLACK
 62
     7
100
AcDbVertex
100
AcDb2dVertex
 10
2.328
 20
12.006
 30
0.0
 42
-0.15
  0
VERTEX
  5
30D
100
AcDbEntity
  8
BLACK
 62
     7
100
AcDbVertex
100
AcDb2dVertex
 10
2.354
 20
11.973
 30
0.0
 42
-0.179
  0
VERTEX
  5
30E
100
AcDbEntity
  8
BLACK
 62
     7
100
AcDbVertex
100
AcDb2dVertex
 10
2.352
 20
11.941
 30
0.0
 42
-0.177
  0
VERTEX
  5
30F
100
AcDbEntity
  8
BLACK
 62
     7
100
AcDbVertex
100
AcDb2dVertex
 10
2.3
 20
11.892
 30
0.0
 42
-0.081
  0
VERTEX
  5
310
100
AcDbEntity
  8
BLACK
 62
     7
100
AcDbVertex
100
AcDb2dVertex
 10
2.163
 20
11.862
 30
0.0
  0
VERTEX
  5
311
100
AcDbEntity
  8
BLACK
 62
     7
100
AcDbVertex
100
AcDb2dVertex
 10
2.002
 20
11.847
 30
0.0
 42
0.033
  0
VERTEX
  5
312
100
AcDbEntity
  8
BLACK
 62
     7
100
AcDbVertex
100
AcDb2dVertex
 10
1.986
 20
11.845
 30
0.0
 42
0.069
  0
VERTEX
  5
313
100
AcDbEntity
  8
BLACK
 62
     7
100
AcDbVertex
100
AcDb2dVertex
 10
1.981
 20
11.843
 30
0.0
 42
0.184
  0
VERTEX
  5
314
100
AcDbEntity
  8
BLACK
 62
     7
100
AcDbVertex
100
AcDb2dVertex
 10
1.979
 20
11.841
 30
0.0
 42
0.183
  0
VERTEX
  5
315
100
AcDbEntity
  8
BLACK
 62
     7
100
AcDbVertex
100
AcDb2dVertex
 10
1.98
 20
11.838
 30
0.0
 42
0.069
  0
VERTEX
  5
316
100
AcDbEntity
  8
BLACK
 62
     7
100
AcDbVertex
100
AcDb2dVertex
 10
1.982
 20
11.834
 30
0.0
 42
0.033
  0
VERTEX
  5
317
100
AcDbEntity
  8
BLACK
 62
     7
100
AcDbVertex
100
AcDb2dVertex
 10
1.994
 20
11.823
 30
0.0
 42
0.032
  0
VERTEX
  5
318
100
AcDbEntity
  8
BLACK
 62
     7
100
AcDbVertex
100
AcDb2dVertex
 10
2.136
 20
11.707
 30
0.0
 42
0.083
  0
VERTEX
  5
319
100
AcDbEntity
  8
BLACK
 62
     7
100
AcDbVertex
100
AcDb2dVertex
 10
2.272
 20
11.644
 30
0.0
 42
0.039
  0
VERTEX
  5
31A
100
AcDbEntity
  8
BLACK
 62
     7
100
AcDbVertex
100
AcDb2dVertex
 10
2.48
 20
11.608
 30
0.0
  0
VERTEX
  5
31B
100
AcDbEntity
  8
BLACK
 62
     7
100
AcDbVertex
100
AcDb2dVertex
 10
2.838
 20
11.573
 30
0.0
 42
0.01
  0
VERTEX
  5
31C
100
AcDbEntity
  8
BLACK
 62
     7
100
AcDbVertex
100
AcDb2dVertex
 10
3.47
 20
11.522
 30
0.0
 42
0.03
  0
VERTEX
  5
31D
100
AcDbEntity
  8
BLACK
 62
     7
100
AcDbVertex
100
AcDb2dVertex
 10
3.957
 20
11.523
 30
0.0
 42
0.028
  0
VERTEX
  5
31E
100
AcDbEntity
  8
BLACK
 62
     7
100
AcDbVertex
100
AcDb2dVertex
 10
4.471
 20
11.591
 30
0.0
 42
0.01
  0
VERTEX
  5
31F
100
AcDbEntity
  8
BLACK
 62
     7
100
AcDbVertex
100
AcDb2dVertex
 10
5.185
 20
11.739
 30
0.0
 42
0.009
  0
VERTEX
  5
320
100
AcDbEntity
  8
BLACK
 62
     7
100
AcDbVertex
100
AcDb2dVertex
 10
5.839
 20
11.909
 30
0.0
 42
0.006
  0
VERTEX
  5
321
100
AcDbEntity
  8
BLACK
 62
     7
100
AcDbVertex
100
AcDb2dVertex
 10
7.677
 20
12.435
 30
0.0
 42
0.014
  0
VERTEX
  5
322
100
AcDbEntity
  8
BLACK
 62
     7
100
AcDbVertex
100
AcDb2dVertex
 10
8.055
 20
12.556
 30
0.0
 42
0.044
  0
VERTEX
  5
323
100
AcDbEntity
  8
BLACK
 62
     7
100
AcDbVertex
100
AcDb2dVertex
 10
8.096
 20
12.573
 30
0.0
 42
0.167
  0
VERTEX
  5
324
100
AcDbEntity
  8
BLACK
 62
     7
100
AcDbVertex
100
AcDb2dVertex
 10
8.157
 20
12.652
 30
0.0
 42
0.237
  0
VERTEX
  5
325
100
AcDbEntity
  8
BLACK
 62
     7
100
AcDbVertex
100
AcDb2dVertex
 10
8.13
 20
12.781
 30
0.0
 42
0.124
  0
VERTEX
  5
326
100
AcDbEntity
  8
BLACK
 62
     7
100
AcDbVertex
100
AcDb2dVertex
 10
8.074
 20
12.829
 30
0.0
  0
VERTEX
  5
327
100
AcDbEntity
  8
BLACK
 62
     7
100
AcDbVertex
100
AcDb2dVertex
 10
8.035
 20
12.847
 30
0.0
  0
VERTEX
  5
328
100
AcDbEntity
  8
BLACK
 62
     7
100
AcDbVertex
100
AcDb2dVertex
 10
7.991
 20
12.864
 30
0.0
 42
0.018
  0
VERTEX
  5
329
100
AcDbEntity
  8
BLACK
 62
     7
100
AcDbVertex
100
AcDb2dVertex
 10
7.445
 20
13.066
 30
0.0
 42
0.028
  0
VERTEX
  5
32A
100
AcDbEntity
  8
BLACK
 62
     7
100
AcDbVertex
100
AcDb2dVertex
 10
6.919
 20
13.207
 30
0.0
 42
0.03
  0
VERTEX
  5
32B
100
AcDbEntity
  8
BLACK
 62
     7
100
AcDbVertex
100
AcDb2dVertex
 10
6.36
 20
13.287
 30
0.0
 42
0.024
  0
VERTEX
  5
32C
100
AcDbEntity
  8
BLACK
 62
     7
100
AcDbVertex
100
AcDb2dVertex
 10
5.713
 20
13.309
 30
0.0
 42
0.03
  0
VERTEX
  5
32D
100
AcDbEntity
  8
BLACK
 62
     7
100
AcDbVertex
100
AcDb2dVertex
 10
4.921
 20
13.252
 30
0.0
 42
0.028
  0
VERTEX
  5
32E
100
AcDbEntity
  8
BLACK
 62
     7
100
AcDbVertex
100
AcDb2dVertex
 10
4.084
 20
13.095
 30
0.0
 42
0.031
  0
VERTEX
  5
32F
100
AcDbEntity
  8
BLACK
 62
     7
100
AcDbVertex
100
AcDb2dVertex
 10
3.263
 20
12.84
 30
0.0
 42
0.04
  0
VERTEX
  5
330
100
AcDbEntity
  8
BLACK
 62
     7
100
AcDbVertex
100
AcDb2dVertex
 10
2.518
 20
12.489
 30
0.0
 42
0.015
  0
VERTEX
  5
331
100
AcDbEntity
  8
BLACK
 62
     7
100
AcDbVertex
100
AcDb2dVertex
 10
2.244
 20
12.317
 30
0.0
  0
VERTEX
  5
332
100
AcDbEntity
  8
BLACK
 62
     7
100
AcDbVertex
100
AcDb2dVertex
 10
1.974
 20
12.136
 30
0.0
 42
0.031
  0
VERTEX
  5
333
100
AcDbEntity
  8
BLACK
 62
     7
100
AcDbVertex
100
AcDb2dVertex
 10
1.961
 20
12.126
 30
0.0
 42
0.093
  0
VERTEX
  5
334
100
AcDbEntity
  8
BLACK
 62
     7
100
AcDbVertex
100
AcDb2dVertex
 10
1.953
 20
12.117
 30
0.0
 42
0.093
  0
VERTEX
  5
335
100
AcDbEntity
  8
BLACK
 62
     7
100
AcDbVertex
100
AcDb2dVertex
 10
1.949
 20
12.105
 30
0.0
 42
0.031
  0
VERTEX
  5
336
100
AcDbEntity
  8
BLACK
 62
     7
100
AcDbVertex
100
AcDb2dVertex
 10
1.948
 20
12.088
 30
0.0
  0
SEQEND
  5
337
100
AcDbEntity
  8
BLACK
 62
     7
  0
POLYLINE
  5
338
100
AcDbEntity
  8
BLACK
 62
     7
100
AcDb2dPolyline
 66
     1
 10
0.0
 20
0.0
 30
0.0
 70
     1
  0
VERTEX
  5
339
100
AcDbEntity
  8
BLACK
 62
     7
100
AcDbVertex
100
AcDb2dVertex
 10
13.564
 20
12.391
 30
0.0
  0
VERTEX
  5
33A
100
AcDbEntity
  8
BLACK
 62
     7
100
AcDbVertex
100
AcDb2dVertex
 10
13.568
 20
12.429
 30
0.0
 42
0.053
  0
VERTEX
  5
33B
100
AcDbEntity
  8
BLACK
 62
     7
100
AcDbVertex
100
AcDb2dVertex
 10
13.568
 20
12.447
 30
0.0
 42
0.113
  0
VERTEX
  5
33C
100
AcDbEntity
  8
BLACK
 62
     7
100
AcDbVertex
100
AcDb2dVertex
 10
13.562
 20
12.462
 30
0.0
 42
0.152
  0
VERTEX
  5
33D
100
AcDbEntity
  8
BLACK
 62
     7
100
AcDbVertex
100
AcDb2dVertex
 10
13.543
 20
12.475
 30
0.0
 42
0.065
  0
VERTEX
  5
33E
100
AcDbEntity
  8
BLACK
 62
     7
100
AcDbVertex
100
AcDb2dVertex
 10
13.513
 20
12.482
 30
0.0
 42
0.035
  0
VERTEX
  5
33F
100
AcDbEntity
  8
BLACK
 62
     7
100
AcDbVertex
100
AcDb2dVertex
 10
13.431
 20
12.482
 30
0.0
  0
VERTEX
  5
340
100
AcDbEntity
  8
BLACK
 62
     7
100
AcDbVertex
100
AcDb2dVertex
 10
13.337
 20
12.479
 30
0.0
 42
-0.075
  0
VERTEX
  5
341
100
AcDbEntity
  8
BLACK
 62
     7
100
AcDbVertex
100
AcDb2dVertex
 10
13.257
 20
12.489
 30
0.0
 42
-0.2
  0
VERTEX
  5
342
100
AcDbEntity
  8
BLACK
 62
     7
100
AcDbVertex
100
AcDb2dVertex
 10
13.205
 20
12.531
 30
0.0
 42
-0.196
  0
VERTEX
  5
343
100
AcDbEntity
  8
BLACK
 62
     7
100
AcDbVertex
100
AcDb2dVertex
 10
13.201
 20
12.591
 30
0.0
 42
-0.232
  0
VERTEX
  5
344
100
AcDbEntity
  8
BLACK
 62
     7
100
AcDbVertex
100
AcDb2dVertex
 10
13.245
 20
12.64
 30
0.0
 42
-0.095
  0
VERTEX
  5
345
100
AcDbEntity
  8
BLACK
 62
     7
100
AcDbVertex
100
AcDb2dVertex
 10
13.329
 20
12.654
 30
0.0
 42
-0.011
  0
VERTEX
  5
346
100
AcDbEntity
  8
BLACK
 62
     7
100
AcDbVertex
100
AcDb2dVertex
 10
13.513
 20
12.645
 30
0.0
  0
VERTEX
  5
347
100
AcDbEntity
  8
BLACK
 62
     7
100
AcDbVertex
100
AcDb2dVertex
 10
13.587
 20
12.643
 30
0.0
 42
0.04
  0
VERTEX
  5
348
100
AcDbEntity
  8
BLACK
 62
     7
100
AcDbVertex
100
AcDb2dVertex
 10
13.603
 20
12.643
 30
0.0
 42
0.167
  0
VERTEX
  5
349
100
AcDbEntity
  8
BLACK
 62
     7
100
AcDbVertex
100
AcDb2dVertex
 10
13.612
 20
12.647
 30
0.0
 42
0.167
  0
VERTEX
  5
34A
100
AcDbEntity
  8
BLACK
 62
     7
100
AcDbVertex
100
AcDb2dVertex
 10
13.616
 20
12.657
 30
0.0
 42
0.04
  0
VERTEX
  5
34B
100
AcDbEntity
  8
BLACK
 62
     7
100
AcDbVertex
100
AcDb2dVertex
 10
13.616
 20
12.673
 30
0.0
 42
0.077
  0
VERTEX
  5
34C
100
AcDbEntity
  8
BLACK
 62
     7
100
AcDbVertex
100
AcDb2dVertex
 10
13.604
 20
12.767
 30
0.0
 42
0.108
  0
VERTEX
  5
34D
100
AcDbEntity
  8
BLACK
 62
     7
100
AcDbVertex
100
AcDb2dVertex
 10
13.58
 20
12.799
 30
0.0
 42
0.049
  0
VERTEX
  5
34E
100
AcDbEntity
  8
BLACK
 62
     7
100
AcDbVertex
100
AcDb2dVertex
 10
13.536
 20
12.833
 30
0.0
 42
0.041
  0
VERTEX
  5
34F
100
AcDbEntity
  8
BLACK
 62
     7
100
AcDbVertex
100
AcDb2dVertex
 10
13.397
 20
12.902
 30
0.0
 42
0.027
  0
VERTEX
  5
350
100
AcDbEntity
  8
BLACK
 62
     7
100
AcDbVertex
100
AcDb2dVertex
 10
12.994
 20
13.037
 30
0.0
 42
0.022
  0
VERTEX
  5
351
100
AcDbEntity
  8
BLACK
 62
     7
100
AcDbVertex
100
AcDb2dVertex
 10
12.326
 20
13.198
 30
0.0
 42
0.029
  0
VERTEX
  5
352
100
AcDbEntity
  8
BLACK
 62
     7
100
AcDbVertex
100
AcDb2dVertex
 10
12.049
 20
13.219
 30
0.0
 42
0.012
  0
VERTEX
  5
353
100
AcDbEntity
  8
BLACK
 62
     7
100
AcDbVertex
100
AcDb2dVertex
 10
11.658
 20
13.219
 30
0.0
 42
0.027
  0
VERTEX
  5
354
100
AcDbEntity
  8
BLACK
 62
     7
100
AcDbVertex
100
AcDb2dVertex
 10
9.685
 20
13.062
 30
0.0
 42
0.014
  0
VERTEX
  5
355
100
AcDbEntity
  8
BLACK
 62
     7
100
AcDbVertex
100
AcDb2dVertex
 10
9.277
 20
12.995
 30
0.0
 42
0.03
  0
VERTEX
  5
356
100
AcDbEntity
  8
BLACK
 62
     7
100
AcDbVertex
100
AcDb2dVertex
 10
8.978
 20
12.92
 30
0.0
 42
0.028
  0
VERTEX
  5
357
100
AcDbEntity
  8
BLACK
 62
     7
100
AcDbVertex
100
AcDb2dVertex
 10
8.737
 20
12.828
 30
0.0
 42
0.095
  0
VERTEX
  5
358
100
AcDbEntity
  8
BLACK
 62
     7
100
AcDbVertex
100
AcDb2dVertex
 10
8.59
 20
12.731
 30
0.0
 42
0.12
  0
VERTEX
  5
359
100
AcDbEntity
  8
BLACK
 62
     7
100
AcDbVertex
100
AcDb2dVertex
 10
8.559
 20
12.678
 30
0.0
 42
0.149
  0
VERTEX
  5
35A
100
AcDbEntity
  8
BLACK
 62
     7
100
AcDbVertex
100
AcDb2dVertex
 10
8.562
 20
12.621
 30
0.0
 42
0.098
  0
VERTEX
  5
35B
100
AcDbEntity
  8
BLACK
 62
     7
100
AcDbVertex
100
AcDb2dVertex
 10
8.6
 20
12.559
 30
0.0
 42
0.052
  0
VERTEX
  5
35C
100
AcDbEntity
  8
BLACK
 62
     7
100
AcDbVertex
100
AcDb2dVertex
 10
8.678
 20
12.489
 30
0.0
 42
0.048
  0
VERTEX
  5
35D
100
AcDbEntity
  8
BLACK
 62
     7
100
AcDbVertex
100
AcDb2dVertex
 10
9.048
 20
12.269
 30
0.0
 42
0.034
  0
VERTEX
  5
35E
100
AcDbEntity
  8
BLACK
 62
     7
100
AcDbVertex
100
AcDb2dVertex
 10
9.487
 20
12.096
 30
0.0
 42
0.047
  0
VERTEX
  5
35F
100
AcDbEntity
  8
BLACK
 62
     7
100
AcDbVertex
100
AcDb2dVertex
 10
10.484
 20
11.885
 30
0.0
 42
0.038
  0
VERTEX
  5
360
100
AcDbEntity
  8
BLACK
 62
     7
100
AcDbVertex
100
AcDb2dVertex
 10
11.498
 20
11.84
 30
0.0
 42
0.022
  0
VERTEX
  5
361
100
AcDbEntity
  8
BLACK
 62
     7
100
AcDbVertex
100
AcDb2dVertex
 10
11.956
 20
11.876
 30
0.0
 42
0.029
  0
VERTEX
  5
362
100
AcDbEntity
  8
BLACK
 62
     7
100
AcDbVertex
100
AcDb2dVertex
 10
12.354
 20
11.948
 30
0.0
 42
0.025
  0
VERTEX
  5
363
100
AcDbEntity
  8
BLACK
 62
     7
100
AcDbVertex
100
AcDb2dVertex
 10
12.925
 20
12.129
 30
0.0
 42
-0.003
  0
VERTEX
  5
364
100
AcDbEntity
  8
BLACK
 62
     7
100
AcDbVertex
100
AcDb2dVertex
 10
13.533
 20
12.349
 30
0.0
 42
0.036
  0
VERTEX
  5
365
100
AcDbEntity
  8
BLACK
 62
     7
100
AcDbVertex
100
AcDb2dVertex
 10
13.549
 20
12.356
 30
0.0
 42
0.113
  0
VERTEX
  5
366
100
AcDbEntity
  8
BLACK
 62
     7
100
AcDbVertex
100
AcDb2dVertex
 10
13.558
 20
12.363
 30
0.0
 42
0.113
  0
VERTEX
  5
367
100
AcDbEntity
  8
BLACK
 62
     7
100
AcDbVertex
100
AcDb2dVertex
 10
13.562
 20
12.374
 30
0.0
 42
0.035
  0
VERTEX
  5
368
100
AcDbEntity
  8
BLACK
 62
     7
100
AcDbVertex
100
AcDb2dVertex
 10
13.564
 20
12.391
 30
0.0
  0
SEQEND
  5
369
100
AcDbEntity
  8
BLACK
 62
     7
  0
POLYLINE
  5
36A
100
AcDbEntity
  8
BLACK
 62
     7
100
AcDb2dPolyline
 66
     1
 10
0.0
 20
0.0
 30
0.0
 70
     1
  0
VERTEX
  5
36B
100
AcDbEntity
  8
BLACK
 62
     7
100
AcDbVertex
100
AcDb2dVertex
 10
11.656
 20
12.736
 30
0.0
  0
VERTEX
  5
36C
100
AcDbEntity
  8
BLACK
 62
     7
100
AcDbVertex
100
AcDb2dVertex
 10
11.4
 20
12.325
 30
0.0
  0
VERTEX
  5
36D
100
AcDbEntity
  8
BLACK
 62
     7
100
AcDbVertex
100
AcDb2dVertex
 10
11.39
 20
12.311
 30
0.0
 42
-0.043
  0
VERTEX
  5
36E
100
AcDbEntity
  8
BLACK
 62
     7
100
AcDbVertex
100
AcDb2dVertex
 10
11.387
 20
12.307
 30
0.0
 42
-0.083
  0
VERTEX
  5
36F
100
AcDbEntity
  8
BLACK
 62
     7
100
AcDbVertex
100
AcDb2dVertex
 10
11.383
 20
12.305
 30
0.0
 42
-0.22
  0
VERTEX
  5
370
100
AcDbEntity
  8
BLACK
 62
     7
100
AcDbVertex
100
AcDb2dVertex
 10
11.376
 20
12.305
 30
0.0
 42
-0.061
  0
VERTEX
  5
371
100
AcDbEntity
  8
BLACK
 62
     7
100
AcDbVertex
100
AcDb2dVertex
 10
11.367
 20
12.312
 30
0.0
 42
-0.069
  0
VERTEX
  5
372
100
AcDbEntity
  8
BLACK
 62
     7
100
AcDbVertex
100
AcDb2dVertex
 10
11.343
 20
12.336
 30
0.0
 42
-0.15
  0
VERTEX
  5
373
100
AcDbEntity
  8
BLACK
 62
     7
100
AcDbVertex
100
AcDb2dVertex
 10
11.335
 20
12.36
 30
0.0
 42
-0.108
  0
VERTEX
  5
374
100
AcDbEntity
  8
BLACK
 62
     7
100
AcDbVertex
100
AcDb2dVertex
 10
11.342
 20
12.389
 30
0.0
 42
-0.039
  0
VERTEX
  5
375
100
AcDbEntity
  8
BLACK
 62
     7
100
AcDbVertex
100
AcDb2dVertex
 10
11.364
 20
12.429
 30
0.0
  0
VERTEX
  5
376
100
AcDbEntity
  8
BLACK
 62
     7
100
AcDbVertex
100
AcDb2dVertex
 10
11.453
 20
12.561
 30
0.0
 42
0.015
  0
VERTEX
  5
377
100
AcDbEntity
  8
BLACK
 62
     7
100
AcDbVertex
100
AcDb2dVertex
 10
11.601
 20
12.796
 30
0.0
  0
VERTEX
  5
378
100
AcDbEntity
  8
BLACK
 62
     7
100
AcDbVertex
100
AcDb2dVertex
 10
11.61
 20
12.81
 30
0.0
 42
-0.083
  0
VERTEX
  5
379
100
AcDbEntity
  8
BLACK
 62
     7
100
AcDbVertex
100
AcDb2dVertex
 10
11.618
 20
12.818
 30
0.0
 42
-0.135
  0
VERTEX
  5
37A
100
AcDbEntity
  8
BLACK
 62
     7
100
AcDbVertex
100
AcDb2dVertex
 10
11.626
 20
12.821
 30
0.0
 42
-0.056
  0
VERTEX
  5
37B
100
AcDbEntity
  8
BLACK
 62
     7
100
AcDbVertex
100
AcDb2dVertex
 10
11.636
 20
12.82
 30
0.0
 42
-0.029
  0
VERTEX
  5
37C
100
AcDbEntity
  8
BLACK
 62
     7
100
AcDbVertex
100
AcDb2dVertex
 10
11.66
 20
12.816
 30
0.0
 42
-0.145
  0
VERTEX
  5
37D
100
AcDbEntity
  8
BLACK
 62
     7
100
AcDbVertex
100
AcDb2dVertex
 10
11.672
 20
12.81
 30
0.0
 42
-0.178
  0
VERTEX
  5
37E
100
AcDbEntity
  8
BLACK
 62
     7
100
AcDbVertex
100
AcDb2dVertex
 10
11.676
 20
12.798
 30
0.0
 42
-0.037
  0
VERTEX
  5
37F
100
AcDbEntity
  8
BLACK
 62
     7
100
AcDbVertex
100
AcDb2dVertex
 10
11.675
 20
12.778
 30
0.0
 42
-0.083
  0
VERTEX
  5
380
100
AcDbEntity
  8
BLACK
 62
     7
100
AcDbVertex
100
AcDb2dVertex
 10
11.67
 20
12.761
 30
0.0
 42
-0.033
  0
VERTEX
  5
381
100
AcDbEntity
  8
BLACK
 62
     7
100
AcDbVertex
100
AcDb2dVertex
 10
11.656
 20
12.736
 30
0.0
  0
SEQEND
  5
382
100
AcDbEntity
  8
BLACK
 62
     7
  0
POLYLINE
  5
383
100
AcDbEntity
  8
BLACK
 62
     7
100
AcDb2dPolyline
 66
     1
 10
0.0
 20
0.0
 30
0.0
 70
     1
  0
VERTEX
  5
384
100
AcDbEntity
  8
BLACK
 62
     7
100
AcDbVertex
100
AcDb2dVertex
 10
4.518
 20
12.656
 30
0.0
  0
VERTEX
  5
385
100
AcDbEntity
  8
BLACK
 62
     7
100
AcDbVertex
100
AcDb2dVertex
 10
4.256
 20
12.183
 30
0.0
 42
-0.075
  0
VERTEX
  5
386
100
AcDbEntity
  8
BLACK
 62
     7
100
AcDbVertex
100
AcDb2dVertex
 10
4.241
 20
12.163
 30
0.0
 42
-0.196
  0
VERTEX
  5
387
100
AcDbEntity
  8
BLACK
 62
     7
100
AcDbVertex
100
AcDb2dVertex
 10
4.227
 20
12.156
 30
0.0
  0
VERTEX
  5
388
100
AcDbEntity
  8
BLACK
 62
     7
100
AcDbVertex
100
AcDb2dVertex
 10
4.209
 20
12.156
 30
0.0
  0
VERTEX
  5
389
100
AcDbEntity
  8
BLACK
 62
     7
100
AcDbVertex
100
AcDb2dVertex
 10
4.204
 20
12.156
 30
0.0
 42
-0.062
  0
VERTEX
  5
38A
100
AcDbEntity
  8
BLACK
 62
     7
100
AcDbVertex
100
AcDb2dVertex
 10
4.201
 20
12.157
 30
0.0
 42
-0.206
  0
VERTEX
  5
38B
100
AcDbEntity
  8
BLACK
 62
     7
100
AcDbVertex
100
AcDb2dVertex
 10
4.199
 20
12.158
 30
0.0
 42
-0.117
  0
VERTEX
  5
38C
100
AcDbEntity
  8
BLACK
 62
     7
100
AcDbVertex
100
AcDb2dVertex
 10
4.199
 20
12.159
 30
0.0
  0
VERTEX
  5
38D
100
AcDbEntity
  8
BLACK
 62
     7
100
AcDbVertex
100
AcDb2dVertex
 10
4.199
 20
12.166
 30
0.0
 42
0.144
  0
VERTEX
  5
38E
100
AcDbEntity
  8
BLACK
 62
     7
100
AcDbVertex
100
AcDb2dVertex
 10
4.198
 20
12.168
 30
0.0
 42
0.107
  0
VERTEX
  5
38F
100
AcDbEntity
  8
BLACK
 62
     7
100
AcDbVertex
100
AcDb2dVertex
 10
4.197
 20
12.17
 30
0.0
 42
0.06
  0
VERTEX
  5
390
100
AcDbEntity
  8
BLACK
 62
     7
100
AcDbVertex
100
AcDb2dVertex
 10
4.189
 20
12.173
 30
0.0
  0
VERTEX
  5
391
100
AcDbEntity
  8
BLACK
 62
     7
100
AcDbVertex
100
AcDb2dVertex
 10
4.171
 20
12.179
 30
0.0
 42
-0.087
  0
VERTEX
  5
392
100
AcDbEntity
  8
BLACK
 62
     7
100
AcDbVertex
100
AcDb2dVertex
 10
4.164
 20
12.182
 30
0.0
 42
-0.262
  0
VERTEX
  5
393
100
AcDbEntity
  8
BLACK
 62
     7
100
AcDbVertex
100
AcDb2dVertex
 10
4.162
 20
12.187
 30
0.0
 42
-0.092
  0
VERTEX
  5
394
100
AcDbEntity
  8
BLACK
 62
     7
100
AcDbVertex
100
AcDb2dVertex
 10
4.165
 20
12.196
 30
0.0
  0
VERTEX
  5
395
100
AcDbEntity
  8
BLACK
 62
     7
100
AcDbVertex
100
AcDb2dVertex
 10
4.173
 20
12.211
 30
0.0
  0
VERTEX
  5
396
100
AcDbEntity
  8
BLACK
 62
     7
100
AcDbVertex
100
AcDb2dVertex
 10
4.455
 20
12.684
 30
0.0
 42
-0.191
  0
VERTEX
  5
397
100
AcDbEntity
  8
BLACK
 62
     7
100
AcDbVertex
100
AcDb2dVertex
 10
4.456
 20
12.685
 30
0.0
 42
-0.075
  0
VERTEX
  5
398
100
AcDbEntity
  8
BLACK
 62
     7
100
AcDbVertex
100
AcDb2dVertex
 10
4.459
 20
12.685
 30
0.0
 42
-0.053
  0
VERTEX
  5
399
100
AcDbEntity
  8
BLACK
 62
     7
100
AcDbVertex
100
AcDb2dVertex
 10
4.467
 20
12.684
 30
0.0
 42
-0.038
  0
VERTEX
  5
39A
100
AcDbEntity
  8
BLACK
 62
     7
100
AcDbVertex
100
AcDb2dVertex
 10
4.49
 20
12.676
 30
0.0
 42
-0.039
  0
VERTEX
  5
39B
100
AcDbEntity
  8
BLACK
 62
     7
100
AcDbVertex
100
AcDb2dVertex
 10
4.511
 20
12.665
 30
0.0
 42
-0.059
  0
VERTEX
  5
39C
100
AcDbEntity
  8
BLACK
 62
     7
100
AcDbVertex
100
AcDb2dVertex
 10
4.517
 20
12.66
 30
0.0
 42
-0.092
  0
VERTEX
  5
39D
100
AcDbEntity
  8
BLACK
 62
     7
100
AcDbVertex
100
AcDb2dVertex
 10
4.519
 20
12.658
 30
0.0
 42
-0.229
  0
VERTEX
  5
39E
100
AcDbEntity
  8
BLACK
 62
     7
100
AcDbVertex
100
AcDb2dVertex
 10
4.518
 20
12.656
 30
0.0
  0
SEQEND
  5
39F
100
AcDbEntity
  8
BLACK
 62
     7
  0
POLYLINE
  5
3A0
100
AcDbEntity
  8
BLACK
 62
     7
100
AcDb2dPolyline
 66
     1
 10
0.0
 20
0.0
 30
0.0
 70
     1
  0
VERTEX
  5
3A1
100
AcDbEntity
  8
BLACK
 62
     7
100
AcDbVertex
100
AcDb2dVertex
 10
14.667
 20
12.286
 30
0.0
 42
-0.046
  0
VERTEX
  5
3A2
100
AcDbEntity
  8
BLACK
 62
     7
100
AcDbVertex
100
AcDb2dVertex
 10
14.573
 20
12.348
 30
0.0
 42
-0.18
  0
VERTEX
  5
3A3
100
AcDbEntity
  8
BLACK
 62
     7
100
AcDbVertex
100
AcDb2dVertex
 10
14.537
 20
12.409
 30
0.0
 42
-0.062
  0
VERTEX
  5
3A4
100
AcDbEntity
  8
BLACK
 62
     7
100
AcDbVertex
100
AcDb2dVertex
 10
14.533
 20
12.5
 30
0.0
 42
0.039
  0
VERTEX
  5
3A5
100
AcDbEntity
  8
BLACK
 62
     7
100
AcDbVertex
100
AcDb2dVertex
 10
14.535
 20
12.558
 30
0.0
 42
0.177
  0
VERTEX
  5
3A6
100
AcDbEntity
  8
BLACK
 62
     7
100
AcDbVertex
100
AcDb2dVertex
 10
14.529
 20
12.574
 30
0.0
 42
0.186
  0
VERTEX
  5
3A7
100
AcDbEntity
  8
BLACK
 62
     7
100
AcDbVertex
100
AcDb2dVertex
 10
14.51
 20
12.58
 30
0.0
 42
0.063
  0
VERTEX
  5
3A8
100
AcDbEntity
  8
BLACK
 62
     7
100
AcDbVertex
100
AcDb2dVertex
 10
14.477
 20
12.575
 30
0.0
  0
VERTEX
  5
3A9
100
AcDbEntity
  8
BLACK
 62
     7
100
AcDbVertex
100
AcDb2dVertex
 10
14.424
 20
12.559
 30
0.0
 42
0.025
  0
VERTEX
  5
3AA
100
AcDbEntity
  8
BLACK
 62
     7
100
AcDbVertex
100
AcDb2dVertex
 10
13.93
 20
12.345
 30
0.0
 42
0.017
  0
VERTEX
  5
3AB
100
AcDbEntity
  8
BLACK
 62
     7
100
AcDbVertex
100
AcDb2dVertex
 10
13.647
 20
12.196
 30
0.0
 42
0.046
  0
VERTEX
  5
3AC
100
AcDbEntity
  8
BLACK
 62
     7
100
AcDbVertex
100
AcDb2dVertex
 10
13.443
 20
12.059
 30
0.0
  0
VERTEX
  5
3AD
100
AcDbEntity
  8
BLACK
 62
     7
100
AcDbVertex
100
AcDb2dVertex
 10
13.363
 20
11.985
 30
0.0
 42
-0.031
  0
VERTEX
  5
3AE
100
AcDbEntity
  8
BLACK
 62
     7
100
AcDbVertex
100
AcDb2dVertex
 10
13.302
 20
11.932
 30
0.0
 42
-0.189
  0
VERTEX
  5
3AF
100
AcDbEntity
  8
BLACK
 62
     7
100
AcDbVertex
100
AcDb2dVertex
 10
13.159
 20
11.892
 30
0.0
 42
-0.022
  0
VERTEX
  5
3B0
100
AcDbEntity
  8
BLACK
 62
     7
100
AcDbVertex
100
AcDb2dVertex
 10
13.044
 20
11.907
 30
0.0
 42
0.099
  0
VERTEX
  5
3B1
100
AcDbEntity
  8
BLACK
 62
     7
100
AcDbVertex
100
AcDb2dVertex
 10
12.937
 20
11.906
 30
0.0
 42
0.107
  0
VERTEX
  5
3B2
100
AcDbEntity
  8
BLACK
 62
     7
100
AcDbVertex
100
AcDb2dVertex
 10
12.862
 20
11.861
 30
0.0
 42
-0.031
  0
VERTEX
  5
3B3
100
AcDbEntity
  8
BLACK
 62
     7
100
AcDbVertex
100
AcDb2dVertex
 10
12.779
 20
11.795
 30
0.0
 42
-0.068
  0
VERTEX
  5
3B4
100
AcDbEntity
  8
BLACK
 62
     7
100
AcDbVertex
100
AcDb2dVertex
 10
12.521
 20
11.681
 30
0.0
 42
-0.031
  0
VERTEX
  5
3B5
100
AcDbEntity
  8
BLACK
 62
     7
100
AcDbVertex
100
AcDb2dVertex
 10
12.208
 20
11.607
 30
0.0
 42
-0.027
  0
VERTEX
  5
3B6
100
AcDbEntity
  8
BLACK
 62
     7
100
AcDbVertex
100
AcDb2dVertex
 10
11.673
 20
11.545
 30
0.0
 42
-0.009
  0
VERTEX
  5
3B7
100
AcDbEntity
  8
BLACK
 62
     7
100
AcDbVertex
100
AcDb2dVertex
 10
11.009
 20
11.521
 30
0.0
 42
-0.003
  0
VERTEX
  5
3B8
100
AcDbEntity
  8
BLACK
 62
     7
100
AcDbVertex
100
AcDb2dVertex
 10
9.12
 20
11.499
 30
0.0
 42
0.001
  0
VERTEX
  5
3B9
100
AcDbEntity
  8
BLACK
 62
     7
100
AcDbVertex
100
AcDb2dVertex
 10
8.176
 20
11.49
 30
0.0
 42
0.065
  0
VERTEX
  5
3BA
100
AcDbEntity
  8
BLACK
 62
     7
100
AcDbVertex
100
AcDb2dVertex
 10
8.145
 20
11.487
 30
0.0
 42
0.065
  0
VERTEX
  5
3BB
100
AcDbEntity
  8
BLACK
 62
     7
100
AcDbVertex
100
AcDb2dVertex
 10
8.117
 20
11.473
 30
0.0
  0
VERTEX
  5
3BC
100
AcDbEntity
  8
BLACK
 62
     7
100
AcDbVertex
100
AcDb2dVertex
 10
8.005
 20
11.402
 30
0.0
 42
-0.076
  0
VERTEX
  5
3BD
100
AcDbEntity
  8
BLACK
 62
     7
100
AcDbVertex
100
AcDb2dVertex
 10
7.894
 20
11.35
 30
0.0
 42
-0.102
  0
VERTEX
  5
3BE
100
AcDbEntity
  8
BLACK
 62
     7
100
AcDbVertex
100
AcDb2dVertex
 10
7.796
 20
11.35
 30
0.0
 42
0.03
  0
VERTEX
  5
3BF
100
AcDbEntity
  8
BLACK
 62
     7
100
AcDbVertex
100
AcDb2dVertex
 10
7.7
 20
11.364
 30
0.0
 42
0.082
  0
VERTEX
  5
3C0
100
AcDbEntity
  8
BLACK
 62
     7
100
AcDbVertex
100
AcDb2dVertex
 10
7.553
 20
11.341
 30
0.0
  0
VERTEX
  5
3C1
100
AcDbEntity
  8
BLACK
 62
     7
100
AcDbVertex
100
AcDb2dVertex
 10
7.47
 20
11.313
 30
0.0
  0
VERTEX
  5
3C2
100
AcDbEntity
  8
BLACK
 62
     7
100
AcDbVertex
100
AcDb2dVertex
 10
7.38
 20
11.281
 30
0.0
 42
0.015
  0
VERTEX
  5
3C3
100
AcDbEntity
  8
BLACK
 62
     7
100
AcDbVertex
100
AcDb2dVertex
 10
7.024
 20
11.133
 30
0.0
 42
0.012
  0
VERTEX
  5
3C4
100
AcDbEntity
  8
BLACK
 62
     7
100
AcDbVertex
100
AcDb2dVertex
 10
6.123
 20
10.712
 30
0.0
 42
0.029
  0
VERTEX
  5
3C5
100
AcDbEntity
  8
BLACK
 62
     7
100
AcDbVertex
100
AcDb2dVertex
 10
5.95
 20
10.619
 30
0.0
  0
VERTEX
  5
3C6
100
AcDbEntity
  8
BLACK
 62
     7
100
AcDbVertex
100
AcDb2dVertex
 10
5.94
 20
10.611
 30
0.0
 42
0.036
  0
VERTEX
  5
3C7
100
AcDbEntity
  8
BLACK
 62
     7
100
AcDbVertex
100
AcDb2dVertex
 10
5.937
 20
10.608
 30
0.0
 42
0.093
  0
VERTEX
  5
3C8
100
AcDbEntity
  8
BLACK
 62
     7
100
AcDbVertex
100
AcDb2dVertex
 10
5.935
 20
10.606
 30
0.0
 42
0.065
  0
VERTEX
  5
3C9
100
AcDbEntity
  8
BLACK
 62
     7
100
AcDbVertex
100
AcDb2dVertex
 10
5.925
 20
10.549
 30
0.0
  0
VERTEX
  5
3CA
100
AcDbEntity
  8
BLACK
 62
     7
100
AcDbVertex
100
AcDb2dVertex
 10
5.923
 20
10.492
 30
0.0
 42
0.04
  0
VERTEX
  5
3CB
100
AcDbEntity
  8
BLACK
 62
     7
100
AcDbVertex
100
AcDb2dVertex
 10
5.923
 20
10.476
 30
0.0
 42
0.159
  0
VERTEX
  5
3CC
100
AcDbEntity
  8
BLACK
 62
     7
100
AcDbVertex
100
AcDb2dVertex
 10
5.927
 20
10.466
 30
0.0
 42
0.159
  0
VERTEX
  5
3CD
100
AcDbEntity
  8
BLACK
 62
     7
100
AcDbVertex
100
AcDb2dVertex
 10
5.936
 20
10.462
 30
0.0
 42
0.04
  0
VERTEX
  5
3CE
100
AcDbEntity
  8
BLACK
 62
     7
100
AcDbVertex
100
AcDb2dVertex
 10
5.953
 20
10.46
 30
0.0
 42
-0.022
  0
VERTEX
  5
3CF
100
AcDbEntity
  8
BLACK
 62
     7
100
AcDbVertex
100
AcDb2dVertex
 10
6.098
 20
10.453
 30
0.0
 42
-0.117
  0
VERTEX
  5
3D0
100
AcDbEntity
  8
BLACK
 62
     7
100
AcDbVertex
100
AcDb2dVertex
 10
6.135
 20
10.44
 30
0.0
 42
-0.136
  0
VERTEX
  5
3D1
100
AcDbEntity
  8
BLACK
 62
     7
100
AcDbVertex
100
AcDb2dVertex
 10
6.158
 20
10.41
 30
0.0
 42
-0.088
  0
VERTEX
  5
3D2
100
AcDbEntity
  8
BLACK
 62
     7
100
AcDbVertex
100
AcDb2dVertex
 10
6.167
 20
10.378
 30
0.0
 42
-0.226
  0
VERTEX
  5
3D3
100
AcDbEntity
  8
BLACK
 62
     7
100
AcDbVertex
100
AcDb2dVertex
 10
6.158
 20
10.35
 30
0.0
 42
-0.1
  0
VERTEX
  5
3D4
100
AcDbEntity
  8
BLACK
 62
     7
100
AcDbVertex
100
AcDb2dVertex
 10
6.139
 20
10.339
 30
0.0
 42
-0.043
  0
VERTEX
  5
3D5
100
AcDbEntity
  8
BLACK
 62
     7
100
AcDbVertex
100
AcDb2dVertex
 10
6.111
 20
10.331
 30
0.0
 42
-0.013
  0
VERTEX
  5
3D6
100
AcDbEntity
  8
BLACK
 62
     7
100
AcDbVertex
100
AcDb2dVertex
 10
6.001
 20
10.318
 30
0.0
  0
VERTEX
  5
3D7
100
AcDbEntity
  8
BLACK
 62
     7
100
AcDbVertex
100
AcDb2dVertex
 10
5.964
 20
10.313
 30
0.0
 42
0.09
  0
VERTEX
  5
3D8
100
AcDbEntity
  8
BLACK
 62
     7
100
AcDbVertex
100
AcDb2dVertex
 10
5.906
 20
10.294
 30
0.0
 42
0.187
  0
VERTEX
  5
3D9
100
AcDbEntity
  8
BLACK
 62
     7
100
AcDbVertex
100
AcDb2dVertex
 10
5.879
 20
10.262
 30
0.0
 42
0.154
  0
VERTEX
  5
3DA
100
AcDbEntity
  8
BLACK
 62
     7
100
AcDbVertex
100
AcDb2dVertex
 10
5.88
 20
10.224
 30
0.0
 42
0.135
  0
VERTEX
  5
3DB
100
AcDbEntity
  8
BLACK
 62
     7
100
AcDbVertex
100
AcDb2dVertex
 10
5.93
 20
10.156
 30
0.0
 42
0.05
  0
VERTEX
  5
3DC
100
AcDbEntity
  8
BLACK
 62
     7
100
AcDbVertex
100
AcDb2dVertex
 10
5.948
 20
10.145
 30
0.0
  0
VERTEX
  5
3DD
100
AcDbEntity
  8
BLACK
 62
     7
100
AcDbVertex
100
AcDb2dVertex
 10
5.979
 20
10.13
 30
0.0
  0
VERTEX
  5
3DE
100
AcDbEntity
  8
BLACK
 62
     7
100
AcDbVertex
100
AcDb2dVertex
 10
6.074
 20
10.095
 30
0.0
 42
0.027
  0
VERTEX
  5
3DF
100
AcDbEntity
  8
BLACK
 62
     7
100
AcDbVertex
100
AcDb2dVertex
 10
7.005
 20
9.836
 30
0.0
 42
0.029
  0
VERTEX
  5
3E0
100
AcDbEntity
  8
BLACK
 62
     7
100
AcDbVertex
100
AcDb2dVertex
 10
7.921
 20
9.698
 30
0.0
 42
0.035
  0
VERTEX
  5
3E1
100
AcDbEntity
  8
BLACK
 62
     7
100
AcDbVertex
100
AcDb2dVertex
 10
8.79
 20
9.683
 30
0.0
 42
0.031
  0
VERTEX
  5
3E2
100
AcDbEntity
  8
BLACK
 62
     7
100
AcDbVertex
100
AcDb2dVertex
 10
9.69
 20
9.789
 30
0.0
 42
0.021
  0
VERTEX
  5
3E3
100
AcDbEntity
  8
BLACK
 62
     7
100
AcDbVertex
100
AcDb2dVertex
 10
10.7
 20
10.017
 30
0.0
 42
0.017
  0
VERTEX
  5
3E4
100
AcDbEntity
  8
BLACK
 62
     7
100
AcDbVertex
100
AcDb2dVertex
 10
11.312
 20
10.197
 30
0.0
 42
0.019
  0
VERTEX
  5
3E5
100
AcDbEntity
  8
BLACK
 62
     7
100
AcDbVertex
100
AcDb2dVertex
 10
11.622
 20
10.325
 30
0.0
 42
0.011
  0
VERTEX
  5
3E6
100
AcDbEntity
  8
BLACK
 62
     7
100
AcDbVertex
100
AcDb2dVertex
 10
12.535
 20
10.759
 30
0.0
 42
0.018
  0
VERTEX
  5
3E7
100
AcDbEntity
  8
BLACK
 62
     7
100
AcDbVertex
100
AcDb2dVertex
 10
12.834
 20
10.92
 30
0.0
 42
0.014
  0
VERTEX
  5
3E8
100
AcDbEntity
  8
BLACK
 62
     7
100
AcDbVertex
100
AcDb2dVertex
 10
13.19
 20
11.162
 30
0.0
 42
0.005
  0
VERTEX
  5
3E9
100
AcDbEntity
  8
BLACK
 62
     7
100
AcDbVertex
100
AcDb2dVertex
 10
14.177
 20
11.888
 30
0.0
 42
-0.002
  0
VERTEX
  5
3EA
100
AcDbEntity
  8
BLACK
 62
     7
100
AcDbVertex
100
AcDb2dVertex
 10
14.669
 20
12.252
 30
0.0
 42
0.039
  0
VERTEX
  5
3EB
100
AcDbEntity
  8
BLACK
 62
     7
100
AcDbVertex
100
AcDb2dVertex
 10
14.682
 20
12.263
 30
0.0
 42
0.069
  0
VERTEX
  5
3EC
100
AcDbEntity
  8
BLACK
 62
     7
100
AcDbVertex
100
AcDb2dVertex
 10
14.685
 20
12.267
 30
0.0
 42
0.139
  0
VERTEX
  5
3ED
100
AcDbEntity
  8
BLACK
 62
     7
100
AcDbVertex
100
AcDb2dVertex
 10
14.686
 20
12.27
 30
0.0
 42
0.138
  0
VERTEX
  5
3EE
100
AcDbEntity
  8
BLACK
 62
     7
100
AcDbVertex
100
AcDb2dVertex
 10
14.684
 20
12.274
 30
0.0
 42
0.069
  0
VERTEX
  5
3EF
100
AcDbEntity
  8
BLACK
 62
     7
100
AcDbVertex
100
AcDb2dVertex
 10
14.681
 20
12.277
 30
0.0
 42
0.039
  0
VERTEX
  5
3F0
100
AcDbEntity
  8
BLACK
 62
     7
100
AcDbVertex
100
AcDb2dVertex
 10
14.667
 20
12.286
 30
0.0
  0
SEQEND
  5
3F1
100
AcDbEntity
  8
BLACK
 62
     7
  0
POLYLINE
  5
3F2
100
AcDbEntity
  8
BLACK
 62
     7
100
AcDb2dPolyline
 66
     1
 10
0.0
 20
0.0
 30
0.0
 70
     1
  0
VERTEX
  5
3F3
100
AcDbEntity
  8
BLACK
 62
     7
100
AcDbVertex
100
AcDb2dVertex
 10
14.601
 20
10.884
 30
0.0
  0
VERTEX
  5
3F4
100
AcDbEntity
  8
BLACK
 62
     7
100
AcDbVertex
100
AcDb2dVertex
 10
15.516
 20
11.622
 30
0.0
 42
0.059
  0
VERTEX
  5
3F5
100
AcDbEntity
  8
BLACK
 62
     7
100
AcDbVertex
100
AcDb2dVertex
 10
15.539
 20
11.643
 30
0.0
 42
0.059
  0
VERTEX
  5
3F6
100
AcDbEntity
  8
BLACK
 62
     7
100
AcDbVertex
100
AcDb2dVertex
 10
15.553
 20
11.67
 30
0.0
  0
VERTEX
  5
3F7
100
AcDbEntity
  8
BLACK
 62
     7
100
AcDbVertex
100
AcDb2dVertex
 10
15.582
 20
11.733
 30
0.0
 42
0.045
  0
VERTEX
  5
3F8
100
AcDbEntity
  8
BLACK
 62
     7
100
AcDbVertex
100
AcDb2dVertex
 10
15.589
 20
11.758
 30
0.0
 42
0.092
  0
VERTEX
  5
3F9
100
AcDbEntity
  8
BLACK
 62
     7
100
AcDbVertex
100
AcDb2dVertex
 10
15.59
 20
11.779
 30
0.0
 42
0.119
  0
VERTEX
  5
3FA
100
AcDbEntity
  8
BLACK
 62
     7
100
AcDbVertex
100
AcDb2dVertex
 10
15.582
 20
11.798
 30
0.0
 42
0.085
  0
VERTEX
  5
3FB
100
AcDbEntity
  8
BLACK
 62
     7
100
AcDbVertex
100
AcDb2dVertex
 10
15.563
 20
11.815
 30
0.0
 42
0.067
  0
VERTEX
  5
3FC
100
AcDbEntity
  8
BLACK
 62
     7
100
AcDbVertex
100
AcDb2dVertex
 10
15.485
 20
11.848
 30
0.0
  0
VERTEX
  5
3FD
100
AcDbEntity
  8
BLACK
 62
     7
100
AcDbVertex
100
AcDb2dVertex
 10
15.422
 20
11.865
 30
0.0
  0
VERTEX
  5
3FE
100
AcDbEntity
  8
BLACK
 62
     7
100
AcDbVertex
100
AcDb2dVertex
 10
15.354
 20
11.881
 30
0.0
 42
-0.027
  0
VERTEX
  5
3FF
100
AcDbEntity
  8
BLACK
 62
     7
100
AcDbVertex
100
AcDb2dVertex
 10
15.236
 20
11.912
 30
0.0
 42
0.198
  0
VERTEX
  5
400
100
AcDbEntity
  8
BLACK
 62
     7
100
AcDbVertex
100
AcDb2dVertex
 10
15.209
 20
11.912
 30
0.0
 42
0.151
  0
VERTEX
  5
401
100
AcDbEntity
  8
BLACK
 62
     7
100
AcDbVertex
100
AcDb2dVertex
 10
15.188
 20
11.893
 30
0.0
 42
0.08
  0
VERTEX
  5
402
100
AcDbEntity
  8
BLACK
 62
     7
100
AcDbVertex
100
AcDb2dVertex
 10
15.162
 20
11.812
 30
0.0
  0
VERTEX
  5
403
100
AcDbEntity
  8
BLACK
 62
     7
100
AcDbVertex
100
AcDb2dVertex
 10
15.141
 20
11.706
 30
0.0
 42
-0.055
  0
VERTEX
  5
404
100
AcDbEntity
  8
BLACK
 62
     7
100
AcDbVertex
100
AcDb2dVertex
 10
15.112
 20
11.607
 30
0.0
 42
-0.119
  0
VERTEX
  5
405
100
AcDbEntity
  8
BLACK
 62
     7
100
AcDbVertex
100
AcDb2dVertex
 10
15.083
 20
11.568
 30
0.0
 42
-0.233
  0
VERTEX
  5
406
100
AcDbEntity
  8
BLACK
 62
     7
100
AcDbVertex
100
AcDb2dVertex
 10
15.044
 20
11.559
 30
0.0
 42
-0.24
  0
VERTEX
  5
407
100
AcDbEntity
  8
BLACK
 62
     7
100
AcDbVertex
100
AcDb2dVertex
 10
14.995
 20
11.601
 30
0.0
 42
-0.143
  0
VERTEX
  5
408
100
AcDbEntity
  8
BLACK
 62
     7
100
AcDbVertex
100
AcDb2dVertex
 10
14.987
 20
11.67
 30
0.0
 42
-0.013
  0
VERTEX
  5
409
100
AcDbEntity
  8
BLACK
 62
     7
100
AcDbVertex
100
AcDb2dVertex
 10
15.017
 20
11.801
 30
0.0
 42
0.04
  0
VERTEX
  5
40A
100
AcDbEntity
  8
BLACK
 62
     7
100
AcDbVertex
100
AcDb2dVertex
 10
15.027
 20
11.861
 30
0.0
 42
0.063
  0
VERTEX
  5
40B
100
AcDbEntity
  8
BLACK
 62
     7
100
AcDbVertex
100
AcDb2dVertex
 10
15.026
 20
11.883
 30
0.0
 42
0.157
  0
VERTEX
  5
40C
100
AcDbEntity
  8
BLACK
 62
     7
100
AcDbVertex
100
AcDb2dVertex
 10
15.019
 20
11.897
 30
0.0
 42
0.047
  0
VERTEX
  5
40D
100
AcDbEntity
  8
BLACK
 62
     7
100
AcDbVertex
100
AcDb2dVertex
 10
15.009
 20
11.904
 30
0.0
  0
VERTEX
  5
40E
100
AcDbEntity
  8
BLACK
 62
     7
100
AcDbVertex
100
AcDb2dVertex
 10
15.0
 20
11.91
 30
0.0
 42
-0.294
  0
VERTEX
  5
40F
100
AcDbEntity
  8
BLACK
 62
     7
100
AcDbVertex
100
AcDb2dVertex
 10
14.993
 20
11.929
 30
0.0
 42
0.082
  0
VERTEX
  5
410
100
AcDbEntity
  8
BLACK
 62
     7
100
AcDbVertex
100
AcDb2dVertex
 10
14.993
 20
11.93
 30
0.0
 42
0.221
  0
VERTEX
  5
411
100
AcDbEntity
  8
BLACK
 62
     7
100
AcDbVertex
100
AcDb2dVertex
 10
14.992
 20
11.931
 30
0.0
 42
0.142
  0
VERTEX
  5
412
100
AcDbEntity
  8
BLACK
 62
     7
100
AcDbVertex
100
AcDb2dVertex
 10
14.991
 20
11.931
 30
0.0
 42
0.049
  0
VERTEX
  5
413
100
AcDbEntity
  8
BLACK
 62
     7
100
AcDbVertex
100
AcDb2dVertex
 10
14.988
 20
11.931
 30
0.0
 42
0.026
  0
VERTEX
  5
414
100
AcDbEntity
  8
BLACK
 62
     7
100
AcDbVertex
100
AcDb2dVertex
 10
14.964
 20
11.921
 30
0.0
 42
-0.006
  0
VERTEX
  5
415
100
AcDbEntity
  8
BLACK
 62
     7
100
AcDbVertex
100
AcDb2dVertex
 10
14.717
 20
11.825
 30
0.0
 42
0.02
  0
VERTEX
  5
416
100
AcDbEntity
  8
BLACK
 62
     7
100
AcDbVertex
100
AcDb2dVertex
 10
14.603
 20
11.776
 30
0.0
 42
0.06
  0
VERTEX
  5
417
100
AcDbEntity
  8
BLACK
 62
     7
100
AcDbVertex
100
AcDb2dVertex
 10
14.521
 20
11.725
 30
0.0
 42
0.085
  0
VERTEX
  5
418
100
AcDbEntity
  8
BLACK
 62
     7
100
AcDbVertex
100
AcDb2dVertex
 10
14.413
 20
11.586
 30
0.0
 42
-0.021
  0
VERTEX
  5
419
100
AcDbEntity
  8
BLACK
 62
     7
100
AcDbVertex
100
AcDb2dVertex
 10
14.315
 20
11.42
 30
0.0
 42
-0.066
  0
VERTEX
  5
41A
100
AcDbEntity
  8
BLACK
 62
     7
100
AcDbVertex
100
AcDb2dVertex
 10
14.167
 20
11.251
 30
0.0
 42
-0.076
  0
VERTEX
  5
41B
100
AcDbEntity
  8
BLACK
 62
     7
100
AcDbVertex
100
AcDb2dVertex
 10
14.005
 20
11.152
 30
0.0
 42
-0.035
  0
VERTEX
  5
41C
100
AcDbEntity
  8
BLACK
 62
     7
100
AcDbVertex
100
AcDb2dVertex
 10
13.804
 20
11.085
 30
0.0
  0
VERTEX
  5
41D
100
AcDbEntity
  8
BLACK
 62
     7
100
AcDbVertex
100
AcDb2dVertex
 10
13.537
 20
11.013
 30
0.0
 42
0.036
  0
VERTEX
  5
41E
100
AcDbEntity
  8
BLACK
 62
     7
100
AcDbVertex
100
AcDb2dVertex
 10
13.522
 20
11.008
 30
0.0
 42
0.07
  0
VERTEX
  5
41F
100
AcDbEntity
  8
BLACK
 62
     7
100
AcDbVertex
100
AcDb2dVertex
 10
13.518
 20
11.006
 30
0.0
 42
0.16
  0
VERTEX
  5
420
100
AcDbEntity
  8
BLACK
 62
     7
100
AcDbVertex
100
AcDb2dVertex
 10
13.516
 20
11.003
 30
0.0
 42
0.16
  0
VERTEX
  5
421
100
AcDbEntity
  8
BLACK
 62
     7
100
AcDbVertex
100
AcDb2dVertex
 10
13.516
 20
10.999
 30
0.0
 42
0.07
  0
VERTEX
  5
422
100
AcDbEntity
  8
BLACK
 62
     7
100
AcDbVertex
100
AcDb2dVertex
 10
13.519
 20
10.995
 30
0.0
 42
0.036
  0
VERTEX
  5
423
100
AcDbEntity
  8
BLACK
 62
     7
100
AcDbVertex
100
AcDb2dVertex
 10
13.531
 20
10.984
 30
0.0
 42
0.013
  0
VERTEX
  5
424
100
AcDbEntity
  8
BLACK
 62
     7
100
AcDbVertex
100
AcDb2dVertex
 10
13.621
 20
10.906
 30
0.0
 42
0.047
  0
VERTEX
  5
425
100
AcDbEntity
  8
BLACK
 62
     7
100
AcDbVertex
100
AcDb2dVertex
 10
13.697
 20
10.855
 30
0.0
 42
0.054
  0
VERTEX
  5
426
100
AcDbEntity
  8
BLACK
 62
     7
100
AcDbVertex
100
AcDb2dVertex
 10
13.785
 20
10.821
 30
0.0
 42
0.026
  0
VERTEX
  5
427
100
AcDbEntity
  8
BLACK
 62
     7
100
AcDbVertex
100
AcDb2dVertex
 10
13.91
 20
10.795
 30
0.0
 42
0.029
  0
VERTEX
  5
428
100
AcDbEntity
  8
BLACK
 62
     7
100
AcDbVertex
100
AcDb2dVertex
 10
14.086
 20
10.773
 30
0.0
 42
0.047
  0
VERTEX
  5
429
100
AcDbEntity
  8
BLACK
 62
     7
100
AcDbVertex
100
AcDb2dVertex
 10
14.224
 20
10.778
 30
0.0
 42
0.03
  0
VERTEX
  5
42A
100
AcDbEntity
  8
BLACK
 62
     7
100
AcDbVertex
100
AcDb2dVertex
 10
14.363
 20
10.807
 30
0.0
  0
VERTEX
  5
42B
100
AcDbEntity
  8
BLACK
 62
     7
100
AcDbVertex
100
AcDb2dVertex
 10
14.546
 20
10.856
 30
0.0
 42
0.142
  0
VERTEX
  5
42C
100
AcDbEntity
  8
BLACK
 62
     7
100
AcDbVertex
100
AcDb2dVertex
 10
14.601
 20
10.884
 30
0.0
  0
SEQEND
  5
42D
100
AcDbEntity
  8
BLACK
 62
     7
  0
POLYLINE
  5
42E
100
AcDbEntity
  8
BLACK
 62
     7
100
AcDb2dPolyline
 66
     1
 10
0.0
 20
0.0
 30
0.0
 70
     1
  0
VERTEX
  5
42F
100
AcDbEntity
  8
BLACK
 62
     7
100
AcDbVertex
100
AcDb2dVertex
 10
1.962
 20
10.156
 30
0.0
 42
0.249
  0
VERTEX
  5
430
100
AcDbEntity
  8
BLACK
 62
     7
100
AcDbVertex
100
AcDb2dVertex
 10
1.997
 20
10.036
 30
0.0
 42
0.105
  0
VERTEX
  5
431
100
AcDbEntity
  8
BLACK
 62
     7
100
AcDbVertex
100
AcDb2dVertex
 10
2.12
 20
9.955
 30
0.0
 42
0.04
  0
VERTEX
  5
432
100
AcDbEntity
  8
BLACK
 62
     7
100
AcDbVertex
100
AcDb2dVertex
 10
2.271
 20
9.905
 30
0.0
  0
VERTEX
  5
433
100
AcDbEntity
  8
BLACK
 62
     7
100
AcDbVertex
100
AcDb2dVertex
 10
2.393
 20
9.878
 30
0.0
 42
0.053
  0
VERTEX
  5
434
100
AcDbEntity
  8
BLACK
 62
     7
100
AcDbVertex
100
AcDb2dVertex
 10
3.207
 20
9.802
 30
0.0
 42
0.047
  0
VERTEX
  5
435
100
AcDbEntity
  8
BLACK
 62
     7
100
AcDbVertex
100
AcDb2dVertex
 10
4.055
 20
9.891
 30
0.0
 42
0.048
  0
VERTEX
  5
436
100
AcDbEntity
  8
BLACK
 62
     7
100
AcDbVertex
100
AcDb2dVertex
 10
4.879
 20
10.14
 30
0.0
 42
0.055
  0
VERTEX
  5
437
100
AcDbEntity
  8
BLACK
 62
     7
100
AcDbVertex
100
AcDb2dVertex
 10
5.624
 20
10.544
 30
0.0
 42
0.038
  0
VERTEX
  5
438
100
AcDbEntity
  8
BLACK
 62
     7
100
AcDbVertex
100
AcDb2dVertex
 10
5.801
 20
10.688
 30
0.0
 42
0.103
  0
VERTEX
  5
439
100
AcDbEntity
  8
BLACK
 62
     7
100
AcDbVertex
100
AcDb2dVertex
 10
5.922
 20
10.85
 30
0.0
 42
0.143
  0
VERTEX
  5
43A
100
AcDbEntity
  8
BLACK
 62
     7
100
AcDbVertex
100
AcDb2dVertex
 10
5.926
 20
10.881
 30
0.0
 42
0.231
  0
VERTEX
  5
43B
100
AcDbEntity
  8
BLACK
 62
     7
100
AcDbVertex
100
AcDb2dVertex
 10
5.91
 20
10.902
 30
0.0
 42
0.11
  0
VERTEX
  5
43C
100
AcDbEntity
  8
BLACK
 62
     7
100
AcDbVertex
100
AcDb2dVertex
 10
5.872
 20
10.91
 30
0.0
 42
0.046
  0
VERTEX
  5
43D
100
AcDbEntity
  8
BLACK
 62
     7
100
AcDbVertex
100
AcDb2dVertex
 10
5.81
 20
10.906
 30
0.0
  0
VERTEX
  5
43E
100
AcDbEntity
  8
BLACK
 62
     7
100
AcDbVertex
100
AcDb2dVertex
 10
5.713
 20
10.886
 30
0.0
 42
-0.034
  0
VERTEX
  5
43F
100
AcDbEntity
  8
BLACK
 62
     7
100
AcDbVertex
100
AcDb2dVertex
 10
5.613
 20
10.869
 30
0.0
 42
-0.06
  0
VERTEX
  5
440
100
AcDbEntity
  8
BLACK
 62
     7
100
AcDbVertex
100
AcDb2dVertex
 10
5.573
 20
10.87
 30
0.0
 42
-0.147
  0
VERTEX
  5
441
100
AcDbEntity
  8
BLACK
 62
     7
100
AcDbVertex
100
AcDb2dVertex
 10
5.546
 20
10.882
 30
0.0
 42
-0.21
  0
VERTEX
  5
442
100
AcDbEntity
  8
BLACK
 62
     7
100
AcDbVertex
100
AcDb2dVertex
 10
5.536
 20
10.908
 30
0.0
 42
-0.102
  0
VERTEX
  5
443
100
AcDbEntity
  8
BLACK
 62
     7
100
AcDbVertex
100
AcDb2dVertex
 10
5.546
 20
10.952
 30
0.0
 42
-0.167
  0
VERTEX
  5
444
100
AcDbEntity
  8
BLACK
 62
     7
100
AcDbVertex
100
AcDb2dVertex
 10
5.58
 20
10.989
 30
0.0
 42
-0.093
  0
VERTEX
  5
445
100
AcDbEntity
  8
BLACK
 62
     7
100
AcDbVertex
100
AcDb2dVertex
 10
5.67
 20
11.014
 30
0.0
  0
VERTEX
  5
446
100
AcDbEntity
  8
BLACK
 62
     7
100
AcDbVertex
100
AcDb2dVertex
 10
5.727
 20
11.02
 30
0.0
 42
0.011
  0
VERTEX
  5
447
100
AcDbEntity
  8
BLACK
 62
     7
100
AcDbVertex
100
AcDb2dVertex
 10
5.901
 20
11.033
 30
0.0
 42
0.04
  0
VERTEX
  5
448
100
AcDbEntity
  8
BLACK
 62
     7
100
AcDbVertex
100
AcDb2dVertex
 10
5.945
 20
11.043
 30
0.0
 42
0.092
  0
VERTEX
  5
449
100
AcDbEntity
  8
BLACK
 62
     7
100
AcDbVertex
100
AcDb2dVertex
 10
5.977
 20
11.059
 30
0.0
 42
0.207
  0
VERTEX
  5
44A
100
AcDbEntity
  8
BLACK
 62
     7
100
AcDbVertex
100
AcDb2dVertex
 10
5.996
 20
11.094
 30
0.0
 42
0.126
  0
VERTEX
  5
44B
100
AcDbEntity
  8
BLACK
 62
     7
100
AcDbVertex
100
AcDb2dVertex
 10
5.988
 20
11.136
 30
0.0
 42
0.145
  0
VERTEX
  5
44C
100
AcDbEntity
  8
BLACK
 62
     7
100
AcDbVertex
100
AcDb2dVertex
 10
5.922
 20
11.211
 30
0.0
 42
0.066
  0
VERTEX
  5
44D
100
AcDbEntity
  8
BLACK
 62
     7
100
AcDbVertex
100
AcDb2dVertex
 10
5.836
 20
11.246
 30
0.0
 42
0.03
  0
VERTEX
  5
44E
100
AcDbEntity
  8
BLACK
 62
     7
100
AcDbVertex
100
AcDb2dVertex
 10
5.718
 20
11.271
 30
0.0
 42
0.027
  0
VERTEX
  5
44F
100
AcDbEntity
  8
BLACK
 62
     7
100
AcDbVertex
100
AcDb2dVertex
 10
5.424
 20
11.297
 30
0.0
 42
0.024
  0
VERTEX
  5
450
100
AcDbEntity
  8
BLACK
 62
     7
100
AcDbVertex
100
AcDb2dVertex
 10
4.921
 20
11.295
 30
0.0
 42
0.041
  0
VERTEX
  5
451
100
AcDbEntity
  8
BLACK
 62
     7
100
AcDbVertex
100
AcDb2dVertex
 10
3.901
 20
11.131
 30
0.0
 42
0.02
  0
VERTEX
  5
452
100
AcDbEntity
  8
BLACK
 62
     7
100
AcDbVertex
100
AcDb2dVertex
 10
3.381
 20
10.985
 30
0.0
 42
0.027
  0
VERTEX
  5
453
100
AcDbEntity
  8
BLACK
 62
     7
100
AcDbVertex
100
AcDb2dVertex
 10
2.921
 20
10.808
 30
0.0
  0
VERTEX
  5
454
100
AcDbEntity
  8
BLACK
 62
     7
100
AcDbVertex
100
AcDb2dVertex
 10
2.745
 20
10.732
 30
0.0
 42
0.019
  0
VERTEX
  5
455
100
AcDbEntity
  8
BLACK
 62
     7
100
AcDbVertex
100
AcDb2dVertex
 10
2.433
 20
10.577
 30
0.0
 42
0.046
  0
VERTEX
  5
456
100
AcDbEntity
  8
BLACK
 62
     7
100
AcDbVertex
100
AcDb2dVertex
 10
2.125
 20
10.375
 30
0.0
 42
0.055
  0
VERTEX
  5
457
100
AcDbEntity
  8
BLACK
 62
     7
100
AcDbVertex
100
AcDb2dVertex
 10
2.017
 20
10.266
 30
0.0
 42
0.113
  0
VERTEX
  5
458
100
AcDbEntity
  8
BLACK
 62
     7
100
AcDbVertex
100
AcDb2dVertex
 10
1.962
 20
10.156
 30
0.0
  0
SEQEND
  5
459
100
AcDbEntity
  8
BLACK
 62
     7
  0
POLYLINE
  5
45A
100
AcDbEntity
  8
BLACK
 62
     7
100
AcDb2dPolyline
 66
     1
 10
0.0
 20
0.0
 30
0.0
 70
     1
  0
VERTEX
  5
45B
100
AcDbEntity
  8
BLACK
 62
     7
100
AcDbVertex
100
AcDb2dVertex
 10
8.711
 20
10.387
 30
0.0
 42
-0.031
  0
VERTEX
  5
45C
100
AcDbEntity
  8
BLACK
 62
     7
100
AcDbVertex
100
AcDb2dVertex
 10
8.707
 20
10.363
 30
0.0
 42
-0.158
  0
VERTEX
  5
45D
100
AcDbEntity
  8
BLACK
 62
     7
100
AcDbVertex
100
AcDb2dVertex
 10
8.7
 20
10.35
 30
0.0
 42
-0.103
  0
VERTEX
  5
45E
100
AcDbEntity
  8
BLACK
 62
     7
100
AcDbVertex
100
AcDb2dVertex
 10
8.695
 20
10.347
 30
0.0
 42
-0.06
  0
VERTEX
  5
45F
100
AcDbEntity
  8
BLACK
 62
     7
100
AcDbVertex
100
AcDb2dVertex
 10
8.687
 20
10.346
 30
0.0
 42
-0.034
  0
VERTEX
  5
460
100
AcDbEntity
  8
BLACK
 62
     7
100
AcDbVertex
100
AcDb2dVertex
 10
8.663
 20
10.348
 30
0.0
 42
-0.05
  0
VERTEX
  5
461
100
AcDbEntity
  8
BLACK
 62
     7
100
AcDbVertex
100
AcDb2dVertex
 10
8.653
 20
10.35
 30
0.0
 42
-0.111
  0
VERTEX
  5
462
100
AcDbEntity
  8
BLACK
 62
     7
100
AcDbVertex
100
AcDb2dVertex
 10
8.645
 20
10.354
 30
0.0
 42
-0.069
  0
VERTEX
  5
463
100
AcDbEntity
  8
BLACK
 62
     7
100
AcDbVertex
100
AcDb2dVertex
 10
8.638
 20
10.363
 30
0.0
  0
VERTEX
  5
464
100
AcDbEntity
  8
BLACK
 62
     7
100
AcDbVertex
100
AcDb2dVertex
 10
8.63
 20
10.378
 30
0.0
 42
0.026
  0
VERTEX
  5
465
100
AcDbEntity
  8
BLACK
 62
     7
100
AcDbVertex
100
AcDb2dVertex
 10
8.508
 20
10.605
 30
0.0
  0
VERTEX
  5
466
100
AcDbEntity
  8
BLACK
 62
     7
100
AcDbVertex
100
AcDb2dVertex
 10
8.434
 20
10.709
 30
0.0
 42
-0.032
  0
VERTEX
  5
467
100
AcDbEntity
  8
BLACK
 62
     7
100
AcDbVertex
100
AcDb2dVertex
 10
8.394
 20
10.778
 30
0.0
 42
-0.044
  0
VERTEX
  5
468
100
AcDbEntity
  8
BLACK
 62
     7
100
AcDbVertex
100
AcDb2dVertex
 10
8.382
 20
10.807
 30
0.0
 42
-0.124
  0
VERTEX
  5
469
100
AcDbEntity
  8
BLACK
 62
     7
100
AcDbVertex
100
AcDb2dVertex
 10
8.38
 20
10.828
 30
0.0
 42
-0.178
  0
VERTEX
  5
46A
100
AcDbEntity
  8
BLACK
 62
     7
100
AcDbVertex
100
AcDb2dVertex
 10
8.399
 20
10.857
 30
0.0
 42
-0.189
  0
VERTEX
  5
46B
100
AcDbEntity
  8
BLACK
 62
     7
100
AcDbVertex
100
AcDb2dVertex
 10
8.429
 20
10.865
 30
0.0
 42
-0.098
  0
VERTEX
  5
46C
100
AcDbEntity
  8
BLACK
 62
     7
100
AcDbVertex
100
AcDb2dVertex
 10
8.433
 20
10.864
 30
0.0
 42
-0.094
  0
VERTEX
  5
46D
100
AcDbEntity
  8
BLACK
 62
     7
100
AcDbVertex
100
AcDb2dVertex
 10
8.437
 20
10.86
 30
0.0
 42
-0.034
  0
VERTEX
  5
46E
100
AcDbEntity
  8
BLACK
 62
     7
100
AcDbVertex
100
AcDb2dVertex
 10
8.452
 20
10.837
 30
0.0
  0
VERTEX
  5
46F
100
AcDbEntity
  8
BLACK
 62
     7
100
AcDbVertex
100
AcDb2dVertex
 10
8.698
 20
10.432
 30
0.0
 42
-0.06
  0
VERTEX
  5
470
100
AcDbEntity
  8
BLACK
 62
     7
100
AcDbVertex
100
AcDb2dVertex
 10
8.711
 20
10.407
 30
0.0
 42
-0.115
  0
VERTEX
  5
471
100
AcDbEntity
  8
BLACK
 62
     7
100
AcDbVertex
100
AcDb2dVertex
 10
8.711
 20
10.387
 30
0.0
  0
SEQEND
  5
472
100
AcDbEntity
  8
BLACK
 62
     7
  0
POLYLINE
  5
473
100
AcDbEntity
  8
BLACK
 62
     7
100
AcDb2dPolyline
 66
     1
 10
0.0
 20
0.0
 30
0.0
 70
     1
  0
VERTEX
  5
474
100
AcDbEntity
  8
BLACK
 62
     7
100
AcDbVertex
100
AcDb2dVertex
 10
4.071
 20
10.671
 30
0.0
  0
VERTEX
  5
475
100
AcDbEntity
  8
BLACK
 62
     7
100
AcDbVertex
100
AcDb2dVertex
 10
3.839
 20
10.3
 30
0.0
  0
VERTEX
  5
476
100
AcDbEntity
  8
BLACK
 62
     7
100
AcDbVertex
100
AcDb2dVertex
 10
3.824
 20
10.27
 30
0.0
 42
0.063
  0
VERTEX
  5
477
100
AcDbEntity
  8
BLACK
 62
     7
100
AcDbVertex
100
AcDb2dVertex
 10
3.824
 20
10.268
 30
0.0
  0
VERTEX
  5
478
100
AcDbEntity
  8
BLACK
 62
     7
100
AcDbVertex
100
AcDb2dVertex
 10
3.824
 20
10.258
 30
0.0
 42
-0.238
  0
VERTEX
  5
479
100
AcDbEntity
  8
BLACK
 62
     7
100
AcDbVertex
100
AcDb2dVertex
 10
3.822
 20
10.253
 30
0.0
 42
-0.067
  0
VERTEX
  5
47A
100
AcDbEntity
  8
BLACK
 62
     7
100
AcDbVertex
100
AcDb2dVertex
 10
3.818
 20
10.251
 30
0.0
  0
VERTEX
  5
47B
100
AcDbEntity
  8
BLACK
 62
     7
100
AcDbVertex
100
AcDb2dVertex
 10
3.813
 20
10.249
 30
0.0
  0
VERTEX
  5
47C
100
AcDbEntity
  8
BLACK
 62
     7
100
AcDbVertex
100
AcDb2dVertex
 10
3.793
 20
10.242
 30
0.0
 42
-0.06
  0
VERTEX
  5
47D
100
AcDbEntity
  8
BLACK
 62
     7
100
AcDbVertex
100
AcDb2dVertex
 10
3.784
 20
10.24
 30
0.0
 42
-0.102
  0
VERTEX
  5
47E
100
AcDbEntity
  8
BLACK
 62
     7
100
AcDbVertex
100
AcDb2dVertex
 10
3.783
 20
10.24
 30
0.0
 42
-0.157
  0
VERTEX
  5
47F
100
AcDbEntity
  8
BLACK
 62
     7
100
AcDbVertex
100
AcDb2dVertex
 10
3.783
 20
10.241
 30
0.0
 42
-0.1
  0
VERTEX
  5
480
100
AcDbEntity
  8
BLACK
 62
     7
100
AcDbVertex
100
AcDb2dVertex
 10
3.782
 20
10.241
 30
0.0
 42
-0.039
  0
VERTEX
  5
481
100
AcDbEntity
  8
BLACK
 62
     7
100
AcDbVertex
100
AcDb2dVertex
 10
3.782
 20
10.242
 30
0.0
  0
VERTEX
  5
482
100
AcDbEntity
  8
BLACK
 62
     7
100
AcDbVertex
100
AcDb2dVertex
 10
3.782
 20
10.249
 30
0.0
 42
0.08
  0
VERTEX
  5
483
100
AcDbEntity
  8
BLACK
 62
     7
100
AcDbVertex
100
AcDb2dVertex
 10
3.782
 20
10.251
 30
0.0
 42
0.21
  0
VERTEX
  5
484
100
AcDbEntity
  8
BLACK
 62
     7
100
AcDbVertex
100
AcDb2dVertex
 10
3.781
 20
10.252
 30
0.0
 42
0.091
  0
VERTEX
  5
485
100
AcDbEntity
  8
BLACK
 62
     7
100
AcDbVertex
100
AcDb2dVertex
 10
3.779
 20
10.253
 30
0.0
  0
VERTEX
  5
486
100
AcDbEntity
  8
BLACK
 62
     7
100
AcDbVertex
100
AcDb2dVertex
 10
3.775
 20
10.253
 30
0.0
  0
VERTEX
  5
487
100
AcDbEntity
  8
BLACK
 62
     7
100
AcDbVertex
100
AcDb2dVertex
 10
3.761
 20
10.253
 30
0.0
 42
-0.067
  0
VERTEX
  5
488
100
AcDbEntity
  8
BLACK
 62
     7
100
AcDbVertex
100
AcDb2dVertex
 10
3.758
 20
10.253
 30
0.0
 42
-0.202
  0
VERTEX
  5
489
100
AcDbEntity
  8
BLACK
 62
     7
100
AcDbVertex
100
AcDb2dVertex
 10
3.756
 20
10.255
 30
0.0
 42
-0.106
  0
VERTEX
  5
48A
100
AcDbEntity
  8
BLACK
 62
     7
100
AcDbVertex
100
AcDb2dVertex
 10
3.755
 20
10.258
 30
0.0
  0
VERTEX
  5
48B
100
AcDbEntity
  8
BLACK
 62
     7
100
AcDbVertex
100
AcDb2dVertex
 10
3.754
 20
10.264
 30
0.0
  0
VERTEX
  5
48C
100
AcDbEntity
  8
BLACK
 62
     7
100
AcDbVertex
100
AcDb2dVertex
 10
3.754
 20
10.284
 30
0.0
 42
-0.061
  0
VERTEX
  5
48D
100
AcDbEntity
  8
BLACK
 62
     7
100
AcDbVertex
100
AcDb2dVertex
 10
3.756
 20
10.292
 30
0.0
 42
-0.066
  0
VERTEX
  5
48E
100
AcDbEntity
  8
BLACK
 62
     7
100
AcDbVertex
100
AcDb2dVertex
 10
3.77
 20
10.324
 30
0.0
  0
VERTEX
  5
48F
100
AcDbEntity
  8
BLACK
 62
     7
100
AcDbVertex
100
AcDb2dVertex
 10
4.021
 20
10.726
 30
0.0
  0
VERTEX
  5
490
100
AcDbEntity
  8
BLACK
 62
     7
100
AcDbVertex
100
AcDb2dVertex
 10
4.031
 20
10.74
 30
0.0
 42
-0.077
  0
VERTEX
  5
491
100
AcDbEntity
  8
BLACK
 62
     7
100
AcDbVertex
100
AcDb2dVertex
 10
4.038
 20
10.748
 30
0.0
 42
-0.136
  0
VERTEX
  5
492
100
AcDbEntity
  8
BLACK
 62
     7
100
AcDbVertex
100
AcDb2dVertex
 10
4.045
 20
10.751
 30
0.0
 42
-0.061
  0
VERTEX
  5
493
100
AcDbEntity
  8
BLACK
 62
     7
100
AcDbVertex
100
AcDb2dVertex
 10
4.055
 20
10.75
 30
0.0
 42
-0.033
  0
VERTEX
  5
494
100
AcDbEntity
  8
BLACK
 62
     7
100
AcDbVertex
100
AcDb2dVertex
 10
4.076
 20
10.746
 30
0.0
 42
-0.145
  0
VERTEX
  5
495
100
AcDbEntity
  8
BLACK
 62
     7
100
AcDbVertex
100
AcDb2dVertex
 10
4.087
 20
10.74
 30
0.0
 42
-0.17
  0
VERTEX
  5
496
100
AcDbEntity
  8
BLACK
 62
     7
100
AcDbVertex
100
AcDb2dVertex
 10
4.091
 20
10.729
 30
0.0
 42
-0.038
  0
VERTEX
  5
497
100
AcDbEntity
  8
BLACK
 62
     7
100
AcDbVertex
100
AcDb2dVertex
 10
4.089
 20
10.711
 30
0.0
 42
-0.087
  0
VERTEX
  5
498
100
AcDbEntity
  8
BLACK
 62
     7
100
AcDbVertex
100
AcDb2dVertex
 10
4.085
 20
10.695
 30
0.0
 42
-0.031
  0
VERTEX
  5
499
100
AcDbEntity
  8
BLACK
 62
     7
100
AcDbVertex
100
AcDb2dVertex
 10
4.071
 20
10.671
 30
0.0
  0
SEQEND
  5
49A
100
AcDbEntity
  8
BLACK
 62
     7
  0
POLYLINE
  5
49B
100
AcDbEntity
  8
BLACK
 62
     7
100
AcDb2dPolyline
 66
     1
 10
0.0
 20
0.0
 30
0.0
 70
     1
  0
VERTEX
  5
49C
100
AcDbEntity
  8
BLACK
 62
     7
100
AcDbVertex
100
AcDb2dVertex
 10
11.528
 20
7.922
 30
0.0
  0
VERTEX
  5
49D
100
AcDbEntity
  8
BLACK
 62
     7
100
AcDbVertex
100
AcDb2dVertex
 10
11.47
 20
8.238
 30
0.0
 42
-0.047
  0
VERTEX
  5
49E
100
AcDbEntity
  8
BLACK
 62
     7
100
AcDbVertex
100
AcDb2dVertex
 10
11.468
 20
8.253
 30
0.0
 42
-0.134
  0
VERTEX
  5
49F
100
AcDbEntity
  8
BLACK
 62
     7
100
AcDbVertex
100
AcDb2dVertex
 10
11.47
 20
8.263
 30
0.0
 42
-0.135
  0
VERTEX
  5
4A0
100
AcDbEntity
  8
BLACK
 62
     7
100
AcDbVertex
100
AcDb2dVertex
 10
11.478
 20
8.269
 30
0.0
 42
-0.048
  0
VERTEX
  5
4A1
100
AcDbEntity
  8
BLACK
 62
     7
100
AcDbVertex
100
AcDb2dVertex
 10
11.492
 20
8.275
 30
0.0
  0
VERTEX
  5
4A2
100
AcDbEntity
  8
BLACK
 62
     7
100
AcDbVertex
100
AcDb2dVertex
 10
11.782
 20
8.368
 30
0.0
 42
-0.038
  0
VERTEX
  5
4A3
100
AcDbEntity
  8
BLACK
 62
     7
100
AcDbVertex
100
AcDb2dVertex
 10
11.798
 20
8.372
 30
0.0
 42
-0.134
  0
VERTEX
  5
4A4
100
AcDbEntity
  8
BLACK
 62
     7
100
AcDbVertex
100
AcDb2dVertex
 10
11.809
 20
8.371
 30
0.0
 42
-0.134
  0
VERTEX
  5
4A5
100
AcDbEntity
  8
BLACK
 62
     7
100
AcDbVertex
100
AcDb2dVertex
 10
11.818
 20
8.364
 30
0.0
 42
-0.038
  0
VERTEX
  5
4A6
100
AcDbEntity
  8
BLACK
 62
     7
100
AcDbVertex
100
AcDb2dVertex
 10
11.827
 20
8.35
 30
0.0
 42
-0.077
  0
VERTEX
  5
4A7
100
AcDbEntity
  8
BLACK
 62
     7
100
AcDbVertex
100
AcDb2dVertex
 10
11.887
 20
8.202
 30
0.0
  0
VERTEX
  5
4A8
100
AcDbEntity
  8
BLACK
 62
     7
100
AcDbVertex
100
AcDb2dVertex
 10
11.925
 20
7.997
 30
0.0
 42
0.04
  0
VERTEX
  5
4A9
100
AcDbEntity
  8
BLACK
 62
     7
100
AcDbVertex
100
AcDb2dVertex
 10
11.929
 20
7.981
 30
0.0
 42
0.065
  0
VERTEX
  5
4AA
100
AcDbEntity
  8
BLACK
 62
     7
100
AcDbVertex
100
AcDb2dVertex
 10
11.931
 20
7.976
 30
0.0
 42
0.113
  0
VERTEX
  5
4AB
100
AcDbEntity
  8
BLACK
 62
     7
100
AcDbVertex
100
AcDb2dVertex
 10
11.934
 20
7.973
 30
0.0
 42
0.113
  0
VERTEX
  5
4AC
100
AcDbEntity
  8
BLACK
 62
     7
100
AcDbVertex
100
AcDb2dVertex
 10
11.939
 20
7.972
 30
0.0
 42
0.065
  0
VERTEX
  5
4AD
100
AcDbEntity
  8
BLACK
 62
     7
100
AcDbVertex
100
AcDb2dVertex
 10
11.944
 20
7.972
 30
0.0
 42
0.04
  0
VERTEX
  5
4AE
100
AcDbEntity
  8
BLACK
 62
     7
100
AcDbVertex
100
AcDb2dVertex
 10
11.96
 20
7.977
 30
0.0
  0
VERTEX
  5
4AF
100
AcDbEntity
  8
BLACK
 62
     7
100
AcDbVertex
100
AcDb2dVertex
 10
12.452
 20
8.166
 30
0.0
 42
0.008
  0
VERTEX
  5
4B0
100
AcDbEntity
  8
BLACK
 62
     7
100
AcDbVertex
100
AcDb2dVertex
 10
12.862
 20
8.329
 30
0.0
 42
0.039
  0
VERTEX
  5
4B1
100
AcDbEntity
  8
BLACK
 62
     7
100
AcDbVertex
100
AcDb2dVertex
 10
13.64
 20
8.725
 30
0.0
 42
0.013
  0
VERTEX
  5
4B2
100
AcDbEntity
  8
BLACK
 62
     7
100
AcDbVertex
100
AcDb2dVertex
 10
14.483
 20
9.276
 30
0.0
 42
0.019
  0
VERTEX
  5
4B3
100
AcDbEntity
  8
BLACK
 62
     7
100
AcDbVertex
100
AcDb2dVertex
 10
14.942
 20
9.616
 30
0.0
 42
0.027
  0
VERTEX
  5
4B4
100
AcDbEntity
  8
BLACK
 62
     7
100
AcDbVertex
100
AcDb2dVertex
 10
15.098
 20
9.756
 30
0.0
 42
0.032
  0
VERTEX
  5
4B5
100
AcDbEntity
  8
BLACK
 62
     7
100
AcDbVertex
100
AcDb2dVertex
 10
15.148
 20
9.813
 30
0.0
 42
0.074
  0
VERTEX
  5
4B6
100
AcDbEntity
  8
BLACK
 62
     7
100
AcDbVertex
100
AcDb2dVertex
 10
15.174
 20
9.858
 30
0.0
 42
0.09
  0
VERTEX
  5
4B7
100
AcDbEntity
  8
BLACK
 62
     7
100
AcDbVertex
100
AcDb2dVertex
 10
15.186
 20
9.943
 30
0.0
 42
0.105
  0
VERTEX
  5
4B8
100
AcDbEntity
  8
BLACK
 62
     7
100
AcDbVertex
100
AcDb2dVertex
 10
15.177
 20
9.981
 30
0.0
 42
0.22
  0
VERTEX
  5
4B9
100
AcDbEntity
  8
BLACK
 62
     7
100
AcDbVertex
100
AcDb2dVertex
 10
15.152
 20
10.003
 30
0.0
 42
0.087
  0
VERTEX
  5
4BA
100
AcDbEntity
  8
BLACK
 62
     7
100
AcDbVertex
100
AcDb2dVertex
 10
15.105
 20
10.003
 30
0.0
  0
VERTEX
  5
4BB
100
AcDbEntity
  8
BLACK
 62
     7
100
AcDbVertex
100
AcDb2dVertex
 10
14.979
 20
9.98
 30
0.0
 42
-0.05
  0
VERTEX
  5
4BC
100
AcDbEntity
  8
BLACK
 62
     7
100
AcDbVertex
100
AcDb2dVertex
 10
14.924
 20
9.975
 30
0.0
 42
-0.249
  0
VERTEX
  5
4BD
100
AcDbEntity
  8
BLACK
 62
     7
100
AcDbVertex
100
AcDb2dVertex
 10
14.868
 20
10.003
 30
0.0
 42
-0.085
  0
VERTEX
  5
4BE
100
AcDbEntity
  8
BLACK
 62
     7
100
AcDbVertex
100
AcDb2dVertex
 10
14.854
 20
10.03
 30
0.0
 42
-0.136
  0
VERTEX
  5
4BF
100
AcDbEntity
  8
BLACK
 62
     7
100
AcDbVertex
100
AcDb2dVertex
 10
14.853
 20
10.053
 30
0.0
 42
-0.119
  0
VERTEX
  5
4C0
100
AcDbEntity
  8
BLACK
 62
     7
100
AcDbVertex
100
AcDb2dVertex
 10
14.865
 20
10.073
 30
0.0
 42
-0.064
  0
VERTEX
  5
4C1
100
AcDbEntity
  8
BLACK
 62
     7
100
AcDbVertex
100
AcDb2dVertex
 10
14.887
 20
10.092
 30
0.0
 42
-0.04
  0
VERTEX
  5
4C2
100
AcDbEntity
  8
BLACK
 62
     7
100
AcDbVertex
100
AcDb2dVertex
 10
14.955
 20
10.127
 30
0.0
  0
VERTEX
  5
4C3
100
AcDbEntity
  8
BLACK
 62
     7
100
AcDbVertex
100
AcDb2dVertex
 10
15.048
 20
10.168
 30
0.0
 42
0.035
  0
VERTEX
  5
4C4
100
AcDbEntity
  8
BLACK
 62
     7
100
AcDbVertex
100
AcDb2dVertex
 10
15.063
 20
10.176
 30
0.0
 42
0.108
  0
VERTEX
  5
4C5
100
AcDbEntity
  8
BLACK
 62
     7
100
AcDbVertex
100
AcDb2dVertex
 10
15.072
 20
10.184
 30
0.0
 42
0.108
  0
VERTEX
  5
4C6
100
AcDbEntity
  8
BLACK
 62
     7
100
AcDbVertex
100
AcDb2dVertex
 10
15.076
 20
10.195
 30
0.0
 42
0.035
  0
VERTEX
  5
4C7
100
AcDbEntity
  8
BLACK
 62
     7
100
AcDbVertex
100
AcDb2dVertex
 10
15.076
 20
10.212
 30
0.0
  0
VERTEX
  5
4C8
100
AcDbEntity
  8
BLACK
 62
     7
100
AcDbVertex
100
AcDb2dVertex
 10
15.076
 20
10.263
 30
0.0
 42
0.038
  0
VERTEX
  5
4C9
100
AcDbEntity
  8
BLACK
 62
     7
100
AcDbVertex
100
AcDb2dVertex
 10
15.076
 20
10.28
 30
0.0
 42
0.131
  0
VERTEX
  5
4CA
100
AcDbEntity
  8
BLACK
 62
     7
100
AcDbVertex
100
AcDb2dVertex
 10
15.071
 20
10.291
 30
0.0
 42
0.131
  0
VERTEX
  5
4CB
100
AcDbEntity
  8
BLACK
 62
     7
100
AcDbVertex
100
AcDb2dVertex
 10
15.062
 20
10.297
 30
0.0
 42
0.038
  0
VERTEX
  5
4CC
100
AcDbEntity
  8
BLACK
 62
     7
100
AcDbVertex
100
AcDb2dVertex
 10
15.046
 20
10.301
 30
0.0
 42
0.019
  0
VERTEX
  5
4CD
100
AcDbEntity
  8
BLACK
 62
     7
100
AcDbVertex
100
AcDb2dVertex
 10
14.606
 20
10.388
 30
0.0
 42
0.026
  0
VERTEX
  5
4CE
100
AcDbEntity
  8
BLACK
 62
     7
100
AcDbVertex
100
AcDb2dVertex
 10
14.231
 20
10.425
 30
0.0
 42
0.015
  0
VERTEX
  5
4CF
100
AcDbEntity
  8
BLACK
 62
     7
100
AcDbVertex
100
AcDb2dVertex
 10
13.82
 20
10.43
 30
0.0
  0
VERTEX
  5
4D0
100
AcDbEntity
  8
BLACK
 62
     7
100
AcDbVertex
100
AcDb2dVertex
 10
13.27
 20
10.419
 30
0.0
 42
0.027
  0
VERTEX
  5
4D1
100
AcDbEntity
  8
BLACK
 62
     7
100
AcDbVertex
100
AcDb2dVertex
 10
13.183
 20
10.415
 30
0.0
 42
0.085
  0
VERTEX
  5
4D2
100
AcDbEntity
  8
BLACK
 62
     7
100
AcDbVertex
100
AcDb2dVertex
 10
13.104
 20
10.392
 30
0.0
 42
0.054
  0
VERTEX
  5
4D3
100
AcDbEntity
  8
BLACK
 62
     7
100
AcDbVertex
100
AcDb2dVertex
 10
13.042
 20
10.35
 30
0.0
 42
-0.019
  0
VERTEX
  5
4D4
100
AcDbEntity
  8
BLACK
 62
     7
100
AcDbVertex
100
AcDb2dVertex
 10
12.925
 20
10.252
 30
0.0
 42
-0.096
  0
VERTEX
  5
4D5
100
AcDbEntity
  8
BLACK
 62
     7
100
AcDbVertex
100
AcDb2dVertex
 10
12.868
 20
10.225
 30
0.0
 42
-0.104
  0
VERTEX
  5
4D6
100
AcDbEntity
  8
BLACK
 62
     7
100
AcDbVertex
100
AcDb2dVertex
 10
12.814
 20
10.226
 30
0.0
 42
-0.043
  0
VERTEX
  5
4D7
100
AcDbEntity
  8
BLACK
 62
     7
100
AcDbVertex
100
AcDb2dVertex
 10
12.762
 20
10.242
 30
0.0
 42
0.014
  0
VERTEX
  5
4D8
100
AcDbEntity
  8
BLACK
 62
     7
100
AcDbVertex
100
AcDb2dVertex
 10
12.613
 20
10.305
 30
0.0
 42
0.066
  0
VERTEX
  5
4D9
100
AcDbEntity
  8
BLACK
 62
     7
100
AcDbVertex
100
AcDb2dVertex
 10
12.61
 20
10.305
 30
0.0
  0
VERTEX
  5
4DA
100
AcDbEntity
  8
BLACK
 62
     7
100
AcDbVertex
100
AcDb2dVertex
 10
12.606
 20
10.305
 30
0.0
  0
VERTEX
  5
4DB
100
AcDbEntity
  8
BLACK
 62
     7
100
AcDbVertex
100
AcDb2dVertex
 10
12.558
 20
10.295
 30
0.0
  0
VERTEX
  5
4DC
100
AcDbEntity
  8
BLACK
 62
     7
100
AcDbVertex
100
AcDb2dVertex
 10
12.431
 20
10.257
 30
0.0
 42
0.006
  0
VERTEX
  5
4DD
100
AcDbEntity
  8
BLACK
 62
     7
100
AcDbVertex
100
AcDb2dVertex
 10
11.999
 20
10.115
 30
0.0
  0
VERTEX
  5
4DE
100
AcDbEntity
  8
BLACK
 62
     7
100
AcDbVertex
100
AcDb2dVertex
 10
11.396
 20
9.908
 30
0.0
 42
-0.001
  0
VERTEX
  5
4DF
100
AcDbEntity
  8
BLACK
 62
     7
100
AcDbVertex
100
AcDb2dVertex
 10
9.339
 20
9.196
 30
0.0
 42
-0.005
  0
VERTEX
  5
4E0
100
AcDbEntity
  8
BLACK
 62
     7
100
AcDbVertex
100
AcDb2dVertex
 10
8.833
 20
9.029
 30
0.0
 42
-0.022
  0
VERTEX
  5
4E1
100
AcDbEntity
  8
BLACK
 62
     7
100
AcDbVertex
100
AcDb2dVertex
 10
8.547
 20
8.947
 30
0.0
 42
-0.127
  0
VERTEX
  5
4E2
100
AcDbEntity
  8
BLACK
 62
     7
100
AcDbVertex
100
AcDb2dVertex
 10
8.38
 20
8.947
 30
0.0
 42
-0.057
  0
VERTEX
  5
4E3
100
AcDbEntity
  8
BLACK
 62
     7
100
AcDbVertex
100
AcDb2dVertex
 10
8.187
 20
9.027
 30
0.0
  0
VERTEX
  5
4E4
100
AcDbEntity
  8
BLACK
 62
     7
100
AcDbVertex
100
AcDb2dVertex
 10
8.11
 20
9.072
 30
0.0
  0
VERTEX
  5
4E5
100
AcDbEntity
  8
BLACK
 62
     7
100
AcDbVertex
100
AcDb2dVertex
 10
8.042
 20
9.114
 30
0.0
 42
0.08
  0
VERTEX
  5
4E6
100
AcDbEntity
  8
BLACK
 62
     7
100
AcDbVertex
100
AcDb2dVertex
 10
7.923
 20
9.169
 30
0.0
 42
0.185
  0
VERTEX
  5
4E7
100
AcDbEntity
  8
BLACK
 62
     7
100
AcDbVertex
100
AcDb2dVertex
 10
7.804
 20
9.152
 30
0.0
 42
0.031
  0
VERTEX
  5
4E8
100
AcDbEntity
  8
BLACK
 62
     7
100
AcDbVertex
100
AcDb2dVertex
 10
7.746
 20
9.116
 30
0.0
  0
VERTEX
  5
4E9
100
AcDbEntity
  8
BLACK
 62
     7
100
AcDbVertex
100
AcDb2dVertex
 10
7.685
 20
9.074
 30
0.0
 42
-0.116
  0
VERTEX
  5
4EA
100
AcDbEntity
  8
BLACK
 62
     7
100
AcDbVertex
100
AcDb2dVertex
 10
7.4
 20
8.984
 30
0.0
 42
-0.048
  0
VERTEX
  5
4EB
100
AcDbEntity
  8
BLACK
 62
     7
100
AcDbVertex
100
AcDb2dVertex
 10
7.055
 20
8.988
 30
0.0
 42
-0.006
  0
VERTEX
  5
4EC
100
AcDbEntity
  8
BLACK
 62
     7
100
AcDbVertex
100
AcDb2dVertex
 10
6.677
 20
9.031
 30
0.0
 42
0.028
  0
VERTEX
  5
4ED
100
AcDbEntity
  8
BLACK
 62
     7
100
AcDbVertex
100
AcDb2dVertex
 10
6.297
 20
9.058
 30
0.0
 42
0.058
  0
VERTEX
  5
4EE
100
AcDbEntity
  8
BLACK
 62
     7
100
AcDbVertex
100
AcDb2dVertex
 10
5.857
 20
8.998
 30
0.0
 42
0.06
  0
VERTEX
  5
4EF
100
AcDbEntity
  8
BLACK
 62
     7
100
AcDbVertex
100
AcDb2dVertex
 10
5.413
 20
8.836
 30
0.0
 42
0.142
  0
VERTEX
  5
4F0
100
AcDbEntity
  8
BLACK
 62
     7
100
AcDbVertex
100
AcDb2dVertex
 10
5.335
 20
8.769
 30
0.0
 42
0.076
  0
VERTEX
  5
4F1
100
AcDbEntity
  8
BLACK
 62
     7
100
AcDbVertex
100
AcDb2dVertex
 10
5.296
 20
8.655
 30
0.0
 42
0.034
  0
VERTEX
  5
4F2
100
AcDbEntity
  8
BLACK
 62
     7
100
AcDbVertex
100
AcDb2dVertex
 10
5.287
 20
8.605
 30
0.0
 42
0.046
  0
VERTEX
  5
4F3
100
AcDbEntity
  8
BLACK
 62
     7
100
AcDbVertex
100
AcDb2dVertex
 10
5.287
 20
8.589
 30
0.0
 42
0.094
  0
VERTEX
  5
4F4
100
AcDbEntity
  8
BLACK
 62
     7
100
AcDbVertex
100
AcDb2dVertex
 10
5.29
 20
8.578
 30
0.0
 42
0.15
  0
VERTEX
  5
4F5
100
AcDbEntity
  8
BLACK
 62
     7
100
AcDbVertex
100
AcDb2dVertex
 10
5.296
 20
8.572
 30
0.0
 42
0.115
  0
VERTEX
  5
4F6
100
AcDbEntity
  8
BLACK
 62
     7
100
AcDbVertex
100
AcDb2dVertex
 10
5.305
 20
8.57
 30
0.0
 42
0.078
  0
VERTEX
  5
4F7
100
AcDbEntity
  8
BLACK
 62
     7
100
AcDbVertex
100
AcDb2dVertex
 10
5.334
 20
8.575
 30
0.0
  0
VERTEX
  5
4F8
100
AcDbEntity
  8
BLACK
 62
     7
100
AcDbVertex
100
AcDb2dVertex
 10
5.436
 20
8.608
 30
0.0
 42
-0.045
  0
VERTEX
  5
4F9
100
AcDbEntity
  8
BLACK
 62
     7
100
AcDbVertex
100
AcDb2dVertex
 10
5.602
 20
8.641
 30
0.0
 42
-0.076
  0
VERTEX
  5
4FA
100
AcDbEntity
  8
BLACK
 62
     7
100
AcDbVertex
100
AcDb2dVertex
 10
5.671
 20
8.639
 30
0.0
 42
-0.118
  0
VERTEX
  5
4FB
100
AcDbEntity
  8
BLACK
 62
     7
100
AcDbVertex
100
AcDb2dVertex
 10
5.72
 20
8.618
 30
0.0
 42
-0.169
  0
VERTEX
  5
4FC
100
AcDbEntity
  8
BLACK
 62
     7
100
AcDbVertex
100
AcDb2dVertex
 10
5.745
 20
8.581
 30
0.0
 42
-0.146
  0
VERTEX
  5
4FD
100
AcDbEntity
  8
BLACK
 62
     7
100
AcDbVertex
100
AcDb2dVertex
 10
5.741
 20
8.53
 30
0.0
 42
-0.165
  0
VERTEX
  5
4FE
100
AcDbEntity
  8
BLACK
 62
     7
100
AcDbVertex
100
AcDb2dVertex
 10
5.687
 20
8.46
 30
0.0
 42
-0.094
  0
VERTEX
  5
4FF
100
AcDbEntity
  8
BLACK
 62
     7
100
AcDbVertex
100
AcDb2dVertex
 10
5.598
 20
8.424
 30
0.0
 42
-0.031
  0
VERTEX
  5
500
100
AcDbEntity
  8
BLACK
 62
     7
100
AcDbVertex
100
AcDb2dVertex
 10
5.484
 20
8.407
 30
0.0
  0
VERTEX
  5
501
100
AcDbEntity
  8
BLACK
 62
     7
100
AcDbVertex
100
AcDb2dVertex
 10
5.355
 20
8.395
 30
0.0
 42
0.04
  0
VERTEX
  5
502
100
AcDbEntity
  8
BLACK
 62
     7
100
AcDbVertex
100
AcDb2dVertex
 10
5.339
 20
8.392
 30
0.0
 42
0.15
  0
VERTEX
  5
503
100
AcDbEntity
  8
BLACK
 62
     7
100
AcDbVertex
100
AcDb2dVertex
 10
5.33
 20
8.387
 30
0.0
 42
0.15
  0
VERTEX
  5
504
100
AcDbEntity
  8
BLACK
 62
     7
100
AcDbVertex
100
AcDb2dVertex
 10
5.326
 20
8.377
 30
0.0
 42
0.04
  0
VERTEX
  5
505
100
AcDbEntity
  8
BLACK
 62
     7
100
AcDbVertex
100
AcDb2dVertex
 10
5.326
 20
8.36
 30
0.0
 42
0.055
  0
VERTEX
  5
506
100
AcDbEntity
  8
BLACK
 62
     7
100
AcDbVertex
100
AcDb2dVertex
 10
5.343
 20
8.246
 30
0.0
 42
0.124
  0
VERTEX
  5
507
100
AcDbEntity
  8
BLACK
 62
     7
100
AcDbVertex
100
AcDb2dVertex
 10
5.378
 20
8.178
 30
0.0
 42
0.156
  0
VERTEX
  5
508
100
AcDbEntity
  8
BLACK
 62
     7
100
AcDbVertex
100
AcDb2dVertex
 10
5.436
 20
8.148
 30
0.0
 42
0.079
  0
VERTEX
  5
509
100
AcDbEntity
  8
BLACK
 62
     7
100
AcDbVertex
100
AcDb2dVertex
 10
5.518
 20
8.148
 30
0.0
 42
0.027
  0
VERTEX
  5
50A
100
AcDbEntity
  8
BLACK
 62
     7
100
AcDbVertex
100
AcDb2dVertex
 10
5.625
 20
8.169
 30
0.0
  0
VERTEX
  5
50B
100
AcDbEntity
  8
BLACK
 62
     7
100
AcDbVertex
100
AcDb2dVertex
 10
5.762
 20
8.204
 30
0.0
 42
-0.026
  0
VERTEX
  5
50C
100
AcDbEntity
  8
BLACK
 62
     7
100
AcDbVertex
100
AcDb2dVertex
 10
6.13
 20
8.28
 30
0.0
 42
-0.079
  0
VERTEX
  5
50D
100
AcDbEntity
  8
BLACK
 62
     7
100
AcDbVertex
100
AcDb2dVertex
 10
6.484
 20
8.269
 30
0.0
 42
-0.035
  0
VERTEX
  5
50E
100
AcDbEntity
  8
BLACK
 62
     7
100
AcDbVertex
100
AcDb2dVertex
 10
6.876
 20
8.167
 30
0.0
 42
-0.006
  0
VERTEX
  5
50F
100
AcDbEntity
  8
BLACK
 62
     7
100
AcDbVertex
100
AcDb2dVertex
 10
7.302
 20
8.021
 30
0.0
 42
0.017
  0
VERTEX
  5
510
100
AcDbEntity
  8
BLACK
 62
     7
100
AcDbVertex
100
AcDb2dVertex
 10
7.755
 20
7.877
 30
0.0
 42
0.023
  0
VERTEX
  5
511
100
AcDbEntity
  8
BLACK
 62
     7
100
AcDbVertex
100
AcDb2dVertex
 10
8.061
 20
7.812
 30
0.0
 42
0.013
  0
VERTEX
  5
512
100
AcDbEntity
  8
BLACK
 62
     7
100
AcDbVertex
100
AcDb2dVertex
 10
8.45
 20
7.756
 30
0.0
 42
0.037
  0
VERTEX
  5
513
100
AcDbEntity
  8
BLACK
 62
     7
100
AcDbVertex
100
AcDb2dVertex
 10
10.32
 20
7.683
 30
0.0
 42
0.016
  0
VERTEX
  5
514
100
AcDbEntity
  8
BLACK
 62
     7
100
AcDbVertex
100
AcDb2dVertex
 10
10.734
 20
7.712
 30
0.0
 42
0.028
  0
VERTEX
  5
515
100
AcDbEntity
  8
BLACK
 62
     7
100
AcDbVertex
100
AcDb2dVertex
 10
11.076
 20
7.766
 30
0.0
 42
0.014
  0
VERTEX
  5
516
100
AcDbEntity
  8
BLACK
 62
     7
100
AcDbVertex
100
AcDb2dVertex
 10
11.504
 20
7.882
 30
0.0
 42
0.04
  0
VERTEX
  5
517
100
AcDbEntity
  8
BLACK
 62
     7
100
AcDbVertex
100
AcDb2dVertex
 10
11.52
 20
7.888
 30
0.0
 42
0.146
  0
VERTEX
  5
518
100
AcDbEntity
  8
BLACK
 62
     7
100
AcDbVertex
100
AcDb2dVertex
 10
11.528
 20
7.895
 30
0.0
 42
0.146
  0
VERTEX
  5
519
100
AcDbEntity
  8
BLACK
 62
     7
100
AcDbVertex
100
AcDb2dVertex
 10
11.53
 20
7.905
 30
0.0
 42
0.04
  0
VERTEX
  5
51A
100
AcDbEntity
  8
BLACK
 62
     7
100
AcDbVertex
100
AcDb2dVertex
 10
11.528
 20
7.922
 30
0.0
  0
SEQEND
  5
51B
100
AcDbEntity
  8
BLACK
 62
     7
  0
POLYLINE
  5
51C
100
AcDbEntity
  8
BLACK
 62
     7
100
AcDb2dPolyline
 66
     1
 10
0.0
 20
0.0
 30
0.0
 70
     1
  0
VERTEX
  5
51D
100
AcDbEntity
  8
BLACK
 62
     7
100
AcDbVertex
100
AcDb2dVertex
 10
2.129
 20
9.466
 30
0.0
  0
VERTEX
  5
51E
100
AcDbEntity
  8
BLACK
 62
     7
100
AcDbVertex
100
AcDb2dVertex
 10
2.129
 20
9.472
 30
0.0
 42
0.073
  0
VERTEX
  5
51F
100
AcDbEntity
  8
BLACK
 62
     7
100
AcDbVertex
100
AcDb2dVertex
 10
2.129
 20
9.473
 30
0.0
 42
0.131
  0
VERTEX
  5
520
100
AcDbEntity
  8
BLACK
 62
     7
100
AcDbVertex
100
AcDb2dVertex
 10
2.128
 20
9.473
 30
0.0
 42
0.101
  0
VERTEX
  5
521
100
AcDbEntity
  8
BLACK
 62
     7
100
AcDbVertex
100
AcDb2dVertex
 10
2.128
 20
9.474
 30
0.0
 42
0.049
  0
VERTEX
  5
522
100
AcDbEntity
  8
BLACK
 62
     7
100
AcDbVertex
100
AcDb2dVertex
 10
2.126
 20
9.474
 30
0.0
 42
0.032
  0
VERTEX
  5
523
100
AcDbEntity
  8
BLACK
 62
     7
100
AcDbVertex
100
AcDb2dVertex
 10
2.111
 20
9.475
 30
0.0
  0
VERTEX
  5
524
100
AcDbEntity
  8
BLACK
 62
     7
100
AcDbVertex
100
AcDb2dVertex
 10
2.073
 20
9.475
 30
0.0
 42
0.045
  0
VERTEX
  5
525
100
AcDbEntity
  8
BLACK
 62
     7
100
AcDbVertex
100
AcDb2dVertex
 10
2.059
 20
9.474
 30
0.0
 42
0.176
  0
VERTEX
  5
526
100
AcDbEntity
  8
BLACK
 62
     7
100
AcDbVertex
100
AcDb2dVertex
 10
2.05
 20
9.47
 30
0.0
 42
0.15
  0
VERTEX
  5
527
100
AcDbEntity
  8
BLACK
 62
     7
100
AcDbVertex
100
AcDb2dVertex
 10
2.047
 20
9.46
 30
0.0
 42
0.036
  0
VERTEX
  5
528
100
AcDbEntity
  8
BLACK
 62
     7
100
AcDbVertex
100
AcDb2dVertex
 10
2.047
 20
9.444
 30
0.0
 42
0.101
  0
VERTEX
  5
529
100
AcDbEntity
  8
BLACK
 62
     7
100
AcDbVertex
100
AcDb2dVertex
 10
2.11
 20
9.169
 30
0.0
 42
0.04
  0
VERTEX
  5
52A
100
AcDbEntity
  8
BLACK
 62
     7
100
AcDbVertex
100
AcDb2dVertex
 10
2.181
 20
9.045
 30
0.0
 42
0.021
  0
VERTEX
  5
52B
100
AcDbEntity
  8
BLACK
 62
     7
100
AcDbVertex
100
AcDb2dVertex
 10
2.282
 20
8.911
 30
0.0
 42
0.068
  0
VERTEX
  5
52C
100
AcDbEntity
  8
BLACK
 62
     7
100
AcDbVertex
100
AcDb2dVertex
 10
2.442
 20
8.753
 30
0.0
 42
0.064
  0
VERTEX
  5
52D
100
AcDbEntity
  8
BLACK
 62
     7
100
AcDbVertex
100
AcDb2dVertex
 10
2.603
 20
8.668
 30
0.0
  0
VERTEX
  5
52E
100
AcDbEntity
  8
BLACK
 62
     7
100
AcDbVertex
100
AcDb2dVertex
 10
2.801
 20
8.596
 30
0.0
 42
-0.029
  0
VERTEX
  5
52F
100
AcDbEntity
  8
BLACK
 62
     7
100
AcDbVertex
100
AcDb2dVertex
 10
3.074
 20
8.475
 30
0.0
 42
-0.038
  0
VERTEX
  5
530
100
AcDbEntity
  8
BLACK
 62
     7
100
AcDbVertex
100
AcDb2dVertex
 10
3.24
 20
8.376
 30
0.0
 42
-0.065
  0
VERTEX
  5
531
100
AcDbEntity
  8
BLACK
 62
     7
100
AcDbVertex
100
AcDb2dVertex
 10
3.352
 20
8.272
 30
0.0
 42
-0.052
  0
VERTEX
  5
532
100
AcDbEntity
  8
BLACK
 62
     7
100
AcDbVertex
100
AcDb2dVertex
 10
3.436
 20
8.141
 30
0.0
 42
-0.018
  0
VERTEX
  5
533
100
AcDbEntity
  8
BLACK
 62
     7
100
AcDbVertex
100
AcDb2dVertex
 10
3.52
 20
7.961
 30
0.0
 42
0.037
  0
VERTEX
  5
534
100
AcDbEntity
  8
BLACK
 62
     7
100
AcDbVertex
100
AcDb2dVertex
 10
3.527
 20
7.946
 30
0.0
 42
0.12
  0
VERTEX
  5
535
100
AcDbEntity
  8
BLACK
 62
     7
100
AcDbVertex
100
AcDb2dVertex
 10
3.535
 20
7.938
 30
0.0
 42
0.12
  0
VERTEX
  5
536
100
AcDbEntity
  8
BLACK
 62
     7
100
AcDbVertex
100
AcDb2dVertex
 10
3.546
 20
7.935
 30
0.0
 42
0.037
  0
VERTEX
  5
537
100
AcDbEntity
  8
BLACK
 62
     7
100
AcDbVertex
100
AcDb2dVertex
 10
3.563
 20
7.935
 30
0.0
  0
VERTEX
  5
538
100
AcDbEntity
  8
BLACK
 62
     7
100
AcDbVertex
100
AcDb2dVertex
 10
3.668
 20
7.944
 30
0.0
 42
0.04
  0
VERTEX
  5
539
100
AcDbEntity
  8
BLACK
 62
     7
100
AcDbVertex
100
AcDb2dVertex
 10
3.684
 20
7.946
 30
0.0
 42
0.164
  0
VERTEX
  5
53A
100
AcDbEntity
  8
BLACK
 62
     7
100
AcDbVertex
100
AcDb2dVertex
 10
3.693
 20
7.951
 30
0.0
 42
0.164
  0
VERTEX
  5
53B
100
AcDbEntity
  8
BLACK
 62
     7
100
AcDbVertex
100
AcDb2dVertex
 10
3.696
 20
7.961
 30
0.0
 42
0.04
  0
VERTEX
  5
53C
100
AcDbEntity
  8
BLACK
 62
     7
100
AcDbVertex
100
AcDb2dVertex
 10
3.695
 20
7.978
 30
0.0
 42
0.008
  0
VERTEX
  5
53D
100
AcDbEntity
  8
BLACK
 62
     7
100
AcDbVertex
100
AcDb2dVertex
 10
3.661
 20
8.158
 30
0.0
 42
-0.03
  0
VERTEX
  5
53E
100
AcDbEntity
  8
BLACK
 62
     7
100
AcDbVertex
100
AcDb2dVertex
 10
3.65
 20
8.24
 30
0.0
 42
-0.042
  0
VERTEX
  5
53F
100
AcDbEntity
  8
BLACK
 62
     7
100
AcDbVertex
100
AcDb2dVertex
 10
3.651
 20
8.272
 30
0.0
 42
-0.097
  0
VERTEX
  5
540
100
AcDbEntity
  8
BLACK
 62
     7
100
AcDbVertex
100
AcDb2dVertex
 10
3.657
 20
8.294
 30
0.0
 42
-0.125
  0
VERTEX
  5
541
100
AcDbEntity
  8
BLACK
 62
     7
100
AcDbVertex
100
AcDb2dVertex
 10
3.675
 20
8.312
 30
0.0
 42
-0.065
  0
VERTEX
  5
542
100
AcDbEntity
  8
BLACK
 62
     7
100
AcDbVertex
100
AcDb2dVertex
 10
3.7
 20
8.323
 30
0.0
 42
0.016
  0
VERTEX
  5
543
100
AcDbEntity
  8
BLACK
 62
     7
100
AcDbVertex
100
AcDb2dVertex
 10
3.753
 20
8.338
 30
0.0
 42
-0.107
  0
VERTEX
  5
544
100
AcDbEntity
  8
BLACK
 62
     7
100
AcDbVertex
100
AcDb2dVertex
 10
3.813
 20
8.351
 30
0.0
  0
VERTEX
  5
545
100
AcDbEntity
  8
BLACK
 62
     7
100
AcDbVertex
100
AcDb2dVertex
 10
4.029
 20
8.364
 30
0.0
 42
-0.047
  0
VERTEX
  5
546
100
AcDbEntity
  8
BLACK
 62
     7
100
AcDbVertex
100
AcDb2dVertex
 10
4.044
 20
8.364
 30
0.0
 42
-0.165
  0
VERTEX
  5
547
100
AcDbEntity
  8
BLACK
 62
     7
100
AcDbVertex
100
AcDb2dVertex
 10
4.053
 20
8.36
 30
0.0
 42
-0.141
  0
VERTEX
  5
548
100
AcDbEntity
  8
BLACK
 62
     7
100
AcDbVertex
100
AcDb2dVertex
 10
4.057
 20
8.351
 30
0.0
 42
-0.037
  0
VERTEX
  5
549
100
AcDbEntity
  8
BLACK
 62
     7
100
AcDbVertex
100
AcDb2dVertex
 10
4.059
 20
8.334
 30
0.0
  0
VERTEX
  5
54A
100
AcDbEntity
  8
BLACK
 62
     7
100
AcDbVertex
100
AcDb2dVertex
 10
4.085
 20
8.02
 30
0.0
 42
0.032
  0
VERTEX
  5
54B
100
AcDbEntity
  8
BLACK
 62
     7
100
AcDbVertex
100
AcDb2dVertex
 10
4.087
 20
8.003
 30
0.0
 42
0.135
  0
VERTEX
  5
54C
100
AcDbEntity
  8
BLACK
 62
     7
100
AcDbVertex
100
AcDb2dVertex
 10
4.091
 20
7.994
 30
0.0
 42
0.181
  0
VERTEX
  5
54D
100
AcDbEntity
  8
BLACK
 62
     7
100
AcDbVertex
100
AcDb2dVertex
 10
4.099
 20
7.99
 30
0.0
 42
0.05
  0
VERTEX
  5
54E
100
AcDbEntity
  8
BLACK
 62
     7
100
AcDbVertex
100
AcDb2dVertex
 10
4.113
 20
7.991
 30
0.0
  0
VERTEX
  5
54F
100
AcDbEntity
  8
BLACK
 62
     7
100
AcDbVertex
100
AcDb2dVertex
 10
4.21
 20
7.999
 30
0.0
 42
0.036
  0
VERTEX
  5
550
100
AcDbEntity
  8
BLACK
 62
     7
100
AcDbVertex
100
AcDb2dVertex
 10
4.226
 20
8.002
 30
0.0
 42
0.119
  0
VERTEX
  5
551
100
AcDbEntity
  8
BLACK
 62
     7
100
AcDbVertex
100
AcDb2dVertex
 10
4.237
 20
8.007
 30
0.0
 42
0.119
  0
VERTEX
  5
552
100
AcDbEntity
  8
BLACK
 62
     7
100
AcDbVertex
100
AcDb2dVertex
 10
4.243
 20
8.016
 30
0.0
 42
0.036
  0
VERTEX
  5
553
100
AcDbEntity
  8
BLACK
 62
     7
100
AcDbVertex
100
AcDb2dVertex
 10
4.248
 20
8.033
 30
0.0
 42
-0.015
  0
VERTEX
  5
554
100
AcDbEntity
  8
BLACK
 62
     7
100
AcDbVertex
100
AcDb2dVertex
 10
4.315
 20
8.282
 30
0.0
 42
-0.072
  0
VERTEX
  5
555
100
AcDbEntity
  8
BLACK
 62
     7
100
AcDbVertex
100
AcDb2dVertex
 10
4.393
 20
8.455
 30
0.0
 42
-0.05
  0
VERTEX
  5
556
100
AcDbEntity
  8
BLACK
 62
     7
100
AcDbVertex
100
AcDb2dVertex
 10
4.512
 20
8.591
 30
0.0
 42
-0.018
  0
VERTEX
  5
557
100
AcDbEntity
  8
BLACK
 62
     7
100
AcDbVertex
100
AcDb2dVertex
 10
4.669
 20
8.73
 30
0.0
  0
VERTEX
  5
558
100
AcDbEntity
  8
BLACK
 62
     7
100
AcDbVertex
100
AcDb2dVertex
 10
4.838
 20
8.87
 30
0.0
 42
0.021
  0
VERTEX
  5
559
100
AcDbEntity
  8
BLACK
 62
     7
100
AcDbVertex
100
AcDb2dVertex
 10
4.991
 20
9.008
 30
0.0
 42
0.097
  0
VERTEX
  5
55A
100
AcDbEntity
  8
BLACK
 62
     7
100
AcDbVertex
100
AcDb2dVertex
 10
5.215
 20
9.347
 30
0.0
 42
0.083
  0
VERTEX
  5
55B
100
AcDbEntity
  8
BLACK
 62
     7
100
AcDbVertex
100
AcDb2dVertex
 10
5.31
 20
9.767
 30
0.0
 42
0.043
  0
VERTEX
  5
55C
100
AcDbEntity
  8
BLACK
 62
     7
100
AcDbVertex
100
AcDb2dVertex
 10
5.31
 20
9.832
 30
0.0
 42
0.111
  0
VERTEX
  5
55D
100
AcDbEntity
  8
BLACK
 62
     7
100
AcDbVertex
100
AcDb2dVertex
 10
5.296
 20
9.878
 30
0.0
 42
0.22
  0
VERTEX
  5
55E
100
AcDbEntity
  8
BLACK
 62
     7
100
AcDbVertex
100
AcDb2dVertex
 10
5.265
 20
9.899
 30
0.0
 42
0.13
  0
VERTEX
  5
55F
100
AcDbEntity
  8
BLACK
 62
     7
100
AcDbVertex
100
AcDb2dVertex
 10
5.213
 20
9.892
 30
0.0
 42
0.07
  0
VERTEX
  5
560
100
AcDbEntity
  8
BLACK
 62
     7
100
AcDbVertex
100
AcDb2dVertex
 10
5.134
 20
9.845
 30
0.0
 42
0.014
  0
VERTEX
  5
561
100
AcDbEntity
  8
BLACK
 62
     7
100
AcDbVertex
100
AcDb2dVertex
 10
4.949
 20
9.688
 30
0.0
 42
-0.028
  0
VERTEX
  5
562
100
AcDbEntity
  8
BLACK
 62
     7
100
AcDbVertex
100
AcDb2dVertex
 10
4.852
 20
9.614
 30
0.0
 42
-0.092
  0
VERTEX
  5
563
100
AcDbEntity
  8
BLACK
 62
     7
100
AcDbVertex
100
AcDb2dVertex
 10
4.657
 20
9.53
 30
0.0
 42
-0.026
  0
VERTEX
  5
564
100
AcDbEntity
  8
BLACK
 62
     7
100
AcDbVertex
100
AcDb2dVertex
 10
4.436
 20
9.498
 30
0.0
 42
0.064
  0
VERTEX
  5
565
100
AcDbEntity
  8
BLACK
 62
     7
100
AcDbVertex
100
AcDb2dVertex
 10
4.213
 20
9.447
 30
0.0
 42
0.051
  0
VERTEX
  5
566
100
AcDbEntity
  8
BLACK
 62
     7
100
AcDbVertex
100
AcDb2dVertex
 10
4.107
 20
9.386
 30
0.0
 42
0.016
  0
VERTEX
  5
567
100
AcDbEntity
  8
BLACK
 62
     7
100
AcDbVertex
100
AcDb2dVertex
 10
3.829
 20
9.174
 30
0.0
 42
-0.007
  0
VERTEX
  5
568
100
AcDbEntity
  8
BLACK
 62
     7
100
AcDbVertex
100
AcDb2dVertex
 10
3.691
 20
9.067
 30
0.0
 42
-0.038
  0
VERTEX
  5
569
100
AcDbEntity
  8
BLACK
 62
     7
100
AcDbVertex
100
AcDb2dVertex
 10
3.677
 20
9.057
 30
0.0
 42
-0.126
  0
VERTEX
  5
56A
100
AcDbEntity
  8
BLACK
 62
     7
100
AcDbVertex
100
AcDb2dVertex
 10
3.666
 20
9.054
 30
0.0
 42
-0.126
  0
VERTEX
  5
56B
100
AcDbEntity
  8
BLACK
 62
     7
100
AcDbVertex
100
AcDb2dVertex
 10
3.655
 20
9.057
 30
0.0
 42
-0.038
  0
VERTEX
  5
56C
100
AcDbEntity
  8
BLACK
 62
     7
100
AcDbVertex
100
AcDb2dVertex
 10
3.641
 20
9.067
 30
0.0
  0
VERTEX
  5
56D
100
AcDbEntity
  8
BLACK
 62
     7
100
AcDbVertex
100
AcDb2dVertex
 10
3.523
 20
9.169
 30
0.0
 42
0.077
  0
VERTEX
  5
56E
100
AcDbEntity
  8
BLACK
 62
     7
100
AcDbVertex
100
AcDb2dVertex
 10
3.393
 20
9.253
 30
0.0
 42
0.082
  0
VERTEX
  5
56F
100
AcDbEntity
  8
BLACK
 62
     7
100
AcDbVertex
100
AcDb2dVertex
 10
3.262
 20
9.275
 30
0.0
 42
0.021
  0
VERTEX
  5
570
100
AcDbEntity
  8
BLACK
 62
     7
100
AcDbVertex
100
AcDb2dVertex
 10
3.085
 20
9.273
 30
0.0
  0
VERTEX
  5
571
100
AcDbEntity
  8
BLACK
 62
     7
100
AcDbVertex
100
AcDb2dVertex
 10
2.888
 20
9.264
 30
0.0
 42
-0.027
  0
VERTEX
  5
572
100
AcDbEntity
  8
BLACK
 62
     7
100
AcDbVertex
100
AcDb2dVertex
 10
2.699
 20
9.266
 30
0.0
 42
-0.065
  0
VERTEX
  5
573
100
AcDbEntity
  8
BLACK
 62
     7
100
AcDbVertex
100
AcDb2dVertex
 10
2.442
 20
9.326
 30
0.0
 42
-0.025
  0
VERTEX
  5
574
100
AcDbEntity
  8
BLACK
 62
     7
100
AcDbVertex
100
AcDb2dVertex
 10
2.157
 20
9.448
 30
0.0
 42
-0.025
  0
VERTEX
  5
575
100
AcDbEntity
  8
BLACK
 62
     7
100
AcDbVertex
100
AcDb2dVertex
 10
2.134
 20
9.46
 30
0.0
 42
-0.095
  0
VERTEX
  5
576
100
AcDbEntity
  8
BLACK
 62
     7
100
AcDbVertex
100
AcDb2dVertex
 10
2.13
 20
9.463
 30
0.0
 42
-0.166
  0
VERTEX
  5
577
100
AcDbEntity
  8
BLACK
 62
     7
100
AcDbVertex
100
AcDb2dVertex
 10
2.129
 20
9.466
 30
0.0
  0
SEQEND
  5
578
100
AcDbEntity
  8
BLACK
 62
     7
  0
POLYLINE
  5
579
100
AcDbEntity
  8
BLACK
 62
     7
100
AcDb2dPolyline
 66
     1
 10
0.0
 20
0.0
 30
0.0
 70
     1
  0
VERTEX
  5
57A
100
AcDbEntity
  8
BLACK
 62
     7
100
AcDbVertex
100
AcDb2dVertex
 10
12.163
 20
8.827
 30
0.0
  0
VERTEX
  5
57B
100
AcDbEntity
  8
BLACK
 62
     7
100
AcDbVertex
100
AcDb2dVertex
 10
12.142
 20
8.833
 30
0.0
 42
-0.113
  0
VERTEX
  5
57C
100
AcDbEntity
  8
BLACK
 62
     7
100
AcDbVertex
100
AcDb2dVertex
 10
12.136
 20
8.835
 30
0.0
 42
-0.212
  0
VERTEX
  5
57D
100
AcDbEntity
  8
BLACK
 62
     7
100
AcDbVertex
100
AcDb2dVertex
 10
12.135
 20
8.84
 30
0.0
 42
-0.066
  0
VERTEX
  5
57E
100
AcDbEntity
  8
BLACK
 62
     7
100
AcDbVertex
100
AcDb2dVertex
 10
12.136
 20
8.85
 30
0.0
  0
VERTEX
  5
57F
100
AcDbEntity
  8
BLACK
 62
     7
100
AcDbVertex
100
AcDb2dVertex
 10
12.141
 20
8.866
 30
0.0
  0
VERTEX
  5
580
100
AcDbEntity
  8
BLACK
 62
     7
100
AcDbVertex
100
AcDb2dVertex
 10
12.289
 20
9.334
 30
0.0
 42
-0.051
  0
VERTEX
  5
581
100
AcDbEntity
  8
BLACK
 62
     7
100
AcDbVertex
100
AcDb2dVertex
 10
12.298
 20
9.357
 30
0.0
 42
-0.056
  0
VERTEX
  5
582
100
AcDbEntity
  8
BLACK
 62
     7
100
AcDbVertex
100
AcDb2dVertex
 10
12.303
 20
9.363
 30
0.0
 42
-0.124
  0
VERTEX
  5
583
100
AcDbEntity
  8
BLACK
 62
     7
100
AcDbVertex
100
AcDb2dVertex
 10
12.307
 20
9.367
 30
0.0
  0
VERTEX
  5
584
100
AcDbEntity
  8
BLACK
 62
     7
100
AcDbVertex
100
AcDb2dVertex
 10
12.326
 20
9.373
 30
0.0
 42
-0.059
  0
VERTEX
  5
585
100
AcDbEntity
  8
BLACK
 62
     7
100
AcDbVertex
100
AcDb2dVertex
 10
12.337
 20
9.376
 30
0.0
 42
-0.11
  0
VERTEX
  5
586
100
AcDbEntity
  8
BLACK
 62
     7
100
AcDbVertex
100
AcDb2dVertex
 10
12.338
 20
9.376
 30
0.0
 42
-0.177
  0
VERTEX
  5
587
100
AcDbEntity
  8
BLACK
 62
     7
100
AcDbVertex
100
AcDb2dVertex
 10
12.339
 20
9.375
 30
0.0
 42
-0.103
  0
VERTEX
  5
588
100
AcDbEntity
  8
BLACK
 62
     7
100
AcDbVertex
100
AcDb2dVertex
 10
12.339
 20
9.374
 30
0.0
 42
-0.037
  0
VERTEX
  5
589
100
AcDbEntity
  8
BLACK
 62
     7
100
AcDbVertex
100
AcDb2dVertex
 10
12.339
 20
9.373
 30
0.0
 42
0.1
  0
VERTEX
  5
58A
100
AcDbEntity
  8
BLACK
 62
     7
100
AcDbVertex
100
AcDb2dVertex
 10
12.339
 20
9.364
 30
0.0
 42
0.176
  0
VERTEX
  5
58B
100
AcDbEntity
  8
BLACK
 62
     7
100
AcDbVertex
100
AcDb2dVertex
 10
12.343
 20
9.36
 30
0.0
 42
0.04
  0
VERTEX
  5
58C
100
AcDbEntity
  8
BLACK
 62
     7
100
AcDbVertex
100
AcDb2dVertex
 10
12.345
 20
9.358
 30
0.0
 42
-0.023
  0
VERTEX
  5
58D
100
AcDbEntity
  8
BLACK
 62
     7
100
AcDbVertex
100
AcDb2dVertex
 10
12.357
 20
9.353
 30
0.0
 42
-0.169
  0
VERTEX
  5
58E
100
AcDbEntity
  8
BLACK
 62
     7
100
AcDbVertex
100
AcDb2dVertex
 10
12.364
 20
9.344
 30
0.0
 42
-0.088
  0
VERTEX
  5
58F
100
AcDbEntity
  8
BLACK
 62
     7
100
AcDbVertex
100
AcDb2dVertex
 10
12.366
 20
9.331
 30
0.0
 42
-0.052
  0
VERTEX
  5
590
100
AcDbEntity
  8
BLACK
 62
     7
100
AcDbVertex
100
AcDb2dVertex
 10
12.361
 20
9.296
 30
0.0
 42
-0.042
  0
VERTEX
  5
591
100
AcDbEntity
  8
BLACK
 62
     7
100
AcDbVertex
100
AcDb2dVertex
 10
12.286
 20
9.079
 30
0.0
  0
VERTEX
  5
592
100
AcDbEntity
  8
BLACK
 62
     7
100
AcDbVertex
100
AcDb2dVertex
 10
12.19
 20
8.851
 30
0.0
  0
VERTEX
  5
593
100
AcDbEntity
  8
BLACK
 62
     7
100
AcDbVertex
100
AcDb2dVertex
 10
12.183
 20
8.835
 30
0.0
 42
-0.09
  0
VERTEX
  5
594
100
AcDbEntity
  8
BLACK
 62
     7
100
AcDbVertex
100
AcDb2dVertex
 10
12.178
 20
8.827
 30
0.0
 42
-0.19
  0
VERTEX
  5
595
100
AcDbEntity
  8
BLACK
 62
     7
100
AcDbVertex
100
AcDb2dVertex
 10
12.172
 20
8.825
 30
0.0
 42
-0.074
  0
VERTEX
  5
596
100
AcDbEntity
  8
BLACK
 62
     7
100
AcDbVertex
100
AcDb2dVertex
 10
12.163
 20
8.827
 30
0.0
  0
SEQEND
  5
597
100
AcDbEntity
  8
BLACK
 62
     7
  0
POLYLINE
  5
598
100
AcDbEntity
  8
BLACK
 62
     7
100
AcDb2dPolyline
 66
     1
 10
0.0
 20
0.0
 30
0.0
 70
     1
  0
VERTEX
  5
599
100
AcDbEntity
  8
BLACK
 62
     7
100
AcDbVertex
100
AcDb2dVertex
 10
13.691
 20
8.056
 30
0.0
  0
VERTEX
  5
59A
100
AcDbEntity
  8
BLACK
 62
     7
100
AcDbVertex
100
AcDb2dVertex
 10
13.92
 20
8.045
 30
0.0
 42
0.042
  0
VERTEX
  5
59B
100
AcDbEntity
  8
BLACK
 62
     7
100
AcDbVertex
100
AcDb2dVertex
 10
13.949
 20
8.045
 30
0.0
 42
0.088
  0
VERTEX
  5
59C
100
AcDbEntity
  8
BLACK
 62
     7
100
AcDbVertex
100
AcDb2dVertex
 10
13.967
 20
8.052
 30
0.0
 42
0.153
  0
VERTEX
  5
59D
100
AcDbEntity
  8
BLACK
 62
     7
100
AcDbVertex
100
AcDb2dVertex
 10
14.011
 20
8.093
 30
0.0
 42
0.07
  0
VERTEX
  5
59E
100
AcDbEntity
  8
BLACK
 62
     7
100
AcDbVertex
100
AcDb2dVertex
 10
14.033
 20
8.154
 30
0.0
 42
-0.052
  0
VERTEX
  5
59F
100
AcDbEntity
  8
BLACK
 62
     7
100
AcDbVertex
100
AcDb2dVertex
 10
14.076
 20
8.302
 30
0.0
 42
-0.043
  0
VERTEX
  5
5A0
100
AcDbEntity
  8
BLACK
 62
     7
100
AcDbVertex
100
AcDb2dVertex
 10
14.08
 20
8.309
 30
0.0
 42
-0.069
  0
VERTEX
  5
5A1
100
AcDbEntity
  8
BLACK
 62
     7
100
AcDbVertex
100
AcDb2dVertex
 10
14.112
 20
8.341
 30
0.0
 42
-0.12
  0
VERTEX
  5
5A2
100
AcDbEntity
  8
BLACK
 62
     7
100
AcDbVertex
100
AcDb2dVertex
 10
14.141
 20
8.354
 30
0.0
 42
-0.275
  0
VERTEX
  5
5A3
100
AcDbEntity
  8
BLACK
 62
     7
100
AcDbVertex
100
AcDb2dVertex
 10
14.168
 20
8.344
 30
0.0
 42
0.029
  0
VERTEX
  5
5A4
100
AcDbEntity
  8
BLACK
 62
     7
100
AcDbVertex
100
AcDb2dVertex
 10
14.173
 20
8.336
 30
0.0
 42
0.102
  0
VERTEX
  5
5A5
100
AcDbEntity
  8
BLACK
 62
     7
100
AcDbVertex
100
AcDb2dVertex
 10
14.186
 20
8.329
 30
0.0
  0
VERTEX
  5
5A6
100
AcDbEntity
  8
BLACK
 62
     7
100
AcDbVertex
100
AcDb2dVertex
 10
14.201
 20
8.325
 30
0.0
 42
-0.083
  0
VERTEX
  5
5A7
100
AcDbEntity
  8
BLACK
 62
     7
100
AcDbVertex
100
AcDb2dVertex
 10
14.208
 20
8.322
 30
0.0
 42
-0.204
  0
VERTEX
  5
5A8
100
AcDbEntity
  8
BLACK
 62
     7
100
AcDbVertex
100
AcDb2dVertex
 10
14.212
 20
8.317
 30
0.0
 42
-0.085
  0
VERTEX
  5
5A9
100
AcDbEntity
  8
BLACK
 62
     7
100
AcDbVertex
100
AcDb2dVertex
 10
14.212
 20
8.308
 30
0.0
  0
VERTEX
  5
5AA
100
AcDbEntity
  8
BLACK
 62
     7
100
AcDbVertex
100
AcDb2dVertex
 10
14.21
 20
8.291
 30
0.0
  0
VERTEX
  5
5AB
100
AcDbEntity
  8
BLACK
 62
     7
100
AcDbVertex
100
AcDb2dVertex
 10
14.179
 20
8.116
 30
0.0
 42
0.039
  0
VERTEX
  5
5AC
100
AcDbEntity
  8
BLACK
 62
     7
100
AcDbVertex
100
AcDb2dVertex
 10
14.177
 20
8.1
 30
0.0
 42
0.069
  0
VERTEX
  5
5AD
100
AcDbEntity
  8
BLACK
 62
     7
100
AcDbVertex
100
AcDb2dVertex
 10
14.177
 20
8.095
 30
0.0
 42
0.137
  0
VERTEX
  5
5AE
100
AcDbEntity
  8
BLACK
 62
     7
100
AcDbVertex
100
AcDb2dVertex
 10
14.179
 20
8.092
 30
0.0
 42
0.137
  0
VERTEX
  5
5AF
100
AcDbEntity
  8
BLACK
 62
     7
100
AcDbVertex
100
AcDb2dVertex
 10
14.183
 20
8.09
 30
0.0
 42
0.069
  0
VERTEX
  5
5B0
100
AcDbEntity
  8
BLACK
 62
     7
100
AcDbVertex
100
AcDb2dVertex
 10
14.188
 20
8.09
 30
0.0
 42
0.039
  0
VERTEX
  5
5B1
100
AcDbEntity
  8
BLACK
 62
     7
100
AcDbVertex
100
AcDb2dVertex
 10
14.204
 20
8.093
 30
0.0
 42
0.022
  0
VERTEX
  5
5B2
100
AcDbEntity
  8
BLACK
 62
     7
100
AcDbVertex
100
AcDb2dVertex
 10
14.507
 20
8.169
 30
0.0
 42
0.035
  0
VERTEX
  5
5B3
100
AcDbEntity
  8
BLACK
 62
     7
100
AcDbVertex
100
AcDb2dVertex
 10
14.683
 20
8.253
 30
0.0
 42
0.02
  0
VERTEX
  5
5B4
100
AcDbEntity
  8
BLACK
 62
     7
100
AcDbVertex
100
AcDb2dVertex
 10
15.186
 20
8.549
 30
0.0
 42
0.016
  0
VERTEX
  5
5B5
100
AcDbEntity
  8
BLACK
 62
     7
100
AcDbVertex
100
AcDb2dVertex
 10
15.265
 20
8.604
 30
0.0
  0
VERTEX
  5
5B6
100
AcDbEntity
  8
BLACK
 62
     7
100
AcDbVertex
100
AcDb2dVertex
 10
15.295
 20
8.63
 30
0.0
 42
0.077
  0
VERTEX
  5
5B7
100
AcDbEntity
  8
BLACK
 62
     7
100
AcDbVertex
100
AcDb2dVertex
 10
15.299
 20
8.636
 30
0.0
 42
0.076
  0
VERTEX
  5
5B8
100
AcDbEntity
  8
BLACK
 62
     7
100
AcDbVertex
100
AcDb2dVertex
 10
15.31
 20
8.695
 30
0.0
 42
0.041
  0
VERTEX
  5
5B9
100
AcDbEntity
  8
BLACK
 62
     7
100
AcDbVertex
100
AcDb2dVertex
 10
15.311
 20
8.711
 30
0.0
 42
0.071
  0
VERTEX
  5
5BA
100
AcDbEntity
  8
BLACK
 62
     7
100
AcDbVertex
100
AcDb2dVertex
 10
15.309
 20
8.715
 30
0.0
 42
0.134
  0
VERTEX
  5
5BB
100
AcDbEntity
  8
BLACK
 62
     7
100
AcDbVertex
100
AcDb2dVertex
 10
15.307
 20
8.718
 30
0.0
 42
0.129
  0
VERTEX
  5
5BC
100
AcDbEntity
  8
BLACK
 62
     7
100
AcDbVertex
100
AcDb2dVertex
 10
15.304
 20
8.72
 30
0.0
 42
0.066
  0
VERTEX
  5
5BD
100
AcDbEntity
  8
BLACK
 62
     7
100
AcDbVertex
100
AcDb2dVertex
 10
15.299
 20
8.72
 30
0.0
 42
0.038
  0
VERTEX
  5
5BE
100
AcDbEntity
  8
BLACK
 62
     7
100
AcDbVertex
100
AcDb2dVertex
 10
15.282
 20
8.716
 30
0.0
  0
VERTEX
  5
5BF
100
AcDbEntity
  8
BLACK
 62
     7
100
AcDbVertex
100
AcDb2dVertex
 10
15.222
 20
8.697
 30
0.0
 42
-0.013
  0
VERTEX
  5
5C0
100
AcDbEntity
  8
BLACK
 62
     7
100
AcDbVertex
100
AcDb2dVertex
 10
15.039
 20
8.636
 30
0.0
 42
-0.107
  0
VERTEX
  5
5C1
100
AcDbEntity
  8
BLACK
 62
     7
100
AcDbVertex
100
AcDb2dVertex
 10
14.94
 20
8.627
 30
0.0
 42
-0.291
  0
VERTEX
  5
5C2
100
AcDbEntity
  8
BLACK
 62
     7
100
AcDbVertex
100
AcDb2dVertex
 10
14.882
 20
8.678
 30
0.0
 42
-0.274
  0
VERTEX
  5
5C3
100
AcDbEntity
  8
BLACK
 62
     7
100
AcDbVertex
100
AcDb2dVertex
 10
14.897
 20
8.741
 30
0.0
 42
-0.122
  0
VERTEX
  5
5C4
100
AcDbEntity
  8
BLACK
 62
     7
100
AcDbVertex
100
AcDb2dVertex
 10
14.979
 20
8.794
 30
0.0
 42
-0.04
  0
VERTEX
  5
5C5
100
AcDbEntity
  8
BLACK
 62
     7
100
AcDbVertex
100
AcDb2dVertex
 10
15.068
 20
8.819
 30
0.0
  0
VERTEX
  5
5C6
100
AcDbEntity
  8
BLACK
 62
     7
100
AcDbVertex
100
AcDb2dVertex
 10
15.152
 20
8.837
 30
0.0
 42
0.096
  0
VERTEX
  5
5C7
100
AcDbEntity
  8
BLACK
 62
     7
100
AcDbVertex
100
AcDb2dVertex
 10
15.212
 20
8.861
 30
0.0
 42
0.312
  0
VERTEX
  5
5C8
100
AcDbEntity
  8
BLACK
 62
     7
100
AcDbVertex
100
AcDb2dVertex
 10
15.229
 20
8.905
 30
0.0
 42
0.185
  0
VERTEX
  5
5C9
100
AcDbEntity
  8
BLACK
 62
     7
100
AcDbVertex
100
AcDb2dVertex
 10
15.201
 20
8.954
 30
0.0
 42
0.12
  0
VERTEX
  5
5CA
100
AcDbEntity
  8
BLACK
 62
     7
100
AcDbVertex
100
AcDb2dVertex
 10
15.144
 20
8.977
 30
0.0
 42
0.085
  0
VERTEX
  5
5CB
100
AcDbEntity
  8
BLACK
 62
     7
100
AcDbVertex
100
AcDb2dVertex
 10
14.979
 20
8.972
 30
0.0
 42
0.028
  0
VERTEX
  5
5CC
100
AcDbEntity
  8
BLACK
 62
     7
100
AcDbVertex
100
AcDb2dVertex
 10
14.801
 20
8.93
 30
0.0
  0
VERTEX
  5
5CD
100
AcDbEntity
  8
BLACK
 62
     7
100
AcDbVertex
100
AcDb2dVertex
 10
14.674
 20
8.891
 30
0.0
 42
0.04
  0
VERTEX
  5
5CE
100
AcDbEntity
  8
BLACK
 62
     7
100
AcDbVertex
100
AcDb2dVertex
 10
14.102
 20
8.657
 30
0.0
 42
0.045
  0
VERTEX
  5
5CF
100
AcDbEntity
  8
BLACK
 62
     7
100
AcDbVertex
100
AcDb2dVertex
 10
13.788
 20
8.466
 30
0.0
 42
0.048
  0
VERTEX
  5
5D0
100
AcDbEntity
  8
BLACK
 62
     7
100
AcDbVertex
100
AcDb2dVertex
 10
13.672
 20
8.36
 30
0.0
 42
0.09
  0
VERTEX
  5
5D1
100
AcDbEntity
  8
BLACK
 62
     7
100
AcDbVertex
100
AcDb2dVertex
 10
13.604
 20
8.252
 30
0.0
 42
0.159
  0
VERTEX
  5
5D2
100
AcDbEntity
  8
BLACK
 62
     7
100
AcDbVertex
100
AcDb2dVertex
 10
13.596
 20
8.164
 30
0.0
 42
0.101
  0
VERTEX
  5
5D3
100
AcDbEntity
  8
BLACK
 62
     7
100
AcDbVertex
100
AcDb2dVertex
 10
13.64
 20
8.083
 30
0.0
  0
VERTEX
  5
5D4
100
AcDbEntity
  8
BLACK
 62
     7
100
AcDbVertex
100
AcDb2dVertex
 10
13.652
 20
8.069
 30
0.0
 42
0.081
  0
VERTEX
  5
5D5
100
AcDbEntity
  8
BLACK
 62
     7
100
AcDbVertex
100
AcDb2dVertex
 10
13.661
 20
8.062
 30
0.0
 42
0.081
  0
VERTEX
  5
5D6
100
AcDbEntity
  8
BLACK
 62
     7
100
AcDbVertex
100
AcDb2dVertex
 10
13.673
 20
8.058
 30
0.0
  0
VERTEX
  5
5D7
100
AcDbEntity
  8
BLACK
 62
     7
100
AcDbVertex
100
AcDb2dVertex
 10
13.691
 20
8.056
 30
0.0
  0
SEQEND
  5
5D8
100
AcDbEntity
  8
BLACK
 62
     7
  0
POLYLINE
  5
5D9
100
AcDbEntity
  8
BLACK
 62
     7
100
AcDb2dPolyline
 66
     1
 10
0.0
 20
0.0
 30
0.0
 70
     1
  0
VERTEX
  5
5DA
100
AcDbEntity
  8
BLACK
 62
     7
100
AcDbVertex
100
AcDb2dVertex
 10
14.771
 20
8.608
 30
0.0
 42
-0.12
  0
VERTEX
  5
5DB
100
AcDbEntity
  8
BLACK
 62
     7
100
AcDbVertex
100
AcDb2dVertex
 10
14.77
 20
8.595
 30
0.0
 42
-0.058
  0
VERTEX
  5
5DC
100
AcDbEntity
  8
BLACK
 62
     7
100
AcDbVertex
100
AcDb2dVertex
 10
14.764
 20
8.581
 30
0.0
 42
-0.045
  0
VERTEX
  5
5DD
100
AcDbEntity
  8
BLACK
 62
     7
100
AcDbVertex
100
AcDb2dVertex
 10
14.743
 20
8.551
 30
0.0
 42
-0.1
  0
VERTEX
  5
5DE
100
AcDbEntity
  8
BLACK
 62
     7
100
AcDbVertex
100
AcDb2dVertex
 10
14.651
 20
8.477
 30
0.0
 42
-0.194
  0
VERTEX
  5
5DF
100
AcDbEntity
  8
BLACK
 62
     7
100
AcDbVertex
100
AcDb2dVertex
 10
14.544
 20
8.461
 30
0.0
 42
-0.248
  0
VERTEX
  5
5E0
100
AcDbEntity
  8
BLACK
 62
     7
100
AcDbVertex
100
AcDb2dVertex
 10
14.495
 20
8.504
 30
0.0
 42
-0.234
  0
VERTEX
  5
5E1
100
AcDbEntity
  8
BLACK
 62
     7
100
AcDbVertex
100
AcDb2dVertex
 10
14.507
 20
8.566
 30
0.0
 42
-0.083
  0
VERTEX
  5
5E2
100
AcDbEntity
  8
BLACK
 62
     7
100
AcDbVertex
100
AcDb2dVertex
 10
14.547
 20
8.604
 30
0.0
 42
-0.049
  0
VERTEX
  5
5E3
100
AcDbEntity
  8
BLACK
 62
     7
100
AcDbVertex
100
AcDb2dVertex
 10
14.605
 20
8.637
 30
0.0
 42
-0.061
  0
VERTEX
  5
5E4
100
AcDbEntity
  8
BLACK
 62
     7
100
AcDbVertex
100
AcDb2dVertex
 10
14.668
 20
8.658
 30
0.0
 42
-0.136
  0
VERTEX
  5
5E5
100
AcDbEntity
  8
BLACK
 62
     7
100
AcDbVertex
100
AcDb2dVertex
 10
14.72
 20
8.655
 30
0.0
 42
-0.086
  0
VERTEX
  5
5E6
100
AcDbEntity
  8
BLACK
 62
     7
100
AcDbVertex
100
AcDb2dVertex
 10
14.753
 20
8.634
 30
0.0
 42
-0.056
  0
VERTEX
  5
5E7
100
AcDbEntity
  8
BLACK
 62
     7
100
AcDbVertex
100
AcDb2dVertex
 10
14.765
 20
8.621
 30
0.0
 42
-0.095
  0
VERTEX
  5
5E8
100
AcDbEntity
  8
BLACK
 62
     7
100
AcDbVertex
100
AcDb2dVertex
 10
14.771
 20
8.608
 30
0.0
  0
SEQEND
  5
5E9
100
AcDbEntity
  8
BLACK
 62
     7
  0
POLYLINE
  5
5EA
100
AcDbEntity
  8
BLACK
 62
     7
100
AcDb2dPolyline
 66
     1
 10
0.0
 20
0.0
 30
0.0
 70
     1
  0
VERTEX
  5
5EB
100
AcDbEntity
  8
BLACK
 62
     7
100
AcDbVertex
100
AcDb2dVertex
 10
2.755
 20
6.057
 30
0.0
 42
0.072
  0
VERTEX
  5
5EC
100
AcDbEntity
  8
BLACK
 62
     7
100
AcDbVertex
100
AcDb2dVertex
 10
2.763
 20
6.047
 30
0.0
  0
VERTEX
  5
5ED
100
AcDbEntity
  8
BLACK
 62
     7
100
AcDbVertex
100
AcDb2dVertex
 10
2.776
 20
6.033
 30
0.0
  0
VERTEX
  5
5EE
100
AcDbEntity
  8
BLACK
 62
     7
100
AcDbVertex
100
AcDb2dVertex
 10
2.821
 20
5.999
 30
0.0
 42
0.049
  0
VERTEX
  5
5EF
100
AcDbEntity
  8
BLACK
 62
     7
100
AcDbVertex
100
AcDb2dVertex
 10
3.282
 20
5.752
 30
0.0
 42
-0.012
  0
VERTEX
  5
5F0
100
AcDbEntity
  8
BLACK
 62
     7
100
AcDbVertex
100
AcDb2dVertex
 10
3.855
 20
5.507
 30
0.0
 42
0.03
  0
VERTEX
  5
5F1
100
AcDbEntity
  8
BLACK
 62
     7
100
AcDbVertex
100
AcDb2dVertex
 10
4.366
 20
5.307
 30
0.0
 42
0.024
  0
VERTEX
  5
5F2
100
AcDbEntity
  8
BLACK
 62
     7
100
AcDbVertex
100
AcDb2dVertex
 10
4.694
 20
5.227
 30
0.0
 42
0.03
  0
VERTEX
  5
5F3
100
AcDbEntity
  8
BLACK
 62
     7
100
AcDbVertex
100
AcDb2dVertex
 10
5.866
 20
5.071
 30
0.0
 42
0.023
  0
VERTEX
  5
5F4
100
AcDbEntity
  8
BLACK
 62
     7
100
AcDbVertex
100
AcDb2dVertex
 10
7.437
 20
5.039
 30
0.0
  0
VERTEX
  5
5F5
100
AcDbEntity
  8
BLACK
 62
     7
100
AcDbVertex
100
AcDb2dVertex
 10
7.819
 20
5.049
 30
0.0
 42
-0.021
  0
VERTEX
  5
5F6
100
AcDbEntity
  8
BLACK
 62
     7
100
AcDbVertex
100
AcDb2dVertex
 10
8.506
 20
5.044
 30
0.0
 42
-0.037
  0
VERTEX
  5
5F7
100
AcDbEntity
  8
BLACK
 62
     7
100
AcDbVertex
100
AcDb2dVertex
 10
9.242
 20
4.946
 30
0.0
 42
-0.039
  0
VERTEX
  5
5F8
100
AcDbEntity
  8
BLACK
 62
     7
100
AcDbVertex
100
AcDb2dVertex
 10
9.547
 20
4.863
 30
0.0
  0
VERTEX
  5
5F9
100
AcDbEntity
  8
BLACK
 62
     7
100
AcDbVertex
100
AcDb2dVertex
 10
9.668
 20
4.807
 30
0.0
 42
0.013
  0
VERTEX
  5
5FA
100
AcDbEntity
  8
BLACK
 62
     7
100
AcDbVertex
100
AcDb2dVertex
 10
9.855
 20
4.721
 30
0.0
 42
0.045
  0
VERTEX
  5
5FB
100
AcDbEntity
  8
BLACK
 62
     7
100
AcDbVertex
100
AcDb2dVertex
 10
10.042
 20
4.658
 30
0.0
 42
0.068
  0
VERTEX
  5
5FC
100
AcDbEntity
  8
BLACK
 62
     7
100
AcDbVertex
100
AcDb2dVertex
 10
10.114
 20
4.651
 30
0.0
 42
0.182
  0
VERTEX
  5
5FD
100
AcDbEntity
  8
BLACK
 62
     7
100
AcDbVertex
100
AcDb2dVertex
 10
10.162
 20
4.669
 30
0.0
  0
VERTEX
  5
5FE
100
AcDbEntity
  8
BLACK
 62
     7
100
AcDbVertex
100
AcDb2dVertex
 10
10.181
 20
4.692
 30
0.0
 42
-0.083
  0
VERTEX
  5
5FF
100
AcDbEntity
  8
BLACK
 62
     7
100
AcDbVertex
100
AcDb2dVertex
 10
10.186
 20
4.696
 30
0.0
 42
-0.152
  0
VERTEX
  5
600
100
AcDbEntity
  8
BLACK
 62
     7
100
AcDbVertex
100
AcDb2dVertex
 10
10.194
 20
4.697
 30
0.0
 42
0.03
  0
VERTEX
  5
601
100
AcDbEntity
  8
BLACK
 62
     7
100
AcDbVertex
100
AcDb2dVertex
 10
10.2
 20
4.696
 30
0.0
 42
0.212
  0
VERTEX
  5
602
100
AcDbEntity
  8
BLACK
 62
     7
100
AcDbVertex
100
AcDb2dVertex
 10
10.207
 20
4.699
 30
0.0
 42
0.109
  0
VERTEX
  5
603
100
AcDbEntity
  8
BLACK
 62
     7
100
AcDbVertex
100
AcDb2dVertex
 10
10.212
 20
4.707
 30
0.0
 42
0.078
  0
VERTEX
  5
604
100
AcDbEntity
  8
BLACK
 62
     7
100
AcDbVertex
100
AcDb2dVertex
 10
10.215
 20
4.737
 30
0.0
 42
0.068
  0
VERTEX
  5
605
100
AcDbEntity
  8
BLACK
 62
     7
100
AcDbVertex
100
AcDb2dVertex
 10
10.2
 20
4.821
 30
0.0
 42
0.072
  0
VERTEX
  5
606
100
AcDbEntity
  8
BLACK
 62
     7
100
AcDbVertex
100
AcDb2dVertex
 10
10.181
 20
4.858
 30
0.0
 42
0.033
  0
VERTEX
  5
607
100
AcDbEntity
  8
BLACK
 62
     7
100
AcDbVertex
100
AcDb2dVertex
 10
10.146
 20
4.902
 30
0.0
 42
0.029
  0
VERTEX
  5
608
100
AcDbEntity
  8
BLACK
 62
     7
100
AcDbVertex
100
AcDb2dVertex
 10
10.033
 20
5.01
 30
0.0
 42
0.021
  0
VERTEX
  5
609
100
AcDbEntity
  8
BLACK
 62
     7
100
AcDbVertex
100
AcDb2dVertex
 10
9.706
 20
5.266
 30
0.0
 42
0.014
  0
VERTEX
  5
60A
100
AcDbEntity
  8
BLACK
 62
     7
100
AcDbVertex
100
AcDb2dVertex
 10
9.139
 20
5.654
 30
0.0
 42
0.029
  0
VERTEX
  5
60B
100
AcDbEntity
  8
BLACK
 62
     7
100
AcDbVertex
100
AcDb2dVertex
 10
8.589
 20
5.951
 30
0.0
 42
0.032
  0
VERTEX
  5
60C
100
AcDbEntity
  8
BLACK
 62
     7
100
AcDbVertex
100
AcDb2dVertex
 10
7.261
 20
6.474
 30
0.0
 42
0.025
  0
VERTEX
  5
60D
100
AcDbEntity
  8
BLACK
 62
     7
100
AcDbVertex
100
AcDb2dVertex
 10
6.7
 20
6.627
 30
0.0
 42
0.028
  0
VERTEX
  5
60E
100
AcDbEntity
  8
BLACK
 62
     7
100
AcDbVertex
100
AcDb2dVertex
 10
5.947
 20
6.728
 30
0.0
 42
0.024
  0
VERTEX
  5
60F
100
AcDbEntity
  8
BLACK
 62
     7
100
AcDbVertex
100
AcDb2dVertex
 10
4.913
 20
6.768
 30
0.0
 42
0.038
  0
VERTEX
  5
610
100
AcDbEntity
  8
BLACK
 62
     7
100
AcDbVertex
100
AcDb2dVertex
 10
3.841
 20
6.681
 30
0.0
 42
0.034
  0
VERTEX
  5
611
100
AcDbEntity
  8
BLACK
 62
     7
100
AcDbVertex
100
AcDb2dVertex
 10
3.368
 20
6.571
 30
0.0
 42
0.055
  0
VERTEX
  5
612
100
AcDbEntity
  8
BLACK
 62
     7
100
AcDbVertex
100
AcDb2dVertex
 10
2.976
 20
6.405
 30
0.0
 42
0.078
  0
VERTEX
  5
613
100
AcDbEntity
  8
BLACK
 62
     7
100
AcDbVertex
100
AcDb2dVertex
 10
2.879
 20
6.33
 30
0.0
 42
0.106
  0
VERTEX
  5
614
100
AcDbEntity
  8
BLACK
 62
     7
100
AcDbVertex
100
AcDb2dVertex
 10
2.842
 20
6.268
 30
0.0
 42
0.12
  0
VERTEX
  5
615
100
AcDbEntity
  8
BLACK
 62
     7
100
AcDbVertex
100
AcDb2dVertex
 10
2.839
 20
6.242
 30
0.0
 42
0.213
  0
VERTEX
  5
616
100
AcDbEntity
  8
BLACK
 62
     7
100
AcDbVertex
100
AcDb2dVertex
 10
2.851
 20
6.224
 30
0.0
 42
0.091
  0
VERTEX
  5
617
100
AcDbEntity
  8
BLACK
 62
     7
100
AcDbVertex
100
AcDb2dVertex
 10
2.875
 20
6.216
 30
0.0
 42
0.036
  0
VERTEX
  5
618
100
AcDbEntity
  8
BLACK
 62
     7
100
AcDbVertex
100
AcDb2dVertex
 10
2.909
 20
6.212
 30
0.0
  0
VERTEX
  5
619
100
AcDbEntity
  8
BLACK
 62
     7
100
AcDbVertex
100
AcDb2dVertex
 10
2.995
 20
6.213
 30
0.0
 42
-0.022
  0
VERTEX
  5
61A
100
AcDbEntity
  8
BLACK
 62
     7
100
AcDbVertex
100
AcDb2dVertex
 10
3.087
 20
6.212
 30
0.0
 42
-0.09
  0
VERTEX
  5
61B
100
AcDbEntity
  8
BLACK
 62
     7
100
AcDbVertex
100
AcDb2dVertex
 10
3.162
 20
6.196
 30
0.0
 42
-0.167
  0
VERTEX
  5
61C
100
AcDbEntity
  8
BLACK
 62
     7
100
AcDbVertex
100
AcDb2dVertex
 10
3.203
 20
6.155
 30
0.0
 42
-0.152
  0
VERTEX
  5
61D
100
AcDbEntity
  8
BLACK
 62
     7
100
AcDbVertex
100
AcDb2dVertex
 10
3.213
 20
6.099
 30
0.0
 42
-0.224
  0
VERTEX
  5
61E
100
AcDbEntity
  8
BLACK
 62
     7
100
AcDbVertex
100
AcDb2dVertex
 10
3.195
 20
6.069
 30
0.0
 42
-0.092
  0
VERTEX
  5
61F
100
AcDbEntity
  8
BLACK
 62
     7
100
AcDbVertex
100
AcDb2dVertex
 10
3.174
 20
6.061
 30
0.0
 42
-0.054
  0
VERTEX
  5
620
100
AcDbEntity
  8
BLACK
 62
     7
100
AcDbVertex
100
AcDb2dVertex
 10
3.143
 20
6.057
 30
0.0
 42
-0.016
  0
VERTEX
  5
621
100
AcDbEntity
  8
BLACK
 62
     7
100
AcDbVertex
100
AcDb2dVertex
 10
2.896
 20
6.076
 30
0.0
 42
0.037
  0
VERTEX
  5
622
100
AcDbEntity
  8
BLACK
 62
     7
100
AcDbVertex
100
AcDb2dVertex
 10
2.789
 20
6.079
 30
0.0
  0
VERTEX
  5
623
100
AcDbEntity
  8
BLACK
 62
     7
100
AcDbVertex
100
AcDb2dVertex
 10
2.772
 20
6.076
 30
0.0
 42
0.073
  0
VERTEX
  5
624
100
AcDbEntity
  8
BLACK
 62
     7
100
AcDbVertex
100
AcDb2dVertex
 10
2.76
 20
6.072
 30
0.0
 42
0.177
  0
VERTEX
  5
625
100
AcDbEntity
  8
BLACK
 62
     7
100
AcDbVertex
100
AcDb2dVertex
 10
2.754
 20
6.066
 30
0.0
 42
0.201
  0
VERTEX
  5
626
100
AcDbEntity
  8
BLACK
 62
     7
100
AcDbVertex
100
AcDb2dVertex
 10
2.755
 20
6.057
 30
0.0
  0
SEQEND
  5
627
100
AcDbEntity
  8
BLACK
 62
     7
  0
POLYLINE
  5
628
100
AcDbEntity
  8
BLACK
 62
     7
100
AcDb2dPolyline
 66
     1
 10
0.0
 20
0.0
 30
0.0
 70
     1
  0
VERTEX
  5
629
100
AcDbEntity
  8
BLACK
 62
     7
100
AcDbVertex
100
AcDb2dVertex
 10
9.826
 20
6.457
 30
0.0
  0
VERTEX
  5
62A
100
AcDbEntity
  8
BLACK
 62
     7
100
AcDbVertex
100
AcDb2dVertex
 10
9.826
 20
6.365
 30
0.0
 42
0.097
  0
VERTEX
  5
62B
100
AcDbEntity
  8
BLACK
 62
     7
100
AcDbVertex
100
AcDb2dVertex
 10
9.839
 20
6.28
 30
0.0
 42
0.095
  0
VERTEX
  5
62C
100
AcDbEntity
  8
BLACK
 62
     7
100
AcDbVertex
100
AcDb2dVertex
 10
9.879
 20
6.225
 30
0.0
  0
VERTEX
  5
62D
100
AcDbEntity
  8
BLACK
 62
     7
100
AcDbVertex
100
AcDb2dVertex
 10
9.929
 20
6.177
 30
0.0
 42
0.084
  0
VERTEX
  5
62E
100
AcDbEntity
  8
BLACK
 62
     7
100
AcDbVertex
100
AcDb2dVertex
 10
9.952
 20
6.158
 30
0.0
 42
0.084
  0
VERTEX
  5
62F
100
AcDbEntity
  8
BLACK
 62
     7
100
AcDbVertex
100
AcDb2dVertex
 10
9.981
 20
6.15
 30
0.0
  0
VERTEX
  5
630
100
AcDbEntity
  8
BLACK
 62
     7
100
AcDbVertex
100
AcDb2dVertex
 10
11.614
 20
5.923
 30
0.0
 42
-0.063
  0
VERTEX
  5
631
100
AcDbEntity
  8
BLACK
 62
     7
100
AcDbVertex
100
AcDb2dVertex
 10
11.675
 20
5.908
 30
0.0
 42
-0.112
  0
VERTEX
  5
632
100
AcDbEntity
  8
BLACK
 62
     7
100
AcDbVertex
100
AcDb2dVertex
 10
11.84
 20
5.817
 30
0.0
 42
-0.071
  0
VERTEX
  5
633
100
AcDbEntity
  8
BLACK
 62
     7
100
AcDbVertex
100
AcDb2dVertex
 10
11.949
 20
5.668
 30
0.0
 42
-0.059
  0
VERTEX
  5
634
100
AcDbEntity
  8
BLACK
 62
     7
100
AcDbVertex
100
AcDb2dVertex
 10
11.962
 20
5.64
 30
0.0
 42
-0.059
  0
VERTEX
  5
635
100
AcDbEntity
  8
BLACK
 62
     7
100
AcDbVertex
100
AcDb2dVertex
 10
11.967
 20
5.609
 30
0.0
  0
VERTEX
  5
636
100
AcDbEntity
  8
BLACK
 62
     7
100
AcDbVertex
100
AcDb2dVertex
 10
12.129
 20
3.171
 30
0.0
  0
VERTEX
  5
637
100
AcDbEntity
  8
BLACK
 62
     7
100
AcDbVertex
100
AcDb2dVertex
 10
12.131
 20
3.154
 30
0.0
 42
0.063
  0
VERTEX
  5
638
100
AcDbEntity
  8
BLACK
 62
     7
100
AcDbVertex
100
AcDb2dVertex
 10
12.133
 20
3.144
 30
0.0
 42
0.125
  0
VERTEX
  5
639
100
AcDbEntity
  8
BLACK
 62
     7
100
AcDbVertex
100
AcDb2dVertex
 10
12.137
 20
3.138
 30
0.0
 42
0.066
  0
VERTEX
  5
63A
100
AcDbEntity
  8
BLACK
 62
     7
100
AcDbVertex
100
AcDb2dVertex
 10
12.145
 20
3.134
 30
0.0
 42
0.049
  0
VERTEX
  5
63B
100
AcDbEntity
  8
BLACK
 62
     7
100
AcDbVertex
100
AcDb2dVertex
 10
12.159
 20
3.129
 30
0.0
  0
VERTEX
  5
63C
100
AcDbEntity
  8
BLACK
 62
     7
100
AcDbVertex
100
AcDb2dVertex
 10
12.173
 20
3.126
 30
0.0
  0
VERTEX
  5
63D
100
AcDbEntity
  8
BLACK
 62
     7
100
AcDbVertex
100
AcDb2dVertex
 10
12.227
 20
3.117
 30
0.0
 42
0.061
  0
VERTEX
  5
63E
100
AcDbEntity
  8
BLACK
 62
     7
100
AcDbVertex
100
AcDb2dVertex
 10
12.264
 20
3.117
 30
0.0
 42
0.151
  0
VERTEX
  5
63F
100
AcDbEntity
  8
BLACK
 62
     7
100
AcDbVertex
100
AcDb2dVertex
 10
12.288
 20
3.127
 30
0.0
 42
0.146
  0
VERTEX
  5
640
100
AcDbEntity
  8
BLACK
 62
     7
100
AcDbVertex
100
AcDb2dVertex
 10
12.301
 20
3.149
 30
0.0
 42
0.058
  0
VERTEX
  5
641
100
AcDbEntity
  8
BLACK
 62
     7
100
AcDbVertex
100
AcDb2dVertex
 10
12.306
 20
3.188
 30
0.0
  0
VERTEX
  5
642
100
AcDbEntity
  8
BLACK
 62
     7
100
AcDbVertex
100
AcDb2dVertex
 10
12.305
 20
3.244
 30
0.0
  0
VERTEX
  5
643
100
AcDbEntity
  8
BLACK
 62
     7
100
AcDbVertex
100
AcDb2dVertex
 10
12.299
 20
3.42
 30
0.0
 42
-0.041
  0
VERTEX
  5
644
100
AcDbEntity
  8
BLACK
 62
     7
100
AcDbVertex
100
AcDb2dVertex
 10
12.299
 20
3.437
 30
0.0
 42
-0.064
  0
VERTEX
  5
645
100
AcDbEntity
  8
BLACK
 62
     7
100
AcDbVertex
100
AcDb2dVertex
 10
12.301
 20
3.442
 30
0.0
 42
-0.107
  0
VERTEX
  5
646
100
AcDbEntity
  8
BLACK
 62
     7
100
AcDbVertex
100
AcDb2dVertex
 10
12.303
 20
3.446
 30
0.0
 42
-0.107
  0
VERTEX
  5
647
100
AcDbEntity
  8
BLACK
 62
     7
100
AcDbVertex
100
AcDb2dVertex
 10
12.307
 20
3.448
 30
0.0
 42
-0.063
  0
VERTEX
  5
648
100
AcDbEntity
  8
BLACK
 62
     7
100
AcDbVertex
100
AcDb2dVertex
 10
12.312
 20
3.449
 30
0.0
 42
-0.04
  0
VERTEX
  5
649
100
AcDbEntity
  8
BLACK
 62
     7
100
AcDbVertex
100
AcDb2dVertex
 10
12.329
 20
3.448
 30
0.0
  0
VERTEX
  5
64A
100
AcDbEntity
  8
BLACK
 62
     7
100
AcDbVertex
100
AcDb2dVertex
 10
12.38
 20
3.447
 30
0.0
 42
-0.058
  0
VERTEX
  5
64B
100
AcDbEntity
  8
BLACK
 62
     7
100
AcDbVertex
100
AcDb2dVertex
 10
12.404
 20
3.443
 30
0.0
 42
-0.119
  0
VERTEX
  5
64C
100
AcDbEntity
  8
BLACK
 62
     7
100
AcDbVertex
100
AcDb2dVertex
 10
12.423
 20
3.432
 30
0.0
 42
-0.124
  0
VERTEX
  5
64D
100
AcDbEntity
  8
BLACK
 62
     7
100
AcDbVertex
100
AcDb2dVertex
 10
12.443
 20
3.397
 30
0.0
 42
-0.061
  0
VERTEX
  5
64E
100
AcDbEntity
  8
BLACK
 62
     7
100
AcDbVertex
100
AcDb2dVertex
 10
12.451
 20
3.351
 30
0.0
 42
-0.026
  0
VERTEX
  5
64F
100
AcDbEntity
  8
BLACK
 62
     7
100
AcDbVertex
100
AcDb2dVertex
 10
12.451
 20
3.298
 30
0.0
  0
VERTEX
  5
650
100
AcDbEntity
  8
BLACK
 62
     7
100
AcDbVertex
100
AcDb2dVertex
 10
12.448
 20
3.242
 30
0.0
 42
0.056
  0
VERTEX
  5
651
100
AcDbEntity
  8
BLACK
 62
     7
100
AcDbVertex
100
AcDb2dVertex
 10
12.448
 20
3.145
 30
0.0
 42
0.122
  0
VERTEX
  5
652
100
AcDbEntity
  8
BLACK
 62
     7
100
AcDbVertex
100
AcDb2dVertex
 10
12.461
 20
3.113
 30
0.0
 42
0.209
  0
VERTEX
  5
653
100
AcDbEntity
  8
BLACK
 62
     7
100
AcDbVertex
100
AcDb2dVertex
 10
12.488
 20
3.098
 30
0.0
 42
0.057
  0
VERTEX
  5
654
100
AcDbEntity
  8
BLACK
 62
     7
100
AcDbVertex
100
AcDb2dVertex
 10
12.522
 20
3.1
 30
0.0
  0
VERTEX
  5
655
100
AcDbEntity
  8
BLACK
 62
     7
100
AcDbVertex
100
AcDb2dVertex
 10
12.559
 20
3.106
 30
0.0
 42
0.038
  0
VERTEX
  5
656
100
AcDbEntity
  8
BLACK
 62
     7
100
AcDbVertex
100
AcDb2dVertex
 10
12.576
 20
3.11
 30
0.0
 42
0.129
  0
VERTEX
  5
657
100
AcDbEntity
  8
BLACK
 62
     7
100
AcDbVertex
100
AcDb2dVertex
 10
12.585
 20
3.116
 30
0.0
 42
0.13
  0
VERTEX
  5
658
100
AcDbEntity
  8
BLACK
 62
     7
100
AcDbVertex
100
AcDb2dVertex
 10
12.59
 20
3.127
 30
0.0
 42
0.038
  0
VERTEX
  5
659
100
AcDbEntity
  8
BLACK
 62
     7
100
AcDbVertex
100
AcDb2dVertex
 10
12.591
 20
3.143
 30
0.0
  0
VERTEX
  5
65A
100
AcDbEntity
  8
BLACK
 62
     7
100
AcDbVertex
100
AcDb2dVertex
 10
12.699
 20
5.54
 30
0.0
 42
-0.108
  0
VERTEX
  5
65B
100
AcDbEntity
  8
BLACK
 62
     7
100
AcDbVertex
100
AcDb2dVertex
 10
12.712
 20
5.6
 30
0.0
  0
VERTEX
  5
65C
100
AcDbEntity
  8
BLACK
 62
     7
100
AcDbVertex
100
AcDb2dVertex
 10
12.743
 20
5.692
 30
0.0
 42
-0.072
  0
VERTEX
  5
65D
100
AcDbEntity
  8
BLACK
 62
     7
100
AcDbVertex
100
AcDb2dVertex
 10
12.784
 20
5.774
 30
0.0
 42
-0.052
  0
VERTEX
  5
65E
100
AcDbEntity
  8
BLACK
 62
     7
100
AcDbVertex
100
AcDb2dVertex
 10
12.819
 20
5.811
 30
0.0
  0
VERTEX
  5
65F
100
AcDbEntity
  8
BLACK
 62
     7
100
AcDbVertex
100
AcDb2dVertex
 10
12.857
 20
5.843
 30
0.0
 42
-0.061
  0
VERTEX
  5
660
100
AcDbEntity
  8
BLACK
 62
     7
100
AcDbVertex
100
AcDb2dVertex
 10
12.883
 20
5.861
 30
0.0
 42
-0.061
  0
VERTEX
  5
661
100
AcDbEntity
  8
BLACK
 62
     7
100
AcDbVertex
100
AcDb2dVertex
 10
12.912
 20
5.869
 30
0.0
  0
VERTEX
  5
662
100
AcDbEntity
  8
BLACK
 62
     7
100
AcDbVertex
100
AcDb2dVertex
 10
14.671
 20
6.245
 30
0.0
 42
0.073
  0
VERTEX
  5
663
100
AcDbEntity
  8
BLACK
 62
     7
100
AcDbVertex
100
AcDb2dVertex
 10
14.728
 20
6.264
 30
0.0
 42
0.094
  0
VERTEX
  5
664
100
AcDbEntity
  8
BLACK
 62
     7
100
AcDbVertex
100
AcDb2dVertex
 10
14.792
 20
6.306
 30
0.0
 42
0.131
  0
VERTEX
  5
665
100
AcDbEntity
  8
BLACK
 62
     7
100
AcDbVertex
100
AcDb2dVertex
 10
14.822
 20
6.36
 30
0.0
 42
0.063
  0
VERTEX
  5
666
100
AcDbEntity
  8
BLACK
 62
     7
100
AcDbVertex
100
AcDb2dVertex
 10
14.83
 20
6.436
 30
0.0
  0
VERTEX
  5
667
100
AcDbEntity
  8
BLACK
 62
     7
100
AcDbVertex
100
AcDb2dVertex
 10
14.827
 20
6.54
 30
0.0
 42
0.04
  0
VERTEX
  5
668
100
AcDbEntity
  8
BLACK
 62
     7
100
AcDbVertex
100
AcDb2dVertex
 10
14.826
 20
6.557
 30
0.0
 42
0.156
  0
VERTEX
  5
669
100
AcDbEntity
  8
BLACK
 62
     7
100
AcDbVertex
100
AcDb2dVertex
 10
14.821
 20
6.566
 30
0.0
 42
0.156
  0
VERTEX
  5
66A
100
AcDbEntity
  8
BLACK
 62
     7
100
AcDbVertex
100
AcDb2dVertex
 10
14.812
 20
6.57
 30
0.0
 42
0.04
  0
VERTEX
  5
66B
100
AcDbEntity
  8
BLACK
 62
     7
100
AcDbVertex
100
AcDb2dVertex
 10
14.795
 20
6.571
 30
0.0
  0
VERTEX
  5
66C
100
AcDbEntity
  8
BLACK
 62
     7
100
AcDbVertex
100
AcDb2dVertex
 10
9.856
 20
6.489
 30
0.0
 42
0.04
  0
VERTEX
  5
66D
100
AcDbEntity
  8
BLACK
 62
     7
100
AcDbVertex
100
AcDb2dVertex
 10
9.84
 20
6.487
 30
0.0
 42
0.16
  0
VERTEX
  5
66E
100
AcDbEntity
  8
BLACK
 62
     7
100
AcDbVertex
100
AcDb2dVertex
 10
9.831
 20
6.483
 30
0.0
 42
0.16
  0
VERTEX
  5
66F
100
AcDbEntity
  8
BLACK
 62
     7
100
AcDbVertex
100
AcDb2dVertex
 10
9.827
 20
6.474
 30
0.0
 42
0.04
  0
VERTEX
  5
670
100
AcDbEntity
  8
BLACK
 62
     7
100
AcDbVertex
100
AcDb2dVertex
 10
9.826
 20
6.457
 30
0.0
  0
SEQEND
  5
671
100
AcDbEntity
  8
BLACK
 62
     7
  0
POLYLINE
  5
672
100
AcDbEntity
  8
BLACK
 62
     7
100
AcDb2dPolyline
 66
     1
 10
0.0
 20
0.0
 30
0.0
 70
     1
  0
VERTEX
  5
673
100
AcDbEntity
  8
BLACK
 62
     7
100
AcDbVertex
100
AcDb2dVertex
 10
5.119
 20
5.757
 30
0.0
  0
VERTEX
  5
674
100
AcDbEntity
  8
BLACK
 62
     7
100
AcDbVertex
100
AcDb2dVertex
 10
5.377
 20
6.17
 30
0.0
  0
VERTEX
  5
675
100
AcDbEntity
  8
BLACK
 62
     7
100
AcDbVertex
100
AcDb2dVertex
 10
5.387
 20
6.184
 30
0.0
 42
-0.081
  0
VERTEX
  5
676
100
AcDbEntity
  8
BLACK
 62
     7
100
AcDbVertex
100
AcDb2dVertex
 10
5.394
 20
6.192
 30
0.0
 42
-0.131
  0
VERTEX
  5
677
100
AcDbEntity
  8
BLACK
 62
     7
100
AcDbVertex
100
AcDb2dVertex
 10
5.402
 20
6.194
 30
0.0
 42
-0.055
  0
VERTEX
  5
678
100
AcDbEntity
  8
BLACK
 62
     7
100
AcDbVertex
100
AcDb2dVertex
 10
5.413
 20
6.194
 30
0.0
 42
-0.055
  0
VERTEX
  5
679
100
AcDbEntity
  8
BLACK
 62
     7
100
AcDbVertex
100
AcDb2dVertex
 10
5.439
 20
6.188
 30
0.0
 42
-0.16
  0
VERTEX
  5
67A
100
AcDbEntity
  8
BLACK
 62
     7
100
AcDbVertex
100
AcDb2dVertex
 10
5.454
 20
6.177
 30
0.0
 42
-0.181
  0
VERTEX
  5
67B
100
AcDbEntity
  8
BLACK
 62
     7
100
AcDbVertex
100
AcDb2dVertex
 10
5.457
 20
6.161
 30
0.0
 42
-0.067
  0
VERTEX
  5
67C
100
AcDbEntity
  8
BLACK
 62
     7
100
AcDbVertex
100
AcDb2dVertex
 10
5.449
 20
6.136
 30
0.0
 42
-0.043
  0
VERTEX
  5
67D
100
AcDbEntity
  8
BLACK
 62
     7
100
AcDbVertex
100
AcDb2dVertex
 10
5.334
 20
5.945
 30
0.0
  0
VERTEX
  5
67E
100
AcDbEntity
  8
BLACK
 62
     7
100
AcDbVertex
100
AcDb2dVertex
 10
5.18
 20
5.722
 30
0.0
 42
-0.036
  0
VERTEX
  5
67F
100
AcDbEntity
  8
BLACK
 62
     7
100
AcDbVertex
100
AcDb2dVertex
 10
5.165
 20
5.7
 30
0.0
 42
-0.207
  0
VERTEX
  5
680
100
AcDbEntity
  8
BLACK
 62
     7
100
AcDbVertex
100
AcDb2dVertex
 10
5.155
 20
5.695
 30
0.0
 42
-0.158
  0
VERTEX
  5
681
100
AcDbEntity
  8
BLACK
 62
     7
100
AcDbVertex
100
AcDb2dVertex
 10
5.134
 20
5.698
 30
0.0
 42
-0.101
  0
VERTEX
  5
682
100
AcDbEntity
  8
BLACK
 62
     7
100
AcDbVertex
100
AcDb2dVertex
 10
5.113
 20
5.718
 30
0.0
 42
-0.065
  0
VERTEX
  5
683
100
AcDbEntity
  8
BLACK
 62
     7
100
AcDbVertex
100
AcDb2dVertex
 10
5.107
 20
5.726
 30
0.0
 42
-0.149
  0
VERTEX
  5
684
100
AcDbEntity
  8
BLACK
 62
     7
100
AcDbVertex
100
AcDb2dVertex
 10
5.106
 20
5.733
 30
0.0
 42
-0.08
  0
VERTEX
  5
685
100
AcDbEntity
  8
BLACK
 62
     7
100
AcDbVertex
100
AcDb2dVertex
 10
5.11
 20
5.743
 30
0.0
  0
VERTEX
  5
686
100
AcDbEntity
  8
BLACK
 62
     7
100
AcDbVertex
100
AcDb2dVertex
 10
5.119
 20
5.757
 30
0.0
  0
SEQEND
  5
687
100
AcDbEntity
  8
BLACK
 62
     7
  0
POLYLINE
  5
688
100
AcDbEntity
  8
BLACK
 62
     7
100
AcDb2dPolyline
 66
     1
 10
0.0
 20
0.0
 30
0.0
 70
     1
  0
VERTEX
  5
689
100
AcDbEntity
  8
BLACK
 62
     7
100
AcDbVertex
100
AcDb2dVertex
 10
14.693
 20
5.818
 30
0.0
  0
VERTEX
  5
68A
100
AcDbEntity
  8
BLACK
 62
     7
100
AcDbVertex
100
AcDb2dVertex
 10
14.768
 20
5.485
 30
0.0
 42
-0.016
  0
VERTEX
  5
68B
100
AcDbEntity
  8
BLACK
 62
     7
100
AcDbVertex
100
AcDb2dVertex
 10
14.796
 20
5.337
 30
0.0
  0
VERTEX
  5
68C
100
AcDbEntity
  8
BLACK
 62
     7
100
AcDbVertex
100
AcDb2dVertex
 10
14.802
 20
5.284
 30
0.0
  0
VERTEX
  5
68D
100
AcDbEntity
  8
BLACK
 62
     7
100
AcDbVertex
100
AcDb2dVertex
 10
14.801
 20
5.265
 30
0.0
 42
-0.065
  0
VERTEX
  5
68E
100
AcDbEntity
  8
BLACK
 62
     7
100
AcDbVertex
100
AcDb2dVertex
 10
14.799
 20
5.252
 30
0.0
 42
-0.276
  0
VERTEX
  5
68F
100
AcDbEntity
  8
BLACK
 62
     7
100
AcDbVertex
100
AcDb2dVertex
 10
14.774
 20
5.229
 30
0.0
 42
-0.181
  0
VERTEX
  5
690
100
AcDbEntity
  8
BLACK
 62
     7
100
AcDbVertex
100
AcDb2dVertex
 10
14.738
 20
5.238
 30
0.0
 42
-0.136
  0
VERTEX
  5
691
100
AcDbEntity
  8
BLACK
 62
     7
100
AcDbVertex
100
AcDb2dVertex
 10
14.678
 20
5.305
 30
0.0
 42
-0.057
  0
VERTEX
  5
692
100
AcDbEntity
  8
BLACK
 62
     7
100
AcDbVertex
100
AcDb2dVertex
 10
14.637
 20
5.415
 30
0.0
 42
-0.01
  0
VERTEX
  5
693
100
AcDbEntity
  8
BLACK
 62
     7
100
AcDbVertex
100
AcDb2dVertex
 10
14.568
 20
5.737
 30
0.0
 42
0.033
  0
VERTEX
  5
694
100
AcDbEntity
  8
BLACK
 62
     7
100
AcDbVertex
100
AcDb2dVertex
 10
14.564
 20
5.753
 30
0.0
 42
0.069
  0
VERTEX
  5
695
100
AcDbEntity
  8
BLACK
 62
     7
100
AcDbVertex
100
AcDb2dVertex
 10
14.562
 20
5.757
 30
0.0
 42
0.179
  0
VERTEX
  5
696
100
AcDbEntity
  8
BLACK
 62
     7
100
AcDbVertex
100
AcDb2dVertex
 10
14.559
 20
5.759
 30
0.0
 42
0.179
  0
VERTEX
  5
697
100
AcDbEntity
  8
BLACK
 62
     7
100
AcDbVertex
100
AcDb2dVertex
 10
14.556
 20
5.758
 30
0.0
 42
0.069
  0
VERTEX
  5
698
100
AcDbEntity
  8
BLACK
 62
     7
100
AcDbVertex
100
AcDb2dVertex
 10
14.553
 20
5.756
 30
0.0
 42
0.033
  0
VERTEX
  5
699
100
AcDbEntity
  8
BLACK
 62
     7
100
AcDbVertex
100
AcDb2dVertex
 10
14.542
 20
5.743
 30
0.0
  0
VERTEX
  5
69A
100
AcDbEntity
  8
BLACK
 62
     7
100
AcDbVertex
100
AcDb2dVertex
 10
14.495
 20
5.682
 30
0.0
  0
VERTEX
  5
69B
100
AcDbEntity
  8
BLACK
 62
     7
100
AcDbVertex
100
AcDb2dVertex
 10
14.457
 20
5.63
 30
0.0
 42
0.063
  0
VERTEX
  5
69C
100
AcDbEntity
  8
BLACK
 62
     7
100
AcDbVertex
100
AcDb2dVertex
 10
14.407
 20
5.535
 30
0.0
 42
0.058
  0
VERTEX
  5
69D
100
AcDbEntity
  8
BLACK
 62
     7
100
AcDbVertex
100
AcDb2dVertex
 10
14.381
 20
5.417
 30
0.0
 42
0.02
  0
VERTEX
  5
69E
100
AcDbEntity
  8
BLACK
 62
     7
100
AcDbVertex
100
AcDb2dVertex
 10
14.368
 20
5.238
 30
0.0
 42
0.021
  0
VERTEX
  5
69F
100
AcDbEntity
  8
BLACK
 62
     7
100
AcDbVertex
100
AcDb2dVertex
 10
14.367
 20
4.654
 30
0.0
 42
0.032
  0
VERTEX
  5
6A0
100
AcDbEntity
  8
BLACK
 62
     7
100
AcDbVertex
100
AcDb2dVertex
 10
14.432
 20
4.028
 30
0.0
 42
0.051
  0
VERTEX
  5
6A1
100
AcDbEntity
  8
BLACK
 62
     7
100
AcDbVertex
100
AcDb2dVertex
 10
14.593
 20
3.432
 30
0.0
 42
0.085
  0
VERTEX
  5
6A2
100
AcDbEntity
  8
BLACK
 62
     7
100
AcDbVertex
100
AcDb2dVertex
 10
14.882
 20
2.939
 30
0.0
 42
0.082
  0
VERTEX
  5
6A3
100
AcDbEntity
  8
BLACK
 62
     7
100
AcDbVertex
100
AcDb2dVertex
 10
15.003
 20
2.833
 30
0.0
 42
0.166
  0
VERTEX
  5
6A4
100
AcDbEntity
  8
BLACK
 62
     7
100
AcDbVertex
100
AcDb2dVertex
 10
15.114
 20
2.805
 30
0.0
 42
0.185
  0
VERTEX
  5
6A5
100
AcDbEntity
  8
BLACK
 62
     7
100
AcDbVertex
100
AcDb2dVertex
 10
15.209
 20
2.861
 30
0.0
 42
0.095
  0
VERTEX
  5
6A6
100
AcDbEntity
  8
BLACK
 62
     7
100
AcDbVertex
100
AcDb2dVertex
 10
15.285
 20
3.001
 30
0.0
 42
0.055
  0
VERTEX
  5
6A7
100
AcDbEntity
  8
BLACK
 62
     7
100
AcDbVertex
100
AcDb2dVertex
 10
15.395
 20
3.482
 30
0.0
 42
0.044
  0
VERTEX
  5
6A8
100
AcDbEntity
  8
BLACK
 62
     7
100
AcDbVertex
100
AcDb2dVertex
 10
15.407
 20
3.966
 30
0.0
 42
0.031
  0
VERTEX
  5
6A9
100
AcDbEntity
  8
BLACK
 62
     7
100
AcDbVertex
100
AcDb2dVertex
 10
15.348
 20
4.443
 30
0.0
 42
0.02
  0
VERTEX
  5
6AA
100
AcDbEntity
  8
BLACK
 62
     7
100
AcDbVertex
100
AcDb2dVertex
 10
15.243
 20
4.904
 30
0.0
 42
0.029
  0
VERTEX
  5
6AB
100
AcDbEntity
  8
BLACK
 62
     7
100
AcDbVertex
100
AcDb2dVertex
 10
15.159
 20
5.122
 30
0.0
 42
0.017
  0
VERTEX
  5
6AC
100
AcDbEntity
  8
BLACK
 62
     7
100
AcDbVertex
100
AcDb2dVertex
 10
14.869
 20
5.734
 30
0.0
 42
0.015
  0
VERTEX
  5
6AD
100
AcDbEntity
  8
BLACK
 62
     7
100
AcDbVertex
100
AcDb2dVertex
 10
14.817
 20
5.827
 30
0.0
  0
VERTEX
  5
6AE
100
AcDbEntity
  8
BLACK
 62
     7
100
AcDbVertex
100
AcDb2dVertex
 10
14.8
 20
5.853
 30
0.0
 42
0.039
  0
VERTEX
  5
6AF
100
AcDbEntity
  8
BLACK
 62
     7
100
AcDbVertex
100
AcDb2dVertex
 10
14.794
 20
5.86
 30
0.0
 42
0.048
  0
VERTEX
  5
6B0
100
AcDbEntity
  8
BLACK
 62
     7
100
AcDbVertex
100
AcDb2dVertex
 10
14.791
 20
5.862
 30
0.0
 42
0.107
  0
VERTEX
  5
6B1
100
AcDbEntity
  8
BLACK
 62
     7
100
AcDbVertex
100
AcDb2dVertex
 10
14.789
 20
5.863
 30
0.0
 42
0.064
  0
VERTEX
  5
6B2
100
AcDbEntity
  8
BLACK
 62
     7
100
AcDbVertex
100
AcDb2dVertex
 10
14.754
 20
5.862
 30
0.0
  0
VERTEX
  5
6B3
100
AcDbEntity
  8
BLACK
 62
     7
100
AcDbVertex
100
AcDb2dVertex
 10
14.718
 20
5.855
 30
0.0
 42
0.04
  0
VERTEX
  5
6B4
100
AcDbEntity
  8
BLACK
 62
     7
100
AcDbVertex
100
AcDb2dVertex
 10
14.702
 20
5.851
 30
0.0
 42
0.157
  0
VERTEX
  5
6B5
100
AcDbEntity
  8
BLACK
 62
     7
100
AcDbVertex
100
AcDb2dVertex
 10
14.693
 20
5.845
 30
0.0
 42
0.157
  0
VERTEX
  5
6B6
100
AcDbEntity
  8
BLACK
 62
     7
100
AcDbVertex
100
AcDb2dVertex
 10
14.691
 20
5.835
 30
0.0
 42
0.04
  0
VERTEX
  5
6B7
100
AcDbEntity
  8
BLACK
 62
     7
100
AcDbVertex
100
AcDb2dVertex
 10
14.693
 20
5.818
 30
0.0
  0
SEQEND
  5
6B8
100
AcDbEntity
  8
BLACK
 62
     7
  0
POLYLINE
  5
6B9
100
AcDbEntity
  8
BLACK
 62
     7
100
AcDb2dPolyline
 66
     1
 10
0.0
 20
0.0
 30
0.0
 70
     1
  0
VERTEX
  5
6BA
100
AcDbEntity
  8
BLACK
 62
     7
100
AcDbVertex
100
AcDb2dVertex
 10
10.922
 20
5.756
 30
0.0
  0
VERTEX
  5
6BB
100
AcDbEntity
  8
BLACK
 62
     7
100
AcDbVertex
100
AcDb2dVertex
 10
10.936
 20
5.306
 30
0.0
 42
-0.05
  0
VERTEX
  5
6BC
100
AcDbEntity
  8
BLACK
 62
     7
100
AcDbVertex
100
AcDb2dVertex
 10
10.935
 20
5.278
 30
0.0
 42
-0.116
  0
VERTEX
  5
6BD
100
AcDbEntity
  8
BLACK
 62
     7
100
AcDbVertex
100
AcDb2dVertex
 10
10.927
 20
5.261
 30
0.0
 42
-0.169
  0
VERTEX
  5
6BE
100
AcDbEntity
  8
BLACK
 62
     7
100
AcDbVertex
100
AcDb2dVertex
 10
10.887
 20
5.228
 30
0.0
 42
-0.176
  0
VERTEX
  5
6BF
100
AcDbEntity
  8
BLACK
 62
     7
100
AcDbVertex
100
AcDb2dVertex
 10
10.848
 20
5.231
 30
0.0
 42
-0.182
  0
VERTEX
  5
6C0
100
AcDbEntity
  8
BLACK
 62
     7
100
AcDbVertex
100
AcDb2dVertex
 10
10.798
 20
5.279
 30
0.0
 42
-0.076
  0
VERTEX
  5
6C1
100
AcDbEntity
  8
BLACK
 62
     7
100
AcDbVertex
100
AcDb2dVertex
 10
10.784
 20
5.366
 30
0.0
 42
-0.021
  0
VERTEX
  5
6C2
100
AcDbEntity
  8
BLACK
 62
     7
100
AcDbVertex
100
AcDb2dVertex
 10
10.792
 20
5.639
 30
0.0
 42
0.009
  0
VERTEX
  5
6C3
100
AcDbEntity
  8
BLACK
 62
     7
100
AcDbVertex
100
AcDb2dVertex
 10
10.797
 20
5.776
 30
0.0
 42
0.04
  0
VERTEX
  5
6C4
100
AcDbEntity
  8
BLACK
 62
     7
100
AcDbVertex
100
AcDb2dVertex
 10
10.797
 20
5.793
 30
0.0
 42
0.146
  0
VERTEX
  5
6C5
100
AcDbEntity
  8
BLACK
 62
     7
100
AcDbVertex
100
AcDb2dVertex
 10
10.793
 20
5.803
 30
0.0
 42
0.146
  0
VERTEX
  5
6C6
100
AcDbEntity
  8
BLACK
 62
     7
100
AcDbVertex
100
AcDb2dVertex
 10
10.783
 20
5.808
 30
0.0
 42
0.04
  0
VERTEX
  5
6C7
100
AcDbEntity
  8
BLACK
 62
     7
100
AcDbVertex
100
AcDb2dVertex
 10
10.767
 20
5.811
 30
0.0
  0
VERTEX
  5
6C8
100
AcDbEntity
  8
BLACK
 62
     7
100
AcDbVertex
100
AcDb2dVertex
 10
10.704
 20
5.818
 30
0.0
 42
0.039
  0
VERTEX
  5
6C9
100
AcDbEntity
  8
BLACK
 62
     7
100
AcDbVertex
100
AcDb2dVertex
 10
10.687
 20
5.819
 30
0.0
 42
0.137
  0
VERTEX
  5
6CA
100
AcDbEntity
  8
BLACK
 62
     7
100
AcDbVertex
100
AcDb2dVertex
 10
10.676
 20
5.816
 30
0.0
 42
0.137
  0
VERTEX
  5
6CB
100
AcDbEntity
  8
BLACK
 62
     7
100
AcDbVertex
100
AcDb2dVertex
 10
10.669
 20
5.807
 30
0.0
 42
0.039
  0
VERTEX
  5
6CC
100
AcDbEntity
  8
BLACK
 62
     7
100
AcDbVertex
100
AcDb2dVertex
 10
10.664
 20
5.791
 30
0.0
 42
0.039
  0
VERTEX
  5
6CD
100
AcDbEntity
  8
BLACK
 62
     7
100
AcDbVertex
100
AcDb2dVertex
 10
10.546
 20
5.245
 30
0.0
 42
0.047
  0
VERTEX
  5
6CE
100
AcDbEntity
  8
BLACK
 62
     7
100
AcDbVertex
100
AcDb2dVertex
 10
10.527
 20
4.722
 30
0.0
 42
0.043
  0
VERTEX
  5
6CF
100
AcDbEntity
  8
BLACK
 62
     7
100
AcDbVertex
100
AcDb2dVertex
 10
10.606
 20
4.188
 30
0.0
 42
0.032
  0
VERTEX
  5
6D0
100
AcDbEntity
  8
BLACK
 62
     7
100
AcDbVertex
100
AcDb2dVertex
 10
10.784
 20
3.612
 30
0.0
 42
0.056
  0
VERTEX
  5
6D1
100
AcDbEntity
  8
BLACK
 62
     7
100
AcDbVertex
100
AcDb2dVertex
 10
11.06
 20
3.077
 30
0.0
 42
0.033
  0
VERTEX
  5
6D2
100
AcDbEntity
  8
BLACK
 62
     7
100
AcDbVertex
100
AcDb2dVertex
 10
11.153
 20
2.96
 30
0.0
 42
0.06
  0
VERTEX
  5
6D3
100
AcDbEntity
  8
BLACK
 62
     7
100
AcDbVertex
100
AcDb2dVertex
 10
11.248
 20
2.875
 30
0.0
 42
0.122
  0
VERTEX
  5
6D4
100
AcDbEntity
  8
BLACK
 62
     7
100
AcDbVertex
100
AcDb2dVertex
 10
11.342
 20
2.839
 30
0.0
 42
0.182
  0
VERTEX
  5
6D5
100
AcDbEntity
  8
BLACK
 62
     7
100
AcDbVertex
100
AcDb2dVertex
 10
11.431
 20
2.862
 30
0.0
 42
0.102
  0
VERTEX
  5
6D6
100
AcDbEntity
  8
BLACK
 62
     7
100
AcDbVertex
100
AcDb2dVertex
 10
11.497
 20
2.935
 30
0.0
 42
0.054
  0
VERTEX
  5
6D7
100
AcDbEntity
  8
BLACK
 62
     7
100
AcDbVertex
100
AcDb2dVertex
 10
11.548
 20
3.045
 30
0.0
 42
0.05
  0
VERTEX
  5
6D8
100
AcDbEntity
  8
BLACK
 62
     7
100
AcDbVertex
100
AcDb2dVertex
 10
11.611
 20
3.333
 30
0.0
 42
0.045
  0
VERTEX
  5
6D9
100
AcDbEntity
  8
BLACK
 62
     7
100
AcDbVertex
100
AcDb2dVertex
 10
11.631
 20
3.89
 30
0.0
 42
0.027
  0
VERTEX
  5
6DA
100
AcDbEntity
  8
BLACK
 62
     7
100
AcDbVertex
100
AcDb2dVertex
 10
11.576
 20
4.297
 30
0.0
 42
0.022
  0
VERTEX
  5
6DB
100
AcDbEntity
  8
BLACK
 62
     7
100
AcDbVertex
100
AcDb2dVertex
 10
11.457
 20
4.815
 30
0.0
 42
0.034
  0
VERTEX
  5
6DC
100
AcDbEntity
  8
BLACK
 62
     7
100
AcDbVertex
100
AcDb2dVertex
 10
11.287
 20
5.313
 30
0.0
 42
0.032
  0
VERTEX
  5
6DD
100
AcDbEntity
  8
BLACK
 62
     7
100
AcDbVertex
100
AcDb2dVertex
 10
11.186
 20
5.514
 30
0.0
 42
0.06
  0
VERTEX
  5
6DE
100
AcDbEntity
  8
BLACK
 62
     7
100
AcDbVertex
100
AcDb2dVertex
 10
11.076
 20
5.661
 30
0.0
 42
0.029
  0
VERTEX
  5
6DF
100
AcDbEntity
  8
BLACK
 62
     7
100
AcDbVertex
100
AcDb2dVertex
 10
11.012
 20
5.717
 30
0.0
  0
VERTEX
  5
6E0
100
AcDbEntity
  8
BLACK
 62
     7
100
AcDbVertex
100
AcDb2dVertex
 10
10.946
 20
5.768
 30
0.0
 42
0.034
  0
VERTEX
  5
6E1
100
AcDbEntity
  8
BLACK
 62
     7
100
AcDbVertex
100
AcDb2dVertex
 10
10.933
 20
5.777
 30
0.0
 42
0.07
  0
VERTEX
  5
6E2
100
AcDbEntity
  8
BLACK
 62
     7
100
AcDbVertex
100
AcDb2dVertex
 10
10.928
 20
5.779
 30
0.0
 42
0.177
  0
VERTEX
  5
6E3
100
AcDbEntity
  8
BLACK
 62
     7
100
AcDbVertex
100
AcDb2dVertex
 10
10.925
 20
5.779
 30
0.0
 42
0.177
  0
VERTEX
  5
6E4
100
AcDbEntity
  8
BLACK
 62
     7
100
AcDbVertex
100
AcDb2dVertex
 10
10.923
 20
5.776
 30
0.0
 42
0.07
  0
VERTEX
  5
6E5
100
AcDbEntity
  8
BLACK
 62
     7
100
AcDbVertex
100
AcDb2dVertex
 10
10.922
 20
5.772
 30
0.0
 42
0.034
  0
VERTEX
  5
6E6
100
AcDbEntity
  8
BLACK
 62
     7
100
AcDbVertex
100
AcDb2dVertex
 10
10.922
 20
5.756
 30
0.0
  0
SEQEND
  5
6E7
100
AcDbEntity
  8
BLACK
 62
     7
  0
POLYLINE
  5
6E8
100
AcDbEntity
  8
BLACK
 62
     7
100
AcDb2dPolyline
 66
     1
 10
0.0
 20
0.0
 30
0.0
 70
     1
  0
VERTEX
  5
6E9
100
AcDbEntity
  8
BLACK
 62
     7
100
AcDbVertex
100
AcDb2dVertex
 10
1.965
 20
5.142
 30
0.0
  0
VERTEX
  5
6EA
100
AcDbEntity
  8
BLACK
 62
     7
100
AcDbVertex
100
AcDb2dVertex
 10
1.895
 20
5.329
 30
0.0
 42
0.028
  0
VERTEX
  5
6EB
100
AcDbEntity
  8
BLACK
 62
     7
100
AcDbVertex
100
AcDb2dVertex
 10
1.837
 20
5.471
 30
0.0
 42
0.054
  0
VERTEX
  5
6EC
100
AcDbEntity
  8
BLACK
 62
     7
100
AcDbVertex
100
AcDb2dVertex
 10
1.809
 20
5.516
 30
0.0
 42
0.139
  0
VERTEX
  5
6ED
100
AcDbEntity
  8
BLACK
 62
     7
100
AcDbVertex
100
AcDb2dVertex
 10
1.78
 20
5.538
 30
0.0
 42
0.214
  0
VERTEX
  5
6EE
100
AcDbEntity
  8
BLACK
 62
     7
100
AcDbVertex
100
AcDb2dVertex
 10
1.748
 20
5.535
 30
0.0
 42
0.104
  0
VERTEX
  5
6EF
100
AcDbEntity
  8
BLACK
 62
     7
100
AcDbVertex
100
AcDb2dVertex
 10
1.712
 20
5.502
 30
0.0
 42
0.068
  0
VERTEX
  5
6F0
100
AcDbEntity
  8
BLACK
 62
     7
100
AcDbVertex
100
AcDb2dVertex
 10
1.67
 20
5.42
 30
0.0
 42
0.027
  0
VERTEX
  5
6F1
100
AcDbEntity
  8
BLACK
 62
     7
100
AcDbVertex
100
AcDb2dVertex
 10
1.63
 20
5.296
 30
0.0
 42
0.023
  0
VERTEX
  5
6F2
100
AcDbEntity
  8
BLACK
 62
     7
100
AcDbVertex
100
AcDb2dVertex
 10
1.562
 20
4.969
 30
0.0
 42
0.025
  0
VERTEX
  5
6F3
100
AcDbEntity
  8
BLACK
 62
     7
100
AcDbVertex
100
AcDb2dVertex
 10
1.49
 20
4.349
 30
0.0
 42
0.086
  0
VERTEX
  5
6F4
100
AcDbEntity
  8
BLACK
 62
     7
100
AcDbVertex
100
AcDb2dVertex
 10
1.643
 20
3.023
 30
0.0
 42
0.039
  0
VERTEX
  5
6F5
100
AcDbEntity
  8
BLACK
 62
     7
100
AcDbVertex
100
AcDb2dVertex
 10
1.875
 20
2.422
 30
0.0
 42
0.031
  0
VERTEX
  5
6F6
100
AcDbEntity
  8
BLACK
 62
     7
100
AcDbVertex
100
AcDb2dVertex
 10
2.199
 20
1.84
 30
0.0
 42
0.044
  0
VERTEX
  5
6F7
100
AcDbEntity
  8
BLACK
 62
     7
100
AcDbVertex
100
AcDb2dVertex
 10
2.299
 20
1.708
 30
0.0
 42
0.071
  0
VERTEX
  5
6F8
100
AcDbEntity
  8
BLACK
 62
     7
100
AcDbVertex
100
AcDb2dVertex
 10
2.412
 20
1.613
 30
0.0
 42
0.162
  0
VERTEX
  5
6F9
100
AcDbEntity
  8
BLACK
 62
     7
100
AcDbVertex
100
AcDb2dVertex
 10
2.522
 20
1.582
 30
0.0
 42
0.231
  0
VERTEX
  5
6FA
100
AcDbEntity
  8
BLACK
 62
     7
100
AcDbVertex
100
AcDb2dVertex
 10
2.615
 20
1.645
 30
0.0
 42
0.066
  0
VERTEX
  5
6FB
100
AcDbEntity
  8
BLACK
 62
     7
100
AcDbVertex
100
AcDb2dVertex
 10
2.691
 20
1.809
 30
0.0
 42
0.036
  0
VERTEX
  5
6FC
100
AcDbEntity
  8
BLACK
 62
     7
100
AcDbVertex
100
AcDb2dVertex
 10
2.742
 20
2.02
 30
0.0
 42
0.035
  0
VERTEX
  5
6FD
100
AcDbEntity
  8
BLACK
 62
     7
100
AcDbVertex
100
AcDb2dVertex
 10
2.788
 20
2.519
 30
0.0
 42
0.024
  0
VERTEX
  5
6FE
100
AcDbEntity
  8
BLACK
 62
     7
100
AcDbVertex
100
AcDb2dVertex
 10
2.768
 20
3.335
 30
0.0
 42
0.011
  0
VERTEX
  5
6FF
100
AcDbEntity
  8
BLACK
 62
     7
100
AcDbVertex
100
AcDb2dVertex
 10
2.722
 20
3.844
 30
0.0
 42
0.019
  0
VERTEX
  5
700
100
AcDbEntity
  8
BLACK
 62
     7
100
AcDbVertex
100
AcDb2dVertex
 10
2.654
 20
4.291
 30
0.0
 42
0.052
  0
VERTEX
  5
701
100
AcDbEntity
  8
BLACK
 62
     7
100
AcDbVertex
100
AcDb2dVertex
 10
2.407
 20
5.113
 30
0.0
 42
0.022
  0
VERTEX
  5
702
100
AcDbEntity
  8
BLACK
 62
     7
100
AcDbVertex
100
AcDb2dVertex
 10
2.24
 20
5.487
 30
0.0
 42
0.054
  0
VERTEX
  5
703
100
AcDbEntity
  8
BLACK
 62
     7
100
AcDbVertex
100
AcDb2dVertex
 10
2.134
 20
5.653
 30
0.0
 42
0.081
  0
VERTEX
  5
704
100
AcDbEntity
  8
BLACK
 62
     7
100
AcDbVertex
100
AcDb2dVertex
 10
2.082
 20
5.7
 30
0.0
 42
0.191
  0
VERTEX
  5
705
100
AcDbEntity
  8
BLACK
 62
     7
100
AcDbVertex
100
AcDb2dVertex
 10
2.032
 20
5.71
 30
0.0
 42
0.055
  0
VERTEX
  5
706
100
AcDbEntity
  8
BLACK
 62
     7
100
AcDbVertex
100
AcDb2dVertex
 10
1.963
 20
5.682
 30
0.0
 42
0.038
  0
VERTEX
  5
707
100
AcDbEntity
  8
BLACK
 62
     7
100
AcDbVertex
100
AcDb2dVertex
 10
1.948
 20
5.674
 30
0.0
 42
0.128
  0
VERTEX
  5
708
100
AcDbEntity
  8
BLACK
 62
     7
100
AcDbVertex
100
AcDb2dVertex
 10
1.94
 20
5.666
 30
0.0
 42
0.128
  0
VERTEX
  5
709
100
AcDbEntity
  8
BLACK
 62
     7
100
AcDbVertex
100
AcDb2dVertex
 10
1.938
 20
5.655
 30
0.0
 42
0.038
  0
VERTEX
  5
70A
100
AcDbEntity
  8
BLACK
 62
     7
100
AcDbVertex
100
AcDb2dVertex
 10
1.941
 20
5.638
 30
0.0
  0
VERTEX
  5
70B
100
AcDbEntity
  8
BLACK
 62
     7
100
AcDbVertex
100
AcDb2dVertex
 10
2.04
 20
5.169
 30
0.0
  0
VERTEX
  5
70C
100
AcDbEntity
  8
BLACK
 62
     7
100
AcDbVertex
100
AcDb2dVertex
 10
2.042
 20
5.154
 30
0.0
 42
-0.087
  0
VERTEX
  5
70D
100
AcDbEntity
  8
BLACK
 62
     7
100
AcDbVertex
100
AcDb2dVertex
 10
2.042
 20
5.145
 30
0.0
 42
-0.153
  0
VERTEX
  5
70E
100
AcDbEntity
  8
BLACK
 62
     7
100
AcDbVertex
100
AcDb2dVertex
 10
2.038
 20
5.139
 30
0.0
 42
-0.085
  0
VERTEX
  5
70F
100
AcDbEntity
  8
BLACK
 62
     7
100
AcDbVertex
100
AcDb2dVertex
 10
2.03
 20
5.134
 30
0.0
  0
VERTEX
  5
710
100
AcDbEntity
  8
BLACK
 62
     7
100
AcDbVertex
100
AcDb2dVertex
 10
1.999
 20
5.122
 30
0.0
 42
-0.05
  0
VERTEX
  5
711
100
AcDbEntity
  8
BLACK
 62
     7
100
AcDbVertex
100
AcDb2dVertex
 10
1.987
 20
5.118
 30
0.0
 42
-0.18
  0
VERTEX
  5
712
100
AcDbEntity
  8
BLACK
 62
     7
100
AcDbVertex
100
AcDb2dVertex
 10
1.978
 20
5.119
 30
0.0
 42
-0.134
  0
VERTEX
  5
713
100
AcDbEntity
  8
BLACK
 62
     7
100
AcDbVertex
100
AcDb2dVertex
 10
1.972
 20
5.126
 30
0.0
 42
-0.032
  0
VERTEX
  5
714
100
AcDbEntity
  8
BLACK
 62
     7
100
AcDbVertex
100
AcDb2dVertex
 10
1.965
 20
5.142
 30
0.0
  0
SEQEND
  5
715
100
AcDbEntity
  8
BLACK
 62
     7
  0
POLYLINE
  5
716
100
AcDbEntity
  8
BLACK
 62
     7
100
AcDb2dPolyline
 66
     1
 10
0.0
 20
0.0
 30
0.0
 70
     1
  0
VERTEX
  5
717
100
AcDbEntity
  8
BLACK
 62
     7
100
AcDbVertex
100
AcDb2dVertex
 10
13.7
 20
2.678
 30
0.0
  0
VERTEX
  5
718
100
AcDbEntity
  8
BLACK
 62
     7
100
AcDbVertex
100
AcDb2dVertex
 10
13.696
 20
2.588
 30
0.0
 42
-0.052
  0
VERTEX
  5
719
100
AcDbEntity
  8
BLACK
 62
     7
100
AcDbVertex
100
AcDb2dVertex
 10
13.687
 20
2.529
 30
0.0
 42
-0.084
  0
VERTEX
  5
71A
100
AcDbEntity
  8
BLACK
 62
     7
100
AcDbVertex
100
AcDb2dVertex
 10
13.664
 20
2.481
 30
0.0
 42
-0.035
  0
VERTEX
  5
71B
100
AcDbEntity
  8
BLACK
 62
     7
100
AcDbVertex
100
AcDb2dVertex
 10
13.618
 20
2.425
 30
0.0
 42
-0.024
  0
VERTEX
  5
71C
100
AcDbEntity
  8
BLACK
 62
     7
100
AcDbVertex
100
AcDb2dVertex
 10
13.546
 20
2.352
 30
0.0
 42
-0.065
  0
VERTEX
  5
71D
100
AcDbEntity
  8
BLACK
 62
     7
100
AcDbVertex
100
AcDb2dVertex
 10
13.488
 20
2.311
 30
0.0
 42
-0.05
  0
VERTEX
  5
71E
100
AcDbEntity
  8
BLACK
 62
     7
100
AcDbVertex
100
AcDb2dVertex
 10
13.419
 20
2.285
 30
0.0
  0
VERTEX
  5
71F
100
AcDbEntity
  8
BLACK
 62
     7
100
AcDbVertex
100
AcDb2dVertex
 10
13.315
 20
2.259
 30
0.0
 42
-0.095
  0
VERTEX
  5
720
100
AcDbEntity
  8
BLACK
 62
     7
100
AcDbVertex
100
AcDb2dVertex
 10
13.253
 20
2.252
 30
0.0
  0
VERTEX
  5
721
100
AcDbEntity
  8
BLACK
 62
     7
100
AcDbVertex
100
AcDb2dVertex
 10
10.746
 20
2.333
 30
0.0
 42
0.108
  0
VERTEX
  5
722
100
AcDbEntity
  8
BLACK
 62
     7
100
AcDbVertex
100
AcDb2dVertex
 10
10.684
 20
2.325
 30
0.0
 42
0.041
  0
VERTEX
  5
723
100
AcDbEntity
  8
BLACK
 62
     7
100
AcDbVertex
100
AcDb2dVertex
 10
10.537
 20
2.271
 30
0.0
 42
0.09
  0
VERTEX
  5
724
100
AcDbEntity
  8
BLACK
 62
     7
100
AcDbVertex
100
AcDb2dVertex
 10
10.437
 20
2.202
 30
0.0
 42
0.111
  0
VERTEX
  5
725
100
AcDbEntity
  8
BLACK
 62
     7
100
AcDbVertex
100
AcDb2dVertex
 10
10.379
 20
2.104
 30
0.0
 42
0.068
  0
VERTEX
  5
726
100
AcDbEntity
  8
BLACK
 62
     7
100
AcDbVertex
100
AcDb2dVertex
 10
10.355
 20
1.963
 30
0.0
 42
0.04
  0
VERTEX
  5
727
100
AcDbEntity
  8
BLACK
 62
     7
100
AcDbVertex
100
AcDb2dVertex
 10
10.355
 20
1.946
 30
0.0
 42
0.151
  0
VERTEX
  5
728
100
AcDbEntity
  8
BLACK
 62
     7
100
AcDbVertex
100
AcDb2dVertex
 10
10.358
 20
1.936
 30
0.0
 42
0.152
  0
VERTEX
  5
729
100
AcDbEntity
  8
BLACK
 62
     7
100
AcDbVertex
100
AcDb2dVertex
 10
10.368
 20
1.931
 30
0.0
 42
0.04
  0
VERTEX
  5
72A
100
AcDbEntity
  8
BLACK
 62
     7
100
AcDbVertex
100
AcDb2dVertex
 10
10.384
 20
1.928
 30
0.0
  0
VERTEX
  5
72B
100
AcDbEntity
  8
BLACK
 62
     7
100
AcDbVertex
100
AcDb2dVertex
 10
14.379
 20
1.504
 30
0.0
 42
0.039
  0
VERTEX
  5
72C
100
AcDbEntity
  8
BLACK
 62
     7
100
AcDbVertex
100
AcDb2dVertex
 10
14.395
 20
1.503
 30
0.0
 42
0.07
  0
VERTEX
  5
72D
100
AcDbEntity
  8
BLACK
 62
     7
100
AcDbVertex
100
AcDb2dVertex
 10
14.4
 20
1.504
 30
0.0
 42
0.14
  0
VERTEX
  5
72E
100
AcDbEntity
  8
BLACK
 62
     7
100
AcDbVertex
100
AcDb2dVertex
 10
14.403
 20
1.506
 30
0.0
 42
0.139
  0
VERTEX
  5
72F
100
AcDbEntity
  8
BLACK
 62
     7
100
AcDbVertex
100
AcDb2dVertex
 10
14.404
 20
1.51
 30
0.0
 42
0.069
  0
VERTEX
  5
730
100
AcDbEntity
  8
BLACK
 62
     7
100
AcDbVertex
100
AcDb2dVertex
 10
14.404
 20
1.515
 30
0.0
 42
0.038
  0
VERTEX
  5
731
100
AcDbEntity
  8
BLACK
 62
     7
100
AcDbVertex
100
AcDb2dVertex
 10
14.4
 20
1.53
 30
0.0
  0
VERTEX
  5
732
100
AcDbEntity
  8
BLACK
 62
     7
100
AcDbVertex
100
AcDb2dVertex
 10
13.878
 20
3.124
 30
0.0
 42
-0.056
  0
VERTEX
  5
733
100
AcDbEntity
  8
BLACK
 62
     7
100
AcDbVertex
100
AcDb2dVertex
 10
13.868
 20
3.171
 30
0.0
  0
VERTEX
  5
734
100
AcDbEntity
  8
BLACK
 62
     7
100
AcDbVertex
100
AcDb2dVertex
 10
13.868
 20
3.206
 30
0.0
 42
-0.04
  0
VERTEX
  5
735
100
AcDbEntity
  8
BLACK
 62
     7
100
AcDbVertex
100
AcDb2dVertex
 10
13.868
 20
3.215
 30
0.0
 42
-0.089
  0
VERTEX
  5
736
100
AcDbEntity
  8
BLACK
 62
     7
100
AcDbVertex
100
AcDb2dVertex
 10
13.87
 20
3.221
 30
0.0
 42
-0.121
  0
VERTEX
  5
737
100
AcDbEntity
  8
BLACK
 62
     7
100
AcDbVertex
100
AcDb2dVertex
 10
13.874
 20
3.224
 30
0.0
 42
-0.075
  0
VERTEX
  5
738
100
AcDbEntity
  8
BLACK
 62
     7
100
AcDbVertex
100
AcDb2dVertex
 10
13.88
 20
3.227
 30
0.0
  0
VERTEX
  5
739
100
AcDbEntity
  8
BLACK
 62
     7
100
AcDbVertex
100
AcDb2dVertex
 10
13.903
 20
3.234
 30
0.0
 42
-0.108
  0
VERTEX
  5
73A
100
AcDbEntity
  8
BLACK
 62
     7
100
AcDbVertex
100
AcDb2dVertex
 10
13.91
 20
3.235
 30
0.0
 42
-0.186
  0
VERTEX
  5
73B
100
AcDbEntity
  8
BLACK
 62
     7
100
AcDbVertex
100
AcDb2dVertex
 10
13.915
 20
3.232
 30
0.0
 42
-0.07
  0
VERTEX
  5
73C
100
AcDbEntity
  8
BLACK
 62
     7
100
AcDbVertex
100
AcDb2dVertex
 10
13.92
 20
3.223
 30
0.0
  0
VERTEX
  5
73D
100
AcDbEntity
  8
BLACK
 62
     7
100
AcDbVertex
100
AcDb2dVertex
 10
13.926
 20
3.208
 30
0.0
  0
VERTEX
  5
73E
100
AcDbEntity
  8
BLACK
 62
     7
100
AcDbVertex
100
AcDb2dVertex
 10
14.552
 20
1.516
 30
0.0
 42
0.145
  0
VERTEX
  5
73F
100
AcDbEntity
  8
BLACK
 62
     7
100
AcDbVertex
100
AcDb2dVertex
 10
14.567
 20
1.493
 30
0.0
 42
0.145
  0
VERTEX
  5
740
100
AcDbEntity
  8
BLACK
 62
     7
100
AcDbVertex
100
AcDb2dVertex
 10
14.594
 20
1.484
 30
0.0
  0
VERTEX
  5
741
100
AcDbEntity
  8
BLACK
 62
     7
100
AcDbVertex
100
AcDb2dVertex
 10
15.108
 20
1.439
 30
0.0
 42
0.037
  0
VERTEX
  5
742
100
AcDbEntity
  8
BLACK
 62
     7
100
AcDbVertex
100
AcDb2dVertex
 10
15.125
 20
1.439
 30
0.0
 42
0.07
  0
VERTEX
  5
743
100
AcDbEntity
  8
BLACK
 62
     7
100
AcDbVertex
100
AcDb2dVertex
 10
15.129
 20
1.439
 30
0.0
 42
0.154
  0
VERTEX
  5
744
100
AcDbEntity
  8
BLACK
 62
     7
100
AcDbVertex
100
AcDb2dVertex
 10
15.132
 20
1.442
 30
0.0
 42
0.154
  0
VERTEX
  5
745
100
AcDbEntity
  8
BLACK
 62
     7
100
AcDbVertex
100
AcDb2dVertex
 10
15.133
 20
1.445
 30
0.0
 42
0.07
  0
VERTEX
  5
746
100
AcDbEntity
  8
BLACK
 62
     7
100
AcDbVertex
100
AcDb2dVertex
 10
15.132
 20
1.45
 30
0.0
 42
0.037
  0
VERTEX
  5
747
100
AcDbEntity
  8
BLACK
 62
     7
100
AcDbVertex
100
AcDb2dVertex
 10
15.126
 20
1.465
 30
0.0
  0
VERTEX
  5
748
100
AcDbEntity
  8
BLACK
 62
     7
100
AcDbVertex
100
AcDb2dVertex
 10
13.576
 20
4.723
 30
0.0
 42
0.279
  0
VERTEX
  5
749
100
AcDbEntity
  8
BLACK
 62
     7
100
AcDbVertex
100
AcDb2dVertex
 10
13.531
 20
4.755
 30
0.0
  0
VERTEX
  5
74A
100
AcDbEntity
  8
BLACK
 62
     7
100
AcDbVertex
100
AcDb2dVertex
 10
13.468
 20
4.762
 30
0.0
 42
-0.045
  0
VERTEX
  5
74B
100
AcDbEntity
  8
BLACK
 62
     7
100
AcDbVertex
100
AcDb2dVertex
 10
13.452
 20
4.765
 30
0.0
 42
-0.142
  0
VERTEX
  5
74C
100
AcDbEntity
  8
BLACK
 62
     7
100
AcDbVertex
100
AcDb2dVertex
 10
13.443
 20
4.77
 30
0.0
 42
-0.142
  0
VERTEX
  5
74D
100
AcDbEntity
  8
BLACK
 62
     7
100
AcDbVertex
100
AcDb2dVertex
 10
13.439
 20
4.78
 30
0.0
 42
-0.045
  0
VERTEX
  5
74E
100
AcDbEntity
  8
BLACK
 62
     7
100
AcDbVertex
100
AcDb2dVertex
 10
13.438
 20
4.797
 30
0.0
  0
VERTEX
  5
74F
100
AcDbEntity
  8
BLACK
 62
     7
100
AcDbVertex
100
AcDb2dVertex
 10
13.45
 20
5.248
 30
0.0
 42
0.04
  0
VERTEX
  5
750
100
AcDbEntity
  8
BLACK
 62
     7
100
AcDbVertex
100
AcDb2dVertex
 10
13.45
 20
5.265
 30
0.0
 42
0.161
  0
VERTEX
  5
751
100
AcDbEntity
  8
BLACK
 62
     7
100
AcDbVertex
100
AcDb2dVertex
 10
13.446
 20
5.274
 30
0.0
 42
0.161
  0
VERTEX
  5
752
100
AcDbEntity
  8
BLACK
 62
     7
100
AcDbVertex
100
AcDb2dVertex
 10
13.437
 20
5.278
 30
0.0
 42
0.04
  0
VERTEX
  5
753
100
AcDbEntity
  8
BLACK
 62
     7
100
AcDbVertex
100
AcDb2dVertex
 10
13.42
 20
5.279
 30
0.0
  0
VERTEX
  5
754
100
AcDbEntity
  8
BLACK
 62
     7
100
AcDbVertex
100
AcDb2dVertex
 10
13.107
 20
5.279
 30
0.0
 42
0.043
  0
VERTEX
  5
755
100
AcDbEntity
  8
BLACK
 62
     7
100
AcDbVertex
100
AcDb2dVertex
 10
13.091
 20
5.278
 30
0.0
 42
0.15
  0
VERTEX
  5
756
100
AcDbEntity
  8
BLACK
 62
     7
100
AcDbVertex
100
AcDb2dVertex
 10
13.081
 20
5.274
 30
0.0
 42
0.15
  0
VERTEX
  5
757
100
AcDbEntity
  8
BLACK
 62
     7
100
AcDbVertex
100
AcDb2dVertex
 10
13.076
 20
5.265
 30
0.0
 42
0.043
  0
VERTEX
  5
758
100
AcDbEntity
  8
BLACK
 62
     7
100
AcDbVertex
100
AcDb2dVertex
 10
13.075
 20
5.248
 30
0.0
  0
VERTEX
  5
759
100
AcDbEntity
  8
BLACK
 62
     7
100
AcDbVertex
100
AcDb2dVertex
 10
13.063
 20
4.977
 30
0.0
 42
0.061
  0
VERTEX
  5
75A
100
AcDbEntity
  8
BLACK
 62
     7
100
AcDbVertex
100
AcDb2dVertex
 10
13.071
 20
4.916
 30
0.0
  0
VERTEX
  5
75B
100
AcDbEntity
  8
BLACK
 62
     7
100
AcDbVertex
100
AcDb2dVertex
 10
13.693
 20
2.739
 30
0.0
 42
-0.109
  0
VERTEX
  5
75C
100
AcDbEntity
  8
BLACK
 62
     7
100
AcDbVertex
100
AcDb2dVertex
 10
13.7
 20
2.678
 30
0.0
  0
SEQEND
  5
75D
100
AcDbEntity
  8
BLACK
 62
     7
  0
POLYLINE
  5
75E
100
AcDbEntity
  8
BLACK
 62
     7
100
AcDb2dPolyline
 66
     1
 10
0.0
 20
0.0
 30
0.0
 70
     1
  0
VERTEX
  5
75F
100
AcDbEntity
  8
BLACK
 62
     7
100
AcDbVertex
100
AcDb2dVertex
 10
3.115
 20
4.001
 30
0.0
 42
0.067
  0
VERTEX
  5
760
100
AcDbEntity
  8
BLACK
 62
     7
100
AcDbVertex
100
AcDb2dVertex
 10
3.107
 20
3.928
 30
0.0
 42
0.142
  0
VERTEX
  5
761
100
AcDbEntity
  8
BLACK
 62
     7
100
AcDbVertex
100
AcDb2dVertex
 10
3.129
 20
3.849
 30
0.0
 42
0.086
  0
VERTEX
  5
762
100
AcDbEntity
  8
BLACK
 62
     7
100
AcDbVertex
100
AcDb2dVertex
 10
3.131
 20
3.847
 30
0.0
 42
0.049
  0
VERTEX
  5
763
100
AcDbEntity
  8
BLACK
 62
     7
100
AcDbVertex
100
AcDb2dVertex
 10
3.133
 20
3.846
 30
0.0
 42
0.047
  0
VERTEX
  5
764
100
AcDbEntity
  8
BLACK
 62
     7
100
AcDbVertex
100
AcDb2dVertex
 10
3.14
 20
3.844
 30
0.0
 42
0.034
  0
VERTEX
  5
765
100
AcDbEntity
  8
BLACK
 62
     7
100
AcDbVertex
100
AcDb2dVertex
 10
3.163
 20
3.841
 30
0.0
 42
0.02
  0
VERTEX
  5
766
100
AcDbEntity
  8
BLACK
 62
     7
100
AcDbVertex
100
AcDb2dVertex
 10
3.242
 20
3.838
 30
0.0
 42
0.009
  0
VERTEX
  5
767
100
AcDbEntity
  8
BLACK
 62
     7
100
AcDbVertex
100
AcDb2dVertex
 10
3.824
 20
3.862
 30
0.0
 42
-0.004
  0
VERTEX
  5
768
100
AcDbEntity
  8
BLACK
 62
     7
100
AcDbVertex
100
AcDb2dVertex
 10
4.143
 20
3.876
 30
0.0
 42
-0.04
  0
VERTEX
  5
769
100
AcDbEntity
  8
BLACK
 62
     7
100
AcDbVertex
100
AcDb2dVertex
 10
4.364
 20
3.863
 30
0.0
 42
-0.021
  0
VERTEX
  5
76A
100
AcDbEntity
  8
BLACK
 62
     7
100
AcDbVertex
100
AcDb2dVertex
 10
4.631
 20
3.815
 30
0.0
 42
-0.019
  0
VERTEX
  5
76B
100
AcDbEntity
  8
BLACK
 62
     7
100
AcDbVertex
100
AcDb2dVertex
 10
5.238
 20
3.652
 30
0.0
 42
-0.006
  0
VERTEX
  5
76C
100
AcDbEntity
  8
BLACK
 62
     7
100
AcDbVertex
100
AcDb2dVertex
 10
5.84
 20
3.459
 30
0.0
 42
0.006
  0
VERTEX
  5
76D
100
AcDbEntity
  8
BLACK
 62
     7
100
AcDbVertex
100
AcDb2dVertex
 10
6.311
 20
3.307
 30
0.0
 42
0.02
  0
VERTEX
  5
76E
100
AcDbEntity
  8
BLACK
 62
     7
100
AcDbVertex
100
AcDb2dVertex
 10
7.642
 20
2.968
 30
0.0
 42
0.014
  0
VERTEX
  5
76F
100
AcDbEntity
  8
BLACK
 62
     7
100
AcDbVertex
100
AcDb2dVertex
 10
8.342
 20
2.838
 30
0.0
 42
0.022
  0
VERTEX
  5
770
100
AcDbEntity
  8
BLACK
 62
     7
100
AcDbVertex
100
AcDb2dVertex
 10
8.978
 20
2.765
 30
0.0
 42
0.033
  0
VERTEX
  5
771
100
AcDbEntity
  8
BLACK
 62
     7
100
AcDbVertex
100
AcDb2dVertex
 10
9.422
 20
2.765
 30
0.0
 42
0.025
  0
VERTEX
  5
772
100
AcDbEntity
  8
BLACK
 62
     7
100
AcDbVertex
100
AcDb2dVertex
 10
9.663
 20
2.801
 30
0.0
 42
0.017
  0
VERTEX
  5
773
100
AcDbEntity
  8
BLACK
 62
     7
100
AcDbVertex
100
AcDb2dVertex
 10
10.321
 20
2.948
 30
0.0
 42
0.034
  0
VERTEX
  5
774
100
AcDbEntity
  8
BLACK
 62
     7
100
AcDbVertex
100
AcDb2dVertex
 10
10.461
 20
2.992
 30
0.0
  0
VERTEX
  5
775
100
AcDbEntity
  8
BLACK
 62
     7
100
AcDbVertex
100
AcDb2dVertex
 10
10.472
 20
2.997
 30
0.0
 42
0.057
  0
VERTEX
  5
776
100
AcDbEntity
  8
BLACK
 62
     7
100
AcDbVertex
100
AcDb2dVertex
 10
10.478
 20
3.001
 30
0.0
 42
0.161
  0
VERTEX
  5
777
100
AcDbEntity
  8
BLACK
 62
     7
100
AcDbVertex
100
AcDb2dVertex
 10
10.509
 20
3.05
 30
0.0
 42
0.156
  0
VERTEX
  5
778
100
AcDbEntity
  8
BLACK
 62
     7
100
AcDbVertex
100
AcDb2dVertex
 10
10.507
 20
3.07
 30
0.0
 42
0.175
  0
VERTEX
  5
779
100
AcDbEntity
  8
BLACK
 62
     7
100
AcDbVertex
100
AcDb2dVertex
 10
10.492
 20
3.084
 30
0.0
 42
0.084
  0
VERTEX
  5
77A
100
AcDbEntity
  8
BLACK
 62
     7
100
AcDbVertex
100
AcDb2dVertex
 10
10.395
 20
3.109
 30
0.0
  0
VERTEX
  5
77B
100
AcDbEntity
  8
BLACK
 62
     7
100
AcDbVertex
100
AcDb2dVertex
 10
10.304
 20
3.117
 30
0.0
 42
-0.049
  0
VERTEX
  5
77C
100
AcDbEntity
  8
BLACK
 62
     7
100
AcDbVertex
100
AcDb2dVertex
 10
10.268
 20
3.124
 30
0.0
 42
-0.115
  0
VERTEX
  5
77D
100
AcDbEntity
  8
BLACK
 62
     7
100
AcDbVertex
100
AcDb2dVertex
 10
10.241
 20
3.14
 30
0.0
 42
-0.154
  0
VERTEX
  5
77E
100
AcDbEntity
  8
BLACK
 62
     7
100
AcDbVertex
100
AcDb2dVertex
 10
10.227
 20
3.167
 30
0.0
 42
-0.095
  0
VERTEX
  5
77F
100
AcDbEntity
  8
BLACK
 62
     7
100
AcDbVertex
100
AcDb2dVertex
 10
10.228
 20
3.209
 30
0.0
 42
-0.143
  0
VERTEX
  5
780
100
AcDbEntity
  8
BLACK
 62
     7
100
AcDbVertex
100
AcDb2dVertex
 10
10.25
 20
3.253
 30
0.0
 42
-0.155
  0
VERTEX
  5
781
100
AcDbEntity
  8
BLACK
 62
     7
100
AcDbVertex
100
AcDb2dVertex
 10
10.298
 20
3.279
 30
0.0
 42
-0.085
  0
VERTEX
  5
782
100
AcDbEntity
  8
BLACK
 62
     7
100
AcDbVertex
100
AcDb2dVertex
 10
10.42
 20
3.277
 30
0.0
  0
VERTEX
  5
783
100
AcDbEntity
  8
BLACK
 62
     7
100
AcDbVertex
100
AcDb2dVertex
 10
10.545
 20
3.256
 30
0.0
 42
0.037
  0
VERTEX
  5
784
100
AcDbEntity
  8
BLACK
 62
     7
100
AcDbVertex
100
AcDb2dVertex
 10
10.593
 20
3.251
 30
0.0
 42
0.047
  0
VERTEX
  5
785
100
AcDbEntity
  8
BLACK
 62
     7
100
AcDbVertex
100
AcDb2dVertex
 10
10.612
 20
3.252
 30
0.0
 42
0.093
  0
VERTEX
  5
786
100
AcDbEntity
  8
BLACK
 62
     7
100
AcDbVertex
100
AcDb2dVertex
 10
10.625
 20
3.257
 30
0.0
 42
0.153
  0
VERTEX
  5
787
100
AcDbEntity
  8
BLACK
 62
     7
100
AcDbVertex
100
AcDb2dVertex
 10
10.633
 20
3.266
 30
0.0
 42
0.13
  0
VERTEX
  5
788
100
AcDbEntity
  8
BLACK
 62
     7
100
AcDbVertex
100
AcDb2dVertex
 10
10.635
 20
3.28
 30
0.0
 42
0.07
  0
VERTEX
  5
789
100
AcDbEntity
  8
BLACK
 62
     7
100
AcDbVertex
100
AcDb2dVertex
 10
10.63
 20
3.3
 30
0.0
 42
0.037
  0
VERTEX
  5
78A
100
AcDbEntity
  8
BLACK
 62
     7
100
AcDbVertex
100
AcDb2dVertex
 10
10.617
 20
3.325
 30
0.0
 42
0.069
  0
VERTEX
  5
78B
100
AcDbEntity
  8
BLACK
 62
     7
100
AcDbVertex
100
AcDb2dVertex
 10
10.561
 20
3.388
 30
0.0
 42
0.023
  0
VERTEX
  5
78C
100
AcDbEntity
  8
BLACK
 62
     7
100
AcDbVertex
100
AcDb2dVertex
 10
10.462
 20
3.468
 30
0.0
 42
0.018
  0
VERTEX
  5
78D
100
AcDbEntity
  8
BLACK
 62
     7
100
AcDbVertex
100
AcDb2dVertex
 10
10.191
 20
3.653
 30
0.0
 42
0.013
  0
VERTEX
  5
78E
100
AcDbEntity
  8
BLACK
 62
     7
100
AcDbVertex
100
AcDb2dVertex
 10
9.728
 20
3.932
 30
0.0
 42
0.059
  0
VERTEX
  5
78F
100
AcDbEntity
  8
BLACK
 62
     7
100
AcDbVertex
100
AcDb2dVertex
 10
8.313
 20
4.517
 30
0.0
 42
0.054
  0
VERTEX
  5
790
100
AcDbEntity
  8
BLACK
 62
     7
100
AcDbVertex
100
AcDb2dVertex
 10
6.839
 20
4.76
 30
0.0
 42
0.046
  0
VERTEX
  5
791
100
AcDbEntity
  8
BLACK
 62
     7
100
AcDbVertex
100
AcDb2dVertex
 10
5.337
 20
4.704
 30
0.0
 42
0.039
  0
VERTEX
  5
792
100
AcDbEntity
  8
BLACK
 62
     7
100
AcDbVertex
100
AcDb2dVertex
 10
3.838
 20
4.39
 30
0.0
 42
0.034
  0
VERTEX
  5
793
100
AcDbEntity
  8
BLACK
 62
     7
100
AcDbVertex
100
AcDb2dVertex
 10
3.476
 20
4.248
 30
0.0
 42
0.016
  0
VERTEX
  5
794
100
AcDbEntity
  8
BLACK
 62
     7
100
AcDbVertex
100
AcDb2dVertex
 10
3.303
 20
4.162
 30
0.0
 42
0.043
  0
VERTEX
  5
795
100
AcDbEntity
  8
BLACK
 62
     7
100
AcDbVertex
100
AcDb2dVertex
 10
3.191
 20
4.091
 30
0.0
 42
0.034
  0
VERTEX
  5
796
100
AcDbEntity
  8
BLACK
 62
     7
100
AcDbVertex
100
AcDb2dVertex
 10
3.143
 20
4.046
 30
0.0
 42
0.116
  0
VERTEX
  5
797
100
AcDbEntity
  8
BLACK
 62
     7
100
AcDbVertex
100
AcDb2dVertex
 10
3.115
 20
4.001
 30
0.0
  0
SEQEND
  5
798
100
AcDbEntity
  8
BLACK
 62
     7
  0
POLYLINE
  5
799
100
AcDbEntity
  8
BLACK
 62
     7
100
AcDb2dPolyline
 66
     1
 10
0.0
 20
0.0
 30
0.0
 70
     1
  0
VERTEX
  5
79A
100
AcDbEntity
  8
BLACK
 62
     7
100
AcDbVertex
100
AcDb2dVertex
 10
15.152
 20
4.335
 30
0.0
  0
VERTEX
  5
79B
100
AcDbEntity
  8
BLACK
 62
     7
100
AcDbVertex
100
AcDb2dVertex
 10
14.812
 20
3.996
 30
0.0
  0
VERTEX
  5
79C
100
AcDbEntity
  8
BLACK
 62
     7
100
AcDbVertex
100
AcDb2dVertex
 10
14.8
 20
3.984
 30
0.0
 42
-0.061
  0
VERTEX
  5
79D
100
AcDbEntity
  8
BLACK
 62
     7
100
AcDbVertex
100
AcDb2dVertex
 10
14.791
 20
3.978
 30
0.0
 42
-0.107
  0
VERTEX
  5
79E
100
AcDbEntity
  8
BLACK
 62
     7
100
AcDbVertex
100
AcDb2dVertex
 10
14.783
 20
3.975
 30
0.0
 42
-0.054
  0
VERTEX
  5
79F
100
AcDbEntity
  8
BLACK
 62
     7
100
AcDbVertex
100
AcDb2dVertex
 10
14.774
 20
3.976
 30
0.0
 42
-0.039
  0
VERTEX
  5
7A0
100
AcDbEntity
  8
BLACK
 62
     7
100
AcDbVertex
100
AcDb2dVertex
 10
14.754
 20
3.981
 30
0.0
 42
-0.155
  0
VERTEX
  5
7A1
100
AcDbEntity
  8
BLACK
 62
     7
100
AcDbVertex
100
AcDb2dVertex
 10
14.743
 20
3.987
 30
0.0
 42
-0.155
  0
VERTEX
  5
7A2
100
AcDbEntity
  8
BLACK
 62
     7
100
AcDbVertex
100
AcDb2dVertex
 10
14.74
 20
3.999
 30
0.0
 42
-0.035
  0
VERTEX
  5
7A3
100
AcDbEntity
  8
BLACK
 62
     7
100
AcDbVertex
100
AcDb2dVertex
 10
14.741
 20
4.018
 30
0.0
 42
-0.125
  0
VERTEX
  5
7A4
100
AcDbEntity
  8
BLACK
 62
     7
100
AcDbVertex
100
AcDb2dVertex
 10
14.746
 20
4.035
 30
0.0
 42
-0.049
  0
VERTEX
  5
7A5
100
AcDbEntity
  8
BLACK
 62
     7
100
AcDbVertex
100
AcDb2dVertex
 10
14.765
 20
4.056
 30
0.0
  0
VERTEX
  5
7A6
100
AcDbEntity
  8
BLACK
 62
     7
100
AcDbVertex
100
AcDb2dVertex
 10
15.11
 20
4.405
 30
0.0
  0
VERTEX
  5
7A7
100
AcDbEntity
  8
BLACK
 62
     7
100
AcDbVertex
100
AcDb2dVertex
 10
15.123
 20
4.416
 30
0.0
 42
-0.111
  0
VERTEX
  5
7A8
100
AcDbEntity
  8
BLACK
 62
     7
100
AcDbVertex
100
AcDb2dVertex
 10
15.131
 20
4.421
 30
0.0
 42
-0.186
  0
VERTEX
  5
7A9
100
AcDbEntity
  8
BLACK
 62
     7
100
AcDbVertex
100
AcDb2dVertex
 10
15.139
 20
4.42
 30
0.0
 42
-0.06
  0
VERTEX
  5
7AA
100
AcDbEntity
  8
BLACK
 62
     7
100
AcDbVertex
100
AcDb2dVertex
 10
15.148
 20
4.413
 30
0.0
 42
-0.079
  0
VERTEX
  5
7AB
100
AcDbEntity
  8
BLACK
 62
     7
100
AcDbVertex
100
AcDb2dVertex
 10
15.171
 20
4.388
 30
0.0
 42
-0.172
  0
VERTEX
  5
7AC
100
AcDbEntity
  8
BLACK
 62
     7
100
AcDbVertex
100
AcDb2dVertex
 10
15.175
 20
4.365
 30
0.0
 42
-0.156
  0
VERTEX
  5
7AD
100
AcDbEntity
  8
BLACK
 62
     7
100
AcDbVertex
100
AcDb2dVertex
 10
15.17
 20
4.355
 30
0.0
 42
-0.029
  0
VERTEX
  5
7AE
100
AcDbEntity
  8
BLACK
 62
     7
100
AcDbVertex
100
AcDb2dVertex
 10
15.152
 20
4.335
 30
0.0
  0
SEQEND
  5
7AF
100
AcDbEntity
  8
BLACK
 62
     7
  0
POLYLINE
  5
7B0
100
AcDbEntity
  8
BLACK
 62
     7
100
AcDb2dPolyline
 66
     1
 10
0.0
 20
0.0
 30
0.0
 70
     1
  0
VERTEX
  5
7B1
100
AcDbEntity
  8
BLACK
 62
     7
100
AcDbVertex
100
AcDb2dVertex
 10
10.844
 20
4.265
 30
0.0
  0
VERTEX
  5
7B2
100
AcDbEntity
  8
BLACK
 62
     7
100
AcDbVertex
100
AcDb2dVertex
 10
10.85
 20
4.265
 30
0.0
 42
0.08
  0
VERTEX
  5
7B3
100
AcDbEntity
  8
BLACK
 62
     7
100
AcDbVertex
100
AcDb2dVertex
 10
10.852
 20
4.265
 30
0.0
 42
0.21
  0
VERTEX
  5
7B4
100
AcDbEntity
  8
BLACK
 62
     7
100
AcDbVertex
100
AcDb2dVertex
 10
10.853
 20
4.266
 30
0.0
 42
0.091
  0
VERTEX
  5
7B5
100
AcDbEntity
  8
BLACK
 62
     7
100
AcDbVertex
100
AcDb2dVertex
 10
10.853
 20
4.268
 30
0.0
  0
VERTEX
  5
7B6
100
AcDbEntity
  8
BLACK
 62
     7
100
AcDbVertex
100
AcDb2dVertex
 10
10.853
 20
4.271
 30
0.0
  0
VERTEX
  5
7B7
100
AcDbEntity
  8
BLACK
 62
     7
100
AcDbVertex
100
AcDb2dVertex
 10
10.853
 20
4.284
 30
0.0
 42
-0.042
  0
VERTEX
  5
7B8
100
AcDbEntity
  8
BLACK
 62
     7
100
AcDbVertex
100
AcDb2dVertex
 10
10.853
 20
4.287
 30
0.0
 42
-0.105
  0
VERTEX
  5
7B9
100
AcDbEntity
  8
BLACK
 62
     7
100
AcDbVertex
100
AcDb2dVertex
 10
10.854
 20
4.289
 30
0.0
 42
-0.153
  0
VERTEX
  5
7BA
100
AcDbEntity
  8
BLACK
 62
     7
100
AcDbVertex
100
AcDb2dVertex
 10
10.856
 20
4.29
 30
0.0
 42
-0.094
  0
VERTEX
  5
7BB
100
AcDbEntity
  8
BLACK
 62
     7
100
AcDbVertex
100
AcDb2dVertex
 10
10.858
 20
4.29
 30
0.0
 42
-0.058
  0
VERTEX
  5
7BC
100
AcDbEntity
  8
BLACK
 62
     7
100
AcDbVertex
100
AcDb2dVertex
 10
10.867
 20
4.289
 30
0.0
  0
VERTEX
  5
7BD
100
AcDbEntity
  8
BLACK
 62
     7
100
AcDbVertex
100
AcDb2dVertex
 10
10.883
 20
4.284
 30
0.0
 42
0.004
  0
VERTEX
  5
7BE
100
AcDbEntity
  8
BLACK
 62
     7
100
AcDbVertex
100
AcDb2dVertex
 10
11.142
 20
4.212
 30
0.0
  0
VERTEX
  5
7BF
100
AcDbEntity
  8
BLACK
 62
     7
100
AcDbVertex
100
AcDb2dVertex
 10
11.198
 20
4.195
 30
0.0
 42
-0.082
  0
VERTEX
  5
7C0
100
AcDbEntity
  8
BLACK
 62
     7
100
AcDbVertex
100
AcDb2dVertex
 10
11.397
 20
4.093
 30
0.0
 42
-0.028
  0
VERTEX
  5
7C1
100
AcDbEntity
  8
BLACK
 62
     7
100
AcDbVertex
100
AcDb2dVertex
 10
11.41
 20
4.084
 30
0.0
 42
-0.064
  0
VERTEX
  5
7C2
100
AcDbEntity
  8
BLACK
 62
     7
100
AcDbVertex
100
AcDb2dVertex
 10
11.413
 20
4.08
 30
0.0
 42
-0.079
  0
VERTEX
  5
7C3
100
AcDbEntity
  8
BLACK
 62
     7
100
AcDbVertex
100
AcDb2dVertex
 10
11.414
 20
4.079
 30
0.0
 42
-0.132
  0
VERTEX
  5
7C4
100
AcDbEntity
  8
BLACK
 62
     7
100
AcDbVertex
100
AcDb2dVertex
 10
11.414
 20
4.078
 30
0.0
 42
-0.131
  0
VERTEX
  5
7C5
100
AcDbEntity
  8
BLACK
 62
     7
100
AcDbVertex
100
AcDb2dVertex
 10
11.413
 20
4.077
 30
0.0
 42
-0.079
  0
VERTEX
  5
7C6
100
AcDbEntity
  8
BLACK
 62
     7
100
AcDbVertex
100
AcDb2dVertex
 10
11.412
 20
4.076
 30
0.0
 42
-0.064
  0
VERTEX
  5
7C7
100
AcDbEntity
  8
BLACK
 62
     7
100
AcDbVertex
100
AcDb2dVertex
 10
11.408
 20
4.075
 30
0.0
 42
-0.028
  0
VERTEX
  5
7C8
100
AcDbEntity
  8
BLACK
 62
     7
100
AcDbVertex
100
AcDb2dVertex
 10
11.392
 20
4.073
 30
0.0
 42
-0.04
  0
VERTEX
  5
7C9
100
AcDbEntity
  8
BLACK
 62
     7
100
AcDbVertex
100
AcDb2dVertex
 10
11.313
 20
4.073
 30
0.0
 42
-0.052
  0
VERTEX
  5
7CA
100
AcDbEntity
  8
BLACK
 62
     7
100
AcDbVertex
100
AcDb2dVertex
 10
11.047
 20
4.136
 30
0.0
 42
-0.024
  0
VERTEX
  5
7CB
100
AcDbEntity
  8
BLACK
 62
     7
100
AcDbVertex
100
AcDb2dVertex
 10
10.919
 20
4.184
 30
0.0
  0
VERTEX
  5
7CC
100
AcDbEntity
  8
BLACK
 62
     7
100
AcDbVertex
100
AcDb2dVertex
 10
10.876
 20
4.206
 30
0.0
  0
VERTEX
  5
7CD
100
AcDbEntity
  8
BLACK
 62
     7
100
AcDbVertex
100
AcDb2dVertex
 10
10.862
 20
4.215
 30
0.0
 42
-0.076
  0
VERTEX
  5
7CE
100
AcDbEntity
  8
BLACK
 62
     7
100
AcDbVertex
100
AcDb2dVertex
 10
10.853
 20
4.224
 30
0.0
 42
-0.097
  0
VERTEX
  5
7CF
100
AcDbEntity
  8
BLACK
 62
     7
100
AcDbVertex
100
AcDb2dVertex
 10
10.842
 20
4.251
 30
0.0
 42
-0.061
  0
VERTEX
  5
7D0
100
AcDbEntity
  8
BLACK
 62
     7
100
AcDbVertex
100
AcDb2dVertex
 10
10.841
 20
4.263
 30
0.0
 42
-0.094
  0
VERTEX
  5
7D1
100
AcDbEntity
  8
BLACK
 62
     7
100
AcDbVertex
100
AcDb2dVertex
 10
10.841
 20
4.264
 30
0.0
 42
-0.14
  0
VERTEX
  5
7D2
100
AcDbEntity
  8
BLACK
 62
     7
100
AcDbVertex
100
AcDb2dVertex
 10
10.842
 20
4.265
 30
0.0
 42
-0.096
  0
VERTEX
  5
7D3
100
AcDbEntity
  8
BLACK
 62
     7
100
AcDbVertex
100
AcDb2dVertex
 10
10.843
 20
4.265
 30
0.0
 42
-0.04
  0
VERTEX
  5
7D4
100
AcDbEntity
  8
BLACK
 62
     7
100
AcDbVertex
100
AcDb2dVertex
 10
10.844
 20
4.265
 30
0.0
  0
SEQEND
  5
7D5
100
AcDbEntity
  8
BLACK
 62
     7
  0
POLYLINE
  5
7D6
100
AcDbEntity
  8
BLACK
 62
     7
100
AcDb2dPolyline
 66
     1
 10
0.0
 20
0.0
 30
0.0
 70
     1
  0
VERTEX
  5
7D7
100
AcDbEntity
  8
BLACK
 62
     7
100
AcDbVertex
100
AcDb2dVertex
 10
8.29
 20
3.441
 30
0.0
 42
-0.05
  0
VERTEX
  5
7D8
100
AcDbEntity
  8
BLACK
 62
     7
100
AcDbVertex
100
AcDb2dVertex
 10
8.264
 20
3.413
 30
0.0
 42
-0.114
  0
VERTEX
  5
7D9
100
AcDbEntity
  8
BLACK
 62
     7
100
AcDbVertex
100
AcDb2dVertex
 10
8.253
 20
3.408
 30
0.0
 42
-0.172
  0
VERTEX
  5
7DA
100
AcDbEntity
  8
BLACK
 62
     7
100
AcDbVertex
100
AcDb2dVertex
 10
8.243
 20
3.41
 30
0.0
 42
-0.097
  0
VERTEX
  5
7DB
100
AcDbEntity
  8
BLACK
 62
     7
100
AcDbVertex
100
AcDb2dVertex
 10
8.232
 20
3.419
 30
0.0
 42
-0.04
  0
VERTEX
  5
7DC
100
AcDbEntity
  8
BLACK
 62
     7
100
AcDbVertex
100
AcDb2dVertex
 10
8.219
 20
3.437
 30
0.0
 42
-0.023
  0
VERTEX
  5
7DD
100
AcDbEntity
  8
BLACK
 62
     7
100
AcDbVertex
100
AcDb2dVertex
 10
8.186
 20
3.501
 30
0.0
  0
VERTEX
  5
7DE
100
AcDbEntity
  8
BLACK
 62
     7
100
AcDbVertex
100
AcDb2dVertex
 10
8.004
 20
3.884
 30
0.0
  0
VERTEX
  5
7DF
100
AcDbEntity
  8
BLACK
 62
     7
100
AcDbVertex
100
AcDb2dVertex
 10
7.998
 20
3.9
 30
0.0
 42
-0.089
  0
VERTEX
  5
7E0
100
AcDbEntity
  8
BLACK
 62
     7
100
AcDbVertex
100
AcDb2dVertex
 10
7.996
 20
3.91
 30
0.0
 42
-0.139
  0
VERTEX
  5
7E1
100
AcDbEntity
  8
BLACK
 62
     7
100
AcDbVertex
100
AcDb2dVertex
 10
7.999
 20
3.918
 30
0.0
 42
-0.054
  0
VERTEX
  5
7E2
100
AcDbEntity
  8
BLACK
 62
     7
100
AcDbVertex
100
AcDb2dVertex
 10
8.006
 20
3.927
 30
0.0
  0
VERTEX
  5
7E3
100
AcDbEntity
  8
BLACK
 62
     7
100
AcDbVertex
100
AcDb2dVertex
 10
8.025
 20
3.946
 30
0.0
  0
VERTEX
  5
7E4
100
AcDbEntity
  8
BLACK
 62
     7
100
AcDbVertex
100
AcDb2dVertex
 10
8.028
 20
3.949
 30
0.0
 42
-0.068
  0
VERTEX
  5
7E5
100
AcDbEntity
  8
BLACK
 62
     7
100
AcDbVertex
100
AcDb2dVertex
 10
8.03
 20
3.95
 30
0.0
 42
-0.283
  0
VERTEX
  5
7E6
100
AcDbEntity
  8
BLACK
 62
     7
100
AcDbVertex
100
AcDb2dVertex
 10
8.035
 20
3.95
 30
0.0
 42
-0.066
  0
VERTEX
  5
7E7
100
AcDbEntity
  8
BLACK
 62
     7
100
AcDbVertex
100
AcDb2dVertex
 10
8.038
 20
3.947
 30
0.0
  0
VERTEX
  5
7E8
100
AcDbEntity
  8
BLACK
 62
     7
100
AcDbVertex
100
AcDb2dVertex
 10
8.049
 20
3.929
 30
0.0
  0
VERTEX
  5
7E9
100
AcDbEntity
  8
BLACK
 62
     7
100
AcDbVertex
100
AcDb2dVertex
 10
8.29
 20
3.487
 30
0.0
  0
VERTEX
  5
7EA
100
AcDbEntity
  8
BLACK
 62
     7
100
AcDbVertex
100
AcDb2dVertex
 10
8.298
 20
3.471
 30
0.0
 42
-0.099
  0
VERTEX
  5
7EB
100
AcDbEntity
  8
BLACK
 62
     7
100
AcDbVertex
100
AcDb2dVertex
 10
8.3
 20
3.461
 30
0.0
 42
-0.129
  0
VERTEX
  5
7EC
100
AcDbEntity
  8
BLACK
 62
     7
100
AcDbVertex
100
AcDb2dVertex
 10
8.297
 20
3.451
 30
0.0
 42
-0.046
  0
VERTEX
  5
7ED
100
AcDbEntity
  8
BLACK
 62
     7
100
AcDbVertex
100
AcDb2dVertex
 10
8.29
 20
3.441
 30
0.0
  0
SEQEND
  5
7EE
100
AcDbEntity
  8
BLACK
 62
     7
  0
POLYLINE
  5
7EF
100
AcDbEntity
  8
BLACK
 62
     7
100
AcDb2dPolyline
 66
     1
 10
0.0
 20
0.0
 30
0.0
 70
     1
  0
VERTEX
  5
7F0
100
AcDbEntity
  8
BLACK
 62
     7
100
AcDbVertex
100
AcDb2dVertex
 10
1.952
 20
3.407
 30
0.0
 42
-0.034
  0
VERTEX
  5
7F1
100
AcDbEntity
  8
BLACK
 62
     7
100
AcDbVertex
100
AcDb2dVertex
 10
1.932
 20
3.411
 30
0.0
 42
-0.135
  0
VERTEX
  5
7F2
100
AcDbEntity
  8
BLACK
 62
     7
100
AcDbVertex
100
AcDb2dVertex
 10
1.922
 20
3.416
 30
0.0
 42
-0.174
  0
VERTEX
  5
7F3
100
AcDbEntity
  8
BLACK
 62
     7
100
AcDbVertex
100
AcDb2dVertex
 10
1.919
 20
3.425
 30
0.0
 42
-0.042
  0
VERTEX
  5
7F4
100
AcDbEntity
  8
BLACK
 62
     7
100
AcDbVertex
100
AcDb2dVertex
 10
1.919
 20
3.44
 30
0.0
 42
-0.143
  0
VERTEX
  5
7F5
100
AcDbEntity
  8
BLACK
 62
     7
100
AcDbVertex
100
AcDb2dVertex
 10
1.924
 20
3.453
 30
0.0
 42
-0.037
  0
VERTEX
  5
7F6
100
AcDbEntity
  8
BLACK
 62
     7
100
AcDbVertex
100
AcDb2dVertex
 10
1.943
 20
3.473
 30
0.0
  0
VERTEX
  5
7F7
100
AcDbEntity
  8
BLACK
 62
     7
100
AcDbVertex
100
AcDb2dVertex
 10
2.31
 20
3.843
 30
0.0
 42
-0.191
  0
VERTEX
  5
7F8
100
AcDbEntity
  8
BLACK
 62
     7
100
AcDbVertex
100
AcDb2dVertex
 10
2.311
 20
3.844
 30
0.0
 42
-0.09
  0
VERTEX
  5
7F9
100
AcDbEntity
  8
BLACK
 62
     7
100
AcDbVertex
100
AcDb2dVertex
 10
2.313
 20
3.843
 30
0.0
 42
-0.065
  0
VERTEX
  5
7FA
100
AcDbEntity
  8
BLACK
 62
     7
100
AcDbVertex
100
AcDb2dVertex
 10
2.32
 20
3.84
 30
0.0
 42
-0.046
  0
VERTEX
  5
7FB
100
AcDbEntity
  8
BLACK
 62
     7
100
AcDbVertex
100
AcDb2dVertex
 10
2.335
 20
3.827
 30
0.0
 42
-0.045
  0
VERTEX
  5
7FC
100
AcDbEntity
  8
BLACK
 62
     7
100
AcDbVertex
100
AcDb2dVertex
 10
2.348
 20
3.811
 30
0.0
 42
-0.064
  0
VERTEX
  5
7FD
100
AcDbEntity
  8
BLACK
 62
     7
100
AcDbVertex
100
AcDb2dVertex
 10
2.352
 20
3.805
 30
0.0
 42
-0.088
  0
VERTEX
  5
7FE
100
AcDbEntity
  8
BLACK
 62
     7
100
AcDbVertex
100
AcDb2dVertex
 10
2.352
 20
3.803
 30
0.0
 42
-0.189
  0
VERTEX
  5
7FF
100
AcDbEntity
  8
BLACK
 62
     7
100
AcDbVertex
100
AcDb2dVertex
 10
2.351
 20
3.801
 30
0.0
  0
VERTEX
  5
800
100
AcDbEntity
  8
BLACK
 62
     7
100
AcDbVertex
100
AcDb2dVertex
 10
1.99
 20
3.426
 30
0.0
  0
VERTEX
  5
801
100
AcDbEntity
  8
BLACK
 62
     7
100
AcDbVertex
100
AcDb2dVertex
 10
1.977
 20
3.414
 30
0.0
 42
-0.062
  0
VERTEX
  5
802
100
AcDbEntity
  8
BLACK
 62
     7
100
AcDbVertex
100
AcDb2dVertex
 10
1.969
 20
3.408
 30
0.0
 42
-0.109
  0
VERTEX
  5
803
100
AcDbEntity
  8
BLACK
 62
     7
100
AcDbVertex
100
AcDb2dVertex
 10
1.961
 20
3.406
 30
0.0
 42
-0.055
  0
VERTEX
  5
804
100
AcDbEntity
  8
BLACK
 62
     7
100
AcDbVertex
100
AcDb2dVertex
 10
1.952
 20
3.407
 30
0.0
  0
SEQEND
  5
805
100
AcDbEntity
  8
BLACK
 62
     7
  0
POLYLINE
  5
806
100
AcDbEntity
  8
BLACK
 62
     7
100
AcDb2dPolyline
 66
     1
 10
0.0
 20
0.0
 30
0.0
 70
     1
  0
VERTEX
  5
807
100
AcDbEntity
  8
BLACK
 62
     7
100
AcDbVertex
100
AcDb2dVertex
 10
3.363
 20
3.039
 30
0.0
  0
VERTEX
  5
808
100
AcDbEntity
  8
BLACK
 62
     7
100
AcDbVertex
100
AcDb2dVertex
 10
3.359
 20
3.005
 30
0.0
 42
0.177
  0
VERTEX
  5
809
100
AcDbEntity
  8
BLACK
 62
     7
100
AcDbVertex
100
AcDb2dVertex
 10
3.365
 20
2.973
 30
0.0
 42
0.15
  0
VERTEX
  5
80A
100
AcDbEntity
  8
BLACK
 62
     7
100
AcDbVertex
100
AcDb2dVertex
 10
3.397
 20
2.953
 30
0.0
 42
0.051
  0
VERTEX
  5
80B
100
AcDbEntity
  8
BLACK
 62
     7
100
AcDbVertex
100
AcDb2dVertex
 10
3.448
 20
2.942
 30
0.0
  0
VERTEX
  5
80C
100
AcDbEntity
  8
BLACK
 62
     7
100
AcDbVertex
100
AcDb2dVertex
 10
3.512
 20
2.936
 30
0.0
  0
VERTEX
  5
80D
100
AcDbEntity
  8
BLACK
 62
     7
100
AcDbVertex
100
AcDb2dVertex
 10
3.581
 20
2.932
 30
0.0
 42
-0.048
  0
VERTEX
  5
80E
100
AcDbEntity
  8
BLACK
 62
     7
100
AcDbVertex
100
AcDb2dVertex
 10
3.704
 20
2.918
 30
0.0
 42
-0.108
  0
VERTEX
  5
80F
100
AcDbEntity
  8
BLACK
 62
     7
100
AcDbVertex
100
AcDb2dVertex
 10
3.742
 20
2.9
 30
0.0
 42
-0.252
  0
VERTEX
  5
810
100
AcDbEntity
  8
BLACK
 62
     7
100
AcDbVertex
100
AcDb2dVertex
 10
3.754
 20
2.871
 30
0.0
 42
-0.078
  0
VERTEX
  5
811
100
AcDbEntity
  8
BLACK
 62
     7
100
AcDbVertex
100
AcDb2dVertex
 10
3.749
 20
2.849
 30
0.0
  0
VERTEX
  5
812
100
AcDbEntity
  8
BLACK
 62
     7
100
AcDbVertex
100
AcDb2dVertex
 10
3.738
 20
2.827
 30
0.0
 42
-0.046
  0
VERTEX
  5
813
100
AcDbEntity
  8
BLACK
 62
     7
100
AcDbVertex
100
AcDb2dVertex
 10
3.731
 20
2.816
 30
0.0
 42
-0.123
  0
VERTEX
  5
814
100
AcDbEntity
  8
BLACK
 62
     7
100
AcDbVertex
100
AcDb2dVertex
 10
3.723
 20
2.81
 30
0.0
 42
-0.092
  0
VERTEX
  5
815
100
AcDbEntity
  8
BLACK
 62
     7
100
AcDbVertex
100
AcDb2dVertex
 10
3.712
 20
2.808
 30
0.0
  0
VERTEX
  5
816
100
AcDbEntity
  8
BLACK
 62
     7
100
AcDbVertex
100
AcDb2dVertex
 10
3.695
 20
2.809
 30
0.0
  0
VERTEX
  5
817
100
AcDbEntity
  8
BLACK
 62
     7
100
AcDbVertex
100
AcDb2dVertex
 10
3.274
 20
2.837
 30
0.0
 42
0.034
  0
VERTEX
  5
818
100
AcDbEntity
  8
BLACK
 62
     7
100
AcDbVertex
100
AcDb2dVertex
 10
3.258
 20
2.837
 30
0.0
 42
0.07
  0
VERTEX
  5
819
100
AcDbEntity
  8
BLACK
 62
     7
100
AcDbVertex
100
AcDb2dVertex
 10
3.254
 20
2.836
 30
0.0
 42
0.173
  0
VERTEX
  5
81A
100
AcDbEntity
  8
BLACK
 62
     7
100
AcDbVertex
100
AcDb2dVertex
 10
3.251
 20
2.834
 30
0.0
 42
0.173
  0
VERTEX
  5
81B
100
AcDbEntity
  8
BLACK
 62
     7
100
AcDbVertex
100
AcDb2dVertex
 10
3.251
 20
2.831
 30
0.0
 42
0.07
  0
VERTEX
  5
81C
100
AcDbEntity
  8
BLACK
 62
     7
100
AcDbVertex
100
AcDb2dVertex
 10
3.252
 20
2.827
 30
0.0
 42
0.034
  0
VERTEX
  5
81D
100
AcDbEntity
  8
BLACK
 62
     7
100
AcDbVertex
100
AcDb2dVertex
 10
3.261
 20
2.813
 30
0.0
 42
0.032
  0
VERTEX
  5
81E
100
AcDbEntity
  8
BLACK
 62
     7
100
AcDbVertex
100
AcDb2dVertex
 10
3.391
 20
2.638
 30
0.0
 42
0.059
  0
VERTEX
  5
81F
100
AcDbEntity
  8
BLACK
 62
     7
100
AcDbVertex
100
AcDb2dVertex
 10
3.532
 20
2.51
 30
0.0
 42
0.032
  0
VERTEX
  5
820
100
AcDbEntity
  8
BLACK
 62
     7
100
AcDbVertex
100
AcDb2dVertex
 10
3.742
 20
2.383
 30
0.0
 42
0.006
  0
VERTEX
  5
821
100
AcDbEntity
  8
BLACK
 62
     7
100
AcDbVertex
100
AcDb2dVertex
 10
4.079
 20
2.209
 30
0.0
 42
0.014
  0
VERTEX
  5
822
100
AcDbEntity
  8
BLACK
 62
     7
100
AcDbVertex
100
AcDb2dVertex
 10
4.811
 20
1.86
 30
0.0
 42
0.027
  0
VERTEX
  5
823
100
AcDbEntity
  8
BLACK
 62
     7
100
AcDbVertex
100
AcDb2dVertex
 10
5.524
 20
1.589
 30
0.0
 42
0.035
  0
VERTEX
  5
824
100
AcDbEntity
  8
BLACK
 62
     7
100
AcDbVertex
100
AcDb2dVertex
 10
6.281
 20
1.406
 30
0.0
 42
0.033
  0
VERTEX
  5
825
100
AcDbEntity
  8
BLACK
 62
     7
100
AcDbVertex
100
AcDb2dVertex
 10
7.144
 20
1.32
 30
0.0
 42
0.032
  0
VERTEX
  5
826
100
AcDbEntity
  8
BLACK
 62
     7
100
AcDbVertex
100
AcDb2dVertex
 10
7.735
 20
1.335
 30
0.0
 42
0.023
  0
VERTEX
  5
827
100
AcDbEntity
  8
BLACK
 62
     7
100
AcDbVertex
100
AcDb2dVertex
 10
8.311
 20
1.417
 30
0.0
  0
VERTEX
  5
828
100
AcDbEntity
  8
BLACK
 62
     7
100
AcDbVertex
100
AcDb2dVertex
 10
8.566
 20
1.466
 30
0.0
 42
0.016
  0
VERTEX
  5
829
100
AcDbEntity
  8
BLACK
 62
     7
100
AcDbVertex
100
AcDb2dVertex
 10
8.906
 20
1.546
 30
0.0
 42
0.041
  0
VERTEX
  5
82A
100
AcDbEntity
  8
BLACK
 62
     7
100
AcDbVertex
100
AcDb2dVertex
 10
9.213
 20
1.652
 30
0.0
 42
0.057
  0
VERTEX
  5
82B
100
AcDbEntity
  8
BLACK
 62
     7
100
AcDbVertex
100
AcDb2dVertex
 10
9.317
 20
1.713
 30
0.0
 42
0.155
  0
VERTEX
  5
82C
100
AcDbEntity
  8
BLACK
 62
     7
100
AcDbVertex
100
AcDb2dVertex
 10
9.367
 20
1.779
 30
0.0
 42
0.169
  0
VERTEX
  5
82D
100
AcDbEntity
  8
BLACK
 62
     7
100
AcDbVertex
100
AcDb2dVertex
 10
9.359
 20
1.872
 30
0.0
 42
0.084
  0
VERTEX
  5
82E
100
AcDbEntity
  8
BLACK
 62
     7
100
AcDbVertex
100
AcDb2dVertex
 10
9.311
 20
1.945
 30
0.0
 42
0.052
  0
VERTEX
  5
82F
100
AcDbEntity
  8
BLACK
 62
     7
100
AcDbVertex
100
AcDb2dVertex
 10
9.31
 20
1.947
 30
0.0
  0
VERTEX
  5
830
100
AcDbEntity
  8
BLACK
 62
     7
100
AcDbVertex
100
AcDb2dVertex
 10
9.299
 20
1.952
 30
0.0
  0
VERTEX
  5
831
100
AcDbEntity
  8
BLACK
 62
     7
100
AcDbVertex
100
AcDb2dVertex
 10
9.177
 20
2.002
 30
0.0
 42
0.005
  0
VERTEX
  5
832
100
AcDbEntity
  8
BLACK
 62
     7
100
AcDbVertex
100
AcDb2dVertex
 10
8.847
 20
2.122
 30
0.0
 42
0.005
  0
VERTEX
  5
833
100
AcDbEntity
  8
BLACK
 62
     7
100
AcDbVertex
100
AcDb2dVertex
 10
6.808
 20
2.82
 30
0.0
  0
VERTEX
  5
834
100
AcDbEntity
  8
BLACK
 62
     7
100
AcDbVertex
100
AcDb2dVertex
 10
6.43
 20
2.942
 30
0.0
 42
0.017
  0
VERTEX
  5
835
100
AcDbEntity
  8
BLACK
 62
     7
100
AcDbVertex
100
AcDb2dVertex
 10
6.227
 20
3.001
 30
0.0
 42
0.011
  0
VERTEX
  5
836
100
AcDbEntity
  8
BLACK
 62
     7
100
AcDbVertex
100
AcDb2dVertex
 10
5.408
 20
3.163
 30
0.0
 42
0.036
  0
VERTEX
  5
837
100
AcDbEntity
  8
BLACK
 62
     7
100
AcDbVertex
100
AcDb2dVertex
 10
4.814
 20
3.224
 30
0.0
 42
0.035
  0
VERTEX
  5
838
100
AcDbEntity
  8
BLACK
 62
     7
100
AcDbVertex
100
AcDb2dVertex
 10
4.219
 20
3.193
 30
0.0
 42
0.01
  0
VERTEX
  5
839
100
AcDbEntity
  8
BLACK
 62
     7
100
AcDbVertex
100
AcDb2dVertex
 10
3.396
 20
3.075
 30
0.0
 42
0.038
  0
VERTEX
  5
83A
100
AcDbEntity
  8
BLACK
 62
     7
100
AcDbVertex
100
AcDb2dVertex
 10
3.38
 20
3.072
 30
0.0
 42
0.132
  0
VERTEX
  5
83B
100
AcDbEntity
  8
BLACK
 62
     7
100
AcDbVertex
100
AcDb2dVertex
 10
3.37
 20
3.066
 30
0.0
 42
0.132
  0
VERTEX
  5
83C
100
AcDbEntity
  8
BLACK
 62
     7
100
AcDbVertex
100
AcDb2dVertex
 10
3.365
 20
3.056
 30
0.0
 42
0.038
  0
VERTEX
  5
83D
100
AcDbEntity
  8
BLACK
 62
     7
100
AcDbVertex
100
AcDb2dVertex
 10
3.363
 20
3.039
 30
0.0
  0
SEQEND
  5
83E
100
AcDbEntity
  8
BLACK
 62
     7
  0
POLYLINE
  5
83F
100
AcDbEntity
  8
BLACK
 62
     7
100
AcDb2dPolyline
 66
     1
 10
0.0
 20
0.0
 30
0.0
 70
     1
  0
VERTEX
  5
840
100
AcDbEntity
  8
BLACK
 62
     7
100
AcDbVertex
100
AcDb2dVertex
 10
5.66
 20
2.469
 30
0.0
  0
VERTEX
  5
841
100
AcDbEntity
  8
BLACK
 62
     7
100
AcDbVertex
100
AcDb2dVertex
 10
5.664
 20
2.5
 30
0.0
 42
-0.05
  0
VERTEX
  5
842
100
AcDbEntity
  8
BLACK
 62
     7
100
AcDbVertex
100
AcDb2dVertex
 10
5.667
 20
2.509
 30
0.0
 42
-0.119
  0
VERTEX
  5
843
100
AcDbEntity
  8
BLACK
 62
     7
100
AcDbVertex
100
AcDb2dVertex
 10
5.671
 20
2.514
 30
0.0
 42
-0.151
  0
VERTEX
  5
844
100
AcDbEntity
  8
BLACK
 62
     7
100
AcDbVertex
100
AcDb2dVertex
 10
5.676
 20
2.516
 30
0.0
 42
-0.078
  0
VERTEX
  5
845
100
AcDbEntity
  8
BLACK
 62
     7
100
AcDbVertex
100
AcDb2dVertex
 10
5.684
 20
2.516
 30
0.0
 42
-0.034
  0
VERTEX
  5
846
100
AcDbEntity
  8
BLACK
 62
     7
100
AcDbVertex
100
AcDb2dVertex
 10
5.709
 20
2.508
 30
0.0
 42
-0.04
  0
VERTEX
  5
847
100
AcDbEntity
  8
BLACK
 62
     7
100
AcDbVertex
100
AcDb2dVertex
 10
5.719
 20
2.503
 30
0.0
 42
-0.084
  0
VERTEX
  5
848
100
AcDbEntity
  8
BLACK
 62
     7
100
AcDbVertex
100
AcDb2dVertex
 10
5.726
 20
2.497
 30
0.0
 42
-0.067
  0
VERTEX
  5
849
100
AcDbEntity
  8
BLACK
 62
     7
100
AcDbVertex
100
AcDb2dVertex
 10
5.74
 20
2.473
 30
0.0
  0
VERTEX
  5
84A
100
AcDbEntity
  8
BLACK
 62
     7
100
AcDbVertex
100
AcDb2dVertex
 10
5.923
 20
2.083
 30
0.0
 42
0.03
  0
VERTEX
  5
84B
100
AcDbEntity
  8
BLACK
 62
     7
100
AcDbVertex
100
AcDb2dVertex
 10
5.934
 20
2.063
 30
0.0
 42
0.058
  0
VERTEX
  5
84C
100
AcDbEntity
  8
BLACK
 62
     7
100
AcDbVertex
100
AcDb2dVertex
 10
5.937
 20
2.058
 30
0.0
 42
0.069
  0
VERTEX
  5
84D
100
AcDbEntity
  8
BLACK
 62
     7
100
AcDbVertex
100
AcDb2dVertex
 10
5.939
 20
2.057
 30
0.0
 42
0.121
  0
VERTEX
  5
84E
100
AcDbEntity
  8
BLACK
 62
     7
100
AcDbVertex
100
AcDb2dVertex
 10
5.94
 20
2.056
 30
0.0
  0
VERTEX
  5
84F
100
AcDbEntity
  8
BLACK
 62
     7
100
AcDbVertex
100
AcDb2dVertex
 10
5.946
 20
2.056
 30
0.0
 42
-0.049
  0
VERTEX
  5
850
100
AcDbEntity
  8
BLACK
 62
     7
100
AcDbVertex
100
AcDb2dVertex
 10
5.947
 20
2.056
 30
0.0
 42
-0.103
  0
VERTEX
  5
851
100
AcDbEntity
  8
BLACK
 62
     7
100
AcDbVertex
100
AcDb2dVertex
 10
5.948
 20
2.056
 30
0.0
 42
-0.114
  0
VERTEX
  5
852
100
AcDbEntity
  8
BLACK
 62
     7
100
AcDbVertex
100
AcDb2dVertex
 10
5.948
 20
2.055
 30
0.0
 42
-0.069
  0
VERTEX
  5
853
100
AcDbEntity
  8
BLACK
 62
     7
100
AcDbVertex
100
AcDb2dVertex
 10
5.949
 20
2.054
 30
0.0
 42
-0.047
  0
VERTEX
  5
854
100
AcDbEntity
  8
BLACK
 62
     7
100
AcDbVertex
100
AcDb2dVertex
 10
5.949
 20
2.05
 30
0.0
  0
VERTEX
  5
855
100
AcDbEntity
  8
BLACK
 62
     7
100
AcDbVertex
100
AcDb2dVertex
 10
5.949
 20
2.043
 30
0.0
  0
VERTEX
  5
856
100
AcDbEntity
  8
BLACK
 62
     7
100
AcDbVertex
100
AcDb2dVertex
 10
5.949
 20
2.015
 30
0.0
 42
-0.055
  0
VERTEX
  5
857
100
AcDbEntity
  8
BLACK
 62
     7
100
AcDbVertex
100
AcDb2dVertex
 10
5.949
 20
2.008
 30
0.0
 42
-0.116
  0
VERTEX
  5
858
100
AcDbEntity
  8
BLACK
 62
     7
100
AcDbVertex
100
AcDb2dVertex
 10
5.947
 20
2.003
 30
0.0
 42
-0.112
  0
VERTEX
  5
859
100
AcDbEntity
  8
BLACK
 62
     7
100
AcDbVertex
100
AcDb2dVertex
 10
5.942
 20
2.0
 30
0.0
 42
-0.052
  0
VERTEX
  5
85A
100
AcDbEntity
  8
BLACK
 62
     7
100
AcDbVertex
100
AcDb2dVertex
 10
5.935
 20
1.997
 30
0.0
  0
VERTEX
  5
85B
100
AcDbEntity
  8
BLACK
 62
     7
100
AcDbVertex
100
AcDb2dVertex
 10
5.908
 20
1.99
 30
0.0
 42
-0.105
  0
VERTEX
  5
85C
100
AcDbEntity
  8
BLACK
 62
     7
100
AcDbVertex
100
AcDb2dVertex
 10
5.9
 20
1.99
 30
0.0
 42
-0.145
  0
VERTEX
  5
85D
100
AcDbEntity
  8
BLACK
 62
     7
100
AcDbVertex
100
AcDb2dVertex
 10
5.894
 20
1.993
 30
0.0
 42
-0.071
  0
VERTEX
  5
85E
100
AcDbEntity
  8
BLACK
 62
     7
100
AcDbVertex
100
AcDb2dVertex
 10
5.888
 20
2.001
 30
0.0
  0
VERTEX
  5
85F
100
AcDbEntity
  8
BLACK
 62
     7
100
AcDbVertex
100
AcDb2dVertex
 10
5.88
 20
2.015
 30
0.0
  0
VERTEX
  5
860
100
AcDbEntity
  8
BLACK
 62
     7
100
AcDbVertex
100
AcDb2dVertex
 10
5.685
 20
2.417
 30
0.0
  0
VERTEX
  5
861
100
AcDbEntity
  8
BLACK
 62
     7
100
AcDbVertex
100
AcDb2dVertex
 10
5.674
 20
2.439
 30
0.0
 42
0.04
  0
VERTEX
  5
862
100
AcDbEntity
  8
BLACK
 62
     7
100
AcDbVertex
100
AcDb2dVertex
 10
5.671
 20
2.444
 30
0.0
 42
0.058
  0
VERTEX
  5
863
100
AcDbEntity
  8
BLACK
 62
     7
100
AcDbVertex
100
AcDb2dVertex
 10
5.669
 20
2.445
 30
0.0
 42
0.155
  0
VERTEX
  5
864
100
AcDbEntity
  8
BLACK
 62
     7
100
AcDbVertex
100
AcDb2dVertex
 10
5.668
 20
2.445
 30
0.0
  0
VERTEX
  5
865
100
AcDbEntity
  8
BLACK
 62
     7
100
AcDbVertex
100
AcDb2dVertex
 10
5.662
 20
2.445
 30
0.0
 42
-0.064
  0
VERTEX
  5
866
100
AcDbEntity
  8
BLACK
 62
     7
100
AcDbVertex
100
AcDb2dVertex
 10
5.661
 20
2.446
 30
0.0
 42
-0.132
  0
VERTEX
  5
867
100
AcDbEntity
  8
BLACK
 62
     7
100
AcDbVertex
100
AcDb2dVertex
 10
5.66
 20
2.446
 30
0.0
 42
-0.119
  0
VERTEX
  5
868
100
AcDbEntity
  8
BLACK
 62
     7
100
AcDbVertex
100
AcDb2dVertex
 10
5.659
 20
2.447
 30
0.0
 42
-0.06
  0
VERTEX
  5
869
100
AcDbEntity
  8
BLACK
 62
     7
100
AcDbVertex
100
AcDb2dVertex
 10
5.659
 20
2.449
 30
0.0
 42
-0.038
  0
VERTEX
  5
86A
100
AcDbEntity
  8
BLACK
 62
     7
100
AcDbVertex
100
AcDb2dVertex
 10
5.659
 20
2.456
 30
0.0
  0
VERTEX
  5
86B
100
AcDbEntity
  8
BLACK
 62
     7
100
AcDbVertex
100
AcDb2dVertex
 10
5.66
 20
2.469
 30
0.0
  0
SEQEND
  5
86C
100
AcDbEntity
  8
BLACK
 62
     7
  0
ENDSEC
  0
SECTION
  2
OBJECTS
  0
DICTIONARY
  5
19
100
AcDbDictionary
  3
ACAD_GROUP
350
1A
  3
ACAD_MLINESTYLE
350
1B
  0
DICTIONARY
  5
1A
102
{ACAD_REACTORS
330
19
102
}
100
AcDbDictionary
  0
DICTIONARY
  5
1B
102
{ACAD_REACTORS
330
19
102
}
100
AcDbDictionary
  3
STANDARD
350
1C
  0
MLINESTYLE
  5
1C
100
AcDbMlineStyle
  2
STANDARD
 70
     0
  3

 62
   256
 51
90.0
 52
90.0
 71
     2
 49
0.5
 62
   256
  6
BYLAYER
 49
-0.5
 62
   256
  6
BYLAYER
  0
ENDSEC
  0
EOF
