  0
SECTION
  2
HEADER
  9
$ACADVER
  1
AC1015
  9
$ACADMAINTVER
 70
     6
  9
$DWGCODEPAGE
  3
ANSI_1252
  9
$INSBASE
 10
0.0
 20
0.0
 30
0.0
  9
$EXTMIN
 10
0.0
 20
0.0
 30
0.0
  9
$EXTMAX
 10
2394.48584
 20
925.544861
 30
2.0
  9
$LIMMIN
 10
0.0
 20
0.0
  9
$LIMMAX
 10
420.0
 20
297.0
  9
$ORTHOMODE
 70
     0
  9
$REGENMODE
 70
     1
  9
$FILLMODE
 70
     1
  9
$QTEXTMODE
 70
     0
  9
$MIRRTEXT
 70
     1
  9
$LTSCALE
 40
1.0
  9
$ATTMODE
 70
     1
  9
$TEXTSIZE
 40
2.5
  9
$TRACEWID
 40
1.0
  9
$TEXTSTYLE
  7
Standard
  9
$CLAYER
  8
0
  9
$CELTYPE
  6
ByLayer
  9
$CECOLOR
 62
   256
  9
$CELTSCALE
 40
1.0
  9
$DISPSILH
 70
     0
  9
$DIMSCALE
 40
1.0
  9
$DIMASZ
 40
2.5
  9
$DIMEXO
 40
0.625
  9
$DIMDLI
 40
3.75
  9
$DIMRND
 40
0.0
  9
$DIMDLE
 40
0.0
  9
$DIMEXE
 40
1.25
  9
$DIMTP
 40
0.0
  9
$DIMTM
 40
0.0
  9
$DIMTXT
 40
2.5
  9
$DIMCEN
 40
2.5
  9
$DIMTSZ
 40
0.0
  9
$DIMTOL
 70
     0
  9
$DIMLIM
 70
     0
  9
$DIMTIH
 70
     0
  9
$DIMTOH
 70
     0
  9
$DIMSE1
 70
     0
  9
$DIMSE2
 70
     0
  9
$DIMTAD
 70
     1
  9
$DIMZIN
 70
     8
  9
$DIMBLK
  1

  9
$DIMASO
 70
     1
  9
$DIMSHO
 70
     1
  9
$DIMPOST
  1

  9
$DIMAPOST
  1

  9
$DIMALT
 70
     0
  9
$DIMALTD
 70
     3
  9
$DIMALTF
 40
0.03937
  9
$DIMLFAC
 40
1.0
  9
$DIMTOFL
 70
     1
  9
$DIMTVP
 40
0.0
  9
$DIMTIX
 70
     0
  9
$DIMSOXD
 70
     0
  9
$DIMSAH
 70
     0
  9
$DIMBLK1
  1

  9
$DIMBLK2
  1

  9
$DIMSTYLE
  2

  9
$DIMCLRD
 70
     0
  9
$DIMCLRE
 70
     0
  9
$DIMCLRT
 70
     0
  9
$DIMTFAC
 40
1.0
  9
$DIMGAP
 40
0.625
  9
$DIMJUST
 70
     0
  9
$DIMSD1
 70
     0
  9
$DIMSD2
 70
     0
  9
$DIMTOLJ
 70
     0
  9
$DIMTZIN
 70
     8
  9
$DIMALTZ
 70
     0
  9
$DIMALTTZ
 70
     0
  9
$DIMUPT
 70
     0
  9
$DIMDEC
 70
     2
  9
$DIMTDEC
 70
     2
  9
$DIMALTU
 70
     2
  9
$DIMALTTD
 70
     3
  9
$DIMTXSTY
  7
Standard
  9
$DIMAUNIT
 70
     0
  9
$DIMADEC
 70
     0
  9
$DIMALTRND
 40
0.0
  9
$DIMAZIN
 70
     0
  9
$DIMDSEP
 70
    44
  9
$DIMATFIT
 70
     0
  9
$DIMFRAC
 70
     0
  9
$DIMLDRBLK
  1

  9
$DIMLUNIT
 70
     2
  9
$DIMLWD
 70
    -2
  9
$DIMLWE
 70
    -2
  9
$DIMTMOVE
 70
     0
  9
$LUNITS
 70
     2
  9
$LUPREC
 70
     4
  9
$SKETCHINC
 40
1.0
  9
$FILLETRAD
 40
2.5
  9
$AUNITS
 70
     0
  9
$AUPREC
 70
     0
  9
$MENU
  1
.
  9
$ELEVATION
 40
0.0
  9
$PELEVATION
 40
0.0
  9
$THICKNESS
 40
0.0
  9
$LIMCHECK
 70
     0
  9
$CHAMFERA
 40
2.5
  9
$CHAMFERB
 40
2.5
  9
$CHAMFERC
 40
0.0
  9
$CHAMFERD
 40
0.0
  9
$SKPOLY
 70
     0
  9
$TDCREATE
 40
0.000000000
  9
$TDUCREATE
 40
0.000000000
  9
$TDUPDATE
 40
0.000000000
  9
$TDUUPDATE
 40
0.000000000
  9
$TDINDWG
 40
0.0000000000
  9
$TDUSRTIMER
 40
0.0000000000
  9
$USRTIMER
 70
     1
  9
$ANGBASE
 50
0.0
  9
$ANGDIR
 70
     0
  9
$PDMODE
 70
     0
  9
$PDSIZE
 40
0.0
  9
$PLINEWID
 40
0.0
  9
$SPLFRAME
 70
     0
  9
$SPLINETYPE
 70
     6
  9
$SPLINESEGS
 70
     8
  9
$HANDSEED
  5
5A1
  9
$SURFTAB1
 70
     6
  9
$SURFTAB2
 70
     6
  9
$SURFTYPE
 70
     6
  9
$SURFU
 70
     6
  9
$SURFV
 70
     6
  9
$UCSBASE
  2

  9
$UCSNAME
  2

  9
$UCSORG
 10
0.0
 20
0.0
 30
0.0
  9
$UCSXDIR
 10
1.0
 20
0.0
 30
0.0
  9
$UCSYDIR
 10
0.0
 20
1.0
 30
0.0
  9
$UCSORTHOREF
  2

  9
$UCSORTHOVIEW
 70
     1
  9
$UCSORGTOP
 10
0.0
 20
0.0
 30
0.0
  9
$UCSORGBOTTOM
 10
0.0
 20
0.0
 30
0.0
  9
$UCSORGLEFT
 10
0.0
 20
0.0
 30
0.0
  9
$UCSORGRIGHT
 10
0.0
 20
0.0
 30
0.0
  9
$UCSORGFRONT
 10
0.0
 20
0.0
 30
0.0
  9
$UCSORGBACK
 10
0.0
 20
0.0
 30
0.0
  9
$PUCSBASE
  2

  9
$PUCSNAME
  2

  9
$PUCSORG
 10
0.0
 20
0.0
 30
0.0
  9
$PUCSXDIR
 10
1.0
 20
0.0
 30
0.0
  9
$PUCSYDIR
 10
0.0
 20
1.0
 30
0.0
  9
$PUCSORTHOREF
  2

  9
$PUCSORTHOVIEW
 70
     0
  9
$PUCSORGTOP
 10
0.0
 20
0.0
 30
0.0
  9
$PUCSORGBOTTOM
 10
0.0
 20
0.0
 30
0.0
  9
$PUCSORGLEFT
 10
0.0
 20
0.0
 30
0.0
  9
$PUCSORGRIGHT
 10
0.0
 20
0.0
 30
0.0
  9
$PUCSORGFRONT
 10
0.0
 20
0.0
 30
0.0
  9
$PUCSORGBACK
 10
0.0
 20
0.0
 30
0.0
  9
$USERI1
 70
     0
  9
$USERI2
 70
     0
  9
$USERI3
 70
     0
  9
$USERI4
 70
     0
  9
$USERI5
 70
     0
  9
$USERR1
 40
0.0
  9
$USERR2
 40
0.0
  9
$USERR3
 40
0.0
  9
$USERR4
 40
0.0
  9
$USERR5
 40
0.0
  9
$WORLDVIEW
 70
     1
  9
$SHADEDGE
 70
     3
  9
$SHADEDIF
 70
    70
  9
$TILEMODE
 70
     1
  9
$MAXACTVP
 70
    48
  9
$PINSBASE
 10
0.0
 20
0.0
 30
0.0
  9
$PLIMCHECK
 70
     0
  9
$PEXTMIN
 10
0.0
 20
0.0
 30
0.0
  9
$PEXTMAX
 10
2394.48584
 20
925.544861
 30
2.0
  9
$PLIMMIN
 10
0.0
 20
0.0
  9
$PLIMMAX
 10
420.0
 20
297.0
  9
$UNITMODE
 70
     0
  9
$VISRETAIN
 70
     0
  9
$PLINEGEN
 70
     0
  9
$PSLTSCALE
 70
     1
  9
$TREEDEPTH
 70
  3020
  9
$CMLSTYLE
  2
Standard
  9
$CMLJUST
 70
     0
  9
$CMLSCALE
 40
20.0
  9
$PROXYGRAPHICS
 70
     1
  9
$MEASUREMENT
 70
     1
  9
$CELWEIGHT
370
    -1
  9
$ENDCAPS
280
     0
  9
$JOINSTYLE
280
     0
  9
$LWDISPLAY
290
     0
  9
$INSUNITS
 70
     0
  9
$HYPERLINKBASE
  1

  9
$STYLESHEET
  1

  9
$XEDIT
290
     1
  9
$CEPSNTYPE
380
     0
  9
$PSTYLEMODE
290
     0
  9
$FINGERPRINTGUID
  2

  9
$VERSIONGUID
  2

  9
$EXTNAMES
290
     0
  9
$PSVPSCALE
 40
0.0
  0
ENDSEC
  0
SECTION
  2
CLASSES
  0
CLASS
  1
LWPOLYLINE
  2
AcDbPolyline
  3
AutoCAD 2000
 90
        0
280
     0
281
     1
  0
CLASS
  1
IMAGE
  2
AcDbRasterImage
  3
ISM
 90
      127
280
     0
281
     1
  0
CLASS
  1
OLE2FRAME
  2
AcDbOle2Frame
  3
AutoCAD 2000
 90
        0
280
     0
281
     1
  0
CLASS
  1
HATCH
  2
AcDbHatch
  3
AutoCAD 2000
 90
        0
280
     0
281
     1
  0
CLASS
  1
DICTIONARYVAR
  2
AcDbDictionaryVar
  3
AutoCAD 2000
 90
        0
280
     0
281
     0
  0
CLASS
  1
RASTERVARIABLES
  2
AcDbRasterVariables
  3
ISM
 90
        0
280
     0
281
     0
  0
CLASS
  1
IMAGEDEF
  2
AcDbRasterImageDef
  3
ISM
 90
        0
280
     0
281
     0
  0
CLASS
  1
IMAGEDEF_REACTOR
  2
AcDbRasterImageDefReactor
  3
ISM
 90
        1
280
     0
281
     0
  0
CLASS
  1
IDBUFFER
  2
AcDbIdBuffer
  3
AutoCAD 2000
 90
        0
280
     0
281
     0
  0
CLASS
  1
SPATIAL_FILTER
  2
AcDbSpatialFilter
  3
AutoCAD 2000
 90
        0
280
     0
281
     0
  0
CLASS
  1
XRECORD
  2
AcDbXrecord
  3
AutoCAD 2000
 90
        0
280
     0
281
     0
  0
CLASS
  1
SORTENTSTABLE
  2
AcDbSortentsTable
  3
AutoCAD 2000
 90
        0
280
     0
281
     0
  0
CLASS
  1
LAYER_INDEX
  2
AcDbLayerIndex
  3
AutoCAD 2000
 90
        0
280
     0
281
     0
  0
CLASS
  1
SPATIAL_INDEX
  2
AcDbSpatialIndex
  3
AutoCAD 2000
 90
        0
280
     0
281
     0
  0
CLASS
  1
OBJECT_PTR
  2
CAseDLPNTableRecord
  3
"ASE-LPNTableRecord"
 90
        1
280
     0
281
     0
  0
CLASS
  1
LAYOUT
  2
AcDbLayout
  3
AutoCAD 2000
 90
        0
280
     0
281
     0
  0
CLASS
  1
PLOTSETTINGS
  2
AcDbPlotSettings
  3
AutoCAD 2000
 90
        0
280
     0
281
     0
  0
CLASS
  1
ACDBDICTIONARYWDFLT
  2
AcDbDictionaryWithDefault
  3
AutoCAD 2000
 90
        0
280
     0
281
     0
  0
CLASS
  1
ACDBPLACEHOLDER
  2
AcDbPlaceHolder
  3
AutoCAD 2000
 90
        0
280
     0
281
     0
  0
CLASS
  1
VBA_PROJECT
  2
AcDbVbaProject
  3
acadvba
 90
        0
280
     0
281
     0
  0
CLASS
  1
WIPEOUT
  2
AcDbWipeout
  3
WipeOut|AutoCAD Express Tool|expresstools@autodesk.com
 90
      127
280
     0
281
     1
  0
CLASS
  1
WIPEOUTVARIABLES
  2
AcDbWipeoutVariables
  3
WipeOut|AutoCAD Express Tool|expresstools@autodesk.com
 90
        0
280
     0
281
     0
  0
CLASS
  1
RTEXT
  2
RText
  3
RText|AutoCAD Express Tool|expresstools@autodesk.com
 90
        0
280
     0
281
     1
  0
CLASS
  1
ARCALIGNEDTEXT
  2
AcDbArcAlignedText
  3
ATEXT|AutoCAD Express Tool|expresstools@autodesk.com
 90
        0
280
     0
281
     1
  0
ENDSEC
  0
SECTION
  2
TABLES
  0
TABLE
  2
VPORT
  5
7
100
AcDbSymbolTable
 70
     1
  0
VPORT
  5
15
100
AcDbSymbolTableRecord
100
AcDbViewportTableRecord
  2
*ACTIVE
 70
     0
 10
0.0
 20
0.0
 11
1.0
 21
1.0
 12
6.591288
 22
4.579184
 13
0.0
 23
0.0
 14
1.0
 24
1.0
 15
0.0
 25
0.0
 16
0.0
 26
0.0
 36
1.0
 17
0.0
 27
0.0
 37
0.0
 40
9.158369
 41
0.688564
 42
50.0
 43
0.0
 44
0.0
 50
0.0
 51
0.0
 71
     0
 72
   100
 73
     1
 74
     1
 75
     0
 76
     0
 77
     0
 78
     0
281
     0
 65
     0
110
0.0
120
0.0
130
0.0
111
1.0
121
0.0
131
0.0
112
0.0
122
1.0
132
0.0
345
0
346
0
 79
     0
146
0.0
  0
ENDTAB
  0
TABLE
  2
LTYPE
  5
4
100
AcDbSymbolTable
 70
     4
  0
LTYPE
  5
11
100
AcDbSymbolTableRecord
100
AcDbLinetypeTableRecord
  2
ByBlock
 70
    64
  3

 72
    65
 73
     0
 40
0.0
  0
LTYPE
  5
12
100
AcDbSymbolTableRecord
100
AcDbLinetypeTableRecord
  2
ByLayer
 70
    64
  3

 72
    65
 73
     0
 40
0.0
  0
LTYPE
  5
13
100
AcDbSymbolTableRecord
100
AcDbLinetypeTableRecord
  2
Continuous
 70
    64
  3
Solid line
 72
    65
 73
     0
 40
0.0
  0
LTYPE
  5
24
100
AcDbSymbolTableRecord
100
AcDbLinetypeTableRecord
  2
DASHSPACE
 70
     0
  3
__    __    __    __    __   
 72
    65
 73
     2
 40
30.0
 49
12.0
 74
     0
 49
-18.0
 74
     0
  0
ENDTAB
  0
TABLE
  2
LAYER
  5
2
100
AcDbSymbolTable
 70
     1
  0
LAYER
  5
14
100
AcDbSymbolTableRecord
100
AcDbLayerTableRecord
  2
0
 70
     0
 62
     7
  6
Continuous
290
     1
370
    -3
390
1D
  0
ENDTAB
  0
TABLE
  2
STYLE
  5
3
100
AcDbSymbolTable
 70
     1
  0
STYLE
  5
17
100
AcDbSymbolTableRecord
100
AcDbTextStyleTableRecord
  2
Standard
 70
     0
 40
0.0
 41
1.0
 50
0.0
 71
     0
 42
0.0
  3
txt
  4

  0
ENDTAB
  0
TABLE
  2
VIEW
  5
5
100
AcDbSymbolTable
 70
     0
  0
ENDTAB
  0
TABLE
  2
UCS
  5
6
100
AcDbSymbolTable
 70
     0
  0
ENDTAB
  0
TABLE
  2
APPID
  5
8
100
AcDbSymbolTable
 70
     1
  0
APPID
  5
16
100
AcDbSymbolTableRecord
100
AcDbRegAppTableRecord
  2
ACAD
 70
     0
  0
ENDTAB
  0
TABLE
  2
DIMSTYLE
  5
9
100
AcDbSymbolTable
 70
     1
100
AcDbDimStyleTable
 71
     0
  0
DIMSTYLE
105
18
100
AcDbSymbolTableRecord
100
AcDbDimStyleTableRecord
  2
Standard
 70
     0
  3

  4

 40
1.0
 41
0.18
 42
0.0625
 43
0.38
 44
0.18
 45
0.0
 46
0.0
 47
0.0
 48
0.0
 71
     0
 72
     0
 73
     1
 74
     1
 75
     0
 76
     0
 77
     0
 78
     0
 79
     0
140
0.18
141
0.09
142
0.0
143
25.4
144
1.0
145
0.0
146
1.0
147
0.09
148
0.0
170
     0
171
     2
172
     0
173
     0
174
     0
175
     0
176
     0
177
     0
178
     0
179
     0
271
     4
272
     4
273
     2
274
     2
275
     0
276
     0
277
     2
278
    46
279
     0
280
     0
281
     0
282
     0
283
     1
284
     0
285
     0
286
     0
288
     0
289
     3
340
17
341
0
342
0
343
0
344
0
371
    -2
372
    -2
  0
ENDTAB
  0
TABLE
  2
BLOCK_RECORD
  5
1
100
AcDbSymbolTable
 70
     0
  0
BLOCK_RECORD
  5
A
100
AcDbSymbolTableRecord
100
AcDbBlockTableRecord
  2
*MODEL_SPACE
340
20
  0
BLOCK_RECORD
  5
B
100
AcDbSymbolTableRecord
100
AcDbBlockTableRecord
  2
*PAPER_SPACE
340
21
  0
ENDTAB
  0
ENDSEC
  0
SECTION
  2
BLOCKS
  0
BLOCK
  5
D
100
AcDbEntity
  8
0
390
0
100
AcDbBlockBegin
  2
*MODEL_SPACE
 70
     0
 10
0.0
 20
0.0
 30
0.0
  3
*MODEL_SPACE
  1

  0
ENDBLK
  5
E
100
AcDbEntity
  8
0
390
0
100
AcDbBlockEnd
  0
BLOCK
  5
F
100
AcDbEntity
 67
     1
  8
0
390
0
100
AcDbBlockBegin
  2
*PAPER_SPACE
 70
     0
 10
0.0
 20
0.0
 30
0.0
  3
*PAPER_SPACE
  1

  0
ENDBLK
  5
10
100
AcDbEntity
 67
     1
  8
0
390
0
100
AcDbBlockEnd
  0
ENDSEC
  0
SECTION
  2
ENTITIES
  0
VIEWPORT
  5
5A0
100
AcDbEntity
 67
     1
  8
0
370
     0
390
0
 62
     0
 48
0.0
100
AcDbViewport
 10
0.0
 20
0.0
 30
0.0
 40
1000.0
 41
1000.0
 68
     1
 69
     1
 12
0.0
 22
0.0
 13
0.0
 23
0.0
 14
1.0
 24
1.0
 15
1.0
 25
1.0
 16
0.0
 26
0.0
 36
1.0
 17
0.0
 27
0.0
 37
0.0
 42
50.0
 43
0.0
 44
0.0
 45
1000.0
 50
0.0
 51
0.0
 72
   100
 90
        0
340
0
  1

281
     0
 71
     0
 74
     1
110
0.0
120
0.0
130
0.0
111
1.0
121
0.0
131
0.0
112
0.0
122
1.0
132
0.0
345
0
346
0
 79
     0
146
0.0
  0
LINE
  5
25
100
AcDbEntity
  8
0
370
    35
390
0
 62
     7
 48
0.12491
100
AcDbLine
 10
1156.022217
 20
493.289734
 30
0.0
 11
1156.022217
 21
498.286133
 31
0.0
210
0.0
220
0.0
230
1.0
  0
LINE
  5
26
100
AcDbEntity
  8
0
370
    35
390
0
 62
     7
 48
0.12491
100
AcDbLine
 10
1153.522217
 20
493.289734
 30
0.0
 11
1153.522217
 21
498.286133
 31
0.0
210
0.0
220
0.0
230
1.0
  0
LINE
  5
27
100
AcDbEntity
  8
0
370
    35
390
0
 62
     7
 48
0.12491
100
AcDbLine
 10
986.678711
 20
573.637268
 30
0.0
 11
990.585083
 21
576.752441
 31
0.0
210
0.0
220
0.0
230
1.0
  0
LINE
  5
28
100
AcDbEntity
  8
0
370
    35
390
0
 62
     7
 48
0.124911
100
AcDbLine
 10
985.119995
 20
575.591797
 30
0.0
 11
989.026367
 21
578.707031
 31
0.0
210
0.0
220
0.0
230
1.0
  0
ARC
  5
29
100
AcDbEntity
  8
0
370
    35
390
0
 62
     7
100
AcDbCircle
 10
1154.772217
 20
709.286072
 30
0.0
 40
216.0
210
0.0
220
0.0
230
1.0
100
AcDbArc
 50
167.474435
 51
218.239861
  0
LINE
  5
2A
100
AcDbEntity
  8
0
370
    35
390
0
 62
     7
 48
0.124909
100
AcDbLine
 10
943.913086
 20
756.131165
 30
0.0
 11
948.78418
 21
755.019348
 31
0.0
210
0.0
220
0.0
230
1.0
  0
LINE
  5
2B
100
AcDbEntity
  8
0
370
    35
390
0
 62
     7
 48
0.124912
100
AcDbLine
 10
944.46936
 20
758.568481
 30
0.0
 11
949.340576
 21
757.456665
 31
0.0
210
0.0
220
0.0
230
1.0
  0
LINE
  5
2C
100
AcDbEntity
  8
0
370
    35
390
0
 62
     7
 48
0.12491
100
AcDbLine
 10
1059.928589
 20
903.349731
 30
0.0
 11
1062.096436
 21
898.848145
 31
0.0
210
0.0
220
0.0
230
1.0
  0
LINE
  5
2D
100
AcDbEntity
  8
0
370
    35
390
0
 62
     7
 48
0.124911
100
AcDbLine
 10
1062.18103
 20
904.434509
 30
0.0
 11
1064.348877
 21
899.932861
 31
0.0
210
0.0
220
0.0
230
1.0
  0
LINE
  5
2E
100
AcDbEntity
  8
0
370
    35
390
0
 62
     7
 48
0.124912
100
AcDbLine
 10
1247.363281
 20
904.434509
 30
0.0
 11
1245.195313
 21
899.932861
 31
0.0
210
0.0
220
0.0
230
1.0
  0
LINE
  5
2F
100
AcDbEntity
  8
0
370
    35
390
0
 62
     7
 48
0.124911
100
AcDbLine
 10
1249.615723
 20
903.349731
 30
0.0
 11
1247.447754
 21
898.848145
 31
0.0
210
0.0
220
0.0
230
1.0
  0
LINE
  5
30
100
AcDbEntity
  8
0
370
    35
390
0
 62
     7
 48
0.124909
100
AcDbLine
 10
1365.074951
 20
758.568481
 30
0.0
 11
1360.203857
 21
757.456665
 31
0.0
210
0.0
220
0.0
230
1.0
  0
LINE
  5
31
100
AcDbEntity
  8
0
370
    35
390
0
 62
     7
 48
0.124909
100
AcDbLine
 10
1365.631104
 20
756.131165
 30
0.0
 11
1360.76001
 21
755.019348
 31
0.0
210
0.0
220
0.0
230
1.0
  0
ARC
  5
32
100
AcDbEntity
  8
0
370
    35
390
0
 62
     7
100
AcDbCircle
 10
1154.772217
 20
709.286072
 30
0.0
 40
216.0
210
0.0
220
0.0
230
1.0
100
AcDbArc
 50
321.760131
 51
12.525569
  0
LINE
  5
33
100
AcDbEntity
  8
0
370
    35
390
0
 62
     7
 48
0.124909
100
AcDbLine
 10
1324.424316
 20
575.591797
 30
0.0
 11
1320.518066
 21
578.707031
 31
0.0
210
0.0
220
0.0
230
1.0
  0
LINE
  5
34
100
AcDbEntity
  8
0
370
    35
390
0
 62
     7
 48
0.124908
100
AcDbLine
 10
1322.865479
 20
573.637268
 30
0.0
 11
1318.959229
 21
576.752441
 31
0.0
210
0.0
220
0.0
230
1.0
  0
ARC
  5
35
100
AcDbEntity
  8
0
370
    35
390
0
 62
     7
100
AcDbCircle
 10
1203.173584
 20
809.792908
 30
0.0
 40
2.0
210
0.0
220
0.0
230
1.0
100
AcDbArc
 50
205.603533
 51
282.967904
  0
ARC
  5
36
100
AcDbEntity
  8
0
370
    35
390
0
 62
     7
100
AcDbCircle
 10
1106.370605
 20
809.792908
 30
0.0
 40
2.0
210
0.0
220
0.0
230
1.0
100
AcDbArc
 50
257.032091
 51
334.396472
  0
ARC
  5
37
100
AcDbEntity
  8
0
370
    35
390
0
 62
     7
100
AcDbCircle
 10
1046.014893
 20
734.109192
 30
0.0
 40
2.0
210
0.0
220
0.0
230
1.0
100
AcDbArc
 50
308.46066
 51
25.825046
  0
ARC
  5
38
100
AcDbEntity
  8
0
370
    35
390
0
 62
     7
100
AcDbCircle
 10
1154.772217
 20
709.286072
 30
0.0
 40
110.0
210
0.0
220
0.0
230
1.0
100
AcDbArc
 50
167.793965
 51
217.920331
  0
ARC
  5
39
100
AcDbEntity
  8
0
370
    35
390
0
 62
     7
100
AcDbCircle
 10
1067.555664
 20
639.733215
 30
0.0
 40
2.0
210
0.0
220
0.0
230
1.0
100
AcDbArc
 50
359.889252
 51
77.253613
  0
ARC
  5
3A
100
AcDbEntity
  8
0
370
    35
390
0
 62
     7
100
AcDbCircle
 10
1154.772217
 20
597.731934
 30
0.0
 40
2.0
210
0.0
220
0.0
230
1.0
100
AcDbArc
 50
51.317814
 51
128.682185
  0
ARC
  5
3B
100
AcDbEntity
  8
0
370
    35
390
0
 62
     7
100
AcDbCircle
 10
1241.98877
 20
639.733215
 30
0.0
 40
2.0
210
0.0
220
0.0
230
1.0
100
AcDbArc
 50
102.746385
 51
180.110753
  0
ARC
  5
3C
100
AcDbEntity
  8
0
370
    35
390
0
 62
     7
100
AcDbCircle
 10
1154.772217
 20
709.286072
 30
0.0
 40
110.0
210
0.0
220
0.0
230
1.0
100
AcDbArc
 50
322.079674
 51
12.206038
  0
ARC
  5
3D
100
AcDbEntity
  8
0
370
    35
390
0
 62
     7
100
AcDbCircle
 10
1263.529297
 20
734.109192
 30
0.0
 40
2.0
210
0.0
220
0.0
230
1.0
100
AcDbArc
 50
154.17495
 51
231.539346
  0
ARC
  5
3E
100
AcDbEntity
  8
0
370
    35
390
0
 62
     7
100
AcDbCircle
 10
1322.304443
 20
584.956726
 30
0.0
 40
6.5
210
0.0
220
0.0
230
1.0
100
AcDbArc
 50
208.808708
 51
254.048453
  0
ARC
  5
3F
100
AcDbEntity
  8
0
370
    35
390
0
 62
     7
100
AcDbCircle
 10
1359.657959
 20
748.613464
 30
0.0
 40
6.5
210
0.0
220
0.0
230
1.0
100
AcDbArc
 50
80.237278
 51
125.477009
  0
ARC
  5
40
100
AcDbEntity
  8
0
370
    35
390
0
 62
     7
100
AcDbCircle
 10
1356.431396
 20
762.749939
 30
0.0
 40
6.5
210
0.0
220
0.0
230
1.0
100
AcDbArc
 50
260.23728
 51
305.477014
  0
ARC
  5
41
100
AcDbEntity
  8
0
370
    35
390
0
 62
     7
100
AcDbCircle
 10
1251.769043
 20
893.992432
 30
0.0
 40
6.5
210
0.0
220
0.0
230
1.0
100
AcDbArc
 50
131.665843
 51
176.905574
  0
ARC
  5
42
100
AcDbEntity
  8
0
370
    35
390
0
 62
     7
100
AcDbCircle
 10
1238.704834
 20
900.283752
 30
0.0
 40
6.5
210
0.0
220
0.0
230
1.0
100
AcDbArc
 50
311.665849
 51
356.905579
  0
ARC
  5
43
100
AcDbEntity
  8
0
370
    35
390
0
 62
     7
100
AcDbCircle
 10
1070.839478
 20
900.283752
 30
0.0
 40
6.5
210
0.0
220
0.0
230
1.0
100
AcDbArc
 50
183.094426
 51
228.334157
  0
ARC
  5
44
100
AcDbEntity
  8
0
370
    35
390
0
 62
     7
100
AcDbCircle
 10
1057.775391
 20
893.992432
 30
0.0
 40
6.5
210
0.0
220
0.0
230
1.0
100
AcDbArc
 50
3.094421
 51
48.334151
  0
ARC
  5
45
100
AcDbEntity
  8
0
370
    35
390
0
 62
     7
100
AcDbCircle
 10
953.112915
 20
762.749939
 30
0.0
 40
6.5
210
0.0
220
0.0
230
1.0
100
AcDbArc
 50
234.522991
 51
279.762722
  0
ARC
  5
46
100
AcDbEntity
  8
0
370
    35
390
0
 62
     7
100
AcDbCircle
 10
949.886475
 20
748.613464
 30
0.0
 40
6.5
210
0.0
220
0.0
230
1.0
100
AcDbArc
 50
54.522993
 51
99.76272
  0
ARC
  5
47
100
AcDbEntity
  8
0
370
    35
390
0
 62
     7
100
AcDbCircle
 10
1147.522217
 20
500.786133
 30
0.0
 40
6.5
210
0.0
220
0.0
230
1.0
100
AcDbArc
 50
337.380143
 51
22.619865
  0
ARC
  5
48
100
AcDbEntity
  8
0
370
    35
390
0
 62
     7
100
AcDbCircle
 10
1313.263672
 20
573.620178
 30
0.0
 40
6.5
210
0.0
220
0.0
230
1.0
100
AcDbArc
 50
28.808707
 51
74.048437
  0
ARC
  5
49
100
AcDbEntity
  8
0
370
    35
390
0
 62
     7
100
AcDbCircle
 10
987.23999
 20
584.956726
 30
0.0
 40
6.5
210
0.0
220
0.0
230
1.0
100
AcDbArc
 50
285.951549
 51
331.191283
  0
ARC
  5
4A
100
AcDbEntity
  8
0
370
    35
390
0
 62
     7
100
AcDbCircle
 10
996.28064
 20
573.620178
 30
0.0
 40
6.5
210
0.0
220
0.0
230
1.0
100
AcDbArc
 50
105.951561
 51
151.191292
  0
ARC
  5
4B
100
AcDbEntity
  8
0
370
    35
390
0
 62
     7
100
AcDbCircle
 10
1162.022217
 20
500.786133
 30
0.0
 40
6.5
210
0.0
220
0.0
230
1.0
100
AcDbArc
 50
157.38014
 51
202.61986
  0
ARC
  5
4C
100
AcDbEntity
  8
0
370
    35
390
0
 62
     7
100
AcDbCircle
 10
1154.772217
 20
709.286072
 30
0.0
 40
110.0
210
0.0
220
0.0
230
1.0
100
AcDbArc
 50
13.508248
 51
63.634612
  0
ARC
  5
4D
100
AcDbEntity
  8
0
370
    35
390
0
 62
     7
100
AcDbCircle
 10
1154.772217
 20
709.286072
 30
0.0
 40
110.0
210
0.0
220
0.0
230
1.0
100
AcDbArc
 50
270.651106
 51
320.777458
  0
ARC
  5
4E
100
AcDbEntity
  8
0
370
    35
390
0
 62
     7
100
AcDbCircle
 10
1154.772217
 20
709.286072
 30
0.0
 40
110.0
210
0.0
220
0.0
230
1.0
100
AcDbArc
 50
219.222534
 51
269.348889
  0
ARC
  5
4F
100
AcDbEntity
  8
0
370
    35
390
0
 62
     7
100
AcDbCircle
 10
1154.772217
 20
709.286072
 30
0.0
 40
110.0
210
0.0
220
0.0
230
1.0
100
AcDbArc
 50
116.365386
 51
166.491749
  0
ARC
  5
50
100
AcDbEntity
  8
0
370
    35
390
0
 62
     7
100
AcDbCircle
 10
1154.772217
 20
709.286072
 30
0.0
 40
110.0
210
0.0
220
0.0
230
1.0
100
AcDbArc
 50
64.936815
 51
115.063184
  0
ARC
  5
51
100
AcDbEntity
  8
0
370
    35
390
0
 62
     7
100
AcDbCircle
 10
1154.772217
 20
709.286072
 30
0.0
 40
216.0
210
0.0
220
0.0
230
1.0
100
AcDbArc
 50
270.331562
 51
321.097001
  0
ARC
  5
52
100
AcDbEntity
  8
0
370
    35
390
0
 62
     7
100
AcDbCircle
 10
1154.772217
 20
709.286072
 30
0.0
 40
216.0
210
0.0
220
0.0
230
1.0
100
AcDbArc
 50
13.188717
 51
63.954142
  0
ARC
  5
53
100
AcDbEntity
  8
0
370
    35
390
0
 62
     7
100
AcDbCircle
 10
1154.772217
 20
709.286072
 30
0.0
 40
216.0
210
0.0
220
0.0
230
1.0
100
AcDbArc
 50
64.617292
 51
115.382713
  0
ARC
  5
54
100
AcDbEntity
  8
0
370
    35
390
0
 62
     7
100
AcDbCircle
 10
1154.772217
 20
709.286072
 30
0.0
 40
216.0
210
0.0
220
0.0
230
1.0
100
AcDbArc
 50
116.045857
 51
166.811279
  0
ARC
  5
55
100
AcDbEntity
  8
0
370
    35
390
0
 62
     7
100
AcDbCircle
 10
1154.772217
 20
709.286072
 30
0.0
 40
216.0
210
0.0
220
0.0
230
1.0
100
AcDbArc
 50
218.903004
 51
269.668433
  0
LINE
  5
56
100
AcDbEntity
  8
0
370
    35
390
0
 62
     7
 48
0.0625
100
AcDbLine
 10
1153.522217
 20
554.293213
 30
0.0
 11
1156.022217
 21
554.293213
 31
0.0
210
0.0
220
0.0
230
1.0
  0
LINE
  5
57
100
AcDbEntity
  8
0
370
    35
390
0
 62
     7
100
AcDbLine
 10
1153.522217
 20
503.286133
 30
0.0
 11
1153.522217
 21
534.293213
 31
0.0
210
0.0
220
0.0
230
1.0
  0
LINE
  5
58
100
AcDbEntity
  8
0
370
    35
390
0
 62
     7
100
AcDbLine
 10
1153.522217
 20
534.293213
 30
0.0
 11
1153.522217
 21
554.293213
 31
0.0
210
0.0
220
0.0
230
1.0
  0
LINE
  5
59
100
AcDbEntity
  8
0
370
    35
390
0
 62
     7
100
AcDbLine
 10
1156.022217
 20
503.286133
 30
0.0
 11
1156.022217
 21
534.293213
 31
0.0
210
0.0
220
0.0
230
1.0
  0
LINE
  5
5A
100
AcDbEntity
  8
0
370
    35
390
0
 62
     7
100
AcDbLine
 10
1156.022217
 20
534.293213
 30
0.0
 11
1156.022217
 21
554.293213
 31
0.0
210
0.0
220
0.0
230
1.0
  0
LINE
  5
5B
100
AcDbEntity
  8
0
370
    35
390
0
 62
     7
 48
0.499999
100
AcDbLine
 10
1017.177856
 20
601.157104
 30
0.0
 11
1032.814453
 21
613.626892
 31
0.0
210
0.0
220
0.0
230
1.0
  0
LINE
  5
5C
100
AcDbEntity
  8
0
370
    35
390
0
 62
     7
 48
0.0625
100
AcDbLine
 10
1032.814453
 20
613.626892
 30
0.0
 11
1034.373169
 21
611.672302
 31
0.0
210
0.0
220
0.0
230
1.0
  0
LINE
  5
5D
100
AcDbEntity
  8
0
370
    35
390
0
 62
     7
 48
0.499999
100
AcDbLine
 10
1018.736572
 20
599.202515
 30
0.0
 11
1034.373169
 21
611.672302
 31
0.0
210
0.0
220
0.0
230
1.0
  0
LINE
  5
5E
100
AcDbEntity
  8
0
370
    35
390
0
 62
     7
100
AcDbLine
 10
994.494263
 20
579.869873
 30
0.0
 11
1018.736572
 21
599.202515
 31
0.0
210
0.0
220
0.0
230
1.0
  0
LINE
  5
5F
100
AcDbEntity
  8
0
370
    35
390
0
 62
     7
100
AcDbLine
 10
1315.050049
 20
579.869873
 30
0.0
 11
1290.807861
 21
599.202515
 31
0.0
210
0.0
220
0.0
230
1.0
  0
LINE
  5
60
100
AcDbEntity
  8
0
370
    35
390
0
 62
     7
100
AcDbLine
 10
1290.807861
 20
599.202515
 30
0.0
 11
1275.171143
 21
611.672302
 31
0.0
210
0.0
220
0.0
230
1.0
  0
LINE
  5
61
100
AcDbEntity
  8
0
370
    35
390
0
 62
     7
 48
0.062498
100
AcDbLine
 10
1275.171143
 20
611.672302
 30
0.0
 11
1276.729736
 21
613.626892
 31
0.0
210
0.0
220
0.0
230
1.0
  0
LINE
  5
62
100
AcDbEntity
  8
0
370
    35
390
0
 62
     7
100
AcDbLine
 10
1292.366455
 20
601.157104
 30
0.0
 11
1276.729736
 21
613.626892
 31
0.0
210
0.0
220
0.0
230
1.0
  0
LINE
  5
63
100
AcDbEntity
  8
0
370
    35
390
0
 62
     7
100
AcDbLine
 10
1316.608887
 20
581.824463
 30
0.0
 11
1292.366455
 21
601.157104
 31
0.0
210
0.0
220
0.0
230
1.0
  0
LINE
  5
64
100
AcDbEntity
  8
0
370
    35
390
0
 62
     7
100
AcDbLine
 10
1355.885498
 20
753.906738
 30
0.0
 11
1325.655762
 21
747.007019
 31
0.0
210
0.0
220
0.0
230
1.0
  0
LINE
  5
65
100
AcDbEntity
  8
0
370
    35
390
0
 62
     7
 48
0.5
100
AcDbLine
 10
1325.655762
 20
747.007019
 30
0.0
 11
1306.157227
 21
742.55658
 31
0.0
210
0.0
220
0.0
230
1.0
  0
LINE
  5
66
100
AcDbEntity
  8
0
370
    35
390
0
 62
     7
 48
0.0625
100
AcDbLine
 10
1306.157227
 20
742.55658
 30
0.0
 11
1305.60083
 21
744.993896
 31
0.0
210
0.0
220
0.0
230
1.0
  0
LINE
  5
67
100
AcDbEntity
  8
0
370
    35
390
0
 62
     7
 48
0.5
100
AcDbLine
 10
1325.099365
 20
749.444336
 30
0.0
 11
1305.60083
 21
744.993896
 31
0.0
210
0.0
220
0.0
230
1.0
  0
LINE
  5
68
100
AcDbEntity
  8
0
370
    35
390
0
 62
     7
100
AcDbLine
 10
1355.329102
 20
756.344055
 30
0.0
 11
1325.099365
 21
749.444336
 31
0.0
210
0.0
220
0.0
230
1.0
  0
LINE
  5
69
100
AcDbEntity
  8
0
370
    35
390
0
 62
     7
100
AcDbLine
 10
1245.27832
 20
894.343323
 30
0.0
 11
1231.824951
 21
866.40686
 31
0.0
210
0.0
220
0.0
230
1.0
  0
LINE
  5
6A
100
AcDbEntity
  8
0
370
    35
390
0
 62
     7
 48
0.5
100
AcDbLine
 10
1231.824951
 20
866.40686
 30
0.0
 11
1223.147217
 21
848.387512
 31
0.0
210
0.0
220
0.0
230
1.0
  0
LINE
  5
6B
100
AcDbEntity
  8
0
370
    35
390
0
 62
     7
 48
0.0625
100
AcDbLine
 10
1223.147217
 20
848.387512
 30
0.0
 11
1220.894775
 21
849.472168
 31
0.0
210
0.0
220
0.0
230
1.0
  0
LINE
  5
6C
100
AcDbEntity
  8
0
370
    35
390
0
 62
     7
100
AcDbLine
 10
1229.57251
 20
867.491577
 30
0.0
 11
1220.894775
 21
849.472168
 31
0.0
210
0.0
220
0.0
230
1.0
  0
LINE
  5
6D
100
AcDbEntity
  8
0
370
    35
390
0
 62
     7
100
AcDbLine
 10
1243.025879
 20
895.427979
 30
0.0
 11
1229.57251
 21
867.491577
 31
0.0
210
0.0
220
0.0
230
1.0
  0
LINE
  5
6E
100
AcDbEntity
  8
0
370
    35
390
0
 62
     7
100
AcDbLine
 10
1066.518311
 20
895.427979
 30
0.0
 11
1079.971802
 21
867.491577
 31
0.0
210
0.0
220
0.0
230
1.0
  0
LINE
  5
6F
100
AcDbEntity
  8
0
370
    35
390
0
 62
     7
100
AcDbLine
 10
1079.971802
 20
867.491577
 30
0.0
 11
1088.649536
 21
849.472168
 31
0.0
210
0.0
220
0.0
230
1.0
  0
LINE
  5
70
100
AcDbEntity
  8
0
370
    35
390
0
 62
     7
 48
0.0625
100
AcDbLine
 10
1088.649536
 20
849.472168
 30
0.0
 11
1086.397095
 21
848.387512
 31
0.0
210
0.0
220
0.0
230
1.0
  0
LINE
  5
71
100
AcDbEntity
  8
0
370
    35
390
0
 62
     7
 48
0.5
100
AcDbLine
 10
1077.71936
 20
866.40686
 30
0.0
 11
1086.397095
 21
848.387512
 31
0.0
210
0.0
220
0.0
230
1.0
  0
LINE
  5
72
100
AcDbEntity
  8
0
370
    35
390
0
 62
     7
100
AcDbLine
 10
1064.265869
 20
894.343323
 30
0.0
 11
1077.71936
 21
866.40686
 31
0.0
210
0.0
220
0.0
230
1.0
  0
LINE
  5
73
100
AcDbEntity
  8
0
370
    35
390
0
 62
     7
100
AcDbLine
 10
954.21521
 20
756.344055
 30
0.0
 11
984.444824
 21
749.444336
 31
0.0
210
0.0
220
0.0
230
1.0
  0
LINE
  5
74
100
AcDbEntity
  8
0
370
    35
390
0
 62
     7
 48
0.5
100
AcDbLine
 10
984.444824
 20
749.444336
 30
0.0
 11
1003.943359
 21
744.993896
 31
0.0
210
0.0
220
0.0
230
1.0
  0
LINE
  5
75
100
AcDbEntity
  8
0
370
    35
390
0
 62
     7
 48
0.0625
100
AcDbLine
 10
1003.943359
 20
744.993896
 30
0.0
 11
1003.387085
 21
742.55658
 31
0.0
210
0.0
220
0.0
230
1.0
  0
LINE
  5
76
100
AcDbEntity
  8
0
370
    35
390
0
 62
     7
 48
0.5
100
AcDbLine
 10
983.88855
 20
747.007019
 30
0.0
 11
1003.387085
 21
742.55658
 31
0.0
210
0.0
220
0.0
230
1.0
  0
LINE
  5
77
100
AcDbEntity
  8
0
370
    35
390
0
 62
     7
100
AcDbLine
 10
953.658813
 20
753.906738
 30
0.0
 11
983.88855
 21
747.007019
 31
0.0
210
0.0
220
0.0
230
1.0
  0
LINE
  5
78
100
AcDbEntity
  8
0
370
    35
390
0
 62
     7
100
AcDbLine
 10
992.935547
 20
581.824463
 30
0.0
 11
1017.177856
 21
601.157104
 31
0.0
210
0.0
220
0.0
230
1.0
  0
CIRCLE
  5
79
100
AcDbEntity
  8
0
370
    35
390
0
 62
     7
100
AcDbCircle
 10
1544.552368
 20
795.592346
 30
0.0
 40
109.5
210
0.0
220
0.0
230
1.0
  0
LINE
  5
7A
100
AcDbEntity
  8
0
370
    35
390
0
 62
     7
100
AcDbLine
 10
1545.802368
 20
845.592346
 30
0.0
 11
1545.802368
 21
875.592346
 31
0.0
210
0.0
220
0.0
230
1.0
  0
LINE
  5
7B
100
AcDbEntity
  8
0
370
    35
390
0
 62
     7
 48
0.0625
100
AcDbLine
 10
1543.302368
 20
845.592346
 30
0.0
 11
1545.802368
 21
845.592346
 31
0.0
210
0.0
220
0.0
230
1.0
  0
LINE
  5
7C
100
AcDbEntity
  8
0
370
    35
390
0
 62
     7
 48
0.0625
100
AcDbLine
 10
1543.302368
 20
875.592346
 30
0.0
 11
1545.802368
 21
875.592346
 31
0.0
210
0.0
220
0.0
230
1.0
  0
LINE
  5
7D
100
AcDbEntity
  8
0
370
    35
390
0
 62
     7
100
AcDbLine
 10
1543.302368
 20
845.592346
 30
0.0
 11
1543.302368
 21
875.592346
 31
0.0
210
0.0
220
0.0
230
1.0
  0
LINE
  5
7E
100
AcDbEntity
  8
0
370
    35
390
0
 62
     7
100
AcDbLine
 10
1504.681519
 20
825.789551
 30
0.0
 11
1481.226563
 21
844.494202
 31
0.0
210
0.0
220
0.0
230
1.0
  0
LINE
  5
7F
100
AcDbEntity
  8
0
370
    35
390
0
 62
     7
 48
0.0625
100
AcDbLine
 10
1481.226563
 20
844.494202
 30
0.0
 11
1482.785278
 21
846.448792
 31
0.0
210
0.0
220
0.0
230
1.0
  0
LINE
  5
80
100
AcDbEntity
  8
0
370
    35
390
0
 62
     7
100
AcDbLine
 10
1506.240234
 20
827.744141
 30
0.0
 11
1482.785278
 21
846.448792
 31
0.0
210
0.0
220
0.0
230
1.0
  0
LINE
  5
81
100
AcDbEntity
  8
0
370
    35
390
0
 62
     7
 48
0.0625
100
AcDbLine
 10
1504.681519
 20
825.789551
 30
0.0
 11
1506.240234
 21
827.744141
 31
0.0
210
0.0
220
0.0
230
1.0
  0
LINE
  5
82
100
AcDbEntity
  8
0
370
    35
390
0
 62
     7
100
AcDbLine
 10
1496.084229
 20
783.24762
 30
0.0
 11
1466.836426
 21
776.572021
 31
0.0
210
0.0
220
0.0
230
1.0
  0
LINE
  5
83
100
AcDbEntity
  8
0
370
    35
390
0
 62
     7
 48
0.0625
100
AcDbLine
 10
1466.836426
 20
776.572021
 30
0.0
 11
1466.280029
 21
779.009338
 31
0.0
210
0.0
220
0.0
230
1.0
  0
LINE
  5
84
100
AcDbEntity
  8
0
370
    35
390
0
 62
     7
100
AcDbLine
 10
1495.527954
 20
785.684937
 30
0.0
 11
1466.280029
 21
779.009338
 31
0.0
210
0.0
220
0.0
230
1.0
  0
LINE
  5
85
100
AcDbEntity
  8
0
370
    35
390
0
 62
     7
 48
0.0625
100
AcDbLine
 10
1496.084229
 20
783.24762
 30
0.0
 11
1495.527954
 21
785.684937
 31
0.0
210
0.0
220
0.0
230
1.0
  0
LINE
  5
86
100
AcDbEntity
  8
0
370
    35
390
0
 62
     7
100
AcDbLine
 10
1523.984497
 20
750.001526
 30
0.0
 11
1510.968018
 21
722.972473
 31
0.0
210
0.0
220
0.0
230
1.0
  0
LINE
  5
87
100
AcDbEntity
  8
0
370
    35
390
0
 62
     7
 48
0.062501
100
AcDbLine
 10
1510.968018
 20
722.972473
 30
0.0
 11
1508.715576
 21
724.05719
 31
0.0
210
0.0
220
0.0
230
1.0
  0
LINE
  5
88
100
AcDbEntity
  8
0
370
    35
390
0
 62
     7
100
AcDbLine
 10
1521.732056
 20
751.086243
 30
0.0
 11
1508.715576
 21
724.05719
 31
0.0
210
0.0
220
0.0
230
1.0
  0
LINE
  5
89
100
AcDbEntity
  8
0
370
    35
390
0
 62
     7
 48
0.062501
100
AcDbLine
 10
1523.984497
 20
750.001526
 30
0.0
 11
1521.732056
 21
751.086243
 31
0.0
210
0.0
220
0.0
230
1.0
  0
LINE
  5
8A
100
AcDbEntity
  8
0
370
    35
390
0
 62
     7
100
AcDbLine
 10
1567.372925
 20
751.086243
 30
0.0
 11
1580.389282
 21
724.05719
 31
0.0
210
0.0
220
0.0
230
1.0
  0
LINE
  5
8B
100
AcDbEntity
  8
0
370
    35
390
0
 62
     7
 48
0.062501
100
AcDbLine
 10
1580.389282
 20
724.05719
 30
0.0
 11
1578.136841
 21
722.972473
 31
0.0
210
0.0
220
0.0
230
1.0
  0
LINE
  5
8C
100
AcDbEntity
  8
0
370
    35
390
0
 62
     7
100
AcDbLine
 10
1565.120483
 20
750.001526
 30
0.0
 11
1578.136841
 21
722.972473
 31
0.0
210
0.0
220
0.0
230
1.0
  0
LINE
  5
8D
100
AcDbEntity
  8
0
370
    35
390
0
 62
     7
 48
0.062501
100
AcDbLine
 10
1567.372925
 20
751.086243
 30
0.0
 11
1565.120483
 21
750.001526
 31
0.0
210
0.0
220
0.0
230
1.0
  0
LINE
  5
8E
100
AcDbEntity
  8
0
370
    35
390
0
 62
     7
100
AcDbLine
 10
1593.577026
 20
785.684937
 30
0.0
 11
1622.824829
 21
779.009338
 31
0.0
210
0.0
220
0.0
230
1.0
  0
LINE
  5
8F
100
AcDbEntity
  8
0
370
    35
390
0
 62
     7
 48
0.0625
100
AcDbLine
 10
1622.824829
 20
779.009338
 30
0.0
 11
1622.268433
 21
776.572021
 31
0.0
210
0.0
220
0.0
230
1.0
  0
LINE
  5
90
100
AcDbEntity
  8
0
370
    35
390
0
 62
     7
100
AcDbLine
 10
1593.02063
 20
783.24762
 30
0.0
 11
1622.268433
 21
776.572021
 31
0.0
210
0.0
220
0.0
230
1.0
  0
LINE
  5
91
100
AcDbEntity
  8
0
370
    35
390
0
 62
     7
 48
0.0625
100
AcDbLine
 10
1593.577026
 20
785.684937
 30
0.0
 11
1593.02063
 21
783.24762
 31
0.0
210
0.0
220
0.0
230
1.0
  0
LINE
  5
92
100
AcDbEntity
  8
0
370
    35
390
0
 62
     7
100
AcDbLine
 10
1582.864624
 20
827.744141
 30
0.0
 11
1606.319702
 21
846.448792
 31
0.0
210
0.0
220
0.0
230
1.0
  0
LINE
  5
93
100
AcDbEntity
  8
0
370
    35
390
0
 62
     7
 48
0.062498
100
AcDbLine
 10
1606.319702
 20
846.448792
 30
0.0
 11
1607.878296
 21
844.494202
 31
0.0
210
0.0
220
0.0
230
1.0
  0
LINE
  5
94
100
AcDbEntity
  8
0
370
    35
390
0
 62
     7
100
AcDbLine
 10
1584.423462
 20
825.789551
 30
0.0
 11
1607.878296
 21
844.494202
 31
0.0
210
0.0
220
0.0
230
1.0
  0
LINE
  5
95
100
AcDbEntity
  8
0
370
    35
390
0
 62
     7
 48
0.062502
100
AcDbLine
 10
1582.864624
 20
827.744141
 30
0.0
 11
1584.423462
 21
825.789551
 31
0.0
210
0.0
220
0.0
230
1.0
  0
ARC
  5
96
100
AcDbEntity
  8
0
370
    35
390
0
 62
     7
100
AcDbCircle
 10
419.587708
 20
609.693726
 30
0.0
 40
8.0
210
0.0
220
0.0
230
1.0
100
AcDbArc
 50
341.788486
 51
18.211506
  0
LINE
  5
97
100
AcDbEntity
  8
0
370
    35
390
0
 62
     7
 48
0.499794
100
AcDbLine
 10
427.186951
 20
612.193909
 30
0.0
 11
427.186951
 21
632.185669
 31
0.0
210
0.0
220
0.0
230
1.0
  0
ARC
  5
98
100
AcDbEntity
  8
0
370
    35
390
0
 62
     7
100
AcDbCircle
 10
428.436951
 20
707.185669
 30
0.0
 40
100.0
210
0.0
220
0.0
230
1.0
100
AcDbArc
 50
261.74331
 51
269.283784
  0
LINE
  5
99
100
AcDbEntity
  8
0
370
    35
390
0
 62
     7
 48
0.0625
100
AcDbLine
 10
427.186951
 20
632.185669
 30
0.0
 11
429.686951
 21
632.185669
 31
0.0
210
0.0
220
0.0
230
1.0
  0
ARC
  5
9A
100
AcDbEntity
  8
0
370
    35
390
0
 62
     7
100
AcDbCircle
 10
424.066956
 20
607.791748
 30
0.0
 40
10.0
210
0.0
220
0.0
230
1.0
100
AcDbArc
 50
131.038696
 51
177.532736
  0
LINE
  5
9B
100
AcDbEntity
  8
0
370
    35
390
0
 62
     7
 48
0.062499
100
AcDbLine
 10
417.50116
 20
615.334412
 30
0.0
 11
418.585876
 21
617.586792
 31
0.0
210
0.0
220
0.0
230
1.0
  0
LINE
  5
9C
100
AcDbEntity
  8
0
370
    35
390
0
 62
     7
100
AcDbLine
 10
418.585876
 20
617.586792
 30
0.0
 11
364.527771
 21
643.619812
 31
0.0
210
0.0
220
0.0
230
1.0
  0
LINE
  5
9D
100
AcDbEntity
  8
0
370
    35
390
0
 62
     7
 48
0.062499
100
AcDbLine
 10
363.443054
 20
641.367432
 30
0.0
 11
364.527771
 21
643.619812
 31
0.0
210
0.0
220
0.0
230
1.0
  0
ARC
  5
9E
100
AcDbEntity
  8
0
370
    35
390
0
 62
     7
100
AcDbCircle
 10
353.452332
 20
641.797913
 30
0.0
 40
10.0
210
0.0
220
0.0
230
1.0
100
AcDbArc
 50
311.038701
 51
357.532727
  0
ARC
  5
9F
100
AcDbEntity
  8
0
370
    35
390
0
 62
     7
100
AcDbCircle
 10
428.436951
 20
707.185669
 30
0.0
 40
100.0
210
0.0
220
0.0
230
1.0
100
AcDbArc
 50
219.287639
 51
226.828113
  0
ARC
  5
A0
100
AcDbEntity
  8
0
370
    35
390
0
 62
     7
100
AcDbCircle
 10
357.732117
 20
639.481812
 30
0.0
 40
8.0
210
0.0
220
0.0
230
1.0
100
AcDbArc
 50
110.359922
 51
146.782937
  0
LINE
  5
A1
100
AcDbEntity
  8
0
370
    35
390
0
 62
     7
 48
0.499795
100
AcDbLine
 10
354.948792
 20
646.981995
 30
0.0
 11
370.579041
 21
659.446655
 31
0.0
210
0.0
220
0.0
230
1.0
  0
LINE
  5
A2
100
AcDbEntity
  8
0
370
    35
390
0
 62
     7
 48
0.062502
100
AcDbLine
 10
369.020203
 20
661.401245
 30
0.0
 11
370.579041
 21
659.446655
 31
0.0
210
0.0
220
0.0
230
1.0
  0
LINE
  5
A3
100
AcDbEntity
  8
0
370
    35
390
0
 62
     7
 48
0.499793
100
AcDbLine
 10
353.390076
 20
648.936584
 30
0.0
 11
369.020203
 21
661.401245
 31
0.0
210
0.0
220
0.0
230
1.0
  0
ARC
  5
A4
100
AcDbEntity
  8
0
370
    35
390
0
 62
     7
100
AcDbCircle
 10
428.436951
 20
707.185669
 30
0.0
 40
100.0
210
0.0
220
0.0
230
1.0
100
AcDbArc
 50
210.314751
 51
217.855212
  0
ARC
  5
A5
100
AcDbEntity
  8
0
370
    35
390
0
 62
     7
100
AcDbCircle
 10
348.002991
 20
648.631226
 30
0.0
 40
10.0
210
0.0
220
0.0
230
1.0
100
AcDbArc
 50
79.610124
 51
126.104157
  0
LINE
  5
A6
100
AcDbEntity
  8
0
370
    35
390
0
 62
     7
 48
0.062498
100
AcDbLine
 10
352.243713
 20
659.02356
 30
0.0
 11
349.806458
 21
658.467285
 31
0.0
210
0.0
220
0.0
230
1.0
  0
LINE
  5
A7
100
AcDbEntity
  8
0
370
    35
390
0
 62
     7
100
AcDbLine
 10
352.243713
 20
659.02356
 30
0.0
 11
338.892517
 21
717.519226
 31
0.0
210
0.0
220
0.0
230
1.0
  0
LINE
  5
A8
100
AcDbEntity
  8
0
370
    35
390
0
 62
     7
 48
0.062501
100
AcDbLine
 10
338.892517
 20
717.519226
 30
0.0
 11
336.455139
 21
716.962952
 31
0.0
210
0.0
220
0.0
230
1.0
  0
ARC
  5
A9
100
AcDbEntity
  8
0
370
    35
390
0
 62
     7
100
AcDbCircle
 10
330.562561
 20
725.042419
 30
0.0
 40
10.0
210
0.0
220
0.0
230
1.0
100
AcDbArc
 50
259.610139
 51
306.104162
  0
ARC
  5
AA
100
AcDbEntity
  8
0
370
    35
390
0
 62
     7
100
AcDbCircle
 10
428.436951
 20
707.185669
 30
0.0
 40
100.0
210
0.0
220
0.0
230
1.0
100
AcDbArc
 50
167.859071
 51
175.399545
  0
ARC
  5
AB
100
AcDbEntity
  8
0
370
    35
390
0
 62
     7
100
AcDbCircle
 10
331.420227
 20
720.252258
 30
0.0
 40
8.0
210
0.0
220
0.0
230
1.0
100
AcDbArc
 50
58.93135
 51
95.354365
  0
LINE
  5
AC
100
AcDbEntity
  8
0
370
    35
390
0
 62
     7
 48
0.499796
100
AcDbLine
 10
335.548645
 20
727.104675
 30
0.0
 11
355.039246
 21
722.656067
 31
0.0
210
0.0
220
0.0
230
1.0
  0
LINE
  5
AD
100
AcDbEntity
  8
0
370
    35
390
0
 62
     7
 48
0.0625
100
AcDbLine
 10
355.59552
 20
725.093384
 30
0.0
 11
355.039246
 21
722.656067
 31
0.0
210
0.0
220
0.0
230
1.0
  0
LINE
  5
AE
100
AcDbEntity
  8
0
370
    35
390
0
 62
     7
 48
0.499793
100
AcDbLine
 10
336.105042
 20
729.541992
 30
0.0
 11
355.59552
 21
725.093384
 31
0.0
210
0.0
220
0.0
230
1.0
  0
ARC
  5
AF
100
AcDbEntity
  8
0
370
    35
390
0
 62
     7
100
AcDbCircle
 10
428.436951
 20
707.185669
 30
0.0
 40
100.0
210
0.0
220
0.0
230
1.0
100
AcDbArc
 50
158.886169
 51
166.426643
  0
ARC
  5
B0
100
AcDbEntity
  8
0
370
    35
390
0
 62
     7
100
AcDbCircle
 10
332.507507
 20
733.563416
 30
0.0
 40
10.0
210
0.0
220
0.0
230
1.0
100
AcDbArc
 50
28.181555
 51
74.675585
  0
LINE
  5
B1
100
AcDbEntity
  8
0
370
    35
390
0
 62
     7
 48
0.0625
100
AcDbLine
 10
343.27655
 20
736.727356
 30
0.0
 11
341.32196
 21
738.286072
 31
0.0
210
0.0
220
0.0
230
1.0
  0
LINE
  5
B2
100
AcDbEntity
  8
0
370
    35
390
0
 62
     7
100
AcDbLine
 10
343.27655
 20
736.727356
 30
0.0
 11
380.685974
 21
783.637268
 31
0.0
210
0.0
220
0.0
230
1.0
  0
LINE
  5
B3
100
AcDbEntity
  8
0
370
    35
390
0
 62
     7
 48
0.0625
100
AcDbLine
 10
378.731384
 20
785.195984
 30
0.0
 11
380.685974
 21
783.637268
 31
0.0
210
0.0
220
0.0
230
1.0
  0
ARC
  5
B4
100
AcDbEntity
  8
0
370
    35
390
0
 62
     7
100
AcDbCircle
 10
381.374207
 20
794.840454
 30
0.0
 40
10.0
210
0.0
220
0.0
230
1.0
100
AcDbArc
 50
208.18156
 51
254.675601
  0
ARC
  5
B5
100
AcDbEntity
  8
0
370
    35
390
0
 62
     7
100
AcDbCircle
 10
428.436951
 20
707.185669
 30
0.0
 40
100.0
210
0.0
220
0.0
230
1.0
100
AcDbArc
 50
116.430505
 51
123.970966
  0
ARC
  5
B6
100
AcDbEntity
  8
0
370
    35
390
0
 62
     7
100
AcDbCircle
 10
378.163879
 20
791.18335
 30
0.0
 40
8.0
210
0.0
220
0.0
230
1.0
100
AcDbArc
 50
7.502778
 51
43.925793
  0
LINE
  5
B7
100
AcDbEntity
  8
0
370
    35
390
0
 62
     7
 48
0.499794
100
AcDbLine
 10
386.095398
 20
792.227966
 30
0.0
 11
394.76947
 21
774.216003
 31
0.0
210
0.0
220
0.0
230
1.0
  0
LINE
  5
B8
100
AcDbEntity
  8
0
370
    35
390
0
 62
     7
 48
0.062501
100
AcDbLine
 10
397.021912
 20
775.30072
 30
0.0
 11
394.76947
 21
774.216003
 31
0.0
210
0.0
220
0.0
230
1.0
  0
LINE
  5
B9
100
AcDbEntity
  8
0
370
    35
390
0
 62
     7
 48
0.499794
100
AcDbLine
 10
388.347839
 20
793.312683
 30
0.0
 11
397.021912
 21
775.30072
 31
0.0
210
0.0
220
0.0
230
1.0
  0
ARC
  5
BA
100
AcDbEntity
  8
0
370
    35
390
0
 62
     7
100
AcDbCircle
 10
428.436951
 20
707.185669
 30
0.0
 40
100.0
210
0.0
220
0.0
230
1.0
100
AcDbArc
 50
107.457604
 51
114.998065
  0
ARC
  5
BB
100
AcDbEntity
  8
0
370
    35
390
0
 62
     7
100
AcDbCircle
 10
389.24884
 20
798.632629
 30
0.0
 40
10.0
210
0.0
220
0.0
230
1.0
100
AcDbArc
 50
336.75297
 51
23.24702
  0
LINE
  5
BC
100
AcDbEntity
  8
0
370
    35
390
0
 62
     7
 48
0.0625
100
AcDbLine
 10
398.436951
 20
792.185669
 30
0.0
 11
398.436951
 21
794.685669
 31
0.0
210
0.0
220
0.0
230
1.0
  0
LINE
  5
BD
100
AcDbEntity
  8
0
370
    35
390
0
 62
     7
100
AcDbLine
 10
398.436951
 20
792.185669
 30
0.0
 11
458.436951
 21
792.185669
 31
0.0
210
0.0
220
0.0
230
1.0
  0
LINE
  5
BE
100
AcDbEntity
  8
0
370
    35
390
0
 62
     7
 48
0.0625
100
AcDbLine
 10
458.436951
 20
792.185669
 30
0.0
 11
458.436951
 21
794.685669
 31
0.0
210
0.0
220
0.0
230
1.0
  0
ARC
  5
BF
100
AcDbEntity
  8
0
370
    35
390
0
 62
     7
100
AcDbCircle
 10
467.625183
 20
798.632629
 30
0.0
 40
10.0
210
0.0
220
0.0
230
1.0
100
AcDbArc
 50
156.752978
 51
203.247022
  0
ARC
  5
C0
100
AcDbEntity
  8
0
370
    35
390
0
 62
     7
100
AcDbCircle
 10
428.436951
 20
707.185669
 30
0.0
 40
100.0
210
0.0
220
0.0
230
1.0
100
AcDbArc
 50
65.001927
 51
72.542394
  0
ARC
  5
C1
100
AcDbEntity
  8
0
370
    35
390
0
 62
     7
100
AcDbCircle
 10
462.764343
 20
798.862488
 30
0.0
 40
8.0
210
0.0
220
0.0
230
1.0
100
AcDbArc
 50
316.074217
 51
352.497211
  0
LINE
  5
C2
100
AcDbEntity
  8
0
370
    35
390
0
 62
     7
 48
0.499794
100
AcDbLine
 10
468.526062
 20
793.312683
 30
0.0
 11
459.85199
 21
775.30072
 31
0.0
210
0.0
220
0.0
230
1.0
  0
LINE
  5
C3
100
AcDbEntity
  8
0
370
    35
390
0
 62
     7
 48
0.062501
100
AcDbLine
 10
462.104431
 20
774.216003
 30
0.0
 11
459.85199
 21
775.30072
 31
0.0
210
0.0
220
0.0
230
1.0
  0
LINE
  5
C4
100
AcDbEntity
  8
0
370
    35
390
0
 62
     7
 48
0.499794
100
AcDbLine
 10
470.778503
 20
792.227966
 30
0.0
 11
462.104431
 21
774.216003
 31
0.0
210
0.0
220
0.0
230
1.0
  0
ARC
  5
C5
100
AcDbEntity
  8
0
370
    35
390
0
 62
     7
100
AcDbCircle
 10
428.436951
 20
707.185669
 30
0.0
 40
100.0
210
0.0
220
0.0
230
1.0
100
AcDbArc
 50
56.029032
 51
63.5695
  0
ARC
  5
C6
100
AcDbEntity
  8
0
370
    35
390
0
 62
     7
100
AcDbCircle
 10
475.499695
 20
794.840454
 30
0.0
 40
10.0
210
0.0
220
0.0
230
1.0
100
AcDbArc
 50
285.324401
 51
331.818458
  0
LINE
  5
C7
100
AcDbEntity
  8
0
370
    35
390
0
 62
     7
 48
0.0625
100
AcDbLine
 10
478.142517
 20
785.195984
 30
0.0
 11
476.187927
 21
783.637268
 31
0.0
210
0.0
220
0.0
230
1.0
  0
LINE
  5
C8
100
AcDbEntity
  8
0
370
    35
390
0
 62
     7
100
AcDbLine
 10
476.187927
 20
783.637268
 30
0.0
 11
513.597412
 21
736.727356
 31
0.0
210
0.0
220
0.0
230
1.0
  0
LINE
  5
C9
100
AcDbEntity
  8
0
370
    35
390
0
 62
     7
 48
0.0625
100
AcDbLine
 10
513.597412
 20
736.727356
 30
0.0
 11
515.552002
 21
738.286072
 31
0.0
210
0.0
220
0.0
230
1.0
  0
ARC
  5
CA
100
AcDbEntity
  8
0
370
    35
390
0
 62
     7
100
AcDbCircle
 10
524.366455
 20
733.563416
 30
0.0
 40
10.0
210
0.0
220
0.0
230
1.0
100
AcDbArc
 50
105.324413
 51
151.81844
  0
ARC
  5
CB
100
AcDbEntity
  8
0
370
    35
390
0
 62
     7
100
AcDbCircle
 10
428.436951
 20
707.185669
 30
0.0
 40
100.0
210
0.0
220
0.0
230
1.0
100
AcDbArc
 50
13.57336
 51
21.113826
  0
ARC
  5
CC
100
AcDbEntity
  8
0
370
    35
390
0
 62
     7
100
AcDbCircle
 10
521.515625
 20
737.50708
 30
0.0
 40
8.0
210
0.0
220
0.0
230
1.0
100
AcDbArc
 50
264.645621
 51
301.06865
  0
LINE
  5
CD
100
AcDbEntity
  8
0
370
    35
390
0
 62
     7
 48
0.499793
100
AcDbLine
 10
520.769043
 20
729.541992
 30
0.0
 11
501.278564
 21
725.093384
 31
0.0
210
0.0
220
0.0
230
1.0
  0
LINE
  5
CE
100
AcDbEntity
  8
0
370
    35
390
0
 62
     7
 48
0.062499
100
AcDbLine
 10
501.834717
 20
722.656067
 30
0.0
 11
501.278564
 21
725.093384
 31
0.0
210
0.0
220
0.0
230
1.0
  0
LINE
  5
CF
100
AcDbEntity
  8
0
370
    35
390
0
 62
     7
 48
0.499799
100
AcDbLine
 10
521.325439
 20
727.104675
 30
0.0
 11
501.834717
 21
722.656067
 31
0.0
210
0.0
220
0.0
230
1.0
  0
ARC
  5
D0
100
AcDbEntity
  8
0
370
    35
390
0
 62
     7
100
AcDbCircle
 10
428.436951
 20
707.185669
 30
0.0
 40
100.0
210
0.0
220
0.0
230
1.0
100
AcDbArc
 50
4.60046
 51
12.140928
  0
ARC
  5
D1
100
AcDbEntity
  8
0
370
    35
390
0
 62
     7
100
AcDbCircle
 10
526.311523
 20
725.042419
 30
0.0
 40
10.0
210
0.0
220
0.0
230
1.0
100
AcDbArc
 50
233.895843
 51
280.38987
  0
LINE
  5
D2
100
AcDbEntity
  8
0
370
    35
390
0
 62
     7
 48
0.062504
100
AcDbLine
 10
517.981445
 20
717.519226
 30
0.0
 11
520.418945
 21
716.962952
 31
0.0
210
0.0
220
0.0
230
1.0
  0
LINE
  5
D3
100
AcDbEntity
  8
0
370
    35
390
0
 62
     7
100
AcDbLine
 10
517.981445
 20
717.519226
 30
0.0
 11
504.630371
 21
659.02356
 31
0.0
210
0.0
220
0.0
230
1.0
  0
LINE
  5
D4
100
AcDbEntity
  8
0
370
    35
390
0
 62
     7
 48
0.062498
100
AcDbLine
 10
504.630371
 20
659.02356
 30
0.0
 11
507.067627
 21
658.467285
 31
0.0
210
0.0
220
0.0
230
1.0
  0
ARC
  5
D5
100
AcDbEntity
  8
0
370
    35
390
0
 62
     7
100
AcDbCircle
 10
508.871094
 20
648.631226
 30
0.0
 40
10.0
210
0.0
220
0.0
230
1.0
100
AcDbArc
 50
53.895838
 51
100.389875
  0
ARC
  5
D6
100
AcDbEntity
  8
0
370
    35
390
0
 62
     7
100
AcDbCircle
 10
428.436951
 20
707.185669
 30
0.0
 40
100.0
210
0.0
220
0.0
230
1.0
100
AcDbArc
 50
322.14478
 51
329.685254
  0
ARC
  5
D7
100
AcDbEntity
  8
0
370
    35
390
0
 62
     7
100
AcDbCircle
 10
510.176758
 20
653.319092
 30
0.0
 40
8.0
210
0.0
220
0.0
230
1.0
100
AcDbArc
 50
213.217063
 51
249.640078
  0
LINE
  5
D8
100
AcDbEntity
  8
0
370
    35
390
0
 62
     7
 48
0.499793
100
AcDbLine
 10
503.483887
 20
648.936584
 30
0.0
 11
487.85376
 21
661.401245
 31
0.0
210
0.0
220
0.0
230
1.0
  0
LINE
  5
D9
100
AcDbEntity
  8
0
370
    35
390
0
 62
     7
 48
0.062503
100
AcDbLine
 10
486.294861
 20
659.446655
 30
0.0
 11
487.85376
 21
661.401245
 31
0.0
210
0.0
220
0.0
230
1.0
  0
LINE
  5
DA
100
AcDbEntity
  8
0
370
    35
390
0
 62
     7
 48
0.499799
100
AcDbLine
 10
501.925293
 20
646.981995
 30
0.0
 11
486.294861
 21
659.446655
 31
0.0
210
0.0
220
0.0
230
1.0
  0
ARC
  5
DB
100
AcDbEntity
  8
0
370
    35
390
0
 62
     7
100
AcDbCircle
 10
428.436951
 20
707.185669
 30
0.0
 40
100.0
210
0.0
220
0.0
230
1.0
100
AcDbArc
 50
313.171905
 51
320.712352
  0
ARC
  5
DC
100
AcDbEntity
  8
0
370
    35
390
0
 62
     7
100
AcDbCircle
 10
503.421631
 20
641.797913
 30
0.0
 40
10.0
210
0.0
220
0.0
230
1.0
100
AcDbArc
 50
182.467264
 51
228.961304
  0
LINE
  5
DD
100
AcDbEntity
  8
0
370
    35
390
0
 62
     7
 48
0.062499
100
AcDbLine
 10
493.430908
 20
641.367432
 30
0.0
 11
492.346191
 21
643.619812
 31
0.0
210
0.0
220
0.0
230
1.0
  0
LINE
  5
DE
100
AcDbEntity
  8
0
370
    35
390
0
 62
     7
100
AcDbLine
 10
492.346191
 20
643.619812
 30
0.0
 11
438.288025
 21
617.586792
 31
0.0
210
0.0
220
0.0
230
1.0
  0
LINE
  5
DF
100
AcDbEntity
  8
0
370
    35
390
0
 62
     7
 48
0.062499
100
AcDbLine
 10
438.288025
 20
617.586792
 30
0.0
 11
439.372742
 21
615.334412
 31
0.0
210
0.0
220
0.0
230
1.0
  0
ARC
  5
E0
100
AcDbEntity
  8
0
370
    35
390
0
 62
     7
100
AcDbCircle
 10
432.807068
 20
607.791748
 30
0.0
 40
10.0
210
0.0
220
0.0
230
1.0
100
AcDbArc
 50
2.467269
 51
48.961303
  0
ARC
  5
E1
100
AcDbEntity
  8
0
370
    35
390
0
 62
     7
100
AcDbCircle
 10
428.436951
 20
707.185669
 30
0.0
 40
100.0
210
0.0
220
0.0
230
1.0
100
AcDbArc
 50
270.716211
 51
278.256685
  0
ARC
  5
E2
100
AcDbEntity
  8
0
370
    35
390
0
 62
     7
100
AcDbCircle
 10
437.286316
 20
609.693726
 30
0.0
 40
8.0
210
0.0
220
0.0
230
1.0
100
AcDbArc
 50
161.788494
 51
198.211506
  0
LINE
  5
E3
100
AcDbEntity
  8
0
370
    35
390
0
 62
     7
 48
0.499794
100
AcDbLine
 10
429.686951
 20
612.193909
 30
0.0
 11
429.686951
 21
632.185669
 31
0.0
210
0.0
220
0.0
230
1.0
  0
ARC
  5
E4
100
AcDbEntity
  8
0
370
    35
390
0
 62
     7
100
AcDbCircle
 10
346.697205
 20
653.319092
 30
0.0
 40
8.0
210
0.0
220
0.0
230
1.0
100
AcDbArc
 50
290.359917
 51
326.782943
  0
ARC
  5
E5
100
AcDbEntity
  8
0
370
    35
390
0
 62
     7
100
AcDbCircle
 10
335.358459
 20
737.50708
 30
0.0
 40
8.0
210
0.0
220
0.0
230
1.0
100
AcDbArc
 50
238.931359
 51
275.354374
  0
ARC
  5
E6
100
AcDbEntity
  8
0
370
    35
390
0
 62
     7
100
AcDbCircle
 10
394.10968
 20
798.862488
 30
0.0
 40
8.0
210
0.0
220
0.0
230
1.0
100
AcDbArc
 50
187.50278
 51
223.925788
  0
ARC
  5
E7
100
AcDbEntity
  8
0
370
    35
390
0
 62
     7
100
AcDbCircle
 10
478.710144
 20
791.18335
 30
0.0
 40
8.0
210
0.0
220
0.0
230
1.0
100
AcDbArc
 50
136.074212
 51
172.49722
  0
ARC
  5
E8
100
AcDbEntity
  8
0
370
    35
390
0
 62
     7
100
AcDbCircle
 10
525.453857
 20
720.252258
 30
0.0
 40
8.0
210
0.0
220
0.0
230
1.0
100
AcDbArc
 50
84.645633
 51
121.068655
  0
ARC
  5
E9
100
AcDbEntity
  8
0
370
    35
390
0
 62
     7
100
AcDbCircle
 10
499.141846
 20
639.481812
 30
0.0
 40
8.0
210
0.0
220
0.0
230
1.0
100
AcDbArc
 50
33.217064
 51
69.640076
  0
ARC
  5
EA
100
AcDbEntity
  8
0
370
    35
390
0
 62
     7
100
AcDbCircle
 10
1146.392334
 20
610.55188
 30
0.0
 40
8.0
210
0.0
220
0.0
230
1.0
100
AcDbArc
 50
341.788486
 51
18.211506
  0
LINE
  5
EB
100
AcDbEntity
  8
0
370
    35
390
0
 62
     7
 48
0.499794
100
AcDbLine
 10
1153.991699
 20
613.052063
 30
0.0
 11
1153.991699
 21
633.043823
 31
0.0
210
0.0
220
0.0
230
1.0
  0
ARC
  5
EC
100
AcDbEntity
  8
0
370
    35
390
0
 62
     7
100
AcDbCircle
 10
1155.241699
 20
708.043823
 30
0.0
 40
100.0
210
0.0
220
0.0
230
1.0
100
AcDbArc
 50
261.74331
 51
269.283784
  0
LINE
  5
ED
100
AcDbEntity
  8
0
370
    35
390
0
 62
     7
 48
0.0625
100
AcDbLine
 10
1153.991699
 20
633.043823
 30
0.0
 11
1156.491699
 21
633.043823
 31
0.0
210
0.0
220
0.0
230
1.0
  0
ARC
  5
EE
100
AcDbEntity
  8
0
370
    35
390
0
 62
     7
100
AcDbCircle
 10
1150.871582
 20
608.649902
 30
0.0
 40
10.0
210
0.0
220
0.0
230
1.0
100
AcDbArc
 50
131.038696
 51
177.532736
  0
LINE
  5
EF
100
AcDbEntity
  8
0
370
    35
390
0
 62
     7
 48
0.062499
100
AcDbLine
 10
1144.305908
 20
616.192566
 30
0.0
 11
1145.390625
 21
618.444946
 31
0.0
210
0.0
220
0.0
230
1.0
  0
LINE
  5
F0
100
AcDbEntity
  8
0
370
    35
390
0
 62
     7
100
AcDbLine
 10
1145.390625
 20
618.444946
 30
0.0
 11
1091.33252
 21
644.477966
 31
0.0
210
0.0
220
0.0
230
1.0
  0
LINE
  5
F1
100
AcDbEntity
  8
0
370
    35
390
0
 62
     7
 48
0.062499
100
AcDbLine
 10
1090.247803
 20
642.225586
 30
0.0
 11
1091.33252
 21
644.477966
 31
0.0
210
0.0
220
0.0
230
1.0
  0
ARC
  5
F2
100
AcDbEntity
  8
0
370
    35
390
0
 62
     7
100
AcDbCircle
 10
1080.25708
 20
642.656067
 30
0.0
 40
10.0
210
0.0
220
0.0
230
1.0
100
AcDbArc
 50
311.038701
 51
357.532727
  0
ARC
  5
F3
100
AcDbEntity
  8
0
370
    35
390
0
 62
     7
100
AcDbCircle
 10
1155.241699
 20
708.043823
 30
0.0
 40
100.0
210
0.0
220
0.0
230
1.0
100
AcDbArc
 50
219.287639
 51
226.828113
  0
ARC
  5
F4
100
AcDbEntity
  8
0
370
    35
390
0
 62
     7
100
AcDbCircle
 10
1084.536865
 20
640.339966
 30
0.0
 40
8.0
210
0.0
220
0.0
230
1.0
100
AcDbArc
 50
110.359922
 51
146.782937
  0
LINE
  5
F5
100
AcDbEntity
  8
0
370
    35
390
0
 62
     7
 48
0.499795
100
AcDbLine
 10
1081.753418
 20
647.840149
 30
0.0
 11
1097.383667
 21
660.30481
 31
0.0
210
0.0
220
0.0
230
1.0
  0
LINE
  5
F6
100
AcDbEntity
  8
0
370
    35
390
0
 62
     7
 48
0.0625
100
AcDbLine
 10
1095.824951
 20
662.259399
 30
0.0
 11
1097.383667
 21
660.30481
 31
0.0
210
0.0
220
0.0
230
1.0
  0
LINE
  5
F7
100
AcDbEntity
  8
0
370
    35
390
0
 62
     7
 48
0.499795
100
AcDbLine
 10
1080.194702
 20
649.794739
 30
0.0
 11
1095.824951
 21
662.259399
 31
0.0
210
0.0
220
0.0
230
1.0
  0
ARC
  5
F8
100
AcDbEntity
  8
0
370
    35
390
0
 62
     7
100
AcDbCircle
 10
1155.241699
 20
708.043823
 30
0.0
 40
100.0
210
0.0
220
0.0
230
1.0
100
AcDbArc
 50
210.314751
 51
217.855212
  0
ARC
  5
F9
100
AcDbEntity
  8
0
370
    35
390
0
 62
     7
100
AcDbCircle
 10
1074.807617
 20
649.48938
 30
0.0
 40
10.0
210
0.0
220
0.0
230
1.0
100
AcDbArc
 50
79.610124
 51
126.104157
  0
LINE
  5
FA
100
AcDbEntity
  8
0
370
    35
390
0
 62
     7
 48
0.062501
100
AcDbLine
 10
1079.048462
 20
659.881714
 30
0.0
 11
1076.611084
 21
659.325439
 31
0.0
210
0.0
220
0.0
230
1.0
  0
LINE
  5
FB
100
AcDbEntity
  8
0
370
    35
390
0
 62
     7
100
AcDbLine
 10
1079.048462
 20
659.881714
 30
0.0
 11
1065.697144
 21
718.37738
 31
0.0
210
0.0
220
0.0
230
1.0
  0
LINE
  5
FC
100
AcDbEntity
  8
0
370
    35
390
0
 62
     7
 48
0.062498
100
AcDbLine
 10
1065.697144
 20
718.37738
 30
0.0
 11
1063.259888
 21
717.821106
 31
0.0
210
0.0
220
0.0
230
1.0
  0
ARC
  5
FD
100
AcDbEntity
  8
0
370
    35
390
0
 62
     7
100
AcDbCircle
 10
1057.36731
 20
725.900574
 30
0.0
 40
10.0
210
0.0
220
0.0
230
1.0
100
AcDbArc
 50
259.610139
 51
306.104162
  0
ARC
  5
FE
100
AcDbEntity
  8
0
370
    35
390
0
 62
     7
100
AcDbCircle
 10
1155.241699
 20
708.043823
 30
0.0
 40
100.0
210
0.0
220
0.0
230
1.0
100
AcDbArc
 50
167.859071
 51
175.399545
  0
ARC
  5
FF
100
AcDbEntity
  8
0
370
    35
390
0
 62
     7
100
AcDbCircle
 10
1058.224854
 20
721.110413
 30
0.0
 40
8.0
210
0.0
220
0.0
230
1.0
100
AcDbArc
 50
58.93135
 51
95.354365
  0
LINE
  5
100
100
AcDbEntity
  8
0
370
    35
390
0
 62
     7
 48
0.499793
100
AcDbLine
 10
1062.353394
 20
727.96283
 30
0.0
 11
1081.843872
 21
723.514221
 31
0.0
210
0.0
220
0.0
230
1.0
  0
LINE
  5
101
100
AcDbEntity
  8
0
370
    35
390
0
 62
     7
 48
0.0625
100
AcDbLine
 10
1082.400269
 20
725.951538
 30
0.0
 11
1081.843872
 21
723.514221
 31
0.0
210
0.0
220
0.0
230
1.0
  0
LINE
  5
102
100
AcDbEntity
  8
0
370
    35
390
0
 62
     7
 48
0.499796
100
AcDbLine
 10
1062.909668
 20
730.400146
 30
0.0
 11
1082.400269
 21
725.951538
 31
0.0
210
0.0
220
0.0
230
1.0
  0
ARC
  5
103
100
AcDbEntity
  8
0
370
    35
390
0
 62
     7
100
AcDbCircle
 10
1155.241699
 20
708.043823
 30
0.0
 40
100.0
210
0.0
220
0.0
230
1.0
100
AcDbArc
 50
158.886169
 51
166.426643
  0
ARC
  5
104
100
AcDbEntity
  8
0
370
    35
390
0
 62
     7
100
AcDbCircle
 10
1059.312134
 20
734.42157
 30
0.0
 40
10.0
210
0.0
220
0.0
230
1.0
100
AcDbArc
 50
28.181555
 51
74.675585
  0
LINE
  5
105
100
AcDbEntity
  8
0
370
    35
390
0
 62
     7
 48
0.0625
100
AcDbLine
 10
1070.081299
 20
737.58551
 30
0.0
 11
1068.126709
 21
739.144226
 31
0.0
210
0.0
220
0.0
230
1.0
  0
LINE
  5
106
100
AcDbEntity
  8
0
370
    35
390
0
 62
     7
100
AcDbLine
 10
1070.081299
 20
737.58551
 30
0.0
 11
1107.490723
 21
784.495422
 31
0.0
210
0.0
220
0.0
230
1.0
  0
LINE
  5
107
100
AcDbEntity
  8
0
370
    35
390
0
 62
     7
 48
0.0625
100
AcDbLine
 10
1105.536133
 20
786.054138
 30
0.0
 11
1107.490723
 21
784.495422
 31
0.0
210
0.0
220
0.0
230
1.0
  0
ARC
  5
108
100
AcDbEntity
  8
0
370
    35
390
0
 62
     7
100
AcDbCircle
 10
1108.178955
 20
795.698608
 30
0.0
 40
10.0
210
0.0
220
0.0
230
1.0
100
AcDbArc
 50
208.18156
 51
254.675601
  0
ARC
  5
109
100
AcDbEntity
  8
0
370
    35
390
0
 62
     7
100
AcDbCircle
 10
1155.241699
 20
708.043823
 30
0.0
 40
100.0
210
0.0
220
0.0
230
1.0
100
AcDbArc
 50
116.430505
 51
123.970966
  0
ARC
  5
10A
100
AcDbEntity
  8
0
370
    35
390
0
 62
     7
100
AcDbCircle
 10
1104.968506
 20
792.041504
 30
0.0
 40
8.0
210
0.0
220
0.0
230
1.0
100
AcDbArc
 50
7.502778
 51
43.925793
  0
LINE
  5
10B
100
AcDbEntity
  8
0
370
    35
390
0
 62
     7
 48
0.499795
100
AcDbLine
 10
1112.900024
 20
793.086121
 30
0.0
 11
1121.574219
 21
775.074158
 31
0.0
210
0.0
220
0.0
230
1.0
  0
LINE
  5
10C
100
AcDbEntity
  8
0
370
    35
390
0
 62
     7
 48
0.062501
100
AcDbLine
 10
1123.82666
 20
776.158875
 30
0.0
 11
1121.574219
 21
775.074158
 31
0.0
210
0.0
220
0.0
230
1.0
  0
LINE
  5
10D
100
AcDbEntity
  8
0
370
    35
390
0
 62
     7
 48
0.499795
100
AcDbLine
 10
1115.152466
 20
794.170837
 30
0.0
 11
1123.82666
 21
776.158875
 31
0.0
210
0.0
220
0.0
230
1.0
  0
ARC
  5
10E
100
AcDbEntity
  8
0
370
    35
390
0
 62
     7
100
AcDbCircle
 10
1155.241699
 20
708.043823
 30
0.0
 40
100.0
210
0.0
220
0.0
230
1.0
100
AcDbArc
 50
107.457604
 51
114.998065
  0
ARC
  5
10F
100
AcDbEntity
  8
0
370
    35
390
0
 62
     7
100
AcDbCircle
 10
1116.053589
 20
799.490784
 30
0.0
 40
10.0
210
0.0
220
0.0
230
1.0
100
AcDbArc
 50
336.75297
 51
23.24702
  0
LINE
  5
110
100
AcDbEntity
  8
0
370
    35
390
0
 62
     7
 48
0.0625
100
AcDbLine
 10
1125.241699
 20
793.043823
 30
0.0
 11
1125.241699
 21
795.543823
 31
0.0
210
0.0
220
0.0
230
1.0
  0
LINE
  5
111
100
AcDbEntity
  8
0
370
    35
390
0
 62
     7
100
AcDbLine
 10
1125.241699
 20
793.043823
 30
0.0
 11
1185.241699
 21
793.043823
 31
0.0
210
0.0
220
0.0
230
1.0
  0
LINE
  5
112
100
AcDbEntity
  8
0
370
    35
390
0
 62
     7
 48
0.0625
100
AcDbLine
 10
1185.241699
 20
793.043823
 30
0.0
 11
1185.241699
 21
795.543823
 31
0.0
210
0.0
220
0.0
230
1.0
  0
ARC
  5
113
100
AcDbEntity
  8
0
370
    35
390
0
 62
     7
100
AcDbCircle
 10
1194.429688
 20
799.490784
 30
0.0
 40
10.0
210
0.0
220
0.0
230
1.0
100
AcDbArc
 50
156.752978
 51
203.247022
  0
ARC
  5
114
100
AcDbEntity
  8
0
370
    35
390
0
 62
     7
100
AcDbCircle
 10
1155.241699
 20
708.043823
 30
0.0
 40
100.0
210
0.0
220
0.0
230
1.0
100
AcDbArc
 50
65.001927
 51
72.542394
  0
ARC
  5
115
100
AcDbEntity
  8
0
370
    35
390
0
 62
     7
100
AcDbCircle
 10
1189.568848
 20
799.720642
 30
0.0
 40
8.0
210
0.0
220
0.0
230
1.0
100
AcDbArc
 50
316.074217
 51
352.497211
  0
LINE
  5
116
100
AcDbEntity
  8
0
370
    35
390
0
 62
     7
 48
0.499794
100
AcDbLine
 10
1195.330811
 20
794.170837
 30
0.0
 11
1186.656738
 21
776.158875
 31
0.0
210
0.0
220
0.0
230
1.0
  0
LINE
  5
117
100
AcDbEntity
  8
0
370
    35
390
0
 62
     7
 48
0.062501
100
AcDbLine
 10
1188.90918
 20
775.074158
 30
0.0
 11
1186.656738
 21
776.158875
 31
0.0
210
0.0
220
0.0
230
1.0
  0
LINE
  5
118
100
AcDbEntity
  8
0
370
    35
390
0
 62
     7
 48
0.499794
100
AcDbLine
 10
1197.583252
 20
793.086121
 30
0.0
 11
1188.90918
 21
775.074158
 31
0.0
210
0.0
220
0.0
230
1.0
  0
ARC
  5
119
100
AcDbEntity
  8
0
370
    35
390
0
 62
     7
100
AcDbCircle
 10
1155.241699
 20
708.043823
 30
0.0
 40
100.0
210
0.0
220
0.0
230
1.0
100
AcDbArc
 50
56.029032
 51
63.5695
  0
ARC
  5
11A
100
AcDbEntity
  8
0
370
    35
390
0
 62
     7
100
AcDbCircle
 10
1202.304443
 20
795.698608
 30
0.0
 40
10.0
210
0.0
220
0.0
230
1.0
100
AcDbArc
 50
285.324401
 51
331.818458
  0
LINE
  5
11B
100
AcDbEntity
  8
0
370
    35
390
0
 62
     7
 48
0.0625
100
AcDbLine
 10
1204.947266
 20
786.054138
 30
0.0
 11
1202.992676
 21
784.495422
 31
0.0
210
0.0
220
0.0
230
1.0
  0
LINE
  5
11C
100
AcDbEntity
  8
0
370
    35
390
0
 62
     7
100
AcDbLine
 10
1202.992676
 20
784.495422
 30
0.0
 11
1240.4021
 21
737.58551
 31
0.0
210
0.0
220
0.0
230
1.0
  0
LINE
  5
11D
100
AcDbEntity
  8
0
370
    35
390
0
 62
     7
 48
0.0625
100
AcDbLine
 10
1240.4021
 20
737.58551
 30
0.0
 11
1242.356689
 21
739.144226
 31
0.0
210
0.0
220
0.0
230
1.0
  0
ARC
  5
11E
100
AcDbEntity
  8
0
370
    35
390
0
 62
     7
100
AcDbCircle
 10
1251.171143
 20
734.42157
 30
0.0
 40
10.0
210
0.0
220
0.0
230
1.0
100
AcDbArc
 50
105.324413
 51
151.81844
  0
ARC
  5
11F
100
AcDbEntity
  8
0
370
    35
390
0
 62
     7
100
AcDbCircle
 10
1155.241699
 20
708.043823
 30
0.0
 40
100.0
210
0.0
220
0.0
230
1.0
100
AcDbArc
 50
13.57336
 51
21.113826
  0
ARC
  5
120
100
AcDbEntity
  8
0
370
    35
390
0
 62
     7
100
AcDbCircle
 10
1248.320068
 20
738.365234
 30
0.0
 40
8.0
210
0.0
220
0.0
230
1.0
100
AcDbArc
 50
264.645621
 51
301.06865
  0
LINE
  5
121
100
AcDbEntity
  8
0
370
    35
390
0
 62
     7
 48
0.499799
100
AcDbLine
 10
1247.57373
 20
730.400146
 30
0.0
 11
1228.083008
 21
725.951538
 31
0.0
210
0.0
220
0.0
230
1.0
  0
LINE
  5
122
100
AcDbEntity
  8
0
370
    35
390
0
 62
     7
 48
0.0625
100
AcDbLine
 10
1228.639404
 20
723.514221
 30
0.0
 11
1228.083008
 21
725.951538
 31
0.0
210
0.0
220
0.0
230
1.0
  0
LINE
  5
123
100
AcDbEntity
  8
0
370
    35
390
0
 62
     7
 48
0.499793
100
AcDbLine
 10
1248.129883
 20
727.96283
 30
0.0
 11
1228.639404
 21
723.514221
 31
0.0
210
0.0
220
0.0
230
1.0
  0
ARC
  5
124
100
AcDbEntity
  8
0
370
    35
390
0
 62
     7
100
AcDbCircle
 10
1155.241699
 20
708.043823
 30
0.0
 40
100.0
210
0.0
220
0.0
230
1.0
100
AcDbArc
 50
4.60046
 51
12.140928
  0
ARC
  5
125
100
AcDbEntity
  8
0
370
    35
390
0
 62
     7
100
AcDbCircle
 10
1253.115967
 20
725.900574
 30
0.0
 40
10.0
210
0.0
220
0.0
230
1.0
100
AcDbArc
 50
233.895843
 51
280.38987
  0
LINE
  5
126
100
AcDbEntity
  8
0
370
    35
390
0
 62
     7
 48
0.062498
100
AcDbLine
 10
1244.786133
 20
718.37738
 30
0.0
 11
1247.223389
 21
717.821106
 31
0.0
210
0.0
220
0.0
230
1.0
  0
LINE
  5
127
100
AcDbEntity
  8
0
370
    35
390
0
 62
     7
100
AcDbLine
 10
1244.786133
 20
718.37738
 30
0.0
 11
1231.434814
 21
659.881714
 31
0.0
210
0.0
220
0.0
230
1.0
  0
LINE
  5
128
100
AcDbEntity
  8
0
370
    35
390
0
 62
     7
 48
0.062504
100
AcDbLine
 10
1231.434814
 20
659.881714
 30
0.0
 11
1233.872314
 21
659.325439
 31
0.0
210
0.0
220
0.0
230
1.0
  0
ARC
  5
129
100
AcDbEntity
  8
0
370
    35
390
0
 62
     7
100
AcDbCircle
 10
1235.675781
 20
649.48938
 30
0.0
 40
10.0
210
0.0
220
0.0
230
1.0
100
AcDbArc
 50
53.895838
 51
100.389875
  0
ARC
  5
12A
100
AcDbEntity
  8
0
370
    35
390
0
 62
     7
100
AcDbCircle
 10
1155.241699
 20
708.043823
 30
0.0
 40
100.0
210
0.0
220
0.0
230
1.0
100
AcDbArc
 50
322.14478
 51
329.685254
  0
ARC
  5
12B
100
AcDbEntity
  8
0
370
    35
390
0
 62
     7
100
AcDbCircle
 10
1236.981445
 20
654.177246
 30
0.0
 40
8.0
210
0.0
220
0.0
230
1.0
100
AcDbArc
 50
213.217063
 51
249.640078
  0
LINE
  5
12C
100
AcDbEntity
  8
0
370
    35
390
0
 62
     7
 48
0.499793
100
AcDbLine
 10
1230.288574
 20
649.794739
 30
0.0
 11
1214.658447
 21
662.259399
 31
0.0
210
0.0
220
0.0
230
1.0
  0
LINE
  5
12D
100
AcDbEntity
  8
0
370
    35
390
0
 62
     7
 48
0.062502
100
AcDbLine
 10
1213.099609
 20
660.30481
 30
0.0
 11
1214.658447
 21
662.259399
 31
0.0
210
0.0
220
0.0
230
1.0
  0
LINE
  5
12E
100
AcDbEntity
  8
0
370
    35
390
0
 62
     7
 48
0.499798
100
AcDbLine
 10
1228.72998
 20
647.840149
 30
0.0
 11
1213.099609
 21
660.30481
 31
0.0
210
0.0
220
0.0
230
1.0
  0
ARC
  5
12F
100
AcDbEntity
  8
0
370
    35
390
0
 62
     7
100
AcDbCircle
 10
1155.241699
 20
708.043823
 30
0.0
 40
100.0
210
0.0
220
0.0
230
1.0
100
AcDbArc
 50
313.171905
 51
320.712352
  0
ARC
  5
130
100
AcDbEntity
  8
0
370
    35
390
0
 62
     7
100
AcDbCircle
 10
1230.226318
 20
642.656067
 30
0.0
 40
10.0
210
0.0
220
0.0
230
1.0
100
AcDbArc
 50
182.467264
 51
228.961304
  0
LINE
  5
131
100
AcDbEntity
  8
0
370
    35
390
0
 62
     7
 48
0.062499
100
AcDbLine
 10
1220.235596
 20
642.225586
 30
0.0
 11
1219.150879
 21
644.477966
 31
0.0
210
0.0
220
0.0
230
1.0
  0
LINE
  5
132
100
AcDbEntity
  8
0
370
    35
390
0
 62
     7
100
AcDbLine
 10
1219.150879
 20
644.477966
 30
0.0
 11
1165.092773
 21
618.444946
 31
0.0
210
0.0
220
0.0
230
1.0
  0
LINE
  5
133
100
AcDbEntity
  8
0
370
    35
390
0
 62
     7
 48
0.062499
100
AcDbLine
 10
1165.092773
 20
618.444946
 30
0.0
 11
1166.17749
 21
616.192566
 31
0.0
210
0.0
220
0.0
230
1.0
  0
ARC
  5
134
100
AcDbEntity
  8
0
370
    35
390
0
 62
     7
100
AcDbCircle
 10
1159.611694
 20
608.649902
 30
0.0
 40
10.0
210
0.0
220
0.0
230
1.0
100
AcDbArc
 50
2.467269
 51
48.961303
  0
ARC
  5
135
100
AcDbEntity
  8
0
370
    35
390
0
 62
     7
100
AcDbCircle
 10
1155.241699
 20
708.043823
 30
0.0
 40
100.0
210
0.0
220
0.0
230
1.0
100
AcDbArc
 50
270.716211
 51
278.256685
  0
ARC
  5
136
100
AcDbEntity
  8
0
370
    35
390
0
 62
     7
100
AcDbCircle
 10
1164.091064
 20
610.55188
 30
0.0
 40
8.0
210
0.0
220
0.0
230
1.0
100
AcDbArc
 50
161.788494
 51
198.211506
  0
LINE
  5
137
100
AcDbEntity
  8
0
370
    35
390
0
 62
     7
 48
0.499794
100
AcDbLine
 10
1156.491699
 20
613.052063
 30
0.0
 11
1156.491699
 21
633.043823
 31
0.0
210
0.0
220
0.0
230
1.0
  0
ARC
  5
138
100
AcDbEntity
  8
0
370
    35
390
0
 62
     7
100
AcDbCircle
 10
1073.501953
 20
654.177246
 30
0.0
 40
8.0
210
0.0
220
0.0
230
1.0
100
AcDbArc
 50
290.359917
 51
326.782943
  0
ARC
  5
139
100
AcDbEntity
  8
0
370
    35
390
0
 62
     7
100
AcDbCircle
 10
1062.163208
 20
738.365234
 30
0.0
 40
8.0
210
0.0
220
0.0
230
1.0
100
AcDbArc
 50
238.931359
 51
275.354374
  0
ARC
  5
13A
100
AcDbEntity
  8
0
370
    35
390
0
 62
     7
100
AcDbCircle
 10
1120.914429
 20
799.720642
 30
0.0
 40
8.0
210
0.0
220
0.0
230
1.0
100
AcDbArc
 50
187.50278
 51
223.925788
  0
ARC
  5
13B
100
AcDbEntity
  8
0
370
    35
390
0
 62
     7
100
AcDbCircle
 10
1205.514893
 20
792.041504
 30
0.0
 40
8.0
210
0.0
220
0.0
230
1.0
100
AcDbArc
 50
136.074212
 51
172.49722
  0
ARC
  5
13C
100
AcDbEntity
  8
0
370
    35
390
0
 62
     7
100
AcDbCircle
 10
1252.258545
 20
721.110413
 30
0.0
 40
8.0
210
0.0
220
0.0
230
1.0
100
AcDbArc
 50
84.645633
 51
121.068655
  0
ARC
  5
13D
100
AcDbEntity
  8
0
370
    35
390
0
 62
     7
100
AcDbCircle
 10
1225.946533
 20
640.339966
 30
0.0
 40
8.0
210
0.0
220
0.0
230
1.0
100
AcDbArc
 50
33.217064
 51
69.640076
  0
ARC
  5
13E
100
AcDbEntity
  8
0
370
    35
390
0
 62
     7
100
AcDbCircle
 10
1448.846191
 20
499.399597
 30
0.0
 40
8.0
210
0.0
220
0.0
230
1.0
100
AcDbArc
 50
341.788486
 51
18.211506
  0
LINE
  5
13F
100
AcDbEntity
  8
0
370
    35
390
0
 62
     7
 48
0.499794
100
AcDbLine
 10
1456.445557
 20
501.89978
 30
0.0
 11
1456.445557
 21
521.891541
 31
0.0
210
0.0
220
0.0
230
1.0
  0
ARC
  5
140
100
AcDbEntity
  8
0
370
    35
390
0
 62
     7
100
AcDbCircle
 10
1457.695557
 20
596.891541
 30
0.0
 40
100.0
210
0.0
220
0.0
230
1.0
100
AcDbArc
 50
261.74331
 51
269.283784
  0
LINE
  5
141
100
AcDbEntity
  8
0
370
    35
390
0
 62
     7
 48
0.0625
100
AcDbLine
 10
1456.445557
 20
521.891541
 30
0.0
 11
1458.945557
 21
521.891541
 31
0.0
210
0.0
220
0.0
230
1.0
  0
ARC
  5
142
100
AcDbEntity
  8
0
370
    35
390
0
 62
     7
100
AcDbCircle
 10
1453.325439
 20
497.49762
 30
0.0
 40
10.0
210
0.0
220
0.0
230
1.0
100
AcDbArc
 50
131.038696
 51
177.532736
  0
LINE
  5
143
100
AcDbEntity
  8
0
370
    35
390
0
 62
     7
 48
0.062499
100
AcDbLine
 10
1446.759766
 20
505.040283
 30
0.0
 11
1447.844482
 21
507.292664
 31
0.0
210
0.0
220
0.0
230
1.0
  0
LINE
  5
144
100
AcDbEntity
  8
0
370
    35
390
0
 62
     7
100
AcDbLine
 10
1447.844482
 20
507.292664
 30
0.0
 11
1393.786377
 21
533.325684
 31
0.0
210
0.0
220
0.0
230
1.0
  0
LINE
  5
145
100
AcDbEntity
  8
0
370
    35
390
0
 62
     7
 48
0.062499
100
AcDbLine
 10
1392.70166
 20
531.073303
 30
0.0
 11
1393.786377
 21
533.325684
 31
0.0
210
0.0
220
0.0
230
1.0
  0
ARC
  5
146
100
AcDbEntity
  8
0
370
    35
390
0
 62
     7
100
AcDbCircle
 10
1382.710938
 20
531.503784
 30
0.0
 40
10.0
210
0.0
220
0.0
230
1.0
100
AcDbArc
 50
311.038701
 51
357.532727
  0
ARC
  5
147
100
AcDbEntity
  8
0
370
    35
390
0
 62
     7
100
AcDbCircle
 10
1457.695557
 20
596.891541
 30
0.0
 40
100.0
210
0.0
220
0.0
230
1.0
100
AcDbArc
 50
219.287639
 51
226.828113
  0
ARC
  5
148
100
AcDbEntity
  8
0
370
    35
390
0
 62
     7
100
AcDbCircle
 10
1386.990723
 20
529.187683
 30
0.0
 40
8.0
210
0.0
220
0.0
230
1.0
100
AcDbArc
 50
110.359922
 51
146.782937
  0
LINE
  5
149
100
AcDbEntity
  8
0
370
    35
390
0
 62
     7
 48
0.499795
100
AcDbLine
 10
1384.207275
 20
536.687866
 30
0.0
 11
1399.837524
 21
549.152527
 31
0.0
210
0.0
220
0.0
230
1.0
  0
LINE
  5
14A
100
AcDbEntity
  8
0
370
    35
390
0
 62
     7
 48
0.0625
100
AcDbLine
 10
1398.278809
 20
551.107117
 30
0.0
 11
1399.837524
 21
549.152527
 31
0.0
210
0.0
220
0.0
230
1.0
  0
LINE
  5
14B
100
AcDbEntity
  8
0
370
    35
390
0
 62
     7
 48
0.499795
100
AcDbLine
 10
1382.64856
 20
538.642456
 30
0.0
 11
1398.278809
 21
551.107117
 31
0.0
210
0.0
220
0.0
230
1.0
  0
ARC
  5
14C
100
AcDbEntity
  8
0
370
    35
390
0
 62
     7
100
AcDbCircle
 10
1457.695557
 20
596.891541
 30
0.0
 40
100.0
210
0.0
220
0.0
230
1.0
100
AcDbArc
 50
210.314751
 51
217.855212
  0
ARC
  5
14D
100
AcDbEntity
  8
0
370
    35
390
0
 62
     7
100
AcDbCircle
 10
1377.261475
 20
538.337097
 30
0.0
 40
10.0
210
0.0
220
0.0
230
1.0
100
AcDbArc
 50
79.610124
 51
126.104157
  0
LINE
  5
14E
100
AcDbEntity
  8
0
370
    35
390
0
 62
     7
 48
0.062501
100
AcDbLine
 10
1381.502319
 20
548.729431
 30
0.0
 11
1379.064941
 21
548.173157
 31
0.0
210
0.0
220
0.0
230
1.0
  0
LINE
  5
14F
100
AcDbEntity
  8
0
370
    35
390
0
 62
     7
100
AcDbLine
 10
1381.502319
 20
548.729431
 30
0.0
 11
1368.151001
 21
607.225098
 31
0.0
210
0.0
220
0.0
230
1.0
  0
LINE
  5
150
100
AcDbEntity
  8
0
370
    35
390
0
 62
     7
 48
0.062498
100
AcDbLine
 10
1368.151001
 20
607.225098
 30
0.0
 11
1365.713745
 21
606.668823
 31
0.0
210
0.0
220
0.0
230
1.0
  0
ARC
  5
151
100
AcDbEntity
  8
0
370
    35
390
0
 62
     7
100
AcDbCircle
 10
1359.821167
 20
614.748291
 30
0.0
 40
10.0
210
0.0
220
0.0
230
1.0
100
AcDbArc
 50
259.610139
 51
306.104162
  0
ARC
  5
152
100
AcDbEntity
  8
0
370
    35
390
0
 62
     7
100
AcDbCircle
 10
1457.695557
 20
596.891541
 30
0.0
 40
100.0
210
0.0
220
0.0
230
1.0
100
AcDbArc
 50
167.859071
 51
175.399545
  0
ARC
  5
153
100
AcDbEntity
  8
0
370
    35
390
0
 62
     7
100
AcDbCircle
 10
1360.678711
 20
609.95813
 30
0.0
 40
8.0
210
0.0
220
0.0
230
1.0
100
AcDbArc
 50
58.93135
 51
95.354365
  0
LINE
  5
154
100
AcDbEntity
  8
0
370
    35
390
0
 62
     7
 48
0.499793
100
AcDbLine
 10
1364.807251
 20
616.810547
 30
0.0
 11
1384.297729
 21
612.361938
 31
0.0
210
0.0
220
0.0
230
1.0
  0
LINE
  5
155
100
AcDbEntity
  8
0
370
    35
390
0
 62
     7
 48
0.0625
100
AcDbLine
 10
1384.854126
 20
614.799255
 30
0.0
 11
1384.297729
 21
612.361938
 31
0.0
210
0.0
220
0.0
230
1.0
  0
LINE
  5
156
100
AcDbEntity
  8
0
370
    35
390
0
 62
     7
 48
0.499796
100
AcDbLine
 10
1365.363525
 20
619.247864
 30
0.0
 11
1384.854126
 21
614.799255
 31
0.0
210
0.0
220
0.0
230
1.0
  0
ARC
  5
157
100
AcDbEntity
  8
0
370
    35
390
0
 62
     7
100
AcDbCircle
 10
1457.695557
 20
596.891541
 30
0.0
 40
100.0
210
0.0
220
0.0
230
1.0
100
AcDbArc
 50
158.886169
 51
166.426643
  0
ARC
  5
158
100
AcDbEntity
  8
0
370
    35
390
0
 62
     7
100
AcDbCircle
 10
1361.765991
 20
623.269287
 30
0.0
 40
10.0
210
0.0
220
0.0
230
1.0
100
AcDbArc
 50
28.181555
 51
74.675585
  0
LINE
  5
159
100
AcDbEntity
  8
0
370
    35
390
0
 62
     7
 48
0.0625
100
AcDbLine
 10
1372.535156
 20
626.433228
 30
0.0
 11
1370.580566
 21
627.991943
 31
0.0
210
0.0
220
0.0
230
1.0
  0
LINE
  5
15A
100
AcDbEntity
  8
0
370
    35
390
0
 62
     7
100
AcDbLine
 10
1372.535156
 20
626.433228
 30
0.0
 11
1409.94458
 21
673.34314
 31
0.0
210
0.0
220
0.0
230
1.0
  0
LINE
  5
15B
100
AcDbEntity
  8
0
370
    35
390
0
 62
     7
 48
0.0625
100
AcDbLine
 10
1407.98999
 20
674.901855
 30
0.0
 11
1409.94458
 21
673.34314
 31
0.0
210
0.0
220
0.0
230
1.0
  0
ARC
  5
15C
100
AcDbEntity
  8
0
370
    35
390
0
 62
     7
100
AcDbCircle
 10
1410.632813
 20
684.546326
 30
0.0
 40
10.0
210
0.0
220
0.0
230
1.0
100
AcDbArc
 50
208.18156
 51
254.675601
  0
ARC
  5
15D
100
AcDbEntity
  8
0
370
    35
390
0
 62
     7
100
AcDbCircle
 10
1457.695557
 20
596.891541
 30
0.0
 40
100.0
210
0.0
220
0.0
230
1.0
100
AcDbArc
 50
116.430505
 51
123.970966
  0
ARC
  5
15E
100
AcDbEntity
  8
0
370
    35
390
0
 62
     7
100
AcDbCircle
 10
1407.422363
 20
680.889221
 30
0.0
 40
8.0
210
0.0
220
0.0
230
1.0
100
AcDbArc
 50
7.502778
 51
43.925793
  0
LINE
  5
15F
100
AcDbEntity
  8
0
370
    35
390
0
 62
     7
 48
0.499795
100
AcDbLine
 10
1415.353882
 20
681.933838
 30
0.0
 11
1424.028076
 21
663.921875
 31
0.0
210
0.0
220
0.0
230
1.0
  0
LINE
  5
160
100
AcDbEntity
  8
0
370
    35
390
0
 62
     7
 48
0.062501
100
AcDbLine
 10
1426.280518
 20
665.006592
 30
0.0
 11
1424.028076
 21
663.921875
 31
0.0
210
0.0
220
0.0
230
1.0
  0
LINE
  5
161
100
AcDbEntity
  8
0
370
    35
390
0
 62
     7
 48
0.499795
100
AcDbLine
 10
1417.606323
 20
683.018555
 30
0.0
 11
1426.280518
 21
665.006592
 31
0.0
210
0.0
220
0.0
230
1.0
  0
ARC
  5
162
100
AcDbEntity
  8
0
370
    35
390
0
 62
     7
100
AcDbCircle
 10
1457.695557
 20
596.891541
 30
0.0
 40
100.0
210
0.0
220
0.0
230
1.0
100
AcDbArc
 50
107.457604
 51
114.998065
  0
ARC
  5
163
100
AcDbEntity
  8
0
370
    35
390
0
 62
     7
100
AcDbCircle
 10
1418.507446
 20
688.338501
 30
0.0
 40
10.0
210
0.0
220
0.0
230
1.0
100
AcDbArc
 50
336.75297
 51
23.24702
  0
LINE
  5
164
100
AcDbEntity
  8
0
370
    35
390
0
 62
     7
 48
0.0625
100
AcDbLine
 10
1427.695557
 20
681.891541
 30
0.0
 11
1427.695557
 21
684.391541
 31
0.0
210
0.0
220
0.0
230
1.0
  0
LINE
  5
165
100
AcDbEntity
  8
0
370
    35
390
0
 62
     7
100
AcDbLine
 10
1427.695557
 20
681.891541
 30
0.0
 11
1487.695557
 21
681.891541
 31
0.0
210
0.0
220
0.0
230
1.0
  0
LINE
  5
166
100
AcDbEntity
  8
0
370
    35
390
0
 62
     7
 48
0.0625
100
AcDbLine
 10
1487.695557
 20
681.891541
 30
0.0
 11
1487.695557
 21
684.391541
 31
0.0
210
0.0
220
0.0
230
1.0
  0
ARC
  5
167
100
AcDbEntity
  8
0
370
    35
390
0
 62
     7
100
AcDbCircle
 10
1496.883667
 20
688.338501
 30
0.0
 40
10.0
210
0.0
220
0.0
230
1.0
100
AcDbArc
 50
156.752978
 51
203.247022
  0
ARC
  5
168
100
AcDbEntity
  8
0
370
    35
390
0
 62
     7
100
AcDbCircle
 10
1457.695557
 20
596.891541
 30
0.0
 40
100.0
210
0.0
220
0.0
230
1.0
100
AcDbArc
 50
65.001927
 51
72.542394
  0
ARC
  5
169
100
AcDbEntity
  8
0
370
    35
390
0
 62
     7
100
AcDbCircle
 10
1492.022827
 20
688.568359
 30
0.0
 40
8.0
210
0.0
220
0.0
230
1.0
100
AcDbArc
 50
316.074217
 51
352.497211
  0
LINE
  5
16A
100
AcDbEntity
  8
0
370
    35
390
0
 62
     7
 48
0.499794
100
AcDbLine
 10
1497.784668
 20
683.018555
 30
0.0
 11
1489.110596
 21
665.006592
 31
0.0
210
0.0
220
0.0
230
1.0
  0
LINE
  5
16B
100
AcDbEntity
  8
0
370
    35
390
0
 62
     7
 48
0.062501
100
AcDbLine
 10
1491.363037
 20
663.921875
 30
0.0
 11
1489.110596
 21
665.006592
 31
0.0
210
0.0
220
0.0
230
1.0
  0
LINE
  5
16C
100
AcDbEntity
  8
0
370
    35
390
0
 62
     7
 48
0.499794
100
AcDbLine
 10
1500.037109
 20
681.933838
 30
0.0
 11
1491.363037
 21
663.921875
 31
0.0
210
0.0
220
0.0
230
1.0
  0
ARC
  5
16D
100
AcDbEntity
  8
0
370
    35
390
0
 62
     7
100
AcDbCircle
 10
1457.695557
 20
596.891541
 30
0.0
 40
100.0
210
0.0
220
0.0
230
1.0
100
AcDbArc
 50
56.029032
 51
63.5695
  0
ARC
  5
16E
100
AcDbEntity
  8
0
370
    35
390
0
 62
     7
100
AcDbCircle
 10
1504.758301
 20
684.546326
 30
0.0
 40
10.0
210
0.0
220
0.0
230
1.0
100
AcDbArc
 50
285.324401
 51
331.818458
  0
LINE
  5
16F
100
AcDbEntity
  8
0
370
    35
390
0
 62
     7
 48
0.0625
100
AcDbLine
 10
1507.401123
 20
674.901855
 30
0.0
 11
1505.446533
 21
673.34314
 31
0.0
210
0.0
220
0.0
230
1.0
  0
LINE
  5
170
100
AcDbEntity
  8
0
370
    35
390
0
 62
     7
100
AcDbLine
 10
1505.446533
 20
673.34314
 30
0.0
 11
1542.855835
 21
626.433228
 31
0.0
210
0.0
220
0.0
230
1.0
  0
LINE
  5
171
100
AcDbEntity
  8
0
370
    35
390
0
 62
     7
 48
0.0625
100
AcDbLine
 10
1542.855835
 20
626.433228
 30
0.0
 11
1544.810425
 21
627.991943
 31
0.0
210
0.0
220
0.0
230
1.0
  0
ARC
  5
172
100
AcDbEntity
  8
0
370
    35
390
0
 62
     7
100
AcDbCircle
 10
1553.625122
 20
623.269287
 30
0.0
 40
10.0
210
0.0
220
0.0
230
1.0
100
AcDbArc
 50
105.324413
 51
151.81844
  0
ARC
  5
173
100
AcDbEntity
  8
0
370
    35
390
0
 62
     7
100
AcDbCircle
 10
1457.695557
 20
596.891541
 30
0.0
 40
100.0
210
0.0
220
0.0
230
1.0
100
AcDbArc
 50
13.57336
 51
21.113826
  0
ARC
  5
174
100
AcDbEntity
  8
0
370
    35
390
0
 62
     7
100
AcDbCircle
 10
1550.774048
 20
627.212952
 30
0.0
 40
8.0
210
0.0
220
0.0
230
1.0
100
AcDbArc
 50
264.645621
 51
301.06865
  0
LINE
  5
175
100
AcDbEntity
  8
0
370
    35
390
0
 62
     7
 48
0.499793
100
AcDbLine
 10
1550.027466
 20
619.247864
 30
0.0
 11
1530.536987
 21
614.799255
 31
0.0
210
0.0
220
0.0
230
1.0
  0
LINE
  5
176
100
AcDbEntity
  8
0
370
    35
390
0
 62
     7
 48
0.0625
100
AcDbLine
 10
1531.093384
 20
612.361938
 30
0.0
 11
1530.536987
 21
614.799255
 31
0.0
210
0.0
220
0.0
230
1.0
  0
LINE
  5
177
100
AcDbEntity
  8
0
370
    35
390
0
 62
     7
 48
0.499793
100
AcDbLine
 10
1550.583862
 20
616.810547
 30
0.0
 11
1531.093384
 21
612.361938
 31
0.0
210
0.0
220
0.0
230
1.0
  0
ARC
  5
178
100
AcDbEntity
  8
0
370
    35
390
0
 62
     7
100
AcDbCircle
 10
1457.695557
 20
596.891541
 30
0.0
 40
100.0
210
0.0
220
0.0
230
1.0
100
AcDbArc
 50
4.60046
 51
12.140928
  0
ARC
  5
179
100
AcDbEntity
  8
0
370
    35
390
0
 62
     7
100
AcDbCircle
 10
1555.569946
 20
614.748291
 30
0.0
 40
10.0
210
0.0
220
0.0
230
1.0
100
AcDbArc
 50
233.895843
 51
280.38987
  0
LINE
  5
17A
100
AcDbEntity
  8
0
370
    35
390
0
 62
     7
 48
0.062498
100
AcDbLine
 10
1547.240112
 20
607.225098
 30
0.0
 11
1549.677368
 21
606.668823
 31
0.0
210
0.0
220
0.0
230
1.0
  0
LINE
  5
17B
100
AcDbEntity
  8
0
370
    35
390
0
 62
     7
100
AcDbLine
 10
1547.240112
 20
607.225098
 30
0.0
 11
1533.888794
 21
548.729431
 31
0.0
210
0.0
220
0.0
230
1.0
  0
LINE
  5
17C
100
AcDbEntity
  8
0
370
    35
390
0
 62
     7
 48
0.062498
100
AcDbLine
 10
1533.888794
 20
548.729431
 30
0.0
 11
1536.32605
 21
548.173157
 31
0.0
210
0.0
220
0.0
230
1.0
  0
ARC
  5
17D
100
AcDbEntity
  8
0
370
    35
390
0
 62
     7
100
AcDbCircle
 10
1538.129517
 20
538.337097
 30
0.0
 40
10.0
210
0.0
220
0.0
230
1.0
100
AcDbArc
 50
53.895838
 51
100.389875
  0
ARC
  5
17E
100
AcDbEntity
  8
0
370
    35
390
0
 62
     7
100
AcDbCircle
 10
1457.695557
 20
596.891541
 30
0.0
 40
100.0
210
0.0
220
0.0
230
1.0
100
AcDbArc
 50
322.14478
 51
329.685254
  0
ARC
  5
17F
100
AcDbEntity
  8
0
370
    35
390
0
 62
     7
100
AcDbCircle
 10
1539.435181
 20
543.024963
 30
0.0
 40
8.0
210
0.0
220
0.0
230
1.0
100
AcDbArc
 50
213.217063
 51
249.640078
  0
LINE
  5
180
100
AcDbEntity
  8
0
370
    35
390
0
 62
     7
 48
0.499798
100
AcDbLine
 10
1532.742554
 20
538.642456
 30
0.0
 11
1517.112183
 21
551.107117
 31
0.0
210
0.0
220
0.0
230
1.0
  0
LINE
  5
181
100
AcDbEntity
  8
0
370
    35
390
0
 62
     7
 48
0.062498
100
AcDbLine
 10
1515.553589
 20
549.152527
 30
0.0
 11
1517.112183
 21
551.107117
 31
0.0
210
0.0
220
0.0
230
1.0
  0
LINE
  5
182
100
AcDbEntity
  8
0
370
    35
390
0
 62
     7
 48
0.499793
100
AcDbLine
 10
1531.183716
 20
536.687866
 30
0.0
 11
1515.553589
 21
549.152527
 31
0.0
210
0.0
220
0.0
230
1.0
  0
ARC
  5
183
100
AcDbEntity
  8
0
370
    35
390
0
 62
     7
100
AcDbCircle
 10
1457.695557
 20
596.891541
 30
0.0
 40
100.0
210
0.0
220
0.0
230
1.0
100
AcDbArc
 50
313.171905
 51
320.712352
  0
ARC
  5
184
100
AcDbEntity
  8
0
370
    35
390
0
 62
     7
100
AcDbCircle
 10
1532.680054
 20
531.503784
 30
0.0
 40
10.0
210
0.0
220
0.0
230
1.0
100
AcDbArc
 50
182.467264
 51
228.961304
  0
LINE
  5
185
100
AcDbEntity
  8
0
370
    35
390
0
 62
     7
 48
0.062499
100
AcDbLine
 10
1522.689331
 20
531.073303
 30
0.0
 11
1521.604614
 21
533.325684
 31
0.0
210
0.0
220
0.0
230
1.0
  0
LINE
  5
186
100
AcDbEntity
  8
0
370
    35
390
0
 62
     7
100
AcDbLine
 10
1521.604614
 20
533.325684
 30
0.0
 11
1467.546631
 21
507.292664
 31
0.0
210
0.0
220
0.0
230
1.0
  0
LINE
  5
187
100
AcDbEntity
  8
0
370
    35
390
0
 62
     7
 48
0.062499
100
AcDbLine
 10
1467.546631
 20
507.292664
 30
0.0
 11
1468.631348
 21
505.040283
 31
0.0
210
0.0
220
0.0
230
1.0
  0
ARC
  5
188
100
AcDbEntity
  8
0
370
    35
390
0
 62
     7
100
AcDbCircle
 10
1462.065552
 20
497.49762
 30
0.0
 40
10.0
210
0.0
220
0.0
230
1.0
100
AcDbArc
 50
2.467269
 51
48.961303
  0
ARC
  5
189
100
AcDbEntity
  8
0
370
    35
390
0
 62
     7
100
AcDbCircle
 10
1457.695557
 20
596.891541
 30
0.0
 40
100.0
210
0.0
220
0.0
230
1.0
100
AcDbArc
 50
270.716211
 51
278.256685
  0
ARC
  5
18A
100
AcDbEntity
  8
0
370
    35
390
0
 62
     7
100
AcDbCircle
 10
1466.5448
 20
499.399597
 30
0.0
 40
8.0
210
0.0
220
0.0
230
1.0
100
AcDbArc
 50
161.788494
 51
198.211506
  0
LINE
  5
18B
100
AcDbEntity
  8
0
370
    35
390
0
 62
     7
 48
0.499794
100
AcDbLine
 10
1458.945557
 20
501.89978
 30
0.0
 11
1458.945557
 21
521.891541
 31
0.0
210
0.0
220
0.0
230
1.0
  0
ARC
  5
18C
100
AcDbEntity
  8
0
370
    35
390
0
 62
     7
100
AcDbCircle
 10
1375.955811
 20
543.024963
 30
0.0
 40
8.0
210
0.0
220
0.0
230
1.0
100
AcDbArc
 50
290.359917
 51
326.782943
  0
ARC
  5
18D
100
AcDbEntity
  8
0
370
    35
390
0
 62
     7
100
AcDbCircle
 10
1364.617065
 20
627.212952
 30
0.0
 40
8.0
210
0.0
220
0.0
230
1.0
100
AcDbArc
 50
238.931359
 51
275.354374
  0
ARC
  5
18E
100
AcDbEntity
  8
0
370
    35
390
0
 62
     7
100
AcDbCircle
 10
1423.368286
 20
688.568359
 30
0.0
 40
8.0
210
0.0
220
0.0
230
1.0
100
AcDbArc
 50
187.50278
 51
223.925788
  0
ARC
  5
18F
100
AcDbEntity
  8
0
370
    35
390
0
 62
     7
100
AcDbCircle
 10
1507.968628
 20
680.889221
 30
0.0
 40
8.0
210
0.0
220
0.0
230
1.0
100
AcDbArc
 50
136.074212
 51
172.49722
  0
ARC
  5
190
100
AcDbEntity
  8
0
370
    35
390
0
 62
     7
100
AcDbCircle
 10
1554.71228
 20
609.95813
 30
0.0
 40
8.0
210
0.0
220
0.0
230
1.0
100
AcDbArc
 50
84.645633
 51
121.068655
  0
ARC
  5
191
100
AcDbEntity
  8
0
370
    35
390
0
 62
     7
100
AcDbCircle
 10
1528.400269
 20
529.187683
 30
0.0
 40
8.0
210
0.0
220
0.0
230
1.0
100
AcDbArc
 50
33.217064
 51
69.640076
  0
ARC
  5
192
100
AcDbEntity
  8
0
370
    35
390
0
 62
     7
100
AcDbCircle
 10
2302.456543
 20
263.844543
 30
0.0
 40
8.0
210
0.0
220
0.0
230
1.0
100
AcDbArc
 50
7.502772
 51
43.92579
  0
LINE
  5
193
100
AcDbEntity
  8
0
370
    35
390
0
 62
     7
 48
0.499796
100
AcDbLine
 10
2308.21875
 20
269.394409
 30
0.0
 11
2299.544434
 21
287.406342
 31
0.0
210
0.0
220
0.0
230
1.0
  0
ARC
  5
194
100
AcDbEntity
  8
0
370
    35
390
0
 62
     7
100
AcDbCircle
 10
2268.129395
 20
355.521362
 30
0.0
 40
100.0
210
0.0
220
0.0
230
1.0
100
AcDbArc
 50
287.457606
 51
294.99808
  0
LINE
  5
195
100
AcDbEntity
  8
0
370
    35
390
0
 62
     7
 48
0.062501
100
AcDbLine
 10
2299.544434
 20
287.406342
 30
0.0
 11
2301.796875
 21
288.491058
 31
0.0
210
0.0
220
0.0
230
1.0
  0
ARC
  5
196
100
AcDbEntity
  8
0
370
    35
390
0
 62
     7
100
AcDbCircle
 10
2307.317383
 20
264.074402
 30
0.0
 40
10.0
210
0.0
220
0.0
230
1.0
100
AcDbArc
 50
156.752978
 51
203.247022
  0
LINE
  5
197
100
AcDbEntity
  8
0
370
    35
390
0
 62
     7
 48
0.0625
100
AcDbLine
 10
2298.129395
 20
268.021362
 30
0.0
 11
2298.129395
 21
270.521362
 31
0.0
210
0.0
220
0.0
230
1.0
  0
LINE
  5
198
100
AcDbEntity
  8
0
370
    35
390
0
 62
     7
100
AcDbLine
 10
2298.129395
 20
270.521362
 30
0.0
 11
2238.129395
 21
270.521362
 31
0.0
210
0.0
220
0.0
230
1.0
  0
LINE
  5
199
100
AcDbEntity
  8
0
370
    35
390
0
 62
     7
 48
0.0625
100
AcDbLine
 10
2238.129395
 20
268.021362
 30
0.0
 11
2238.129395
 21
270.521362
 31
0.0
210
0.0
220
0.0
230
1.0
  0
ARC
  5
19A
100
AcDbEntity
  8
0
370
    35
390
0
 62
     7
100
AcDbCircle
 10
2228.941406
 20
264.074402
 30
0.0
 40
10.0
210
0.0
220
0.0
230
1.0
100
AcDbArc
 50
336.752997
 51
23.247013
  0
ARC
  5
19B
100
AcDbEntity
  8
0
370
    35
390
0
 62
     7
100
AcDbCircle
 10
2268.129395
 20
355.521362
 30
0.0
 40
100.0
210
0.0
220
0.0
230
1.0
100
AcDbArc
 50
245.001922
 51
252.542396
  0
ARC
  5
19C
100
AcDbEntity
  8
0
370
    35
390
0
 62
     7
100
AcDbCircle
 10
2233.802246
 20
263.844604
 30
0.0
 40
8.0
210
0.0
220
0.0
230
1.0
100
AcDbArc
 50
136.074212
 51
172.49722
  0
LINE
  5
19D
100
AcDbEntity
  8
0
370
    35
390
0
 62
     7
 48
0.499798
100
AcDbLine
 10
2228.040039
 20
269.394348
 30
0.0
 11
2236.714355
 21
287.406372
 31
0.0
210
0.0
220
0.0
230
1.0
  0
LINE
  5
19E
100
AcDbEntity
  8
0
370
    35
390
0
 62
     7
 48
0.0625
100
AcDbLine
 10
2234.461914
 20
288.491028
 30
0.0
 11
2236.714355
 21
287.406372
 31
0.0
210
0.0
220
0.0
230
1.0
  0
LINE
  5
19F
100
AcDbEntity
  8
0
370
    35
390
0
 62
     7
 48
0.499797
100
AcDbLine
 10
2225.787598
 20
270.479065
 30
0.0
 11
2234.461914
 21
288.491028
 31
0.0
210
0.0
220
0.0
230
1.0
  0
ARC
  5
1A0
100
AcDbEntity
  8
0
370
    35
390
0
 62
     7
100
AcDbCircle
 10
2268.129395
 20
355.521362
 30
0.0
 40
100.0
210
0.0
220
0.0
230
1.0
100
AcDbArc
 50
236.029048
 51
243.569495
  0
ARC
  5
1A1
100
AcDbEntity
  8
0
370
    35
390
0
 62
     7
100
AcDbCircle
 10
2221.066406
 20
267.866638
 30
0.0
 40
10.0
210
0.0
220
0.0
230
1.0
100
AcDbArc
 50
105.324413
 51
151.81844
  0
LINE
  5
1A2
100
AcDbEntity
  8
0
370
    35
390
0
 62
     7
 48
0.0625
100
AcDbLine
 10
2220.378418
 20
279.069794
 30
0.0
 11
2218.423828
 21
277.511078
 31
0.0
210
0.0
220
0.0
230
1.0
  0
LINE
  5
1A3
100
AcDbEntity
  8
0
370
    35
390
0
 62
     7
100
AcDbLine
 10
2220.378418
 20
279.069794
 30
0.0
 11
2182.96875
 21
325.979675
 31
0.0
210
0.0
220
0.0
230
1.0
  0
LINE
  5
1A4
100
AcDbEntity
  8
0
370
    35
390
0
 62
     7
 48
0.062491
100
AcDbLine
 10
2182.96875
 20
325.979675
 30
0.0
 11
2181.014648
 21
324.420959
 31
0.0
210
0.0
220
0.0
230
1.0
  0
ARC
  5
1A5
100
AcDbEntity
  8
0
370
    35
390
0
 62
     7
100
AcDbCircle
 10
2172.199707
 20
329.143616
 30
0.0
 40
10.0
210
0.0
220
0.0
230
1.0
100
AcDbArc
 50
285.324428
 51
331.818458
  0
ARC
  5
1A6
100
AcDbEntity
  8
0
370
    35
390
0
 62
     7
100
AcDbCircle
 10
2268.129395
 20
355.521362
 30
0.0
 40
100.0
210
0.0
220
0.0
230
1.0
100
AcDbArc
 50
193.573357
 51
201.113831
  0
ARC
  5
1A7
100
AcDbEntity
  8
0
370
    35
390
0
 62
     7
100
AcDbCircle
 10
2175.050781
 20
325.199951
 30
0.0
 40
8.0
210
0.0
220
0.0
230
1.0
100
AcDbArc
 50
84.645633
 51
121.068655
  0
LINE
  5
1A8
100
AcDbEntity
  8
0
370
    35
390
0
 62
     7
 48
0.499799
100
AcDbLine
 10
2175.797363
 20
333.165039
 30
0.0
 11
2195.288086
 21
337.613647
 31
0.0
210
0.0
220
0.0
230
1.0
  0
LINE
  5
1A9
100
AcDbEntity
  8
0
370
    35
390
0
 62
     7
 48
0.062502
100
AcDbLine
 10
2194.731445
 20
340.050964
 30
0.0
 11
2195.288086
 21
337.613647
 31
0.0
210
0.0
220
0.0
230
1.0
  0
LINE
  5
1AA
100
AcDbEntity
  8
0
370
    35
390
0
 62
     7
 48
0.499787
100
AcDbLine
 10
2175.241211
 20
335.602356
 30
0.0
 11
2194.731445
 21
340.050964
 31
0.0
210
0.0
220
0.0
230
1.0
  0
ARC
  5
1AB
100
AcDbEntity
  8
0
370
    35
390
0
 62
     7
100
AcDbCircle
 10
2268.129395
 20
355.521362
 30
0.0
 40
100.0
210
0.0
220
0.0
230
1.0
100
AcDbArc
 50
184.600455
 51
192.140929
  0
ARC
  5
1AC
100
AcDbEntity
  8
0
370
    35
390
0
 62
     7
100
AcDbCircle
 10
2170.254883
 20
337.664673
 30
0.0
 40
10.0
210
0.0
220
0.0
230
1.0
100
AcDbArc
 50
53.895841
 51
100.389868
  0
LINE
  5
1AD
100
AcDbEntity
  8
0
370
    35
390
0
 62
     7
 48
0.062504
100
AcDbLine
 10
2178.584961
 20
345.187805
 30
0.0
 11
2176.147461
 21
345.74408
 31
0.0
210
0.0
220
0.0
230
1.0
  0
LINE
  5
1AE
100
AcDbEntity
  8
0
370
    35
390
0
 62
     7
100
AcDbLine
 10
2178.584961
 20
345.187805
 30
0.0
 11
2191.936035
 21
403.683472
 31
0.0
210
0.0
220
0.0
230
1.0
  0
LINE
  5
1AF
100
AcDbEntity
  8
0
370
    35
390
0
 62
     7
 48
0.062505
100
AcDbLine
 10
2189.498535
 20
404.239807
 30
0.0
 11
2191.936035
 21
403.683472
 31
0.0
210
0.0
220
0.0
230
1.0
  0
ARC
  5
1B0
100
AcDbEntity
  8
0
370
    35
390
0
 62
     7
100
AcDbCircle
 10
2187.695313
 20
414.075806
 30
0.0
 40
10.0
210
0.0
220
0.0
230
1.0
100
AcDbArc
 50
233.895843
 51
280.38989
  0
ARC
  5
1B1
100
AcDbEntity
  8
0
370
    35
390
0
 62
     7
100
AcDbCircle
 10
2268.129395
 20
355.521362
 30
0.0
 40
100.0
210
0.0
220
0.0
230
1.0
100
AcDbArc
 50
142.144788
 51
149.685249
  0
ARC
  5
1B2
100
AcDbEntity
  8
0
370
    35
390
0
 62
     7
100
AcDbCircle
 10
2186.389648
 20
409.387939
 30
0.0
 40
8.0
210
0.0
220
0.0
230
1.0
100
AcDbArc
 50
33.217064
 51
69.640076
  0
LINE
  5
1B3
100
AcDbEntity
  8
0
370
    35
390
0
 62
     7
 48
0.499788
100
AcDbLine
 10
2193.08252
 20
413.770447
 30
0.0
 11
2208.712402
 21
401.305786
 31
0.0
210
0.0
220
0.0
230
1.0
  0
LINE
  5
1B4
100
AcDbEntity
  8
0
370
    35
390
0
 62
     7
 48
0.062507
100
AcDbLine
 10
2210.271484
 20
403.260437
 30
0.0
 11
2208.712402
 21
401.305786
 31
0.0
210
0.0
220
0.0
230
1.0
  0
LINE
  5
1B5
100
AcDbEntity
  8
0
370
    35
390
0
 62
     7
 48
0.499797
100
AcDbLine
 10
2194.641113
 20
415.725037
 30
0.0
 11
2210.271484
 21
403.260437
 31
0.0
210
0.0
220
0.0
230
1.0
  0
ARC
  5
1B6
100
AcDbEntity
  8
0
370
    35
390
0
 62
     7
100
AcDbCircle
 10
2268.129395
 20
355.521362
 30
0.0
 40
100.0
210
0.0
220
0.0
230
1.0
100
AcDbArc
 50
133.171887
 51
140.712347
  0
ARC
  5
1B7
100
AcDbEntity
  8
0
370
    35
390
0
 62
     7
100
AcDbCircle
 10
2193.144531
 20
420.909119
 30
0.0
 40
10.0
210
0.0
220
0.0
230
1.0
100
AcDbArc
 50
2.467256
 51
48.961303
  0
LINE
  5
1B8
100
AcDbEntity
  8
0
370
    35
390
0
 62
     7
 48
0.062503
100
AcDbLine
 10
2204.220215
 20
419.087219
 30
0.0
 11
2203.135254
 21
421.339661
 31
0.0
210
0.0
220
0.0
230
1.0
  0
LINE
  5
1B9
100
AcDbEntity
  8
0
370
    35
390
0
 62
     7
100
AcDbLine
 10
2204.220215
 20
419.087219
 30
0.0
 11
2258.27832
 21
445.120239
 31
0.0
210
0.0
220
0.0
230
1.0
  0
LINE
  5
1BA
100
AcDbEntity
  8
0
370
    35
390
0
 62
     7
 48
0.062503
100
AcDbLine
 10
2258.27832
 20
445.120239
 30
0.0
 11
2257.193359
 21
447.372681
 31
0.0
210
0.0
220
0.0
230
1.0
  0
ARC
  5
1BB
100
AcDbEntity
  8
0
370
    35
390
0
 62
     7
100
AcDbCircle
 10
2263.759277
 20
454.915344
 30
0.0
 40
10.0
210
0.0
220
0.0
230
1.0
100
AcDbArc
 50
182.467264
 51
228.961318
  0
ARC
  5
1BC
100
AcDbEntity
  8
0
370
    35
390
0
 62
     7
100
AcDbCircle
 10
2268.129395
 20
355.521362
 30
0.0
 40
100.0
210
0.0
220
0.0
230
1.0
100
AcDbArc
 50
90.716209
 51
98.256677
  0
ARC
  5
1BD
100
AcDbEntity
  8
0
370
    35
390
0
 62
     7
100
AcDbCircle
 10
2259.280273
 20
453.013367
 30
0.0
 40
8.0
210
0.0
220
0.0
230
1.0
100
AcDbArc
 50
341.788513
 51
18.211497
  0
LINE
  5
1BE
100
AcDbEntity
  8
0
370
    35
390
0
 62
     7
 48
0.499794
100
AcDbLine
 10
2266.879395
 20
450.513123
 30
0.0
 11
2266.879395
 21
430.521362
 31
0.0
210
0.0
220
0.0
230
1.0
  0
LINE
  5
1BF
100
AcDbEntity
  8
0
370
    35
390
0
 62
     7
 48
0.0625
100
AcDbLine
 10
2269.379395
 20
430.521362
 30
0.0
 11
2266.879395
 21
430.521362
 31
0.0
210
0.0
220
0.0
230
1.0
  0
LINE
  5
1C0
100
AcDbEntity
  8
0
370
    35
390
0
 62
     7
 48
0.499794
100
AcDbLine
 10
2269.379395
 20
450.513123
 30
0.0
 11
2269.379395
 21
430.521362
 31
0.0
210
0.0
220
0.0
230
1.0
  0
ARC
  5
1C1
100
AcDbEntity
  8
0
370
    35
390
0
 62
     7
100
AcDbCircle
 10
2268.129395
 20
355.521362
 30
0.0
 40
100.0
210
0.0
220
0.0
230
1.0
100
AcDbArc
 50
81.743315
 51
89.283789
  0
ARC
  5
1C2
100
AcDbEntity
  8
0
370
    35
390
0
 62
     7
100
AcDbCircle
 10
2272.499512
 20
454.915344
 30
0.0
 40
10.0
210
0.0
220
0.0
230
1.0
100
AcDbArc
 50
311.038673
 51
357.532754
  0
LINE
  5
1C3
100
AcDbEntity
  8
0
370
    35
390
0
 62
     7
 48
0.062498
100
AcDbLine
 10
2279.064941
 20
447.372681
 30
0.0
 11
2277.980469
 21
445.120239
 31
0.0
210
0.0
220
0.0
230
1.0
  0
LINE
  5
1C4
100
AcDbEntity
  8
0
370
    35
390
0
 62
     7
100
AcDbLine
 10
2277.980469
 20
445.120239
 30
0.0
 11
2332.038574
 21
419.087219
 31
0.0
210
0.0
220
0.0
230
1.0
  0
LINE
  5
1C5
100
AcDbEntity
  8
0
370
    35
390
0
 62
     7
 48
0.062496
100
AcDbLine
 10
2332.038574
 20
419.087219
 30
0.0
 11
2333.123047
 21
421.3396
 31
0.0
210
0.0
220
0.0
230
1.0
  0
ARC
  5
1C6
100
AcDbEntity
  8
0
370
    35
390
0
 62
     7
100
AcDbCircle
 10
2343.11377
 20
420.909119
 30
0.0
 40
10.0
210
0.0
220
0.0
230
1.0
100
AcDbArc
 50
131.038696
 51
177.532722
  0
ARC
  5
1C7
100
AcDbEntity
  8
0
370
    35
390
0
 62
     7
100
AcDbCircle
 10
2268.129395
 20
355.521362
 30
0.0
 40
100.0
210
0.0
220
0.0
230
1.0
100
AcDbArc
 50
39.287644
 51
46.828112
  0
ARC
  5
1C8
100
AcDbEntity
  8
0
370
    35
390
0
 62
     7
100
AcDbCircle
 10
2338.833984
 20
423.225281
 30
0.0
 40
8.0
210
0.0
220
0.0
230
1.0
100
AcDbArc
 50
290.359917
 51
326.782943
  0
LINE
  5
1C9
100
AcDbEntity
  8
0
370
    35
390
0
 62
     7
 48
0.499798
100
AcDbLine
 10
2341.617676
 20
415.725037
 30
0.0
 11
2325.987305
 21
403.260376
 31
0.0
210
0.0
220
0.0
230
1.0
  0
LINE
  5
1CA
100
AcDbEntity
  8
0
370
    35
390
0
 62
     7
 48
0.062498
100
AcDbLine
 10
2327.545898
 20
401.305786
 30
0.0
 11
2325.987305
 21
403.260376
 31
0.0
210
0.0
220
0.0
230
1.0
  0
LINE
  5
1CB
100
AcDbEntity
  8
0
370
    35
390
0
 62
     7
 48
0.499799
100
AcDbLine
 10
2343.17627
 20
413.770508
 30
0.0
 11
2327.545898
 21
401.305786
 31
0.0
210
0.0
220
0.0
230
1.0
  0
ARC
  5
1CC
100
AcDbEntity
  8
0
370
    35
390
0
 62
     7
100
AcDbCircle
 10
2268.129395
 20
355.521362
 30
0.0
 40
100.0
210
0.0
220
0.0
230
1.0
100
AcDbArc
 50
30.314746
 51
37.855214
  0
ARC
  5
1CD
100
AcDbEntity
  8
0
370
    35
390
0
 62
     7
100
AcDbCircle
 10
2348.563477
 20
414.075867
 30
0.0
 40
10.0
210
0.0
220
0.0
230
1.0
100
AcDbArc
 50
259.610139
 51
306.104162
  0
LINE
  5
1CE
100
AcDbEntity
  8
0
370
    35
390
0
 62
     7
 48
0.062493
100
AcDbLine
 10
2344.322754
 20
403.683472
 30
0.0
 11
2346.759766
 21
404.239807
 31
0.0
210
0.0
220
0.0
230
1.0
  0
LINE
  5
1CF
100
AcDbEntity
  8
0
370
    35
390
0
 62
     7
100
AcDbLine
 10
2344.322754
 20
403.683472
 30
0.0
 11
2357.673828
 21
345.187805
 31
0.0
210
0.0
220
0.0
230
1.0
  0
LINE
  5
1D0
100
AcDbEntity
  8
0
370
    35
390
0
 62
     7
 48
0.062505
100
AcDbLine
 10
2357.673828
 20
345.187805
 30
0.0
 11
2360.111328
 21
345.744141
 31
0.0
210
0.0
220
0.0
230
1.0
  0
ARC
  5
1D1
100
AcDbEntity
  8
0
370
    35
390
0
 62
     7
100
AcDbCircle
 10
2366.003906
 20
337.664673
 30
0.0
 40
10.0
210
0.0
220
0.0
230
1.0
100
AcDbArc
 50
79.610124
 51
126.104157
  0
ARC
  5
1D2
100
AcDbEntity
  8
0
370
    35
390
0
 62
     7
100
AcDbCircle
 10
2268.129395
 20
355.521362
 30
0.0
 40
100.0
210
0.0
220
0.0
230
1.0
100
AcDbArc
 50
347.859075
 51
355.39955
  0
ARC
  5
1D3
100
AcDbEntity
  8
0
370
    35
390
0
 62
     7
100
AcDbCircle
 10
2365.145996
 20
342.454773
 30
0.0
 40
8.0
210
0.0
220
0.0
230
1.0
100
AcDbArc
 50
238.931359
 51
275.354374
  0
LINE
  5
1D4
100
AcDbEntity
  8
0
370
    35
390
0
 62
     7
 48
0.499787
100
AcDbLine
 10
2361.017578
 20
335.602356
 30
0.0
 11
2341.527344
 21
340.050964
 31
0.0
210
0.0
220
0.0
230
1.0
  0
LINE
  5
1D5
100
AcDbEntity
  8
0
370
    35
390
0
 62
     7
 48
0.062502
100
AcDbLine
 10
2340.970703
 20
337.613647
 30
0.0
 11
2341.527344
 21
340.050964
 31
0.0
210
0.0
220
0.0
230
1.0
  0
LINE
  5
1D6
100
AcDbEntity
  8
0
370
    35
390
0
 62
     7
 48
0.499799
100
AcDbLine
 10
2360.461426
 20
333.165039
 30
0.0
 11
2340.970703
 21
337.613647
 31
0.0
210
0.0
220
0.0
230
1.0
  0
ARC
  5
1D7
100
AcDbEntity
  8
0
370
    35
390
0
 62
     7
100
AcDbCircle
 10
2268.129395
 20
355.521362
 30
0.0
 40
100.0
210
0.0
220
0.0
230
1.0
100
AcDbArc
 50
338.886202
 51
346.426649
  0
ARC
  5
1D8
100
AcDbEntity
  8
0
370
    35
390
0
 62
     7
100
AcDbCircle
 10
2364.059082
 20
329.143616
 30
0.0
 40
10.0
210
0.0
220
0.0
230
1.0
100
AcDbArc
 50
208.181547
 51
254.675601
  0
LINE
  5
1D9
100
AcDbEntity
  8
0
370
    35
390
0
 62
     7
 48
0.0625
100
AcDbLine
 10
2355.244141
 20
324.420959
 30
0.0
 11
2353.289551
 21
325.979675
 31
0.0
210
0.0
220
0.0
230
1.0
  0
LINE
  5
1DA
100
AcDbEntity
  8
0
370
    35
390
0
 62
     7
100
AcDbLine
 10
2353.289551
 20
325.979675
 30
0.0
 11
2315.880371
 21
279.069794
 31
0.0
210
0.0
220
0.0
230
1.0
  0
LINE
  5
1DB
100
AcDbEntity
  8
0
370
    35
390
0
 62
     7
 48
0.0625
100
AcDbLine
 10
2315.880371
 20
279.069794
 30
0.0
 11
2317.834961
 21
277.511078
 31
0.0
210
0.0
220
0.0
230
1.0
  0
ARC
  5
1DC
100
AcDbEntity
  8
0
370
    35
390
0
 62
     7
100
AcDbCircle
 10
2315.191895
 20
267.866608
 30
0.0
 40
10.0
210
0.0
220
0.0
230
1.0
100
AcDbArc
 50
28.181555
 51
74.675592
  0
ARC
  5
1DD
100
AcDbEntity
  8
0
370
    35
390
0
 62
     7
100
AcDbCircle
 10
2268.129395
 20
355.521362
 30
0.0
 40
100.0
210
0.0
220
0.0
230
1.0
100
AcDbArc
 50
296.43048
 51
303.970958
  0
ARC
  5
1DE
100
AcDbEntity
  8
0
370
    35
390
0
 62
     7
100
AcDbCircle
 10
2318.402344
 20
271.523682
 30
0.0
 40
8.0
210
0.0
220
0.0
230
1.0
100
AcDbArc
 50
187.50278
 51
223.925802
  0
LINE
  5
1DF
100
AcDbEntity
  8
0
370
    35
390
0
 62
     7
 48
0.499791
100
AcDbLine
 10
2310.470703
 20
270.479126
 30
0.0
 11
2301.796875
 21
288.491058
 31
0.0
210
0.0
220
0.0
230
1.0
  0
ARC
  5
1E0
100
AcDbEntity
  8
0
370
    35
390
0
 62
     7
100
AcDbCircle
 10
2217.856445
 20
271.523682
 30
0.0
 40
8.0
210
0.0
220
0.0
230
1.0
100
AcDbArc
 50
316.074189
 51
352.497239
  0
ARC
  5
1E1
100
AcDbEntity
  8
0
370
    35
390
0
 62
     7
100
AcDbCircle
 10
2171.112793
 20
342.454773
 30
0.0
 40
8.0
210
0.0
220
0.0
230
1.0
100
AcDbArc
 50
264.645648
 51
301.06865
  0
ARC
  5
1E2
100
AcDbEntity
  8
0
370
    35
390
0
 62
     7
100
AcDbCircle
 10
2197.424316
 20
423.225281
 30
0.0
 40
8.0
210
0.0
220
0.0
230
1.0
100
AcDbArc
 50
213.217063
 51
249.640078
  0
ARC
  5
1E3
100
AcDbEntity
  8
0
370
    35
390
0
 62
     7
100
AcDbCircle
 10
2276.978516
 20
453.013367
 30
0.0
 40
8.0
210
0.0
220
0.0
230
1.0
100
AcDbArc
 50
161.788494
 51
198.211506
  0
ARC
  5
1E4
100
AcDbEntity
  8
0
370
    35
390
0
 62
     7
100
AcDbCircle
 10
2349.869141
 20
409.388
 30
0.0
 40
8.0
210
0.0
220
0.0
230
1.0
100
AcDbArc
 50
110.359915
 51
146.782937
  0
ARC
  5
1E5
100
AcDbEntity
  8
0
370
    35
390
0
 62
     7
100
AcDbCircle
 10
2361.208008
 20
325.199951
 30
0.0
 40
8.0
210
0.0
220
0.0
230
1.0
100
AcDbArc
 50
58.93135
 51
95.354359
  0
LINE
  5
1E6
100
AcDbEntity
  8
0
370
    35
390
0
 62
     7
 48
0.124908
100
AcDbLine
 10
429.865417
 20
492.047485
 30
0.0
 11
429.865417
 21
497.043823
 31
0.0
210
0.0
220
0.0
230
1.0
  0
LINE
  5
1E7
100
AcDbEntity
  8
0
370
    35
390
0
 62
     7
 48
0.124908
100
AcDbLine
 10
427.365417
 20
492.047485
 30
0.0
 11
427.365417
 21
497.043823
 31
0.0
210
0.0
220
0.0
230
1.0
  0
LINE
  5
1E8
100
AcDbEntity
  8
0
370
    35
390
0
 62
     7
 48
0.124911
100
AcDbLine
 10
260.521912
 20
572.394958
 30
0.0
 11
264.428284
 21
575.510193
 31
0.0
210
0.0
220
0.0
230
1.0
  0
LINE
  5
1E9
100
AcDbEntity
  8
0
370
    35
390
0
 62
     7
 48
0.124911
100
AcDbLine
 10
258.963196
 20
574.349548
 30
0.0
 11
262.869568
 21
577.464783
 31
0.0
210
0.0
220
0.0
230
1.0
  0
ARC
  5
1EA
100
AcDbEntity
  8
0
370
    35
390
0
 62
     7
100
AcDbCircle
 10
428.615417
 20
708.043823
 30
0.0
 40
216.0
210
0.0
220
0.0
230
1.0
100
AcDbArc
 50
167.474435
 51
218.239861
  0
LINE
  5
1EB
100
AcDbEntity
  8
0
370
    35
390
0
 62
     7
 48
0.124909
100
AcDbLine
 10
217.756287
 20
754.888855
 30
0.0
 11
222.62738
 21
753.777039
 31
0.0
210
0.0
220
0.0
230
1.0
  0
LINE
  5
1EC
100
AcDbEntity
  8
0
370
    35
390
0
 62
     7
 48
0.124912
100
AcDbLine
 10
218.312561
 20
757.326172
 30
0.0
 11
223.183777
 21
756.214417
 31
0.0
210
0.0
220
0.0
230
1.0
  0
LINE
  5
1ED
100
AcDbEntity
  8
0
370
    35
390
0
 62
     7
 48
0.12491
100
AcDbLine
 10
333.77179
 20
902.107483
 30
0.0
 11
335.939636
 21
897.605896
 31
0.0
210
0.0
220
0.0
230
1.0
  0
LINE
  5
1EE
100
AcDbEntity
  8
0
370
    35
390
0
 62
     7
 48
0.12491
100
AcDbLine
 10
336.024231
 20
903.1922
 30
0.0
 11
338.192078
 21
898.690613
 31
0.0
210
0.0
220
0.0
230
1.0
  0
LINE
  5
1EF
100
AcDbEntity
  8
0
370
    35
390
0
 62
     7
 48
0.124911
100
AcDbLine
 10
521.206543
 20
903.1922
 30
0.0
 11
519.038574
 21
898.690613
 31
0.0
210
0.0
220
0.0
230
1.0
  0
LINE
  5
1F0
100
AcDbEntity
  8
0
370
    35
390
0
 62
     7
 48
0.124911
100
AcDbLine
 10
523.458984
 20
902.107483
 30
0.0
 11
521.291016
 21
897.605896
 31
0.0
210
0.0
220
0.0
230
1.0
  0
LINE
  5
1F1
100
AcDbEntity
  8
0
370
    35
390
0
 62
     7
 48
0.124909
100
AcDbLine
 10
638.918213
 20
757.326172
 30
0.0
 11
634.047119
 21
756.214417
 31
0.0
210
0.0
220
0.0
230
1.0
  0
LINE
  5
1F2
100
AcDbEntity
  8
0
370
    35
390
0
 62
     7
 48
0.124909
100
AcDbLine
 10
639.474365
 20
754.888855
 30
0.0
 11
634.603271
 21
753.777039
 31
0.0
210
0.0
220
0.0
230
1.0
  0
ARC
  5
1F3
100
AcDbEntity
  8
0
370
    35
390
0
 62
     7
100
AcDbCircle
 10
428.615417
 20
708.043823
 30
0.0
 40
216.0
210
0.0
220
0.0
230
1.0
100
AcDbArc
 50
321.760131
 51
12.525569
  0
LINE
  5
1F4
100
AcDbEntity
  8
0
370
    35
390
0
 62
     7
 48
0.124909
100
AcDbLine
 10
598.267578
 20
574.349548
 30
0.0
 11
594.361328
 21
577.464783
 31
0.0
210
0.0
220
0.0
230
1.0
  0
LINE
  5
1F5
100
AcDbEntity
  8
0
370
    35
390
0
 62
     7
 48
0.124909
100
AcDbLine
 10
596.70874
 20
572.394958
 30
0.0
 11
592.80249
 21
575.510193
 31
0.0
210
0.0
220
0.0
230
1.0
  0
ARC
  5
1F6
100
AcDbEntity
  8
0
370
    35
390
0
 62
     7
100
AcDbCircle
 10
477.016785
 20
808.550659
 30
0.0
 40
2.0
210
0.0
220
0.0
230
1.0
100
AcDbArc
 50
205.603533
 51
282.967904
  0
ARC
  5
1F7
100
AcDbEntity
  8
0
370
    35
390
0
 62
     7
100
AcDbCircle
 10
380.213806
 20
808.550659
 30
0.0
 40
2.0
210
0.0
220
0.0
230
1.0
100
AcDbArc
 50
257.032091
 51
334.396472
  0
ARC
  5
1F8
100
AcDbEntity
  8
0
370
    35
390
0
 62
     7
100
AcDbCircle
 10
319.858093
 20
732.866943
 30
0.0
 40
2.0
210
0.0
220
0.0
230
1.0
100
AcDbArc
 50
308.46066
 51
25.825046
  0
ARC
  5
1F9
100
AcDbEntity
  8
0
370
    35
390
0
 62
     7
100
AcDbCircle
 10
428.615417
 20
708.043823
 30
0.0
 40
110.0
210
0.0
220
0.0
230
1.0
100
AcDbArc
 50
167.793965
 51
217.920331
  0
ARC
  5
1FA
100
AcDbEntity
  8
0
370
    35
390
0
 62
     7
100
AcDbCircle
 10
341.398865
 20
638.490967
 30
0.0
 40
2.0
210
0.0
220
0.0
230
1.0
100
AcDbArc
 50
359.889252
 51
77.253613
  0
ARC
  5
1FB
100
AcDbEntity
  8
0
370
    35
390
0
 62
     7
100
AcDbCircle
 10
428.615417
 20
596.489685
 30
0.0
 40
2.0
210
0.0
220
0.0
230
1.0
100
AcDbArc
 50
51.317814
 51
128.682185
  0
ARC
  5
1FC
100
AcDbEntity
  8
0
370
    35
390
0
 62
     7
100
AcDbCircle
 10
515.832031
 20
638.490967
 30
0.0
 40
2.0
210
0.0
220
0.0
230
1.0
100
AcDbArc
 50
102.746385
 51
180.110753
  0
ARC
  5
1FD
100
AcDbEntity
  8
0
370
    35
390
0
 62
     7
100
AcDbCircle
 10
428.615417
 20
708.043823
 30
0.0
 40
110.0
210
0.0
220
0.0
230
1.0
100
AcDbArc
 50
322.079674
 51
12.206038
  0
ARC
  5
1FE
100
AcDbEntity
  8
0
370
    35
390
0
 62
     7
100
AcDbCircle
 10
537.372559
 20
732.866943
 30
0.0
 40
2.0
210
0.0
220
0.0
230
1.0
100
AcDbArc
 50
154.17495
 51
231.539346
  0
ARC
  5
1FF
100
AcDbEntity
  8
0
370
    35
390
0
 62
     7
100
AcDbCircle
 10
596.147705
 20
583.714478
 30
0.0
 40
6.5
210
0.0
220
0.0
230
1.0
100
AcDbArc
 50
208.808708
 51
254.048453
  0
ARC
  5
200
100
AcDbEntity
  8
0
370
    35
390
0
 62
     7
100
AcDbCircle
 10
633.501221
 20
747.371216
 30
0.0
 40
6.5
210
0.0
220
0.0
230
1.0
100
AcDbArc
 50
80.237278
 51
125.477009
  0
ARC
  5
201
100
AcDbEntity
  8
0
370
    35
390
0
 62
     7
100
AcDbCircle
 10
630.274658
 20
761.507629
 30
0.0
 40
6.5
210
0.0
220
0.0
230
1.0
100
AcDbArc
 50
260.23728
 51
305.477014
  0
ARC
  5
202
100
AcDbEntity
  8
0
370
    35
390
0
 62
     7
100
AcDbCircle
 10
525.612305
 20
892.750183
 30
0.0
 40
6.5
210
0.0
220
0.0
230
1.0
100
AcDbArc
 50
131.665843
 51
176.905574
  0
ARC
  5
203
100
AcDbEntity
  8
0
370
    35
390
0
 62
     7
100
AcDbCircle
 10
512.548096
 20
899.041504
 30
0.0
 40
6.5
210
0.0
220
0.0
230
1.0
100
AcDbArc
 50
311.665849
 51
356.905579
  0
ARC
  5
204
100
AcDbEntity
  8
0
370
    35
390
0
 62
     7
100
AcDbCircle
 10
344.682678
 20
899.041504
 30
0.0
 40
6.5
210
0.0
220
0.0
230
1.0
100
AcDbArc
 50
183.094426
 51
228.334157
  0
ARC
  5
205
100
AcDbEntity
  8
0
370
    35
390
0
 62
     7
100
AcDbCircle
 10
331.618591
 20
892.750183
 30
0.0
 40
6.5
210
0.0
220
0.0
230
1.0
100
AcDbArc
 50
3.094421
 51
48.334151
  0
ARC
  5
206
100
AcDbEntity
  8
0
370
    35
390
0
 62
     7
100
AcDbCircle
 10
226.956116
 20
761.507629
 30
0.0
 40
6.5
210
0.0
220
0.0
230
1.0
100
AcDbArc
 50
234.522991
 51
279.762722
  0
ARC
  5
207
100
AcDbEntity
  8
0
370
    35
390
0
 62
     7
100
AcDbCircle
 10
223.729675
 20
747.371216
 30
0.0
 40
6.5
210
0.0
220
0.0
230
1.0
100
AcDbArc
 50
54.522993
 51
99.76272
  0
ARC
  5
208
100
AcDbEntity
  8
0
370
    35
390
0
 62
     7
100
AcDbCircle
 10
421.365417
 20
499.543823
 30
0.0
 40
6.5
210
0.0
220
0.0
230
1.0
100
AcDbArc
 50
337.380143
 51
22.619865
  0
ARC
  5
209
100
AcDbEntity
  8
0
370
    35
390
0
 62
     7
100
AcDbCircle
 10
587.106934
 20
572.37793
 30
0.0
 40
6.5
210
0.0
220
0.0
230
1.0
100
AcDbArc
 50
28.808707
 51
74.048437
  0
ARC
  5
20A
100
AcDbEntity
  8
0
370
    35
390
0
 62
     7
100
AcDbCircle
 10
261.083191
 20
583.714478
 30
0.0
 40
6.5
210
0.0
220
0.0
230
1.0
100
AcDbArc
 50
285.951549
 51
331.191283
  0
ARC
  5
20B
100
AcDbEntity
  8
0
370
    35
390
0
 62
     7
100
AcDbCircle
 10
270.12384
 20
572.37793
 30
0.0
 40
6.5
210
0.0
220
0.0
230
1.0
100
AcDbArc
 50
105.951561
 51
151.191292
  0
ARC
  5
20C
100
AcDbEntity
  8
0
370
    35
390
0
 62
     7
100
AcDbCircle
 10
435.865417
 20
499.543823
 30
0.0
 40
6.5
210
0.0
220
0.0
230
1.0
100
AcDbArc
 50
157.38014
 51
202.61986
  0
ARC
  5
20D
100
AcDbEntity
  8
0
370
    35
390
0
 62
     7
100
AcDbCircle
 10
428.615417
 20
708.043823
 30
0.0
 40
110.0
210
0.0
220
0.0
230
1.0
100
AcDbArc
 50
13.508248
 51
63.634612
  0
ARC
  5
20E
100
AcDbEntity
  8
0
370
    35
390
0
 62
     7
100
AcDbCircle
 10
428.615417
 20
708.043823
 30
0.0
 40
110.0
210
0.0
220
0.0
230
1.0
100
AcDbArc
 50
270.651106
 51
320.777458
  0
ARC
  5
20F
100
AcDbEntity
  8
0
370
    35
390
0
 62
     7
100
AcDbCircle
 10
428.615417
 20
708.043823
 30
0.0
 40
110.0
210
0.0
220
0.0
230
1.0
100
AcDbArc
 50
219.222534
 51
269.348889
  0
ARC
  5
210
100
AcDbEntity
  8
0
370
    35
390
0
 62
     7
100
AcDbCircle
 10
428.615417
 20
708.043823
 30
0.0
 40
110.0
210
0.0
220
0.0
230
1.0
100
AcDbArc
 50
116.365386
 51
166.491749
  0
ARC
  5
211
100
AcDbEntity
  8
0
370
    35
390
0
 62
     7
100
AcDbCircle
 10
428.615417
 20
708.043823
 30
0.0
 40
110.0
210
0.0
220
0.0
230
1.0
100
AcDbArc
 50
64.936815
 51
115.063184
  0
ARC
  5
212
100
AcDbEntity
  8
0
370
    35
390
0
 62
     7
100
AcDbCircle
 10
428.615417
 20
708.043823
 30
0.0
 40
216.0
210
0.0
220
0.0
230
1.0
100
AcDbArc
 50
270.331562
 51
321.097001
  0
ARC
  5
213
100
AcDbEntity
  8
0
370
    35
390
0
 62
     7
100
AcDbCircle
 10
428.615417
 20
708.043823
 30
0.0
 40
216.0
210
0.0
220
0.0
230
1.0
100
AcDbArc
 50
13.188717
 51
63.954142
  0
ARC
  5
214
100
AcDbEntity
  8
0
370
    35
390
0
 62
     7
100
AcDbCircle
 10
428.615417
 20
708.043823
 30
0.0
 40
216.0
210
0.0
220
0.0
230
1.0
100
AcDbArc
 50
64.617292
 51
115.382713
  0
ARC
  5
215
100
AcDbEntity
  8
0
370
    35
390
0
 62
     7
100
AcDbCircle
 10
428.615417
 20
708.043823
 30
0.0
 40
216.0
210
0.0
220
0.0
230
1.0
100
AcDbArc
 50
116.045857
 51
166.811279
  0
ARC
  5
216
100
AcDbEntity
  8
0
370
    35
390
0
 62
     7
100
AcDbCircle
 10
428.615417
 20
708.043823
 30
0.0
 40
216.0
210
0.0
220
0.0
230
1.0
100
AcDbArc
 50
218.903004
 51
269.668433
  0
LINE
  5
217
100
AcDbEntity
  8
0
370
    35
390
0
 62
     7
 48
0.0625
100
AcDbLine
 10
427.365417
 20
553.050903
 30
0.0
 11
429.865417
 21
553.050903
 31
0.0
210
0.0
220
0.0
230
1.0
  0
LINE
  5
218
100
AcDbEntity
  8
0
370
    35
390
0
 62
     7
100
AcDbLine
 10
427.365417
 20
502.043823
 30
0.0
 11
427.365417
 21
533.050964
 31
0.0
210
0.0
220
0.0
230
1.0
  0
LINE
  5
219
100
AcDbEntity
  8
0
370
    35
390
0
 62
     7
 48
0.499998
100
AcDbLine
 10
427.365417
 20
533.050964
 30
0.0
 11
427.365417
 21
553.050903
 31
0.0
210
0.0
220
0.0
230
1.0
  0
LINE
  5
21A
100
AcDbEntity
  8
0
370
    35
390
0
 62
     7
100
AcDbLine
 10
429.865417
 20
502.043823
 30
0.0
 11
429.865417
 21
533.050964
 31
0.0
210
0.0
220
0.0
230
1.0
  0
LINE
  5
21B
100
AcDbEntity
  8
0
370
    35
390
0
 62
     7
 48
0.499998
100
AcDbLine
 10
429.865417
 20
533.050964
 30
0.0
 11
429.865417
 21
553.050903
 31
0.0
210
0.0
220
0.0
230
1.0
  0
LINE
  5
21C
100
AcDbEntity
  8
0
370
    35
390
0
 62
     7
 48
0.499999
100
AcDbLine
 10
291.021057
 20
599.914795
 30
0.0
 11
306.657654
 21
612.384583
 31
0.0
210
0.0
220
0.0
230
1.0
  0
LINE
  5
21D
100
AcDbEntity
  8
0
370
    35
390
0
 62
     7
 48
0.062499
100
AcDbLine
 10
306.657654
 20
612.384583
 30
0.0
 11
308.21637
 21
610.430054
 31
0.0
210
0.0
220
0.0
230
1.0
  0
LINE
  5
21E
100
AcDbEntity
  8
0
370
    35
390
0
 62
     7
100
AcDbLine
 10
292.579773
 20
597.960205
 30
0.0
 11
308.21637
 21
610.430054
 31
0.0
210
0.0
220
0.0
230
1.0
  0
LINE
  5
21F
100
AcDbEntity
  8
0
370
    35
390
0
 62
     7
100
AcDbLine
 10
268.337463
 20
578.627625
 30
0.0
 11
292.579773
 21
597.960205
 31
0.0
210
0.0
220
0.0
230
1.0
  0
LINE
  5
220
100
AcDbEntity
  8
0
370
    35
390
0
 62
     7
100
AcDbLine
 10
588.893311
 20
578.627625
 30
0.0
 11
564.651123
 21
597.960205
 31
0.0
210
0.0
220
0.0
230
1.0
  0
LINE
  5
221
100
AcDbEntity
  8
0
370
    35
390
0
 62
     7
100
AcDbLine
 10
564.651123
 20
597.960205
 30
0.0
 11
549.014404
 21
610.430054
 31
0.0
210
0.0
220
0.0
230
1.0
  0
LINE
  5
222
100
AcDbEntity
  8
0
370
    35
390
0
 62
     7
 48
0.062497
100
AcDbLine
 10
549.014404
 20
610.430054
 30
0.0
 11
550.572998
 21
612.384583
 31
0.0
210
0.0
220
0.0
230
1.0
  0
LINE
  5
223
100
AcDbEntity
  8
0
370
    35
390
0
 62
     7
100
AcDbLine
 10
566.209717
 20
599.914795
 30
0.0
 11
550.572998
 21
612.384583
 31
0.0
210
0.0
220
0.0
230
1.0
  0
LINE
  5
224
100
AcDbEntity
  8
0
370
    35
390
0
 62
     7
100
AcDbLine
 10
590.452148
 20
580.582214
 30
0.0
 11
566.209717
 21
599.914795
 31
0.0
210
0.0
220
0.0
230
1.0
  0
LINE
  5
225
100
AcDbEntity
  8
0
370
    35
390
0
 62
     7
100
AcDbLine
 10
629.72876
 20
752.66449
 30
0.0
 11
599.499023
 21
745.764709
 31
0.0
210
0.0
220
0.0
230
1.0
  0
LINE
  5
226
100
AcDbEntity
  8
0
370
    35
390
0
 62
     7
 48
0.499999
100
AcDbLine
 10
599.499023
 20
745.764709
 30
0.0
 11
580.000488
 21
741.314331
 31
0.0
210
0.0
220
0.0
230
1.0
  0
LINE
  5
227
100
AcDbEntity
  8
0
370
    35
390
0
 62
     7
 48
0.0625
100
AcDbLine
 10
580.000488
 20
741.314331
 30
0.0
 11
579.444092
 21
743.751648
 31
0.0
210
0.0
220
0.0
230
1.0
  0
LINE
  5
228
100
AcDbEntity
  8
0
370
    35
390
0
 62
     7
 48
0.499999
100
AcDbLine
 10
598.942627
 20
748.202026
 30
0.0
 11
579.444092
 21
743.751648
 31
0.0
210
0.0
220
0.0
230
1.0
  0
LINE
  5
229
100
AcDbEntity
  8
0
370
    35
390
0
 62
     7
100
AcDbLine
 10
629.172363
 20
755.101807
 30
0.0
 11
598.942627
 21
748.202026
 31
0.0
210
0.0
220
0.0
230
1.0
  0
LINE
  5
22A
100
AcDbEntity
  8
0
370
    35
390
0
 62
     7
100
AcDbLine
 10
519.121582
 20
893.101074
 30
0.0
 11
505.668213
 21
865.164612
 31
0.0
210
0.0
220
0.0
230
1.0
  0
LINE
  5
22B
100
AcDbEntity
  8
0
370
    35
390
0
 62
     7
 48
0.5
100
AcDbLine
 10
505.668213
 20
865.164612
 30
0.0
 11
496.990479
 21
847.145264
 31
0.0
210
0.0
220
0.0
230
1.0
  0
LINE
  5
22C
100
AcDbEntity
  8
0
370
    35
390
0
 62
     7
 48
0.0625
100
AcDbLine
 10
496.990479
 20
847.145264
 30
0.0
 11
494.738037
 21
848.229919
 31
0.0
210
0.0
220
0.0
230
1.0
  0
LINE
  5
22D
100
AcDbEntity
  8
0
370
    35
390
0
 62
     7
100
AcDbLine
 10
503.415771
 20
866.249329
 30
0.0
 11
494.738037
 21
848.229919
 31
0.0
210
0.0
220
0.0
230
1.0
  0
LINE
  5
22E
100
AcDbEntity
  8
0
370
    35
390
0
 62
     7
100
AcDbLine
 10
516.869141
 20
894.18573
 30
0.0
 11
503.415771
 21
866.249329
 31
0.0
210
0.0
220
0.0
230
1.0
  0
LINE
  5
22F
100
AcDbEntity
  8
0
370
    35
390
0
 62
     7
100
AcDbLine
 10
340.361511
 20
894.18573
 30
0.0
 11
353.815002
 21
866.249329
 31
0.0
210
0.0
220
0.0
230
1.0
  0
LINE
  5
230
100
AcDbEntity
  8
0
370
    35
390
0
 62
     7
100
AcDbLine
 10
353.815002
 20
866.249329
 30
0.0
 11
362.492737
 21
848.229919
 31
0.0
210
0.0
220
0.0
230
1.0
  0
LINE
  5
231
100
AcDbEntity
  8
0
370
    35
390
0
 62
     7
 48
0.0625
100
AcDbLine
 10
362.492737
 20
848.229919
 30
0.0
 11
360.240295
 21
847.145264
 31
0.0
210
0.0
220
0.0
230
1.0
  0
LINE
  5
232
100
AcDbEntity
  8
0
370
    35
390
0
 62
     7
 48
0.5
100
AcDbLine
 10
351.562561
 20
865.164612
 30
0.0
 11
360.240295
 21
847.145264
 31
0.0
210
0.0
220
0.0
230
1.0
  0
LINE
  5
233
100
AcDbEntity
  8
0
370
    35
390
0
 62
     7
100
AcDbLine
 10
338.10907
 20
893.101074
 30
0.0
 11
351.562561
 21
865.164612
 31
0.0
210
0.0
220
0.0
230
1.0
  0
LINE
  5
234
100
AcDbEntity
  8
0
370
    35
390
0
 62
     7
100
AcDbLine
 10
228.058411
 20
755.101807
 30
0.0
 11
258.288025
 21
748.202026
 31
0.0
210
0.0
220
0.0
230
1.0
  0
LINE
  5
235
100
AcDbEntity
  8
0
370
    35
390
0
 62
     7
 48
0.499999
100
AcDbLine
 10
258.288025
 20
748.202026
 30
0.0
 11
277.78656
 21
743.751648
 31
0.0
210
0.0
220
0.0
230
1.0
  0
LINE
  5
236
100
AcDbEntity
  8
0
370
    35
390
0
 62
     7
 48
0.0625
100
AcDbLine
 10
277.78656
 20
743.751648
 30
0.0
 11
277.230286
 21
741.314331
 31
0.0
210
0.0
220
0.0
230
1.0
  0
LINE
  5
237
100
AcDbEntity
  8
0
370
    35
390
0
 62
     7
 48
0.499999
100
AcDbLine
 10
257.73175
 20
745.764709
 30
0.0
 11
277.230286
 21
741.314331
 31
0.0
210
0.0
220
0.0
230
1.0
  0
LINE
  5
238
100
AcDbEntity
  8
0
370
    35
390
0
 62
     7
100
AcDbLine
 10
227.502014
 20
752.66449
 30
0.0
 11
257.73175
 21
745.764709
 31
0.0
210
0.0
220
0.0
230
1.0
  0
LINE
  5
239
100
AcDbEntity
  8
0
370
    35
390
0
 62
     7
100
AcDbLine
 10
266.778748
 20
580.582214
 30
0.0
 11
291.021057
 21
599.914795
 31
0.0
210
0.0
220
0.0
230
1.0
  0
ARC
  5
23A
100
AcDbEntity
  8
0
370
    35
390
0
 62
     7
100
AcDbCircle
 10
-387.927734
 20
914.357544
 30
0.0
 40
6.5
210
0.0
220
0.0
230
1.0
100
AcDbArc
 50
337.379078
 51
22.620927
  0
LINE
  5
23B
100
AcDbEntity
  8
0
370
    35
390
0
 62
     7
100
AcDbLine
 10
-381.927795
 20
876.863403
 30
0.0
 11
-381.927795
 21
911.857422
 31
0.0
210
0.0
220
0.0
230
1.0
  0
LINE
  5
23C
100
AcDbEntity
  8
0
370
    35
390
0
 62
     7
 48
0.125005
100
AcDbLine
 10
-381.927795
 20
916.857666
 30
0.0
 11
-381.927795
 21
921.857849
 31
0.0
210
0.0
220
0.0
230
1.0
  0
LINE
  5
23D
100
AcDbEntity
  8
0
370
    35
390
0
 62
     7
 48
0.030339
100
AcDbLine
 10
-381.927795
 20
876.863403
 30
0.0
 11
-380.714233
 21
876.863403
 31
0.0
210
0.0
220
0.0
230
1.0
  0
ARC
  5
23E
100
AcDbEntity
  8
0
370
    35
390
0
 62
     7
100
AcDbCircle
 10
-380.677795
 20
781.863403
 30
0.0
 40
139.999985
210
0.0
220
0.0
230
1.0
100
AcDbArc
 50
90.511563
 51
140.91698
  0
LINE
  5
23F
100
AcDbEntity
  8
0
370
    35
390
0
 62
     7
 48
0.125004
100
AcDbLine
 10
-485.441162
 20
867.00824
 30
0.0
 11
-489.350464
 21
870.125793
 31
0.0
210
0.0
220
0.0
230
1.0
  0
ARC
  5
240
100
AcDbEntity
  8
0
370
    35
390
0
 62
     7
100
AcDbCircle
 10
-479.745544
 20
870.140381
 30
0.0
 40
6.5
210
0.0
220
0.0
230
1.0
100
AcDbArc
 50
208.807643
 51
254.049484
  0
LINE
  5
241
100
AcDbEntity
  8
0
370
    35
390
0
 62
     7
100
AcDbLine
 10
-454.172424
 20
842.072266
 30
0.0
 11
-481.531799
 21
863.890625
 31
0.0
210
0.0
220
0.0
230
1.0
  0
LINE
  5
242
100
AcDbEntity
  8
0
370
    35
390
0
 62
     7
 48
0.0625
100
AcDbLine
 10
-455.73114
 20
840.117676
 30
0.0
 11
-454.172424
 21
842.072266
 31
0.0
210
0.0
220
0.0
230
1.0
  0
LINE
  5
243
100
AcDbEntity
  8
0
370
    35
390
0
 62
     7
100
AcDbLine
 10
-455.73114
 20
840.117676
 30
0.0
 11
-483.090515
 21
861.936035
 31
0.0
210
0.0
220
0.0
230
1.0
  0
LINE
  5
244
100
AcDbEntity
  8
0
370
    35
390
0
 62
     7
 48
0.125004
100
AcDbLine
 10
-486.999878
 20
865.05365
 30
0.0
 11
-490.90918
 21
868.171204
 31
0.0
210
0.0
220
0.0
230
1.0
  0
ARC
  5
245
100
AcDbEntity
  8
0
370
    35
390
0
 62
     7
100
AcDbCircle
 10
-380.677734
 20
781.863342
 30
0.0
 40
140.000092
210
0.0
220
0.0
230
1.0
100
AcDbArc
 50
141.940142
 51
179.999964
  0
LINE
  5
246
100
AcDbEntity
  8
0
370
    35
390
0
 62
     7
100
AcDbLine
 10
-461.533569
 20
820.832581
 30
0.0
 11
-470.42804
 21
781.863403
 31
0.0
210
0.0
220
0.0
230
1.0
  0
LINE
  5
247
100
AcDbEntity
  8
0
370
    35
390
0
 62
     7
 48
0.0625
100
AcDbLine
 10
-461.533569
 20
820.832581
 30
0.0
 11
-459.096252
 21
820.276245
 31
0.0
210
0.0
220
0.0
230
1.0
  0
LINE
  5
248
100
AcDbEntity
  8
0
370
    35
390
0
 62
     7
100
AcDbLine
 10
-459.096252
 20
820.276245
 30
0.0
 11
-467.863708
 21
781.863403
 31
0.0
210
0.0
220
0.0
230
1.0
  0
LINE
  5
249
100
AcDbEntity
  8
0
370
    35
390
0
 62
     7
100
AcDbLine
 10
-435.577271
 20
849.768127
 30
0.0
 11
-399.538513
 21
867.123474
 31
0.0
210
0.0
220
0.0
230
1.0
  0
LINE
  5
24A
100
AcDbEntity
  8
0
370
    35
390
0
 62
     7
 48
0.062499
100
AcDbLine
 10
-436.661987
 20
852.020508
 30
0.0
 11
-435.577271
 21
849.768127
 31
0.0
210
0.0
220
0.0
230
1.0
  0
LINE
  5
24B
100
AcDbEntity
  8
0
370
    35
390
0
 62
     7
100
AcDbLine
 10
-436.661987
 20
852.020508
 30
0.0
 11
-400.62323
 21
869.375854
 31
0.0
210
0.0
220
0.0
230
1.0
  0
LINE
  5
24C
100
AcDbEntity
  8
0
370
    35
390
0
 62
     7
 48
0.062499
100
AcDbLine
 10
-400.62323
 20
869.375854
 30
0.0
 11
-399.538513
 21
867.123474
 31
0.0
210
0.0
220
0.0
230
1.0
  0
ARC
  5
24D
100
AcDbEntity
  8
0
370
    35
390
0
 62
     7
100
AcDbCircle
 10
-488.786133
 20
858.803894
 30
0.0
 40
6.5
210
0.0
220
0.0
230
1.0
100
AcDbArc
 50
28.807644
 51
74.049496
  0
ARC
  5
24E
100
AcDbEntity
  8
0
370
    35
390
0
 62
     7
100
AcDbCircle
 10
-373.427795
 20
914.357544
 30
0.0
 40
6.5
210
0.0
220
0.0
230
1.0
100
AcDbArc
 50
157.379074
 51
202.620926
  0
LINE
  5
24F
100
AcDbEntity
  8
0
370
    35
390
0
 62
     7
 48
0.125005
100
AcDbLine
 10
-379.427795
 20
916.857666
 30
0.0
 11
-379.427795
 21
921.857849
 31
0.0
210
0.0
220
0.0
230
1.0
  0
LINE
  5
250
100
AcDbEntity
  8
0
370
    35
390
0
 62
     7
100
AcDbLine
 10
-379.427795
 20
876.863403
 30
0.0
 11
-379.427795
 21
911.857422
 31
0.0
210
0.0
220
0.0
230
1.0
  0
ARC
  5
251
100
AcDbEntity
  8
0
370
    35
390
0
 62
     7
100
AcDbCircle
 10
-380.677917
 20
781.86322
 30
0.0
 40
140.000229
210
0.0
220
0.0
230
1.0
100
AcDbArc
 50
39.083039
 51
89.488374
  0
LINE
  5
252
100
AcDbEntity
  8
0
370
    35
390
0
 62
     7
 48
0.03125
100
AcDbLine
 10
-380.677795
 20
876.863403
 30
0.0
 11
-379.427795
 21
876.863403
 31
0.0
210
0.0
220
0.0
230
1.0
  0
LINE
  5
253
100
AcDbEntity
  8
0
370
    35
390
0
 62
     7
100
AcDbLine
 10
-302.259338
 20
820.276245
 30
0.0
 11
-293.499451
 21
781.896851
 31
0.0
210
0.0
220
0.0
230
1.0
  0
LINE
  5
254
100
AcDbEntity
  8
0
370
    35
390
0
 62
     7
 48
0.062502
100
AcDbLine
 10
-299.82196
 20
820.832581
 30
0.0
 11
-302.259338
 21
820.276245
 31
0.0
210
0.0
220
0.0
230
1.0
  0
LINE
  5
255
100
AcDbEntity
  8
0
370
    35
390
0
 62
     7
100
AcDbLine
 10
-299.82196
 20
820.832581
 30
0.0
 11
-290.935364
 21
781.897827
 31
0.0
210
0.0
220
0.0
230
1.0
  0
ARC
  5
256
100
AcDbEntity
  8
0
370
    35
390
0
 62
     7
100
AcDbCircle
 10
-380.678101
 20
781.863342
 30
0.0
 40
140.00029
210
0.0
220
0.0
230
1.0
100
AcDbArc
 50
0.021995
 51
38.059795
  0
LINE
  5
257
100
AcDbEntity
  8
0
370
    35
390
0
 62
     7
 48
0.125004
100
AcDbLine
 10
-274.355652
 20
865.05365
 30
0.0
 11
-270.44635
 21
868.171204
 31
0.0
210
0.0
220
0.0
230
1.0
  0
ARC
  5
258
100
AcDbEntity
  8
0
370
    35
390
0
 62
     7
100
AcDbCircle
 10
-272.569397
 20
858.803894
 30
0.0
 40
6.5
210
0.0
220
0.0
230
1.0
100
AcDbArc
 50
105.950502
 51
151.192357
  0
LINE
  5
259
100
AcDbEntity
  8
0
370
    35
390
0
 62
     7
100
AcDbLine
 10
-305.624451
 20
840.117676
 30
0.0
 11
-278.264954
 21
861.936035
 31
0.0
210
0.0
220
0.0
230
1.0
  0
LINE
  5
25A
100
AcDbEntity
  8
0
370
    35
390
0
 62
     7
 48
0.0625
100
AcDbLine
 10
-307.183167
 20
842.072266
 30
0.0
 11
-305.624451
 21
840.117676
 31
0.0
210
0.0
220
0.0
230
1.0
  0
LINE
  5
25B
100
AcDbEntity
  8
0
370
    35
390
0
 62
     7
100
AcDbLine
 10
-307.183167
 20
842.072266
 30
0.0
 11
-279.823792
 21
863.890625
 31
0.0
210
0.0
220
0.0
230
1.0
  0
LINE
  5
25C
100
AcDbEntity
  8
0
370
    35
390
0
 62
     7
 48
0.125004
100
AcDbLine
 10
-275.914368
 20
867.00824
 30
0.0
 11
-272.005066
 21
870.125793
 31
0.0
210
0.0
220
0.0
230
1.0
  0
LINE
  5
25D
100
AcDbEntity
  8
0
370
    35
390
0
 62
     7
100
AcDbLine
 10
-361.817078
 20
867.123474
 30
0.0
 11
-325.778259
 21
849.768127
 31
0.0
210
0.0
220
0.0
230
1.0
  0
LINE
  5
25E
100
AcDbEntity
  8
0
370
    35
390
0
 62
     7
 48
0.062499
100
AcDbLine
 10
-360.732361
 20
869.375854
 30
0.0
 11
-361.817078
 21
867.123474
 31
0.0
210
0.0
220
0.0
230
1.0
  0
LINE
  5
25F
100
AcDbEntity
  8
0
370
    35
390
0
 62
     7
100
AcDbLine
 10
-360.732361
 20
869.375854
 30
0.0
 11
-324.693542
 21
852.020508
 31
0.0
210
0.0
220
0.0
230
1.0
  0
LINE
  5
260
100
AcDbEntity
  8
0
370
    35
390
0
 62
     7
 48
0.062499
100
AcDbLine
 10
-324.693542
 20
852.020508
 30
0.0
 11
-325.778259
 21
849.768127
 31
0.0
210
0.0
220
0.0
230
1.0
  0
ARC
  5
261
100
AcDbEntity
  8
0
370
    35
390
0
 62
     7
100
AcDbCircle
 10
-281.609924
 20
870.140381
 30
0.0
 40
6.5
210
0.0
220
0.0
230
1.0
100
AcDbArc
 50
285.950511
 51
331.192349
  0
ARC
  5
262
100
AcDbEntity
  8
0
370
    35
390
0
 62
     7
100
AcDbCircle
 10
-380.678162
 20
781.863159
 30
0.0
 40
139.999527
210
0.0
220
0.0
230
1.0
100
AcDbArc
 50
193.368642
 51
243.774236
  0
LINE
  5
263
100
AcDbEntity
  8
0
370
    35
390
0
 62
     7
 48
0.125004
100
AcDbLine
 10
-440.375793
 20
660.780212
 30
0.0
 11
-442.545288
 21
656.275208
 31
0.0
210
0.0
220
0.0
230
1.0
  0
LINE
  5
264
100
AcDbEntity
  8
0
370
    35
390
0
 62
     7
 48
0.125003
100
AcDbLine
 10
-512.009277
 20
750.605713
 30
0.0
 11
-516.884033
 21
749.493103
 31
0.0
210
0.0
220
0.0
230
1.0
  0
LINE
  5
265
100
AcDbEntity
  8
0
370
    35
390
0
 62
     7
 48
0.014125
100
AcDbLine
 10
-467.99707
 20
781.279114
 30
0.0
 11
-467.871338
 21
781.829956
 31
0.0
210
0.0
220
0.0
230
1.0
  0
LINE
  5
266
100
AcDbEntity
  8
0
370
    35
390
0
 62
     7
 48
0.061779
100
AcDbLine
 10
-470.40625
 20
781.829041
 30
0.0
 11
-467.99707
 21
781.279114
 31
0.0
210
0.0
220
0.0
230
1.0
  0
ARC
  5
267
100
AcDbEntity
  8
0
370
    35
390
0
 62
     7
100
AcDbCircle
 10
-380.678894
 20
781.863586
 30
0.0
 40
139.998901
210
0.0
220
0.0
230
1.0
100
AcDbArc
 50
180.022029
 51
192.345726
  0
LINE
  5
268
100
AcDbEntity
  8
0
370
    35
390
0
 62
     7
 48
0.125004
100
AcDbLine
 10
-512.565552
 20
753.04303
 30
0.0
 11
-517.440369
 21
751.93042
 31
0.0
210
0.0
220
0.0
230
1.0
  0
ARC
  5
269
100
AcDbEntity
  8
0
370
    35
390
0
 62
     7
100
AcDbCircle
 10
-511.463257
 20
759.448914
 30
0.0
 40
6.5
210
0.0
220
0.0
230
1.0
100
AcDbArc
 50
260.236215
 51
305.47808
  0
LINE
  5
26A
100
AcDbEntity
  8
0
370
    35
390
0
 62
     7
100
AcDbLine
 10
-473.574097
 20
761.942566
 30
0.0
 11
-507.690735
 21
754.155701
 31
0.0
210
0.0
220
0.0
230
1.0
  0
LINE
  5
26B
100
AcDbEntity
  8
0
370
    35
390
0
 62
     7
 48
0.0625
100
AcDbLine
 10
-473.017761
 20
759.505249
 30
0.0
 11
-473.574097
 21
761.942566
 31
0.0
210
0.0
220
0.0
230
1.0
  0
LINE
  5
26C
100
AcDbEntity
  8
0
370
    35
390
0
 62
     7
100
AcDbLine
 10
-473.017761
 20
759.505249
 30
0.0
 11
-507.134399
 21
751.718384
 31
0.0
210
0.0
220
0.0
230
1.0
  0
ARC
  5
26D
100
AcDbEntity
  8
0
370
    35
390
0
 62
     7
100
AcDbCircle
 10
-444.696838
 20
665.635986
 30
0.0
 40
6.5
210
0.0
220
0.0
230
1.0
100
AcDbArc
 50
311.664783
 51
356.906645
  0
LINE
  5
26E
100
AcDbEntity
  8
0
370
    35
390
0
 62
     7
100
AcDbLine
 10
-423.022949
 20
696.813721
 30
0.0
 11
-438.206299
 21
665.285217
 31
0.0
210
0.0
220
0.0
230
1.0
  0
LINE
  5
26F
100
AcDbEntity
  8
0
370
    35
390
0
 62
     7
 48
0.062499
100
AcDbLine
 10
-420.770569
 20
695.729004
 30
0.0
 11
-423.022949
 21
696.813721
 31
0.0
210
0.0
220
0.0
230
1.0
  0
LINE
  5
270
100
AcDbEntity
  8
0
370
    35
390
0
 62
     7
100
AcDbLine
 10
-420.770569
 20
695.729004
 30
0.0
 11
-435.953857
 21
664.2005
 31
0.0
210
0.0
220
0.0
230
1.0
  0
LINE
  5
271
100
AcDbEntity
  8
0
370
    35
390
0
 62
     7
 48
0.125004
100
AcDbLine
 10
-438.123352
 20
659.695496
 30
0.0
 11
-440.292847
 21
655.190491
 31
0.0
210
0.0
220
0.0
230
1.0
  0
ARC
  5
272
100
AcDbEntity
  8
0
370
    35
390
0
 62
     7
100
AcDbCircle
 10
-380.67804
 20
781.862122
 30
0.0
 40
139.998688
210
0.0
220
0.0
230
1.0
100
AcDbArc
 50
244.797153
 51
270.000079
  0
LINE
  5
273
100
AcDbEntity
  8
0
370
    35
390
0
 62
     7
100
AcDbLine
 10
-400.677795
 20
694.363403
 30
0.0
 11
-380.677795
 21
694.363403
 31
0.0
210
0.0
220
0.0
230
1.0
  0
LINE
  5
274
100
AcDbEntity
  8
0
370
    35
390
0
 62
     7
 48
0.0625
100
AcDbLine
 10
-400.677795
 20
694.363403
 30
0.0
 11
-400.677795
 21
696.863403
 31
0.0
210
0.0
220
0.0
230
1.0
  0
LINE
  5
275
100
AcDbEntity
  8
0
370
    35
390
0
 62
     7
100
AcDbLine
 10
-400.677795
 20
696.863403
 30
0.0
 11
-380.677795
 21
696.863403
 31
0.0
210
0.0
220
0.0
230
1.0
  0
LINE
  5
276
100
AcDbEntity
  8
0
370
    35
390
0
 62
     7
100
AcDbLine
 10
-436.618225
 20
711.671448
 30
0.0
 11
-461.557861
 21
742.944702
 31
0.0
210
0.0
220
0.0
230
1.0
  0
LINE
  5
277
100
AcDbEntity
  8
0
370
    35
390
0
 62
     7
 48
0.0625
100
AcDbLine
 10
-461.557861
 20
742.944702
 30
0.0
 11
-459.603271
 21
744.503418
 31
0.0
210
0.0
220
0.0
230
1.0
  0
LINE
  5
278
100
AcDbEntity
  8
0
370
    35
390
0
 62
     7
100
AcDbLine
 10
-434.663696
 20
713.230164
 30
0.0
 11
-459.603271
 21
744.503418
 31
0.0
210
0.0
220
0.0
230
1.0
  0
LINE
  5
279
100
AcDbEntity
  8
0
370
    35
390
0
 62
     7
 48
0.062499
100
AcDbLine
 10
-436.618225
 20
711.671448
 30
0.0
 11
-434.663696
 21
713.230164
 31
0.0
210
0.0
220
0.0
230
1.0
  0
ARC
  5
27A
100
AcDbEntity
  8
0
370
    35
390
0
 62
     7
100
AcDbCircle
 10
-508.236694
 20
745.3125
 30
0.0
 40
6.5
210
0.0
220
0.0
230
1.0
100
AcDbArc
 50
80.236213
 51
125.478075
  0
ARC
  5
27B
100
AcDbEntity
  8
0
370
    35
390
0
 62
     7
100
AcDbCircle
 10
-431.632874
 20
659.344727
 30
0.0
 40
6.5
210
0.0
220
0.0
230
1.0
100
AcDbArc
 50
131.664792
 51
176.90664
  0
ARC
  5
27C
100
AcDbEntity
  8
0
370
    35
390
0
 62
     7
100
AcDbCircle
 10
-380.67804
 20
781.863586
 30
0.0
 40
140.000275
210
0.0
220
0.0
230
1.0
100
AcDbArc
 50
296.225929
 51
346.631226
  0
LINE
  5
27D
100
AcDbEntity
  8
0
370
    35
390
0
 62
     7
 48
0.125003
100
AcDbLine
 10
-249.346252
 20
750.605713
 30
0.0
 11
-244.471497
 21
749.493042
 31
0.0
210
0.0
220
0.0
230
1.0
  0
LINE
  5
27E
100
AcDbEntity
  8
0
370
    35
390
0
 62
     7
 48
0.125006
100
AcDbLine
 10
-320.979797
 20
660.780212
 30
0.0
 11
-318.810242
 21
656.275146
 31
0.0
210
0.0
220
0.0
230
1.0
  0
LINE
  5
27F
100
AcDbEntity
  8
0
370
    35
390
0
 62
     7
 48
0.499185
100
AcDbLine
 10
-360.677795
 20
696.863403
 30
0.0
 11
-380.645203
 21
696.863403
 31
0.0
210
0.0
220
0.0
230
1.0
  0
LINE
  5
280
100
AcDbEntity
  8
0
370
    35
390
0
 62
     7
 48
0.0625
100
AcDbLine
 10
-360.677795
 20
694.363403
 30
0.0
 11
-360.677795
 21
696.863403
 31
0.0
210
0.0
220
0.0
230
1.0
  0
LINE
  5
281
100
AcDbEntity
  8
0
370
    35
390
0
 62
     7
 48
0.499161
100
AcDbLine
 10
-360.677795
 20
694.363403
 30
0.0
 11
-380.644226
 21
694.363403
 31
0.0
210
0.0
220
0.0
230
1.0
  0
ARC
  5
282
100
AcDbEntity
  8
0
370
    35
390
0
 62
     7
100
AcDbCircle
 10
-380.678345
 20
781.865784
 30
0.0
 40
140.002411
210
0.0
220
0.0
230
1.0
100
AcDbArc
 50
270.022182
 51
295.202494
  0
LINE
  5
283
100
AcDbEntity
  8
0
370
    35
390
0
 62
     7
 48
0.125006
100
AcDbLine
 10
-323.232239
 20
659.695496
 30
0.0
 11
-321.062683
 21
655.19043
 31
0.0
210
0.0
220
0.0
230
1.0
  0
ARC
  5
284
100
AcDbEntity
  8
0
370
    35
390
0
 62
     7
100
AcDbCircle
 10
-329.722717
 20
659.344727
 30
0.0
 40
6.5
210
0.0
220
0.0
230
1.0
100
AcDbArc
 50
3.093358
 51
48.335213
  0
LINE
  5
285
100
AcDbEntity
  8
0
370
    35
390
0
 62
     7
100
AcDbLine
 10
-340.585022
 20
695.729004
 30
0.0
 11
-325.401672
 21
664.2005
 31
0.0
210
0.0
220
0.0
230
1.0
  0
LINE
  5
286
100
AcDbEntity
  8
0
370
    35
390
0
 62
     7
 48
0.062501
100
AcDbLine
 10
-338.332581
 20
696.813721
 30
0.0
 11
-340.585022
 21
695.729004
 31
0.0
210
0.0
220
0.0
230
1.0
  0
LINE
  5
287
100
AcDbEntity
  8
0
370
    35
390
0
 62
     7
100
AcDbLine
 10
-338.332581
 20
696.813721
 30
0.0
 11
-323.149231
 21
665.285217
 31
0.0
210
0.0
220
0.0
230
1.0
  0
ARC
  5
288
100
AcDbEntity
  8
0
370
    35
390
0
 62
     7
100
AcDbCircle
 10
-253.118835
 20
745.3125
 30
0.0
 40
6.5
210
0.0
220
0.0
230
1.0
100
AcDbArc
 50
54.521927
 51
99.763785
  0
LINE
  5
289
100
AcDbEntity
  8
0
370
    35
390
0
 62
     7
100
AcDbLine
 10
-288.337708
 20
759.505249
 30
0.0
 11
-254.22113
 21
751.718384
 31
0.0
210
0.0
220
0.0
230
1.0
  0
LINE
  5
28A
100
AcDbEntity
  8
0
370
    35
390
0
 62
     7
 48
0.0625
100
AcDbLine
 10
-287.781433
 20
761.942566
 30
0.0
 11
-288.337708
 21
759.505249
 31
0.0
210
0.0
220
0.0
230
1.0
  0
LINE
  5
28B
100
AcDbEntity
  8
0
370
    35
390
0
 62
     7
100
AcDbLine
 10
-287.781433
 20
761.942566
 30
0.0
 11
-253.664856
 21
754.155701
 31
0.0
210
0.0
220
0.0
230
1.0
  0
LINE
  5
28C
100
AcDbEntity
  8
0
370
    35
390
0
 62
     7
 48
0.125006
100
AcDbLine
 10
-248.789978
 20
753.04303
 30
0.0
 11
-243.9151
 21
751.930359
 31
0.0
210
0.0
220
0.0
230
1.0
  0
ARC
  5
28D
100
AcDbEntity
  8
0
370
    35
390
0
 62
     7
100
AcDbCircle
 10
-380.678345
 20
781.863403
 30
0.0
 40
140.000534
210
0.0
220
0.0
230
1.0
100
AcDbArc
 50
347.65447
 51
359.999983
  0
LINE
  5
28E
100
AcDbEntity
  8
0
370
    35
390
0
 62
     7
 48
0.000717
100
AcDbLine
 10
-290.921204
 20
781.835449
 30
0.0
 11
-290.927551
 21
781.863403
 31
0.0
210
0.0
220
0.0
230
1.0
  0
LINE
  5
28F
100
AcDbEntity
  8
0
370
    35
390
0
 62
     7
 48
0.062499
100
AcDbLine
 10
-290.921204
 20
781.835449
 30
0.0
 11
-293.358459
 21
781.279114
 31
0.0
210
0.0
220
0.0
230
1.0
  0
LINE
  5
290
100
AcDbEntity
  8
0
370
    35
390
0
 62
     7
 48
0.014983
100
AcDbLine
 10
-293.358459
 20
781.279114
 30
0.0
 11
-293.491882
 21
781.863403
 31
0.0
210
0.0
220
0.0
230
1.0
  0
LINE
  5
291
100
AcDbEntity
  8
0
370
    35
390
0
 62
     7
 48
0.0625
100
AcDbLine
 10
-299.797668
 20
742.944702
 30
0.0
 11
-301.752258
 21
744.503418
 31
0.0
210
0.0
220
0.0
230
1.0
  0
LINE
  5
292
100
AcDbEntity
  8
0
370
    35
390
0
 62
     7
100
AcDbLine
 10
-299.797668
 20
742.944702
 30
0.0
 11
-324.737366
 21
711.671448
 31
0.0
210
0.0
220
0.0
230
1.0
  0
LINE
  5
293
100
AcDbEntity
  8
0
370
    35
390
0
 62
     7
 48
0.062498
100
AcDbLine
 10
-324.737366
 20
711.671448
 30
0.0
 11
-326.691833
 21
713.230164
 31
0.0
210
0.0
220
0.0
230
1.0
  0
LINE
  5
294
100
AcDbEntity
  8
0
370
    35
390
0
 62
     7
100
AcDbLine
 10
-301.752258
 20
744.503418
 30
0.0
 11
-326.691833
 21
713.230164
 31
0.0
210
0.0
220
0.0
230
1.0
  0
ARC
  5
295
100
AcDbEntity
  8
0
370
    35
390
0
 62
     7
100
AcDbCircle
 10
-316.658752
 20
665.635986
 30
0.0
 40
6.5
210
0.0
220
0.0
230
1.0
100
AcDbArc
 50
183.09336
 51
228.335208
  0
ARC
  5
296
100
AcDbEntity
  8
0
370
    35
390
0
 62
     7
100
AcDbCircle
 10
-249.892273
 20
759.448914
 30
0.0
 40
6.5
210
0.0
220
0.0
230
1.0
100
AcDbArc
 50
234.521925
 51
279.76378
  0
ARC
  5
297
100
AcDbEntity
  8
0
370
    35
390
0
 62
     7
100
AcDbCircle
 10
787.234375
 20
780.615417
 30
0.0
 40
100.0
210
0.0
220
0.0
230
1.0
100
AcDbArc
 50
320.783987
 51
322.073172
  0
LINE
  5
298
100
AcDbEntity
  8
0
370
    35
390
0
 62
     7
 48
0.05625
100
AcDbLine
 10
827.027344
 20
750.320496
 30
0.0
 11
825.624512
 21
748.56134
 31
0.0
210
0.0
220
0.0
230
1.0
  0
LINE
  5
299
100
AcDbEntity
  8
0
370
    35
390
0
 62
     7
 48
0.05625
100
AcDbLine
 10
788.359375
 20
730.615417
 30
0.0
 11
786.109375
 21
730.615417
 31
0.0
210
0.0
220
0.0
230
1.0
  0
LINE
  5
29A
100
AcDbEntity
  8
0
370
    35
390
0
 62
     7
100
AcDbLine
 10
786.109375
 20
680.621704
 30
0.0
 11
786.109375
 21
730.615417
 31
0.0
210
0.0
220
0.0
230
1.0
  0
ARC
  5
29B
100
AcDbEntity
  8
0
370
    35
390
0
 62
     7
100
AcDbCircle
 10
787.234375
 20
780.615417
 30
0.0
 40
100.0
210
0.0
220
0.0
230
1.0
100
AcDbArc
 50
269.355419
 51
270.644576
  0
ARC
  5
29C
100
AcDbEntity
  8
0
370
    35
390
0
 62
     7
100
AcDbCircle
 10
787.234375
 20
780.615417
 30
0.0
 40
100.0
210
0.0
220
0.0
230
1.0
100
AcDbArc
 50
166.498265
 51
167.787449
  0
LINE
  5
29D
100
AcDbEntity
  8
0
370
    35
390
0
 62
     7
 48
0.05625
100
AcDbLine
 10
738.237671
 20
790.644653
 30
0.0
 11
738.738281
 21
792.838257
 31
0.0
210
0.0
220
0.0
230
1.0
  0
LINE
  5
29E
100
AcDbEntity
  8
0
370
    35
390
0
 62
     7
100
AcDbLine
 10
689.998047
 20
803.962891
 30
0.0
 11
738.738281
 21
792.838257
 31
0.0
210
0.0
220
0.0
230
1.0
  0
ARC
  5
29F
100
AcDbEntity
  8
0
370
    35
390
0
 62
     7
100
AcDbCircle
 10
787.234375
 20
780.615417
 30
0.0
 40
100.0
210
0.0
220
0.0
230
1.0
100
AcDbArc
 50
115.0697
 51
116.35887
  0
LINE
  5
2A0
100
AcDbEntity
  8
0
370
    35
390
0
 62
     7
 48
0.056248
100
AcDbLine
 10
764.526611
 20
825.17572
 30
0.0
 11
766.553711
 21
826.151978
 31
0.0
210
0.0
220
0.0
230
1.0
  0
LINE
  5
2A1
100
AcDbEntity
  8
0
370
    35
390
0
 62
     7
100
AcDbLine
 10
744.862305
 20
871.194702
 30
0.0
 11
766.553711
 21
826.151978
 31
0.0
210
0.0
220
0.0
230
1.0
  0
ARC
  5
2A2
100
AcDbEntity
  8
0
370
    35
390
0
 62
     7
100
AcDbCircle
 10
787.234375
 20
780.615417
 30
0.0
 40
100.0
210
0.0
220
0.0
230
1.0
100
AcDbArc
 50
63.641121
 51
64.930305
  0
LINE
  5
2A3
100
AcDbEntity
  8
0
370
    35
390
0
 62
     7
 48
0.056251
100
AcDbLine
 10
807.914917
 20
826.151978
 30
0.0
 11
809.942139
 21
825.17572
 31
0.0
210
0.0
220
0.0
230
1.0
  0
LINE
  5
2A4
100
AcDbEntity
  8
0
370
    35
390
0
 62
     7
100
AcDbLine
 10
831.633545
 20
870.218506
 30
0.0
 11
809.942139
 21
825.17572
 31
0.0
210
0.0
220
0.0
230
1.0
  0
ARC
  5
2A5
100
AcDbEntity
  8
0
370
    35
390
0
 62
     7
100
AcDbCircle
 10
787.234375
 20
780.615417
 30
0.0
 40
100.0
210
0.0
220
0.0
230
1.0
100
AcDbArc
 50
12.212552
 51
13.501734
  0
LINE
  5
2A6
100
AcDbEntity
  8
0
370
    35
390
0
 62
     7
 48
0.056251
100
AcDbLine
 10
835.730347
 20
792.838257
 30
0.0
 11
836.231079
 21
790.644653
 31
0.0
210
0.0
220
0.0
230
1.0
  0
LINE
  5
2A7
100
AcDbEntity
  8
0
370
    35
390
0
 62
     7
100
AcDbLine
 10
884.971313
 20
801.769287
 30
0.0
 11
836.231079
 21
790.644653
 31
0.0
210
0.0
220
0.0
230
1.0
  0
LINE
  5
2A8
100
AcDbEntity
  8
0
370
    35
390
0
 62
     7
100
AcDbLine
 10
864.711182
 20
717.390808
 30
0.0
 11
825.624512
 21
748.56134
 31
0.0
210
0.0
220
0.0
230
1.0
  0
LINE
  5
2A9
100
AcDbEntity
  8
0
370
    35
390
0
 62
     7
 48
0.05625
100
AcDbLine
 10
748.844238
 20
748.56134
 30
0.0
 11
747.441406
 21
750.320496
 31
0.0
210
0.0
220
0.0
230
1.0
  0
LINE
  5
2AA
100
AcDbEntity
  8
0
370
    35
390
0
 62
     7
100
AcDbLine
 10
708.354736
 20
719.149902
 30
0.0
 11
747.441406
 21
750.320496
 31
0.0
210
0.0
220
0.0
230
1.0
  0
ARC
  5
2AB
100
AcDbEntity
  8
0
370
    35
390
0
 62
     7
100
AcDbCircle
 10
787.234375
 20
780.615417
 30
0.0
 40
100.0
210
0.0
220
0.0
230
1.0
100
AcDbArc
 50
217.926833
 51
219.216018
  0
LINE
  5
2AC
100
AcDbEntity
  8
0
370
    35
390
0
 62
     7
100
AcDbLine
 10
884.470581
 20
803.962891
 30
0.0
 11
835.730347
 21
792.838257
 31
0.0
210
0.0
220
0.0
230
1.0
  0
LINE
  5
2AD
100
AcDbEntity
  8
0
370
    35
390
0
 62
     7
100
AcDbLine
 10
829.606445
 20
871.194702
 30
0.0
 11
807.914917
 21
826.151978
 31
0.0
210
0.0
220
0.0
230
1.0
  0
LINE
  5
2AE
100
AcDbEntity
  8
0
370
    35
390
0
 62
     7
100
AcDbLine
 10
742.835083
 20
870.218506
 30
0.0
 11
764.526611
 21
825.17572
 31
0.0
210
0.0
220
0.0
230
1.0
  0
LINE
  5
2AF
100
AcDbEntity
  8
0
370
    35
390
0
 62
     7
100
AcDbLine
 10
689.497437
 20
801.769287
 30
0.0
 11
738.237671
 21
790.644653
 31
0.0
210
0.0
220
0.0
230
1.0
  0
LINE
  5
2B0
100
AcDbEntity
  8
0
370
    35
390
0
 62
     7
100
AcDbLine
 10
788.359375
 20
680.621704
 30
0.0
 11
788.359375
 21
730.615417
 31
0.0
210
0.0
220
0.0
230
1.0
  0
LINE
  5
2B1
100
AcDbEntity
  8
0
370
    35
390
0
 62
     7
100
AcDbLine
 10
709.757568
 20
717.390808
 30
0.0
 11
748.844238
 21
748.56134
 31
0.0
210
0.0
220
0.0
230
1.0
  0
LINE
  5
2B2
100
AcDbEntity
  8
0
370
    35
390
0
 62
     7
100
AcDbLine
 10
866.114014
 20
719.149902
 30
0.0
 11
827.027344
 21
750.320496
 31
0.0
210
0.0
220
0.0
230
1.0
  0
CIRCLE
  5
2B3
100
AcDbEntity
  8
0
370
    35
390
0
 62
     7
100
AcDbCircle
 10
787.234375
 20
780.615417
 30
0.0
 40
140.0
210
0.0
220
0.0
230
1.0
  0
LINE
  5
2B4
100
AcDbEntity
  8
0
370
    35
390
0
 62
     7
 48
0.25
100
AcDbLine
 10
-445.862244
 20
141.91626
 30
0.0
 11
-445.862244
 21
131.91626
 31
0.0
210
0.0
220
0.0
230
1.0
  0
LINE
  5
2B5
100
AcDbEntity
  8
0
370
    35
390
0
 62
     7
100
AcDbLine
 10
64.137756
 20
141.91626
 30
0.0
 11
-445.862244
 21
141.91626
 31
0.0
210
0.0
220
0.0
230
1.0
  0
LINE
  5
2B6
100
AcDbEntity
  8
0
370
    35
390
0
 62
     7
 48
0.25
100
AcDbLine
 10
64.137756
 20
141.91626
 30
0.0
 11
64.137756
 21
131.91626
 31
0.0
210
0.0
220
0.0
230
1.0
  0
LINE
  5
2B7
100
AcDbEntity
  8
0
370
    35
390
0
 62
     7
 48
0.25
100
AcDbLine
 10
64.137756
 20
91.916275
 30
0.0
 11
64.137756
 21
81.916275
 31
0.0
210
0.0
220
0.0
230
1.0
  0
LINE
  5
2B8
100
AcDbEntity
  8
0
370
    35
390
0
 62
     7
100
AcDbLine
 10
64.137756
 20
81.916275
 30
0.0
 11
-445.862244
 21
81.916275
 31
0.0
210
0.0
220
0.0
230
1.0
  0
LINE
  5
2B9
100
AcDbEntity
  8
0
370
    35
390
0
 62
     7
 48
0.25
100
AcDbLine
 10
-445.862244
 20
91.916275
 30
0.0
 11
-445.862244
 21
81.916275
 31
0.0
210
0.0
220
0.0
230
1.0
  0
LINE
  5
2BA
100
AcDbEntity
  8
0
370
    35
390
0
 62
     7
100
AcDbLine
 10
-450.862244
 20
131.91626
 30
0.0
 11
-450.862244
 21
91.916275
 31
0.0
210
0.0
220
0.0
230
1.0
  0
LINE
  5
2BB
100
AcDbEntity
  8
0
370
    35
390
0
 62
     7
 48
0.125
100
AcDbLine
 10
64.137756
 20
131.91626
 30
0.0
 11
69.137756
 21
131.91626
 31
0.0
210
0.0
220
0.0
230
1.0
  0
LINE
  5
2BC
100
AcDbEntity
  8
0
370
    35
390
0
 62
     7
 48
0.125
100
AcDbLine
 10
-450.862244
 20
131.91626
 30
0.0
 11
-445.862244
 21
131.91626
 31
0.0
210
0.0
220
0.0
230
1.0
  0
LINE
  5
2BD
100
AcDbEntity
  8
0
370
    35
390
0
 62
     7
 48
0.125
100
AcDbLine
 10
64.137756
 20
91.916275
 30
0.0
 11
69.137756
 21
91.916275
 31
0.0
210
0.0
220
0.0
230
1.0
  0
LINE
  5
2BE
100
AcDbEntity
  8
0
370
    35
390
0
 62
     7
 48
0.125
100
AcDbLine
 10
-450.862244
 20
91.916275
 30
0.0
 11
-445.862244
 21
91.916275
 31
0.0
210
0.0
220
0.0
230
1.0
  0
LINE
  5
2BF
100
AcDbEntity
  8
0
370
    35
390
0
 62
     7
100
AcDbLine
 10
69.137756
 20
131.91626
 30
0.0
 11
69.137756
 21
91.916275
 31
0.0
210
0.0
220
0.0
230
1.0
  0
LINE
  5
2C0
100
AcDbEntity
  8
0
370
    13
390
0
  6
DASHSPACE
 62
     7
100
AcDbLine
 10
-525.514099
 20
55.544872
 30
0.0
 11
204.485901
 21
55.544872
 31
0.0
210
0.0
220
0.0
230
1.0
  0
LINE
  5
2C1
100
AcDbEntity
  8
0
370
    13
390
0
  6
DASHSPACE
 62
     7
100
AcDbLine
 10
-525.514099
 20
55.544872
 30
0.0
 11
-525.514099
 21
490.544861
 31
0.0
210
0.0
220
0.0
230
1.0
  0
LINE
  5
2C2
100
AcDbEntity
  8
0
370
    13
390
0
  6
DASHSPACE
 62
     7
100
AcDbLine
 10
-525.514099
 20
490.544861
 30
0.0
 11
204.485901
 21
490.544861
 31
0.0
210
0.0
220
0.0
230
1.0
  0
LINE
  5
2C3
100
AcDbEntity
  8
0
370
    13
390
0
  6
DASHSPACE
 62
     7
100
AcDbLine
 10
204.485901
 20
490.544861
 30
0.0
 11
204.485901
 21
55.544872
 31
0.0
210
0.0
220
0.0
230
1.0
  0
LINE
  5
2C4
100
AcDbEntity
  8
0
370
    13
390
0
  6
DASHSPACE
 62
     7
100
AcDbLine
 10
204.485901
 20
55.544872
 30
0.0
 11
934.48584
 21
55.544872
 31
0.0
210
0.0
220
0.0
230
1.0
  0
LINE
  5
2C5
100
AcDbEntity
  8
0
370
    13
390
0
  6
DASHSPACE
 62
     7
100
AcDbLine
 10
204.485901
 20
490.544861
 30
0.0
 11
934.48584
 21
490.544861
 31
0.0
210
0.0
220
0.0
230
1.0
  0
LINE
  5
2C6
100
AcDbEntity
  8
0
370
    13
390
0
  6
DASHSPACE
 62
     7
100
AcDbLine
 10
934.48584
 20
490.544861
 30
0.0
 11
934.48584
 21
55.544872
 31
0.0
210
0.0
220
0.0
230
1.0
  0
LINE
  5
2C7
100
AcDbEntity
  8
0
370
    13
390
0
  6
DASHSPACE
 62
     7
100
AcDbLine
 10
934.48584
 20
55.544872
 30
0.0
 11
1664.485962
 21
55.544872
 31
0.0
210
0.0
220
0.0
230
1.0
  0
LINE
  5
2C8
100
AcDbEntity
  8
0
370
    13
390
0
  6
DASHSPACE
 62
     7
100
AcDbLine
 10
934.48584
 20
490.544861
 30
0.0
 11
1664.485962
 21
490.544861
 31
0.0
210
0.0
220
0.0
230
1.0
  0
LINE
  5
2C9
100
AcDbEntity
  8
0
370
    13
390
0
  6
DASHSPACE
 62
     7
100
AcDbLine
 10
1664.485962
 20
490.544861
 30
0.0
 11
1664.485962
 21
55.544872
 31
0.0
210
0.0
220
0.0
230
1.0
  0
LINE
  5
2CA
100
AcDbEntity
  8
0
370
    13
390
0
  6
DASHSPACE
 62
     7
100
AcDbLine
 10
1664.485962
 20
55.544872
 30
0.0
 11
2394.48584
 21
55.544872
 31
0.0
210
0.0
220
0.0
230
1.0
  0
LINE
  5
2CB
100
AcDbEntity
  8
0
370
    13
390
0
  6
DASHSPACE
 62
     7
100
AcDbLine
 10
1664.485962
 20
490.544861
 30
0.0
 11
2394.48584
 21
490.544861
 31
0.0
210
0.0
220
0.0
230
1.0
  0
LINE
  5
2CC
100
AcDbEntity
  8
0
370
    13
390
0
  6
DASHSPACE
 62
     7
100
AcDbLine
 10
2394.48584
 20
490.544861
 30
0.0
 11
2394.48584
 21
55.544872
 31
0.0
210
0.0
220
0.0
230
1.0
  0
LINE
  5
2CD
100
AcDbEntity
  8
0
370
    13
390
0
  6
DASHSPACE
 62
     7
100
AcDbLine
 10
-525.514099
 20
490.544861
 30
0.0
 11
-525.514099
 21
925.544861
 31
0.0
210
0.0
220
0.0
230
1.0
  0
LINE
  5
2CE
100
AcDbEntity
  8
0
370
    13
390
0
  6
DASHSPACE
 62
     7
100
AcDbLine
 10
-525.514099
 20
925.544861
 30
0.0
 11
204.485901
 21
925.544861
 31
0.0
210
0.0
220
0.0
230
1.0
  0
LINE
  5
2CF
100
AcDbEntity
  8
0
370
    13
390
0
  6
DASHSPACE
 62
     7
100
AcDbLine
 10
204.485901
 20
925.544861
 30
0.0
 11
204.485901
 21
490.544861
 31
0.0
210
0.0
220
0.0
230
1.0
  0
LINE
  5
2D0
100
AcDbEntity
  8
0
370
    13
390
0
  6
DASHSPACE
 62
     7
100
AcDbLine
 10
204.485901
 20
925.544861
 30
0.0
 11
934.48584
 21
925.544861
 31
0.0
210
0.0
220
0.0
230
1.0
  0
LINE
  5
2D1
100
AcDbEntity
  8
0
370
    13
390
0
  6
DASHSPACE
 62
     7
100
AcDbLine
 10
934.48584
 20
925.544861
 30
0.0
 11
934.48584
 21
490.544861
 31
0.0
210
0.0
220
0.0
230
1.0
  0
LINE
  5
2D2
100
AcDbEntity
  8
0
370
    13
390
0
  6
DASHSPACE
 62
     7
100
AcDbLine
 10
934.48584
 20
925.544861
 30
0.0
 11
1664.485962
 21
925.544861
 31
0.0
210
0.0
220
0.0
230
1.0
  0
LINE
  5
2D3
100
AcDbEntity
  8
0
370
    13
390
0
  6
DASHSPACE
 62
     7
100
AcDbLine
 10
1664.485962
 20
925.544861
 30
0.0
 11
1664.485962
 21
490.544861
 31
0.0
210
0.0
220
0.0
230
1.0
  0
LINE
  5
2D4
100
AcDbEntity
  8
0
370
    35
390
0
 62
     7
100
AcDbLine
 10
-163.726471
 20
739.40564
 30
0.0
 11
-221.817413
 21
752.66449
 31
0.0
210
0.0
220
0.0
230
1.0
  0
LINE
  5
2D5
100
AcDbEntity
  8
0
370
    35
390
0
 62
     7
 48
0.124912
100
AcDbLine
 10
-226.692047
 20
753.7771
 30
0.0
 11
-231.563263
 21
754.888916
 31
0.0
210
0.0
220
0.0
230
1.0
  0
LINE
  5
2D6
100
AcDbEntity
  8
0
370
    35
390
0
 62
     7
 48
0.0625
100
AcDbLine
 10
-163.726471
 20
739.40564
 30
0.0
 11
-163.170197
 21
741.842957
 31
0.0
210
0.0
220
0.0
230
1.0
  0
LINE
  5
2D7
100
AcDbEntity
  8
0
370
    35
390
0
 62
     7
100
AcDbLine
 10
-19.454102
 20
561.628723
 30
0.0
 11
-19.454102
 21
502.043884
 31
0.0
210
0.0
220
0.0
230
1.0
  0
LINE
  5
2D8
100
AcDbEntity
  8
0
370
    35
390
0
 62
     7
 48
0.124908
100
AcDbLine
 10
-19.454102
 20
497.043884
 30
0.0
 11
-19.454102
 21
492.047546
 31
0.0
210
0.0
220
0.0
230
1.0
  0
LINE
  5
2D9
100
AcDbEntity
  8
0
370
    35
390
0
 62
     7
 48
0.124908
100
AcDbLine
 10
143.483032
 20
575.510193
 30
0.0
 11
147.389282
 21
572.39502
 31
0.0
210
0.0
220
0.0
230
1.0
  0
ARC
  5
2DA
100
AcDbEntity
  8
0
370
    35
390
0
 62
     7
100
AcDbCircle
 10
137.787476
 20
572.37793
 30
0.0
 40
6.5
210
0.0
220
0.0
230
1.0
100
AcDbArc
 50
28.808707
 51
74.048437
  0
LINE
  5
2DB
100
AcDbEntity
  8
0
370
    35
390
0
 62
     7
100
AcDbLine
 10
92.988525
 20
615.778198
 30
0.0
 11
139.573853
 21
578.627686
 31
0.0
210
0.0
220
0.0
230
1.0
  0
LINE
  5
2DC
100
AcDbEntity
  8
0
370
    35
390
0
 62
     7
 48
0.0625
100
AcDbLine
 10
94.547241
 20
617.732788
 30
0.0
 11
92.988525
 21
615.778198
 31
0.0
210
0.0
220
0.0
230
1.0
  0
LINE
  5
2DD
100
AcDbEntity
  8
0
370
    35
390
0
 62
     7
100
AcDbLine
 10
94.547241
 20
617.732788
 30
0.0
 11
141.132568
 21
580.582275
 31
0.0
210
0.0
220
0.0
230
1.0
  0
LINE
  5
2DE
100
AcDbEntity
  8
0
370
    35
390
0
 62
     7
 48
0.124908
100
AcDbLine
 10
145.041748
 20
577.464783
 30
0.0
 11
148.947998
 21
574.349609
 31
0.0
210
0.0
220
0.0
230
1.0
  0
ARC
  5
2DF
100
AcDbEntity
  8
0
370
    35
390
0
 62
     7
100
AcDbCircle
 10
-20.704102
 20
708.043823
 30
0.0
 40
216.0
210
0.0
220
0.0
230
1.0
100
AcDbArc
 50
321.760131
 51
12.525569
  0
LINE
  5
2E0
100
AcDbEntity
  8
0
370
    35
390
0
 62
     7
 48
0.124912
100
AcDbLine
 10
185.283813
 20
753.7771
 30
0.0
 11
190.155029
 21
754.888916
 31
0.0
210
0.0
220
0.0
230
1.0
  0
ARC
  5
2E1
100
AcDbEntity
  8
0
370
    35
390
0
 62
     7
100
AcDbCircle
 10
184.181641
 20
747.371216
 30
0.0
 40
6.5
210
0.0
220
0.0
230
1.0
100
AcDbArc
 50
80.237278
 51
125.477009
  0
LINE
  5
2E2
100
AcDbEntity
  8
0
370
    35
390
0
 62
     7
100
AcDbLine
 10
122.318237
 20
739.40564
 30
0.0
 11
180.40918
 21
752.66449
 31
0.0
210
0.0
220
0.0
230
1.0
  0
LINE
  5
2E3
100
AcDbEntity
  8
0
370
    35
390
0
 62
     7
 48
0.0625
100
AcDbLine
 10
121.761963
 20
741.842957
 30
0.0
 11
122.318237
 21
739.40564
 31
0.0
210
0.0
220
0.0
230
1.0
  0
LINE
  5
2E4
100
AcDbEntity
  8
0
370
    35
390
0
 62
     7
100
AcDbLine
 10
121.761963
 20
741.842957
 30
0.0
 11
179.852905
 21
755.101807
 31
0.0
210
0.0
220
0.0
230
1.0
  0
LINE
  5
2E5
100
AcDbEntity
  8
0
370
    35
390
0
 62
     7
 48
0.124909
100
AcDbLine
 10
184.727539
 20
756.214417
 30
0.0
 11
189.598633
 21
757.326233
 31
0.0
210
0.0
220
0.0
230
1.0
  0
LINE
  5
2E6
100
AcDbEntity
  8
0
370
    35
390
0
 62
     7
 48
0.12491
100
AcDbLine
 10
71.971558
 20
897.605957
 30
0.0
 11
74.139404
 21
902.107544
 31
0.0
210
0.0
220
0.0
230
1.0
  0
ARC
  5
2E7
100
AcDbEntity
  8
0
370
    35
390
0
 62
     7
100
AcDbCircle
 10
76.292603
 20
892.750183
 30
0.0
 40
6.5
210
0.0
220
0.0
230
1.0
100
AcDbArc
 50
131.665843
 51
176.905574
  0
LINE
  5
2E8
100
AcDbEntity
  8
0
370
    35
390
0
 62
     7
100
AcDbLine
 10
43.949219
 20
839.416992
 30
0.0
 11
69.802246
 21
893.101074
 31
0.0
210
0.0
220
0.0
230
1.0
  0
LINE
  5
2E9
100
AcDbEntity
  8
0
370
    35
390
0
 62
     7
 48
0.062497
100
AcDbLine
 10
41.696899
 20
840.501648
 30
0.0
 11
43.949219
 21
839.416992
 31
0.0
210
0.0
220
0.0
230
1.0
  0
LINE
  5
2EA
100
AcDbEntity
  8
0
370
    35
390
0
 62
     7
100
AcDbLine
 10
41.696899
 20
840.501648
 30
0.0
 11
67.549683
 21
894.185791
 31
0.0
210
0.0
220
0.0
230
1.0
  0
LINE
  5
2EB
100
AcDbEntity
  8
0
370
    35
390
0
 62
     7
 48
0.124908
100
AcDbLine
 10
69.719238
 20
898.690674
 30
0.0
 11
71.886963
 21
903.192261
 31
0.0
210
0.0
220
0.0
230
1.0
  0
LINE
  5
2EC
100
AcDbEntity
  8
0
370
    35
390
0
 62
     7
 48
0.12491
100
AcDbLine
 10
-111.12735
 20
898.690674
 30
0.0
 11
-113.295197
 21
903.192261
 31
0.0
210
0.0
220
0.0
230
1.0
  0
ARC
  5
2ED
100
AcDbEntity
  8
0
370
    35
390
0
 62
     7
100
AcDbCircle
 10
-104.636871
 20
899.041504
 30
0.0
 40
6.5
210
0.0
220
0.0
230
1.0
100
AcDbArc
 50
183.094426
 51
228.334157
  0
LINE
  5
2EE
100
AcDbEntity
  8
0
370
    35
390
0
 62
     7
100
AcDbLine
 10
-83.105133
 20
840.501648
 30
0.0
 11
-108.957916
 21
894.185791
 31
0.0
210
0.0
220
0.0
230
1.0
  0
LINE
  5
2EF
100
AcDbEntity
  8
0
370
    35
390
0
 62
     7
 48
0.062497
100
AcDbLine
 10
-85.357452
 20
839.416992
 30
0.0
 11
-83.105133
 21
840.501648
 31
0.0
210
0.0
220
0.0
230
1.0
  0
LINE
  5
2F0
100
AcDbEntity
  8
0
370
    35
390
0
 62
     7
100
AcDbLine
 10
-85.357452
 20
839.416992
 30
0.0
 11
-111.210358
 21
893.101074
 31
0.0
210
0.0
220
0.0
230
1.0
  0
LINE
  5
2F1
100
AcDbEntity
  8
0
370
    35
390
0
 62
     7
 48
0.12491
100
AcDbLine
 10
-113.379791
 20
897.605957
 30
0.0
 11
-115.547638
 21
902.107544
 31
0.0
210
0.0
220
0.0
230
1.0
  0
LINE
  5
2F2
100
AcDbEntity
  8
0
370
    35
390
0
 62
     7
 48
0.124909
100
AcDbLine
 10
-226.135773
 20
756.214417
 30
0.0
 11
-231.006866
 21
757.326233
 31
0.0
210
0.0
220
0.0
230
1.0
  0
ARC
  5
2F3
100
AcDbEntity
  8
0
370
    35
390
0
 62
     7
100
AcDbCircle
 10
-222.363312
 20
761.50769
 30
0.0
 40
6.5
210
0.0
220
0.0
230
1.0
100
AcDbArc
 50
234.522991
 51
279.762722
  0
LINE
  5
2F4
100
AcDbEntity
  8
0
370
    35
390
0
 62
     7
100
AcDbLine
 10
-163.170197
 20
741.842957
 30
0.0
 11
-221.261139
 21
755.101807
 31
0.0
210
0.0
220
0.0
230
1.0
  0
ARC
  5
2F5
100
AcDbEntity
  8
0
370
    35
390
0
 62
     7
100
AcDbCircle
 10
-20.704102
 20
708.043823
 30
0.0
 40
216.0
210
0.0
220
0.0
230
1.0
100
AcDbArc
 50
167.474435
 51
218.239861
  0
LINE
  5
2F6
100
AcDbEntity
  8
0
370
    35
390
0
 62
     7
 48
0.124908
100
AcDbLine
 10
-186.449982
 20
577.464783
 30
0.0
 11
-190.356232
 21
574.349609
 31
0.0
210
0.0
220
0.0
230
1.0
  0
ARC
  5
2F7
100
AcDbEntity
  8
0
370
    35
390
0
 62
     7
100
AcDbCircle
 10
-188.236359
 20
583.714539
 30
0.0
 40
6.5
210
0.0
220
0.0
230
1.0
100
AcDbArc
 50
285.951549
 51
331.191283
  0
LINE
  5
2F8
100
AcDbEntity
  8
0
370
    35
390
0
 62
     7
100
AcDbLine
 10
-135.955475
 20
617.732788
 30
0.0
 11
-182.540802
 21
580.582275
 31
0.0
210
0.0
220
0.0
230
1.0
  0
LINE
  5
2F9
100
AcDbEntity
  8
0
370
    35
390
0
 62
     7
 48
0.0625
100
AcDbLine
 10
-134.396759
 20
615.778198
 30
0.0
 11
-135.955475
 21
617.732788
 31
0.0
210
0.0
220
0.0
230
1.0
  0
LINE
  5
2FA
100
AcDbEntity
  8
0
370
    35
390
0
 62
     7
100
AcDbLine
 10
-134.396759
 20
615.778198
 30
0.0
 11
-180.982086
 21
578.627686
 31
0.0
210
0.0
220
0.0
230
1.0
  0
LINE
  5
2FB
100
AcDbEntity
  8
0
370
    35
390
0
 62
     7
 48
0.124908
100
AcDbLine
 10
-184.891266
 20
575.510193
 30
0.0
 11
-188.797516
 21
572.39502
 31
0.0
210
0.0
220
0.0
230
1.0
  0
LINE
  5
2FC
100
AcDbEntity
  8
0
370
    35
390
0
 62
     7
 48
0.124908
100
AcDbLine
 10
-21.954102
 20
497.043884
 30
0.0
 11
-21.954102
 21
492.047546
 31
0.0
210
0.0
220
0.0
230
1.0
  0
ARC
  5
2FD
100
AcDbEntity
  8
0
370
    35
390
0
 62
     7
100
AcDbCircle
 10
-27.954132
 20
499.543884
 30
0.0
 40
6.5
210
0.0
220
0.0
230
1.0
100
AcDbArc
 50
337.380143
 51
22.619865
  0
LINE
  5
2FE
100
AcDbEntity
  8
0
370
    35
390
0
 62
     7
100
AcDbLine
 10
-21.954102
 20
561.628723
 30
0.0
 11
-21.954102
 21
502.043884
 31
0.0
210
0.0
220
0.0
230
1.0
  0
LINE
  5
2FF
100
AcDbEntity
  8
0
370
    35
390
0
 62
     7
 48
0.0625
100
AcDbLine
 10
-19.454102
 20
561.628723
 30
0.0
 11
-21.954102
 21
561.628723
 31
0.0
210
0.0
220
0.0
230
1.0
  0
LINE
  5
300
100
AcDbEntity
  8
0
370
    35
390
0
 62
     7
 48
0.062502
100
AcDbLine
 10
60.151733
 20
669.074707
 30
0.0
 11
57.714355
 21
669.631042
 31
0.0
210
0.0
220
0.0
230
1.0
  0
LINE
  5
301
100
AcDbEntity
  8
0
370
    35
390
0
 62
     7
100
AcDbLine
 10
66.615234
 20
708.628113
 30
0.0
 11
57.714355
 21
669.631042
 31
0.0
210
0.0
220
0.0
230
1.0
  0
LINE
  5
302
100
AcDbEntity
  8
0
370
    35
390
0
 62
     7
 48
0.062498
100
AcDbLine
 10
69.05249
 20
708.071838
 30
0.0
 11
66.615234
 21
708.628113
 31
0.0
210
0.0
220
0.0
230
1.0
  0
LINE
  5
303
100
AcDbEntity
  8
0
370
    35
390
0
 62
     7
100
AcDbLine
 10
69.05249
 20
708.071838
 30
0.0
 11
60.151733
 21
669.074707
 31
0.0
210
0.0
220
0.0
230
1.0
  0
LINE
  5
304
100
AcDbEntity
  8
0
370
    35
390
0
 62
     7
 48
0.062502
100
AcDbLine
 10
-101.584259
 20
746.962585
 30
0.0
 11
-99.629547
 21
745.40387
 31
0.0
210
0.0
220
0.0
230
1.0
  0
LINE
  5
305
100
AcDbEntity
  8
0
370
    35
390
0
 62
     7
100
AcDbLine
 10
-101.584259
 20
746.962585
 30
0.0
 11
-76.644562
 21
778.23584
 31
0.0
210
0.0
220
0.0
230
1.0
  0
LINE
  5
306
100
AcDbEntity
  8
0
370
    35
390
0
 62
     7
 48
0.062498
100
AcDbLine
 10
-76.644562
 20
778.23584
 30
0.0
 11
-74.690094
 21
776.677124
 31
0.0
210
0.0
220
0.0
230
1.0
  0
LINE
  5
307
100
AcDbEntity
  8
0
370
    35
390
0
 62
     7
100
AcDbLine
 10
-99.629547
 20
745.40387
 30
0.0
 11
-74.690094
 21
776.677124
 31
0.0
210
0.0
220
0.0
230
1.0
  0
LINE
  5
308
100
AcDbEntity
  8
0
370
    35
390
0
 62
     7
 48
0.062502
100
AcDbLine
 10
35.280151
 20
637.886719
 30
0.0
 11
34.195313
 21
640.13916
 31
0.0
210
0.0
220
0.0
230
1.0
  0
LINE
  5
309
100
AcDbEntity
  8
0
370
    35
390
0
 62
     7
100
AcDbLine
 10
35.280151
 20
637.886719
 30
0.0
 11
-0.758667
 21
620.531372
 31
0.0
210
0.0
220
0.0
230
1.0
  0
LINE
  5
30A
100
AcDbEntity
  8
0
370
    35
390
0
 62
     7
 48
0.062501
100
AcDbLine
 10
-0.758667
 20
620.531372
 30
0.0
 11
-1.843384
 21
622.783813
 31
0.0
210
0.0
220
0.0
230
1.0
  0
LINE
  5
30B
100
AcDbEntity
  8
0
370
    35
390
0
 62
     7
100
AcDbLine
 10
34.195313
 20
640.13916
 30
0.0
 11
-1.843384
 21
622.783813
 31
0.0
210
0.0
220
0.0
230
1.0
  0
LINE
  5
30C
100
AcDbEntity
  8
0
370
    35
390
0
 62
     7
 48
0.062502
100
AcDbLine
 10
-101.559967
 20
669.074707
 30
0.0
 11
-99.122589
 21
669.631042
 31
0.0
210
0.0
220
0.0
230
1.0
  0
LINE
  5
30D
100
AcDbEntity
  8
0
370
    35
390
0
 62
     7
100
AcDbLine
 10
-101.559967
 20
669.074707
 30
0.0
 11
-110.460724
 21
708.071838
 31
0.0
210
0.0
220
0.0
230
1.0
  0
LINE
  5
30E
100
AcDbEntity
  8
0
370
    35
390
0
 62
     7
 48
0.062498
100
AcDbLine
 10
-110.460724
 20
708.071838
 30
0.0
 11
-108.023468
 21
708.628113
 31
0.0
210
0.0
220
0.0
230
1.0
  0
LINE
  5
30F
100
AcDbEntity
  8
0
370
    35
390
0
 62
     7
100
AcDbLine
 10
-99.122589
 20
669.631042
 30
0.0
 11
-108.023468
 21
708.628113
 31
0.0
210
0.0
220
0.0
230
1.0
  0
LINE
  5
310
100
AcDbEntity
  8
0
370
    35
390
0
 62
     7
 48
0.0625
100
AcDbLine
 10
-0.704102
 20
795.543823
 30
0.0
 11
-0.704102
 21
793.043823
 31
0.0
210
0.0
220
0.0
230
1.0
  0
LINE
  5
311
100
AcDbEntity
  8
0
370
    35
390
0
 62
     7
100
AcDbLine
 10
-40.704132
 20
793.043823
 30
0.0
 11
-0.704102
 21
793.043823
 31
0.0
210
0.0
220
0.0
230
1.0
  0
LINE
  5
312
100
AcDbEntity
  8
0
370
    35
390
0
 62
     7
 48
0.0625
100
AcDbLine
 10
-40.704132
 20
795.543823
 30
0.0
 11
-40.704132
 21
793.043823
 31
0.0
210
0.0
220
0.0
230
1.0
  0
LINE
  5
313
100
AcDbEntity
  8
0
370
    35
390
0
 62
     7
100
AcDbLine
 10
-40.704132
 20
795.543823
 30
0.0
 11
-0.704102
 21
795.543823
 31
0.0
210
0.0
220
0.0
230
1.0
  0
LINE
  5
314
100
AcDbEntity
  8
0
370
    35
390
0
 62
     7
100
AcDbLine
 10
33.28186
 20
776.677124
 30
0.0
 11
58.221313
 21
745.40387
 31
0.0
210
0.0
220
0.0
230
1.0
  0
LINE
  5
315
100
AcDbEntity
  8
0
370
    35
390
0
 62
     7
 48
0.062498
100
AcDbLine
 10
35.236328
 20
778.23584
 30
0.0
 11
33.28186
 21
776.677124
 31
0.0
210
0.0
220
0.0
230
1.0
  0
LINE
  5
316
100
AcDbEntity
  8
0
370
    35
390
0
 62
     7
100
AcDbLine
 10
35.236328
 20
778.23584
 30
0.0
 11
60.176025
 21
746.962585
 31
0.0
210
0.0
220
0.0
230
1.0
  0
LINE
  5
317
100
AcDbEntity
  8
0
370
    35
390
0
 62
     7
 48
0.062502
100
AcDbLine
 10
60.176025
 20
746.962585
 30
0.0
 11
58.221313
 21
745.40387
 31
0.0
210
0.0
220
0.0
230
1.0
  0
LINE
  5
318
100
AcDbEntity
  8
0
370
    35
390
0
 62
     7
100
AcDbLine
 10
-40.649567
 20
620.531372
 30
0.0
 11
-76.688385
 21
637.886719
 31
0.0
210
0.0
220
0.0
230
1.0
  0
LINE
  5
319
100
AcDbEntity
  8
0
370
    35
390
0
 62
     7
 48
0.062502
100
AcDbLine
 10
-76.688385
 20
637.886719
 30
0.0
 11
-75.603546
 21
640.13916
 31
0.0
210
0.0
220
0.0
230
1.0
  0
LINE
  5
31A
100
AcDbEntity
  8
0
370
    35
390
0
 62
     7
100
AcDbLine
 10
-39.56485
 20
622.783813
 30
0.0
 11
-75.603546
 21
640.13916
 31
0.0
210
0.0
220
0.0
230
1.0
  0
LINE
  5
31B
100
AcDbEntity
  8
0
370
    35
390
0
 62
     7
 48
0.062501
100
AcDbLine
 10
-40.649567
 20
620.531372
 30
0.0
 11
-39.56485
 21
622.783813
 31
0.0
210
0.0
220
0.0
230
1.0
  0
ARC
  5
31C
100
AcDbEntity
  8
0
370
    35
390
0
 62
     7
100
AcDbCircle
 10
-117.700836
 20
892.750183
 30
0.0
 40
6.5
210
0.0
220
0.0
230
1.0
100
AcDbArc
 50
3.094421
 51
48.334151
  0
ARC
  5
31D
100
AcDbEntity
  8
0
370
    35
390
0
 62
     7
100
AcDbCircle
 10
63.228638
 20
899.041504
 30
0.0
 40
6.5
210
0.0
220
0.0
230
1.0
100
AcDbArc
 50
311.665849
 51
356.905579
  0
ARC
  5
31E
100
AcDbEntity
  8
0
370
    35
390
0
 62
     7
100
AcDbCircle
 10
180.955078
 20
761.50769
 30
0.0
 40
6.5
210
0.0
220
0.0
230
1.0
100
AcDbArc
 50
260.23728
 51
305.477014
  0
ARC
  5
31F
100
AcDbEntity
  8
0
370
    35
390
0
 62
     7
100
AcDbCircle
 10
146.828125
 20
583.714539
 30
0.0
 40
6.5
210
0.0
220
0.0
230
1.0
100
AcDbArc
 50
208.808708
 51
254.048453
  0
ARC
  5
320
100
AcDbEntity
  8
0
370
    35
390
0
 62
     7
100
AcDbCircle
 10
-13.454102
 20
499.543884
 30
0.0
 40
6.5
210
0.0
220
0.0
230
1.0
100
AcDbArc
 50
157.38014
 51
202.61986
  0
ARC
  5
321
100
AcDbEntity
  8
0
370
    35
390
0
 62
     7
100
AcDbCircle
 10
-179.195709
 20
572.37793
 30
0.0
 40
6.5
210
0.0
220
0.0
230
1.0
100
AcDbArc
 50
105.951561
 51
151.191292
  0
ARC
  5
322
100
AcDbEntity
  8
0
370
    35
390
0
 62
     7
100
AcDbCircle
 10
-225.589874
 20
747.371216
 30
0.0
 40
6.5
210
0.0
220
0.0
230
1.0
100
AcDbArc
 50
54.522993
 51
99.76272
  0
ARC
  5
323
100
AcDbEntity
  8
0
370
    35
390
0
 62
     7
100
AcDbCircle
 10
-20.704102
 20
708.043823
 30
0.0
 40
216.0
210
0.0
220
0.0
230
1.0
100
AcDbArc
 50
218.903004
 51
269.668433
  0
ARC
  5
324
100
AcDbEntity
  8
0
370
    35
390
0
 62
     7
100
AcDbCircle
 10
-20.704102
 20
708.043823
 30
0.0
 40
216.0
210
0.0
220
0.0
230
1.0
100
AcDbArc
 50
116.045857
 51
166.811279
  0
ARC
  5
325
100
AcDbEntity
  8
0
370
    35
390
0
 62
     7
100
AcDbCircle
 10
-20.704102
 20
708.043823
 30
0.0
 40
216.0
210
0.0
220
0.0
230
1.0
100
AcDbArc
 50
64.617292
 51
115.382713
  0
ARC
  5
326
100
AcDbEntity
  8
0
370
    35
390
0
 62
     7
100
AcDbCircle
 10
-20.704102
 20
708.043823
 30
0.0
 40
216.0
210
0.0
220
0.0
230
1.0
100
AcDbArc
 50
13.188717
 51
63.954142
  0
ARC
  5
327
100
AcDbEntity
  8
0
370
    35
390
0
 62
     7
100
AcDbCircle
 10
-20.704102
 20
708.043823
 30
0.0
 40
216.0
210
0.0
220
0.0
230
1.0
100
AcDbArc
 50
270.331562
 51
321.097001
  0
LINE
  5
328
100
AcDbEntity
  8
0
370
    35
390
0
 62
     7
 48
0.0625
100
AcDbLine
 10
-440.522522
 20
241.767288
 30
0.0
 11
-443.022522
 21
241.767288
 31
0.0
210
0.0
220
0.0
230
1.0
  0
LINE
  5
329
100
AcDbEntity
  8
0
370
    35
390
0
 62
     7
100
AcDbLine
 10
-440.522522
 20
241.767288
 30
0.0
 11
-440.522522
 21
145.352234
 31
0.0
210
0.0
220
0.0
230
1.0
  0
LINE
  5
32A
100
AcDbEntity
  8
0
370
    35
390
0
 62
     7
100
AcDbLine
 10
-440.522522
 20
145.352234
 30
0.0
 11
-341.022522
 21
145.352234
 31
0.0
210
0.0
220
0.0
230
1.0
  0
LINE
  5
32B
100
AcDbEntity
  8
0
370
    35
390
0
 62
     7
100
AcDbLine
 10
-341.022522
 20
145.352234
 30
0.0
 11
-341.022522
 21
170.352234
 31
0.0
210
0.0
220
0.0
230
1.0
  0
LINE
  5
32C
100
AcDbEntity
  8
0
370
    35
390
0
 62
     7
 48
0.0625
100
AcDbLine
 10
-338.522522
 20
170.352234
 30
0.0
 11
-341.022522
 21
170.352234
 31
0.0
210
0.0
220
0.0
230
1.0
  0
LINE
  5
32D
100
AcDbEntity
  8
0
370
    35
390
0
 62
     7
100
AcDbLine
 10
-338.522522
 20
145.352234
 30
0.0
 11
-338.522522
 21
170.352234
 31
0.0
210
0.0
220
0.0
230
1.0
  0
LINE
  5
32E
100
AcDbEntity
  8
0
370
    35
390
0
 62
     7
100
AcDbLine
 10
-338.522522
 20
145.352234
 30
0.0
 11
-239.022522
 21
145.352234
 31
0.0
210
0.0
220
0.0
230
1.0
  0
LINE
  5
32F
100
AcDbEntity
  8
0
370
    35
390
0
 62
     7
100
AcDbLine
 10
-239.022522
 20
145.352234
 30
0.0
 11
-239.022522
 21
170.352234
 31
0.0
210
0.0
220
0.0
230
1.0
  0
LINE
  5
330
100
AcDbEntity
  8
0
370
    35
390
0
 62
     7
 48
0.0625
100
AcDbLine
 10
-236.522522
 20
170.352234
 30
0.0
 11
-239.022522
 21
170.352234
 31
0.0
210
0.0
220
0.0
230
1.0
  0
LINE
  5
331
100
AcDbEntity
  8
0
370
    35
390
0
 62
     7
100
AcDbLine
 10
-236.522522
 20
145.352234
 30
0.0
 11
-236.522522
 21
170.352234
 31
0.0
210
0.0
220
0.0
230
1.0
  0
LINE
  5
332
100
AcDbEntity
  8
0
370
    35
390
0
 62
     7
100
AcDbLine
 10
-236.522522
 20
145.352234
 30
0.0
 11
-137.022522
 21
145.352234
 31
0.0
210
0.0
220
0.0
230
1.0
  0
LINE
  5
333
100
AcDbEntity
  8
0
370
    35
390
0
 62
     7
100
AcDbLine
 10
-137.022522
 20
145.352234
 30
0.0
 11
-137.022522
 21
170.352234
 31
0.0
210
0.0
220
0.0
230
1.0
  0
LINE
  5
334
100
AcDbEntity
  8
0
370
    35
390
0
 62
     7
 48
0.0625
100
AcDbLine
 10
-134.522522
 20
170.352234
 30
0.0
 11
-137.022522
 21
170.352234
 31
0.0
210
0.0
220
0.0
230
1.0
  0
LINE
  5
335
100
AcDbEntity
  8
0
370
    35
390
0
 62
     7
100
AcDbLine
 10
-134.522522
 20
145.352234
 30
0.0
 11
-134.522522
 21
170.352234
 31
0.0
210
0.0
220
0.0
230
1.0
  0
LINE
  5
336
100
AcDbEntity
  8
0
370
    35
390
0
 62
     7
100
AcDbLine
 10
-134.522522
 20
145.352234
 30
0.0
 11
-35.022522
 21
145.352234
 31
0.0
210
0.0
220
0.0
230
1.0
  0
LINE
  5
337
100
AcDbEntity
  8
0
370
    35
390
0
 62
     7
100
AcDbLine
 10
-35.022522
 20
145.352234
 30
0.0
 11
-35.022522
 21
170.352234
 31
0.0
210
0.0
220
0.0
230
1.0
  0
LINE
  5
338
100
AcDbEntity
  8
0
370
    35
390
0
 62
     7
 48
0.0625
100
AcDbLine
 10
-32.522522
 20
170.352234
 30
0.0
 11
-35.022522
 21
170.352234
 31
0.0
210
0.0
220
0.0
230
1.0
  0
LINE
  5
339
100
AcDbEntity
  8
0
370
    35
390
0
 62
     7
100
AcDbLine
 10
-32.522522
 20
145.352234
 30
0.0
 11
-32.522522
 21
170.352234
 31
0.0
210
0.0
220
0.0
230
1.0
  0
LINE
  5
33A
100
AcDbEntity
  8
0
370
    35
390
0
 62
     7
100
AcDbLine
 10
-32.522522
 20
145.352234
 30
0.0
 11
69.477478
 21
145.352234
 31
0.0
210
0.0
220
0.0
230
1.0
  0
LINE
  5
33B
100
AcDbEntity
  8
0
370
    35
390
0
 62
     7
100
AcDbLine
 10
69.477478
 20
190.352249
 30
0.0
 11
69.477478
 21
145.352234
 31
0.0
210
0.0
220
0.0
230
1.0
  0
LINE
  5
33C
100
AcDbEntity
  8
0
370
    35
390
0
 62
     7
 48
0.0625
100
AcDbLine
 10
71.977478
 20
190.352249
 30
0.0
 11
69.477478
 21
190.352249
 31
0.0
210
0.0
220
0.0
230
1.0
  0
LINE
  5
33D
100
AcDbEntity
  8
0
370
    35
390
0
 62
     7
100
AcDbLine
 10
71.977478
 20
105.344437
 30
0.0
 11
71.977478
 21
190.352249
 31
0.0
210
0.0
220
0.0
230
1.0
  0
LINE
  5
33E
100
AcDbEntity
  8
0
370
    35
390
0
 62
     7
100
AcDbLine
 10
106.977478
 20
105.344437
 30
0.0
 11
71.977478
 21
105.344437
 31
0.0
210
0.0
220
0.0
230
1.0
  0
LINE
  5
33F
100
AcDbEntity
  8
0
370
    35
390
0
 62
     7
100
AcDbLine
 10
106.977478
 20
105.344437
 30
0.0
 11
106.977478
 21
145.352234
 31
0.0
210
0.0
220
0.0
230
1.0
  0
LINE
  5
340
100
AcDbEntity
  8
0
370
    35
390
0
 62
     7
 48
0.0625
100
AcDbLine
 10
106.977478
 20
145.352234
 30
0.0
 11
109.477478
 21
145.352234
 31
0.0
210
0.0
220
0.0
230
1.0
  0
LINE
  5
341
100
AcDbEntity
  8
0
370
    35
390
0
 62
     7
100
AcDbLine
 10
109.477478
 20
195.344437
 30
0.0
 11
109.477478
 21
145.352234
 31
0.0
210
0.0
220
0.0
230
1.0
  0
LINE
  5
342
100
AcDbEntity
  8
0
370
    35
390
0
 62
     7
 48
0.000195
100
AcDbLine
 10
109.477478
 20
195.352249
 30
0.0
 11
109.477478
 21
195.344437
 31
0.0
210
0.0
220
0.0
230
1.0
  0
LINE
  5
343
100
AcDbEntity
  8
0
370
    35
390
0
 62
     7
 48
0.0625
100
AcDbLine
 10
109.477478
 20
195.344437
 30
0.0
 11
106.977478
 21
195.344437
 31
0.0
210
0.0
220
0.0
230
1.0
  0
LINE
  5
344
100
AcDbEntity
  8
0
370
    35
390
0
 62
     7
100
AcDbLine
 10
106.977478
 20
195.344437
 30
0.0
 11
106.977478
 21
235.352249
 31
0.0
210
0.0
220
0.0
230
1.0
  0
LINE
  5
345
100
AcDbEntity
  8
0
370
    35
390
0
 62
     7
100
AcDbLine
 10
106.977478
 20
235.352249
 30
0.0
 11
69.477478
 21
235.352249
 31
0.0
210
0.0
220
0.0
230
1.0
  0
ARC
  5
346
100
AcDbEntity
  8
0
370
    35
390
0
 62
     7
100
AcDbCircle
 10
109.477478
 20
1366.602173
 30
0.0
 40
1131.956909
210
0.0
220
0.0
230
1.0
100
AcDbArc
 50
252.785633
 51
267.974928
  0
ARC
  5
347
100
AcDbEntity
  8
0
370
    35
390
0
 62
     7
100
AcDbCircle
 10
-414.530457
 20
-388.647827
 30
0.0
 40
700.0
210
0.0
220
0.0
230
1.0
100
AcDbArc
 50
74.335052
 51
90.000003
  0
LINE
  5
348
100
AcDbEntity
  8
0
370
    35
390
0
 62
     7
100
AcDbLine
 10
-414.530457
 20
311.352234
 30
0.0
 11
-520.522522
 21
311.352234
 31
0.0
210
0.0
220
0.0
230
1.0
  0
LINE
  5
349
100
AcDbEntity
  8
0
370
    35
390
0
 62
     7
100
AcDbLine
 10
-520.522522
 20
250.347244
 30
0.0
 11
-520.522522
 21
311.352234
 31
0.0
210
0.0
220
0.0
230
1.0
  0
LINE
  5
34A
100
AcDbEntity
  8
0
370
    35
390
0
 62
     7
 48
0.125
100
AcDbLine
 10
-520.522522
 20
250.347244
 30
0.0
 11
-515.522522
 21
250.347244
 31
0.0
210
0.0
220
0.0
230
1.0
  0
LINE
  5
34B
100
AcDbEntity
  8
0
370
    35
390
0
 62
     7
 48
0.125
100
AcDbLine
 10
-520.522522
 20
250.347244
 30
0.0
 11
-515.522522
 21
250.347244
 31
0.0
210
0.0
220
0.0
230
1.0
  0
LINE
  5
34C
100
AcDbEntity
  8
0
370
    35
390
0
 62
     7
100
AcDbLine
 10
-515.522522
 20
205.352249
 30
0.0
 11
-515.522522
 21
250.347244
 31
0.0
210
0.0
220
0.0
230
1.0
  0
LINE
  5
34D
100
AcDbEntity
  8
0
370
    35
390
0
 62
     7
100
AcDbLine
 10
-515.522522
 20
205.352249
 30
0.0
 11
-480.522522
 21
205.352249
 31
0.0
210
0.0
220
0.0
230
1.0
  0
LINE
  5
34E
100
AcDbEntity
  8
0
370
    35
390
0
 62
     7
100
AcDbLine
 10
-480.522522
 20
250.348099
 30
0.0
 11
-480.522522
 21
205.352249
 31
0.0
210
0.0
220
0.0
230
1.0
  0
LINE
  5
34F
100
AcDbEntity
  8
0
370
    35
390
0
 62
     7
 48
0.0625
100
AcDbLine
 10
-478.022522
 20
250.348099
 30
0.0
 11
-480.522522
 21
250.348099
 31
0.0
210
0.0
220
0.0
230
1.0
  0
LINE
  5
350
100
AcDbEntity
  8
0
370
    35
390
0
 62
     7
100
AcDbLine
 10
-478.022522
 20
250.348099
 30
0.0
 11
-478.022522
 21
205.352249
 31
0.0
210
0.0
220
0.0
230
1.0
  0
LINE
  5
351
100
AcDbEntity
  8
0
370
    35
390
0
 62
     7
 48
0.0625
100
AcDbLine
 10
-478.022522
 20
205.352249
 30
0.0
 11
-475.522522
 21
205.352249
 31
0.0
210
0.0
220
0.0
230
1.0
  0
LINE
  5
352
100
AcDbEntity
  8
0
370
    35
390
0
 62
     7
100
AcDbLine
 10
-475.522522
 20
175.352249
 30
0.0
 11
-475.522522
 21
205.352249
 31
0.0
210
0.0
220
0.0
230
1.0
  0
LINE
  5
353
100
AcDbEntity
  8
0
370
    35
390
0
 62
     7
100
AcDbLine
 10
-443.022522
 20
241.767288
 30
0.0
 11
-443.022522
 21
145.352234
 31
0.0
210
0.0
220
0.0
230
1.0
  0
LINE
  5
354
100
AcDbEntity
  8
0
370
    35
390
0
 62
     7
100
AcDbLine
 10
-478.022522
 20
145.352234
 30
0.0
 11
-443.022522
 21
145.352234
 31
0.0
210
0.0
220
0.0
230
1.0
  0
LINE
  5
355
100
AcDbEntity
  8
0
370
    35
390
0
 62
     7
100
AcDbLine
 10
-478.022522
 20
145.352234
 30
0.0
 11
-478.022522
 21
175.352249
 31
0.0
210
0.0
220
0.0
230
1.0
  0
LINE
  5
356
100
AcDbEntity
  8
0
370
    35
390
0
 62
     7
 48
0.0625
100
AcDbLine
 10
-478.022522
 20
175.352249
 30
0.0
 11
-475.522522
 21
175.352249
 31
0.0
210
0.0
220
0.0
230
1.0
  0
LINE
  5
357
100
AcDbEntity
  8
0
370
    35
390
0
 62
     7
 48
0.0625
100
AcDbLine
 10
-515.522522
 20
301.352234
 30
0.0
 11
-518.022522
 21
301.352234
 31
0.0
210
0.0
220
0.0
230
1.0
  0
LINE
  5
358
100
AcDbEntity
  8
0
370
    35
390
0
 62
     7
 48
0.125
100
AcDbLine
 10
-515.522522
 20
301.352234
 30
0.0
 11
-515.522522
 21
306.352234
 31
0.0
210
0.0
220
0.0
230
1.0
  0
LINE
  5
359
100
AcDbEntity
  8
0
370
    35
390
0
 62
     7
 48
0.0625
100
AcDbLine
 10
-515.522522
 20
306.352234
 30
0.0
 11
-518.022522
 21
306.352234
 31
0.0
210
0.0
220
0.0
230
1.0
  0
LINE
  5
35A
100
AcDbEntity
  8
0
370
    35
390
0
 62
     7
 48
0.125
100
AcDbLine
 10
-518.022522
 20
301.352234
 30
0.0
 11
-518.022522
 21
306.352234
 31
0.0
210
0.0
220
0.0
230
1.0
  0
LINE
  5
35B
100
AcDbEntity
  8
0
370
    35
390
0
 62
     7
 48
0.0625
100
AcDbLine
 10
-134.522522
 20
190.343948
 30
0.0
 11
-137.022522
 21
190.343948
 31
0.0
210
0.0
220
0.0
230
1.0
  0
LINE
  5
35C
100
AcDbEntity
  8
0
370
    35
390
0
 62
     7
 48
0.125012
100
AcDbLine
 10
-134.522522
 20
190.343948
 30
0.0
 11
-134.522522
 21
195.344437
 31
0.0
210
0.0
220
0.0
230
1.0
  0
LINE
  5
35D
100
AcDbEntity
  8
0
370
    35
390
0
 62
     7
 48
0.0625
100
AcDbLine
 10
-137.022522
 20
195.344437
 30
0.0
 11
-134.522522
 21
195.344437
 31
0.0
210
0.0
220
0.0
230
1.0
  0
LINE
  5
35E
100
AcDbEntity
  8
0
370
    35
390
0
 62
     7
 48
0.125012
100
AcDbLine
 10
-137.022522
 20
190.343948
 30
0.0
 11
-137.022522
 21
195.344437
 31
0.0
210
0.0
220
0.0
230
1.0
  0
LINE
  5
35F
100
AcDbEntity
  8
0
370
    35
390
0
 62
     7
 48
0.0625
100
AcDbLine
 10
69.477478
 20
230.34639
 30
0.0
 11
71.977478
 21
230.34639
 31
0.0
210
0.0
220
0.0
230
1.0
  0
LINE
  5
360
100
AcDbEntity
  8
0
370
    35
390
0
 62
     7
 48
0.125003
100
AcDbLine
 10
69.477478
 20
230.34639
 30
0.0
 11
69.477478
 21
225.346268
 31
0.0
210
0.0
220
0.0
230
1.0
  0
LINE
  5
361
100
AcDbEntity
  8
0
370
    35
390
0
 62
     7
 48
0.0625
100
AcDbLine
 10
71.977478
 20
225.346268
 30
0.0
 11
69.477478
 21
225.346268
 31
0.0
210
0.0
220
0.0
230
1.0
  0
LINE
  5
362
100
AcDbEntity
  8
0
370
    35
390
0
 62
     7
 48
0.125003
100
AcDbLine
 10
71.977478
 20
230.34639
 30
0.0
 11
71.977478
 21
225.346268
 31
0.0
210
0.0
220
0.0
230
1.0
  0
LINE
  5
363
100
AcDbEntity
  8
0
370
    35
390
0
 62
     7
 48
0.0625
100
AcDbLine
 10
-32.522522
 20
190.343948
 30
0.0
 11
-35.022522
 21
190.343948
 31
0.0
210
0.0
220
0.0
230
1.0
  0
LINE
  5
364
100
AcDbEntity
  8
0
370
    35
390
0
 62
     7
 48
0.125012
100
AcDbLine
 10
-32.522522
 20
190.343948
 30
0.0
 11
-32.522522
 21
195.344437
 31
0.0
210
0.0
220
0.0
230
1.0
  0
LINE
  5
365
100
AcDbEntity
  8
0
370
    35
390
0
 62
     7
 48
0.0625
100
AcDbLine
 10
-35.022522
 20
195.344437
 30
0.0
 11
-32.522522
 21
195.344437
 31
0.0
210
0.0
220
0.0
230
1.0
  0
LINE
  5
366
100
AcDbEntity
  8
0
370
    35
390
0
 62
     7
 48
0.125012
100
AcDbLine
 10
-35.022522
 20
190.343948
 30
0.0
 11
-35.022522
 21
195.344437
 31
0.0
210
0.0
220
0.0
230
1.0
  0
LINE
  5
367
100
AcDbEntity
  8
0
370
    35
390
0
 62
     7
 48
0.0625
100
AcDbLine
 10
-338.522522
 20
190.343948
 30
0.0
 11
-341.022522
 21
190.343948
 31
0.0
210
0.0
220
0.0
230
1.0
  0
LINE
  5
368
100
AcDbEntity
  8
0
370
    35
390
0
 62
     7
 48
0.125012
100
AcDbLine
 10
-338.522522
 20
190.343948
 30
0.0
 11
-338.522522
 21
195.344437
 31
0.0
210
0.0
220
0.0
230
1.0
  0
LINE
  5
369
100
AcDbEntity
  8
0
370
    35
390
0
 62
     7
 48
0.0625
100
AcDbLine
 10
-341.022522
 20
195.344437
 30
0.0
 11
-338.522522
 21
195.344437
 31
0.0
210
0.0
220
0.0
230
1.0
  0
LINE
  5
36A
100
AcDbEntity
  8
0
370
    35
390
0
 62
     7
 48
0.125012
100
AcDbLine
 10
-341.022522
 20
190.343948
 30
0.0
 11
-341.022522
 21
195.344437
 31
0.0
210
0.0
220
0.0
230
1.0
  0
LINE
  5
36B
100
AcDbEntity
  8
0
370
    35
390
0
 62
     7
 48
0.0625
100
AcDbLine
 10
-239.022522
 20
195.344437
 30
0.0
 11
-236.522522
 21
195.344437
 31
0.0
210
0.0
220
0.0
230
1.0
  0
LINE
  5
36C
100
AcDbEntity
  8
0
370
    35
390
0
 62
     7
 48
0.125012
100
AcDbLine
 10
-239.022522
 20
190.343948
 30
0.0
 11
-239.022522
 21
195.344437
 31
0.0
210
0.0
220
0.0
230
1.0
  0
LINE
  5
36D
100
AcDbEntity
  8
0
370
    35
390
0
 62
     7
 48
0.0625
100
AcDbLine
 10
-236.522522
 20
190.343948
 30
0.0
 11
-239.022522
 21
190.343948
 31
0.0
210
0.0
220
0.0
230
1.0
  0
LINE
  5
36E
100
AcDbEntity
  8
0
370
    35
390
0
 62
     7
 48
0.125012
100
AcDbLine
 10
-236.522522
 20
190.343948
 30
0.0
 11
-236.522522
 21
195.344437
 31
0.0
210
0.0
220
0.0
230
1.0
  0
LINE
  5
36F
100
AcDbEntity
  8
0
370
    35
390
0
 62
     7
 48
0.0625
100
AcDbLine
 10
-478.022522
 20
301.352234
 30
0.0
 11
-480.522522
 21
301.352234
 31
0.0
210
0.0
220
0.0
230
1.0
  0
LINE
  5
370
100
AcDbEntity
  8
0
370
    35
390
0
 62
     7
 48
0.125
100
AcDbLine
 10
-478.022522
 20
301.352234
 30
0.0
 11
-478.022522
 21
306.352234
 31
0.0
210
0.0
220
0.0
230
1.0
  0
LINE
  5
371
100
AcDbEntity
  8
0
370
    35
390
0
 62
     7
 48
0.0625
100
AcDbLine
 10
-478.022522
 20
306.352234
 30
0.0
 11
-480.522522
 21
306.352234
 31
0.0
210
0.0
220
0.0
230
1.0
  0
LINE
  5
372
100
AcDbEntity
  8
0
370
    35
390
0
 62
     7
 48
0.125
100
AcDbLine
 10
-480.522522
 20
301.352234
 30
0.0
 11
-480.522522
 21
306.352234
 31
0.0
210
0.0
220
0.0
230
1.0
  0
LINE
  5
373
100
AcDbEntity
  8
0
370
    35
390
0
 62
     7
 48
0.0625
100
AcDbLine
 10
-440.522522
 20
301.352234
 30
0.0
 11
-443.022522
 21
301.352234
 31
0.0
210
0.0
220
0.0
230
1.0
  0
LINE
  5
374
100
AcDbEntity
  8
0
370
    35
390
0
 62
     7
 48
0.125
100
AcDbLine
 10
-440.522522
 20
301.352234
 30
0.0
 11
-440.522522
 21
306.352234
 31
0.0
210
0.0
220
0.0
230
1.0
  0
LINE
  5
375
100
AcDbEntity
  8
0
370
    35
390
0
 62
     7
 48
0.0625
100
AcDbLine
 10
-440.522522
 20
306.352234
 30
0.0
 11
-443.022522
 21
306.352234
 31
0.0
210
0.0
220
0.0
230
1.0
  0
LINE
  5
376
100
AcDbEntity
  8
0
370
    35
390
0
 62
     7
 48
0.125
100
AcDbLine
 10
-443.022522
 20
301.352234
 30
0.0
 11
-443.022522
 21
306.352234
 31
0.0
210
0.0
220
0.0
230
1.0
  0
LINE
  5
377
100
AcDbEntity
  8
0
370
    35
390
0
 62
     7
 48
0.0625
100
AcDbLine
 10
109.477478
 20
195.352249
 30
0.0
 11
106.977478
 21
195.352249
 31
0.0
210
0.0
220
0.0
230
1.0
  0
LINE
  5
378
100
AcDbEntity
  8
0
370
    35
390
0
 62
     7
 48
0.0625
100
AcDbLine
 10
30.799011
 20
322.425232
 30
0.0
 11
33.299011
 21
322.425232
 31
0.0
210
0.0
220
0.0
230
1.0
  0
LINE
  5
379
100
AcDbEntity
  8
0
370
    35
390
0
 62
     7
100
AcDbLine
 10
30.799011
 20
322.425232
 30
0.0
 11
30.799011
 21
418.840271
 31
0.0
210
0.0
220
0.0
230
1.0
  0
LINE
  5
37A
100
AcDbEntity
  8
0
370
    35
390
0
 62
     7
100
AcDbLine
 10
30.799011
 20
418.840271
 30
0.0
 11
-68.701019
 21
418.840271
 31
0.0
210
0.0
220
0.0
230
1.0
  0
LINE
  5
37B
100
AcDbEntity
  8
0
370
    35
390
0
 62
     7
100
AcDbLine
 10
-68.701019
 20
418.840271
 30
0.0
 11
-68.701019
 21
393.840271
 31
0.0
210
0.0
220
0.0
230
1.0
  0
LINE
  5
37C
100
AcDbEntity
  8
0
370
    35
390
0
 62
     7
 48
0.0625
100
AcDbLine
 10
-71.201019
 20
393.840271
 30
0.0
 11
-68.701019
 21
393.840271
 31
0.0
210
0.0
220
0.0
230
1.0
  0
LINE
  5
37D
100
AcDbEntity
  8
0
370
    35
390
0
 62
     7
100
AcDbLine
 10
-71.201019
 20
418.840271
 30
0.0
 11
-71.201019
 21
393.840271
 31
0.0
210
0.0
220
0.0
230
1.0
  0
LINE
  5
37E
100
AcDbEntity
  8
0
370
    35
390
0
 62
     7
100
AcDbLine
 10
-71.201019
 20
418.840271
 30
0.0
 11
-170.701019
 21
418.840271
 31
0.0
210
0.0
220
0.0
230
1.0
  0
LINE
  5
37F
100
AcDbEntity
  8
0
370
    35
390
0
 62
     7
100
AcDbLine
 10
-170.701019
 20
418.840271
 30
0.0
 11
-170.701019
 21
393.840271
 31
0.0
210
0.0
220
0.0
230
1.0
  0
LINE
  5
380
100
AcDbEntity
  8
0
370
    35
390
0
 62
     7
 48
0.0625
100
AcDbLine
 10
-173.201019
 20
393.840271
 30
0.0
 11
-170.701019
 21
393.840271
 31
0.0
210
0.0
220
0.0
230
1.0
  0
LINE
  5
381
100
AcDbEntity
  8
0
370
    35
390
0
 62
     7
100
AcDbLine
 10
-173.201019
 20
418.840271
 30
0.0
 11
-173.201019
 21
393.840271
 31
0.0
210
0.0
220
0.0
230
1.0
  0
LINE
  5
382
100
AcDbEntity
  8
0
370
    35
390
0
 62
     7
100
AcDbLine
 10
-173.201019
 20
418.840271
 30
0.0
 11
-272.701019
 21
418.840271
 31
0.0
210
0.0
220
0.0
230
1.0
  0
LINE
  5
383
100
AcDbEntity
  8
0
370
    35
390
0
 62
     7
100
AcDbLine
 10
-272.701019
 20
418.840271
 30
0.0
 11
-272.701019
 21
393.840271
 31
0.0
210
0.0
220
0.0
230
1.0
  0
LINE
  5
384
100
AcDbEntity
  8
0
370
    35
390
0
 62
     7
 48
0.0625
100
AcDbLine
 10
-275.201019
 20
393.840271
 30
0.0
 11
-272.701019
 21
393.840271
 31
0.0
210
0.0
220
0.0
230
1.0
  0
LINE
  5
385
100
AcDbEntity
  8
0
370
    35
390
0
 62
     7
100
AcDbLine
 10
-275.201019
 20
418.840271
 30
0.0
 11
-275.201019
 21
393.840271
 31
0.0
210
0.0
220
0.0
230
1.0
  0
LINE
  5
386
100
AcDbEntity
  8
0
370
    35
390
0
 62
     7
100
AcDbLine
 10
-275.201019
 20
418.840271
 30
0.0
 11
-374.700989
 21
418.840271
 31
0.0
210
0.0
220
0.0
230
1.0
  0
LINE
  5
387
100
AcDbEntity
  8
0
370
    35
390
0
 62
     7
100
AcDbLine
 10
-374.700989
 20
418.840271
 30
0.0
 11
-374.700989
 21
393.840271
 31
0.0
210
0.0
220
0.0
230
1.0
  0
LINE
  5
388
100
AcDbEntity
  8
0
370
    35
390
0
 62
     7
 48
0.0625
100
AcDbLine
 10
-377.200989
 20
393.840271
 30
0.0
 11
-374.700989
 21
393.840271
 31
0.0
210
0.0
220
0.0
230
1.0
  0
LINE
  5
389
100
AcDbEntity
  8
0
370
    35
390
0
 62
     7
100
AcDbLine
 10
-377.200989
 20
418.840271
 30
0.0
 11
-377.200989
 21
393.840271
 31
0.0
210
0.0
220
0.0
230
1.0
  0
LINE
  5
38A
100
AcDbEntity
  8
0
370
    35
390
0
 62
     7
100
AcDbLine
 10
-377.200989
 20
418.840271
 30
0.0
 11
-479.201019
 21
418.840271
 31
0.0
210
0.0
220
0.0
230
1.0
  0
LINE
  5
38B
100
AcDbEntity
  8
0
370
    35
390
0
 62
     7
100
AcDbLine
 10
-479.201019
 20
373.840271
 30
0.0
 11
-479.201019
 21
418.840271
 31
0.0
210
0.0
220
0.0
230
1.0
  0
LINE
  5
38C
100
AcDbEntity
  8
0
370
    35
390
0
 62
     7
 48
0.0625
100
AcDbLine
 10
-481.701019
 20
373.840271
 30
0.0
 11
-479.201019
 21
373.840271
 31
0.0
210
0.0
220
0.0
230
1.0
  0
LINE
  5
38D
100
AcDbEntity
  8
0
370
    35
390
0
 62
     7
100
AcDbLine
 10
-481.701019
 20
458.848083
 30
0.0
 11
-481.701019
 21
373.840271
 31
0.0
210
0.0
220
0.0
230
1.0
  0
LINE
  5
38E
100
AcDbEntity
  8
0
370
    35
390
0
 62
     7
100
AcDbLine
 10
-516.700989
 20
458.848083
 30
0.0
 11
-481.701019
 21
458.848083
 31
0.0
210
0.0
220
0.0
230
1.0
  0
LINE
  5
38F
100
AcDbEntity
  8
0
370
    35
390
0
 62
     7
100
AcDbLine
 10
-516.700989
 20
458.848083
 30
0.0
 11
-516.700989
 21
418.840271
 31
0.0
210
0.0
220
0.0
230
1.0
  0
LINE
  5
390
100
AcDbEntity
  8
0
370
    35
390
0
 62
     7
 48
0.0625
100
AcDbLine
 10
-516.700989
 20
418.840271
 30
0.0
 11
-519.200989
 21
418.840271
 31
0.0
210
0.0
220
0.0
230
1.0
  0
LINE
  5
391
100
AcDbEntity
  8
0
370
    35
390
0
 62
     7
100
AcDbLine
 10
-519.200989
 20
368.848083
 30
0.0
 11
-519.200989
 21
418.840271
 31
0.0
210
0.0
220
0.0
230
1.0
  0
LINE
  5
392
100
AcDbEntity
  8
0
370
    35
390
0
 62
     7
 48
0.000195
100
AcDbLine
 10
-519.200989
 20
368.840271
 30
0.0
 11
-519.200989
 21
368.848083
 31
0.0
210
0.0
220
0.0
230
1.0
  0
LINE
  5
393
100
AcDbEntity
  8
0
370
    35
390
0
 62
     7
 48
0.0625
100
AcDbLine
 10
-519.200989
 20
368.848083
 30
0.0
 11
-516.700989
 21
368.848083
 31
0.0
210
0.0
220
0.0
230
1.0
  0
LINE
  5
394
100
AcDbEntity
  8
0
370
    35
390
0
 62
     7
100
AcDbLine
 10
-516.700989
 20
368.848083
 30
0.0
 11
-516.700989
 21
328.840271
 31
0.0
210
0.0
220
0.0
230
1.0
  0
LINE
  5
395
100
AcDbEntity
  8
0
370
    35
390
0
 62
     7
100
AcDbLine
 10
-516.700989
 20
328.840271
 30
0.0
 11
-479.201019
 21
328.840271
 31
0.0
210
0.0
220
0.0
230
1.0
  0
ARC
  5
396
100
AcDbEntity
  8
0
370
    35
390
0
 62
     7
100
AcDbCircle
 10
-519.200989
 20
-802.409668
 30
0.0
 40
1131.956909
210
0.0
220
0.0
230
1.0
100
AcDbArc
 50
72.785638
 51
87.974913
  0
ARC
  5
397
100
AcDbEntity
  8
0
370
    35
390
0
 62
     7
100
AcDbCircle
 10
4.806946
 20
952.840271
 30
0.0
 40
700.0
210
0.0
220
0.0
230
1.0
100
AcDbArc
 50
254.335068
 51
269.999997
  0
LINE
  5
398
100
AcDbEntity
  8
0
370
    35
390
0
 62
     7
100
AcDbLine
 10
4.806946
 20
252.840286
 30
0.0
 11
110.799011
 21
252.840286
 31
0.0
210
0.0
220
0.0
230
1.0
  0
LINE
  5
399
100
AcDbEntity
  8
0
370
    35
390
0
 62
     7
100
AcDbLine
 10
110.799011
 20
313.845276
 30
0.0
 11
110.799011
 21
252.840286
 31
0.0
210
0.0
220
0.0
230
1.0
  0
LINE
  5
39A
100
AcDbEntity
  8
0
370
    35
390
0
 62
     7
 48
0.125
100
AcDbLine
 10
110.799011
 20
313.845276
 30
0.0
 11
105.799011
 21
313.845276
 31
0.0
210
0.0
220
0.0
230
1.0
  0
LINE
  5
39B
100
AcDbEntity
  8
0
370
    35
390
0
 62
     7
 48
0.125
100
AcDbLine
 10
110.799011
 20
313.845276
 30
0.0
 11
105.799011
 21
313.845276
 31
0.0
210
0.0
220
0.0
230
1.0
  0
LINE
  5
39C
100
AcDbEntity
  8
0
370
    35
390
0
 62
     7
100
AcDbLine
 10
105.799011
 20
358.840271
 30
0.0
 11
105.799011
 21
313.845276
 31
0.0
210
0.0
220
0.0
230
1.0
  0
LINE
  5
39D
100
AcDbEntity
  8
0
370
    35
390
0
 62
     7
100
AcDbLine
 10
105.799011
 20
358.840271
 30
0.0
 11
70.799011
 21
358.840271
 31
0.0
210
0.0
220
0.0
230
1.0
  0
LINE
  5
39E
100
AcDbEntity
  8
0
370
    35
390
0
 62
     7
100
AcDbLine
 10
70.799011
 20
313.844421
 30
0.0
 11
70.799011
 21
358.840271
 31
0.0
210
0.0
220
0.0
230
1.0
  0
LINE
  5
39F
100
AcDbEntity
  8
0
370
    35
390
0
 62
     7
 48
0.0625
100
AcDbLine
 10
68.299011
 20
313.844421
 30
0.0
 11
70.799011
 21
313.844421
 31
0.0
210
0.0
220
0.0
230
1.0
  0
LINE
  5
3A0
100
AcDbEntity
  8
0
370
    35
390
0
 62
     7
100
AcDbLine
 10
68.299011
 20
313.844421
 30
0.0
 11
68.299011
 21
358.840271
 31
0.0
210
0.0
220
0.0
230
1.0
  0
LINE
  5
3A1
100
AcDbEntity
  8
0
370
    35
390
0
 62
     7
 48
0.0625
100
AcDbLine
 10
68.299011
 20
358.840271
 30
0.0
 11
65.799011
 21
358.840271
 31
0.0
210
0.0
220
0.0
230
1.0
  0
LINE
  5
3A2
100
AcDbEntity
  8
0
370
    35
390
0
 62
     7
100
AcDbLine
 10
65.799011
 20
388.840271
 30
0.0
 11
65.799011
 21
358.840271
 31
0.0
210
0.0
220
0.0
230
1.0
  0
LINE
  5
3A3
100
AcDbEntity
  8
0
370
    35
390
0
 62
     7
100
AcDbLine
 10
33.299011
 20
322.425232
 30
0.0
 11
33.299011
 21
418.840271
 31
0.0
210
0.0
220
0.0
230
1.0
  0
LINE
  5
3A4
100
AcDbEntity
  8
0
370
    35
390
0
 62
     7
100
AcDbLine
 10
68.299011
 20
418.840271
 30
0.0
 11
33.299011
 21
418.840271
 31
0.0
210
0.0
220
0.0
230
1.0
  0
LINE
  5
3A5
100
AcDbEntity
  8
0
370
    35
390
0
 62
     7
100
AcDbLine
 10
68.299011
 20
418.840271
 30
0.0
 11
68.299011
 21
388.840271
 31
0.0
210
0.0
220
0.0
230
1.0
  0
LINE
  5
3A6
100
AcDbEntity
  8
0
370
    35
390
0
 62
     7
 48
0.0625
100
AcDbLine
 10
68.299011
 20
388.840271
 30
0.0
 11
65.799011
 21
388.840271
 31
0.0
210
0.0
220
0.0
230
1.0
  0
LINE
  5
3A7
100
AcDbEntity
  8
0
370
    35
390
0
 62
     7
 48
0.0625
100
AcDbLine
 10
105.799011
 20
262.840271
 30
0.0
 11
108.299011
 21
262.840271
 31
0.0
210
0.0
220
0.0
230
1.0
  0
LINE
  5
3A8
100
AcDbEntity
  8
0
370
    35
390
0
 62
     7
 48
0.125
100
AcDbLine
 10
105.799011
 20
262.840271
 30
0.0
 11
105.799011
 21
257.840271
 31
0.0
210
0.0
220
0.0
230
1.0
  0
LINE
  5
3A9
100
AcDbEntity
  8
0
370
    35
390
0
 62
     7
 48
0.0625
100
AcDbLine
 10
105.799011
 20
257.840271
 30
0.0
 11
108.299011
 21
257.840271
 31
0.0
210
0.0
220
0.0
230
1.0
  0
LINE
  5
3AA
100
AcDbEntity
  8
0
370
    35
390
0
 62
     7
 48
0.125
100
AcDbLine
 10
108.299011
 20
262.840271
 30
0.0
 11
108.299011
 21
257.840271
 31
0.0
210
0.0
220
0.0
230
1.0
  0
LINE
  5
3AB
100
AcDbEntity
  8
0
370
    35
390
0
 62
     7
 48
0.0625
100
AcDbLine
 10
-275.201019
 20
373.848572
 30
0.0
 11
-272.701019
 21
373.848572
 31
0.0
210
0.0
220
0.0
230
1.0
  0
LINE
  5
3AC
100
AcDbEntity
  8
0
370
    35
390
0
 62
     7
 48
0.125012
100
AcDbLine
 10
-275.201019
 20
373.848572
 30
0.0
 11
-275.201019
 21
368.848083
 31
0.0
210
0.0
220
0.0
230
1.0
  0
LINE
  5
3AD
100
AcDbEntity
  8
0
370
    35
390
0
 62
     7
 48
0.0625
100
AcDbLine
 10
-272.701019
 20
368.848083
 30
0.0
 11
-275.201019
 21
368.848083
 31
0.0
210
0.0
220
0.0
230
1.0
  0
LINE
  5
3AE
100
AcDbEntity
  8
0
370
    35
390
0
 62
     7
 48
0.125012
100
AcDbLine
 10
-272.701019
 20
373.848572
 30
0.0
 11
-272.701019
 21
368.848083
 31
0.0
210
0.0
220
0.0
230
1.0
  0
LINE
  5
3AF
100
AcDbEntity
  8
0
370
    35
390
0
 62
     7
 48
0.0625
100
AcDbLine
 10
-479.201019
 20
333.84613
 30
0.0
 11
-481.701019
 21
333.84613
 31
0.0
210
0.0
220
0.0
230
1.0
  0
LINE
  5
3B0
100
AcDbEntity
  8
0
370
    35
390
0
 62
     7
 48
0.125003
100
AcDbLine
 10
-479.201019
 20
333.84613
 30
0.0
 11
-479.201019
 21
338.846252
 31
0.0
210
0.0
220
0.0
230
1.0
  0
LINE
  5
3B1
100
AcDbEntity
  8
0
370
    35
390
0
 62
     7
 48
0.0625
100
AcDbLine
 10
-481.701019
 20
338.846252
 30
0.0
 11
-479.201019
 21
338.846252
 31
0.0
210
0.0
220
0.0
230
1.0
  0
LINE
  5
3B2
100
AcDbEntity
  8
0
370
    35
390
0
 62
     7
 48
0.125003
100
AcDbLine
 10
-481.701019
 20
333.84613
 30
0.0
 11
-481.701019
 21
338.846252
 31
0.0
210
0.0
220
0.0
230
1.0
  0
LINE
  5
3B3
100
AcDbEntity
  8
0
370
    35
390
0
 62
     7
 48
0.0625
100
AcDbLine
 10
-377.200989
 20
373.848572
 30
0.0
 11
-374.700989
 21
373.848572
 31
0.0
210
0.0
220
0.0
230
1.0
  0
LINE
  5
3B4
100
AcDbEntity
  8
0
370
    35
390
0
 62
     7
 48
0.125012
100
AcDbLine
 10
-377.200989
 20
373.848572
 30
0.0
 11
-377.200989
 21
368.848083
 31
0.0
210
0.0
220
0.0
230
1.0
  0
LINE
  5
3B5
100
AcDbEntity
  8
0
370
    35
390
0
 62
     7
 48
0.0625
100
AcDbLine
 10
-374.700989
 20
368.848083
 30
0.0
 11
-377.200989
 21
368.848083
 31
0.0
210
0.0
220
0.0
230
1.0
  0
LINE
  5
3B6
100
AcDbEntity
  8
0
370
    35
390
0
 62
     7
 48
0.125012
100
AcDbLine
 10
-374.700989
 20
373.848572
 30
0.0
 11
-374.700989
 21
368.848083
 31
0.0
210
0.0
220
0.0
230
1.0
  0
LINE
  5
3B7
100
AcDbEntity
  8
0
370
    35
390
0
 62
     7
 48
0.0625
100
AcDbLine
 10
-71.201019
 20
373.848572
 30
0.0
 11
-68.701019
 21
373.848572
 31
0.0
210
0.0
220
0.0
230
1.0
  0
LINE
  5
3B8
100
AcDbEntity
  8
0
370
    35
390
0
 62
     7
 48
0.125012
100
AcDbLine
 10
-71.201019
 20
373.848572
 30
0.0
 11
-71.201019
 21
368.848083
 31
0.0
210
0.0
220
0.0
230
1.0
  0
LINE
  5
3B9
100
AcDbEntity
  8
0
370
    35
390
0
 62
     7
 48
0.0625
100
AcDbLine
 10
-68.701019
 20
368.848083
 30
0.0
 11
-71.201019
 21
368.848083
 31
0.0
210
0.0
220
0.0
230
1.0
  0
LINE
  5
3BA
100
AcDbEntity
  8
0
370
    35
390
0
 62
     7
 48
0.125012
100
AcDbLine
 10
-68.701019
 20
373.848572
 30
0.0
 11
-68.701019
 21
368.848083
 31
0.0
210
0.0
220
0.0
230
1.0
  0
LINE
  5
3BB
100
AcDbEntity
  8
0
370
    35
390
0
 62
     7
 48
0.0625
100
AcDbLine
 10
-170.701019
 20
368.848083
 30
0.0
 11
-173.201019
 21
368.848083
 31
0.0
210
0.0
220
0.0
230
1.0
  0
LINE
  5
3BC
100
AcDbEntity
  8
0
370
    35
390
0
 62
     7
 48
0.125012
100
AcDbLine
 10
-170.701019
 20
373.848572
 30
0.0
 11
-170.701019
 21
368.848083
 31
0.0
210
0.0
220
0.0
230
1.0
  0
LINE
  5
3BD
100
AcDbEntity
  8
0
370
    35
390
0
 62
     7
 48
0.0625
100
AcDbLine
 10
-173.201019
 20
373.848572
 30
0.0
 11
-170.701019
 21
373.848572
 31
0.0
210
0.0
220
0.0
230
1.0
  0
LINE
  5
3BE
100
AcDbEntity
  8
0
370
    35
390
0
 62
     7
 48
0.125012
100
AcDbLine
 10
-173.201019
 20
373.848572
 30
0.0
 11
-173.201019
 21
368.848083
 31
0.0
210
0.0
220
0.0
230
1.0
  0
LINE
  5
3BF
100
AcDbEntity
  8
0
370
    35
390
0
 62
     7
 48
0.0625
100
AcDbLine
 10
68.299011
 20
262.840271
 30
0.0
 11
70.799011
 21
262.840271
 31
0.0
210
0.0
220
0.0
230
1.0
  0
LINE
  5
3C0
100
AcDbEntity
  8
0
370
    35
390
0
 62
     7
 48
0.125
100
AcDbLine
 10
68.299011
 20
262.840271
 30
0.0
 11
68.299011
 21
257.840271
 31
0.0
210
0.0
220
0.0
230
1.0
  0
LINE
  5
3C1
100
AcDbEntity
  8
0
370
    35
390
0
 62
     7
 48
0.0625
100
AcDbLine
 10
68.299011
 20
257.840271
 30
0.0
 11
70.799011
 21
257.840271
 31
0.0
210
0.0
220
0.0
230
1.0
  0
LINE
  5
3C2
100
AcDbEntity
  8
0
370
    35
390
0
 62
     7
 48
0.125
100
AcDbLine
 10
70.799011
 20
262.840271
 30
0.0
 11
70.799011
 21
257.840271
 31
0.0
210
0.0
220
0.0
230
1.0
  0
LINE
  5
3C3
100
AcDbEntity
  8
0
370
    35
390
0
 62
     7
 48
0.0625
100
AcDbLine
 10
30.799011
 20
262.840271
 30
0.0
 11
33.299011
 21
262.840271
 31
0.0
210
0.0
220
0.0
230
1.0
  0
LINE
  5
3C4
100
AcDbEntity
  8
0
370
    35
390
0
 62
     7
 48
0.125
100
AcDbLine
 10
30.799011
 20
262.840271
 30
0.0
 11
30.799011
 21
257.840271
 31
0.0
210
0.0
220
0.0
230
1.0
  0
LINE
  5
3C5
100
AcDbEntity
  8
0
370
    35
390
0
 62
     7
 48
0.0625
100
AcDbLine
 10
30.799011
 20
257.840271
 30
0.0
 11
33.299011
 21
257.840271
 31
0.0
210
0.0
220
0.0
230
1.0
  0
LINE
  5
3C6
100
AcDbEntity
  8
0
370
    35
390
0
 62
     7
 48
0.125
100
AcDbLine
 10
33.299011
 20
262.840271
 30
0.0
 11
33.299011
 21
257.840271
 31
0.0
210
0.0
220
0.0
230
1.0
  0
LINE
  5
3C7
100
AcDbEntity
  8
0
370
    35
390
0
 62
     7
 48
0.0625
100
AcDbLine
 10
-519.200989
 20
368.840271
 30
0.0
 11
-516.700989
 21
368.840271
 31
0.0
210
0.0
220
0.0
230
1.0
  0
LINE
  5
3C8
100
AcDbEntity
  8
0
370
    35
390
0
 62
     7
 48
0.25
100
AcDbLine
 10
-471.19281
 20
486.904297
 30
0.0
 11
-471.19281
 21
476.904297
 31
0.0
210
0.0
220
0.0
230
1.0
  0
LINE
  5
3C9
100
AcDbEntity
  8
0
370
    35
390
0
 62
     7
100
AcDbLine
 10
38.80719
 20
486.904297
 30
0.0
 11
-471.19281
 21
486.904297
 31
0.0
210
0.0
220
0.0
230
1.0
  0
LINE
  5
3CA
100
AcDbEntity
  8
0
370
    35
390
0
 62
     7
 48
0.25
100
AcDbLine
 10
38.80719
 20
486.904297
 30
0.0
 11
38.80719
 21
476.904297
 31
0.0
210
0.0
220
0.0
230
1.0
  0
LINE
  5
3CB
100
AcDbEntity
  8
0
370
    35
390
0
 62
     7
 48
0.25
100
AcDbLine
 10
38.80719
 20
436.904297
 30
0.0
 11
38.80719
 21
426.904297
 31
0.0
210
0.0
220
0.0
230
1.0
  0
LINE
  5
3CC
100
AcDbEntity
  8
0
370
    35
390
0
 62
     7
100
AcDbLine
 10
38.80719
 20
426.904297
 30
0.0
 11
-471.19281
 21
426.904297
 31
0.0
210
0.0
220
0.0
230
1.0
  0
LINE
  5
3CD
100
AcDbEntity
  8
0
370
    35
390
0
 62
     7
 48
0.25
100
AcDbLine
 10
-471.19281
 20
436.904297
 30
0.0
 11
-471.19281
 21
426.904297
 31
0.0
210
0.0
220
0.0
230
1.0
  0
LINE
  5
3CE
100
AcDbEntity
  8
0
370
    35
390
0
 62
     7
100
AcDbLine
 10
-476.19281
 20
476.904297
 30
0.0
 11
-476.19281
 21
436.904297
 31
0.0
210
0.0
220
0.0
230
1.0
  0
LINE
  5
3CF
100
AcDbEntity
  8
0
370
    35
390
0
 62
     7
 48
0.125
100
AcDbLine
 10
38.80719
 20
476.904297
 30
0.0
 11
43.80719
 21
476.904297
 31
0.0
210
0.0
220
0.0
230
1.0
  0
LINE
  5
3D0
100
AcDbEntity
  8
0
370
    35
390
0
 62
     7
 48
0.125
100
AcDbLine
 10
-476.19281
 20
476.904297
 30
0.0
 11
-471.19281
 21
476.904297
 31
0.0
210
0.0
220
0.0
230
1.0
  0
LINE
  5
3D1
100
AcDbEntity
  8
0
370
    35
390
0
 62
     7
 48
0.125
100
AcDbLine
 10
38.80719
 20
436.904297
 30
0.0
 11
43.80719
 21
436.904297
 31
0.0
210
0.0
220
0.0
230
1.0
  0
LINE
  5
3D2
100
AcDbEntity
  8
0
370
    35
390
0
 62
     7
 48
0.125
100
AcDbLine
 10
-476.19281
 20
436.904297
 30
0.0
 11
-471.19281
 21
436.904297
 31
0.0
210
0.0
220
0.0
230
1.0
  0
LINE
  5
3D3
100
AcDbEntity
  8
0
370
    35
390
0
 62
     7
100
AcDbLine
 10
43.80719
 20
476.904297
 30
0.0
 11
43.80719
 21
436.904297
 31
0.0
210
0.0
220
0.0
230
1.0
  0
LINE
  5
3D4
100
AcDbEntity
  8
0
370
    35
390
0
 62
     7
 48
0.25
100
AcDbLine
 10
284.137756
 20
141.91626
 30
0.0
 11
284.137756
 21
131.91626
 31
0.0
210
0.0
220
0.0
230
1.0
  0
LINE
  5
3D5
100
AcDbEntity
  8
0
370
    35
390
0
 62
     7
100
AcDbLine
 10
794.137695
 20
141.91626
 30
0.0
 11
284.137756
 21
141.91626
 31
0.0
210
0.0
220
0.0
230
1.0
  0
LINE
  5
3D6
100
AcDbEntity
  8
0
370
    35
390
0
 62
     7
 48
0.25
100
AcDbLine
 10
794.137695
 20
141.91626
 30
0.0
 11
794.137695
 21
131.91626
 31
0.0
210
0.0
220
0.0
230
1.0
  0
LINE
  5
3D7
100
AcDbEntity
  8
0
370
    35
390
0
 62
     7
 48
0.25
100
AcDbLine
 10
794.137695
 20
91.916275
 30
0.0
 11
794.137695
 21
81.916275
 31
0.0
210
0.0
220
0.0
230
1.0
  0
LINE
  5
3D8
100
AcDbEntity
  8
0
370
    35
390
0
 62
     7
100
AcDbLine
 10
794.137695
 20
81.916275
 30
0.0
 11
284.137756
 21
81.916275
 31
0.0
210
0.0
220
0.0
230
1.0
  0
LINE
  5
3D9
100
AcDbEntity
  8
0
370
    35
390
0
 62
     7
 48
0.25
100
AcDbLine
 10
284.137756
 20
91.916275
 30
0.0
 11
284.137756
 21
81.916275
 31
0.0
210
0.0
220
0.0
230
1.0
  0
LINE
  5
3DA
100
AcDbEntity
  8
0
370
    35
390
0
 62
     7
100
AcDbLine
 10
279.137756
 20
131.91626
 30
0.0
 11
279.137756
 21
91.916275
 31
0.0
210
0.0
220
0.0
230
1.0
  0
LINE
  5
3DB
100
AcDbEntity
  8
0
370
    35
390
0
 62
     7
 48
0.125
100
AcDbLine
 10
794.137695
 20
131.91626
 30
0.0
 11
799.137695
 21
131.91626
 31
0.0
210
0.0
220
0.0
230
1.0
  0
LINE
  5
3DC
100
AcDbEntity
  8
0
370
    35
390
0
 62
     7
 48
0.125
100
AcDbLine
 10
279.137756
 20
131.91626
 30
0.0
 11
284.137756
 21
131.91626
 31
0.0
210
0.0
220
0.0
230
1.0
  0
LINE
  5
3DD
100
AcDbEntity
  8
0
370
    35
390
0
 62
     7
 48
0.125
100
AcDbLine
 10
794.137695
 20
91.916275
 30
0.0
 11
799.137695
 21
91.916275
 31
0.0
210
0.0
220
0.0
230
1.0
  0
LINE
  5
3DE
100
AcDbEntity
  8
0
370
    35
390
0
 62
     7
 48
0.125
100
AcDbLine
 10
279.137756
 20
91.916275
 30
0.0
 11
284.137756
 21
91.916275
 31
0.0
210
0.0
220
0.0
230
1.0
  0
LINE
  5
3DF
100
AcDbEntity
  8
0
370
    35
390
0
 62
     7
100
AcDbLine
 10
799.137695
 20
131.91626
 30
0.0
 11
799.137695
 21
91.916275
 31
0.0
210
0.0
220
0.0
230
1.0
  0
LINE
  5
3E0
100
AcDbEntity
  8
0
370
    35
390
0
 62
     7
 48
0.0625
100
AcDbLine
 10
289.477478
 20
241.767288
 30
0.0
 11
286.977478
 21
241.767288
 31
0.0
210
0.0
220
0.0
230
1.0
  0
LINE
  5
3E1
100
AcDbEntity
  8
0
370
    35
390
0
 62
     7
100
AcDbLine
 10
289.477478
 20
241.767288
 30
0.0
 11
289.477478
 21
145.352234
 31
0.0
210
0.0
220
0.0
230
1.0
  0
LINE
  5
3E2
100
AcDbEntity
  8
0
370
    35
390
0
 62
     7
100
AcDbLine
 10
289.477478
 20
145.352234
 30
0.0
 11
388.977478
 21
145.352234
 31
0.0
210
0.0
220
0.0
230
1.0
  0
LINE
  5
3E3
100
AcDbEntity
  8
0
370
    35
390
0
 62
     7
100
AcDbLine
 10
388.977478
 20
145.352234
 30
0.0
 11
388.977478
 21
170.352234
 31
0.0
210
0.0
220
0.0
230
1.0
  0
LINE
  5
3E4
100
AcDbEntity
  8
0
370
    35
390
0
 62
     7
 48
0.0625
100
AcDbLine
 10
391.477478
 20
170.352234
 30
0.0
 11
388.977478
 21
170.352234
 31
0.0
210
0.0
220
0.0
230
1.0
  0
LINE
  5
3E5
100
AcDbEntity
  8
0
370
    35
390
0
 62
     7
100
AcDbLine
 10
391.477478
 20
145.352234
 30
0.0
 11
391.477478
 21
170.352234
 31
0.0
210
0.0
220
0.0
230
1.0
  0
LINE
  5
3E6
100
AcDbEntity
  8
0
370
    35
390
0
 62
     7
100
AcDbLine
 10
391.477478
 20
145.352234
 30
0.0
 11
490.977539
 21
145.352234
 31
0.0
210
0.0
220
0.0
230
1.0
  0
LINE
  5
3E7
100
AcDbEntity
  8
0
370
    35
390
0
 62
     7
100
AcDbLine
 10
490.977539
 20
145.352234
 30
0.0
 11
490.977539
 21
170.352234
 31
0.0
210
0.0
220
0.0
230
1.0
  0
LINE
  5
3E8
100
AcDbEntity
  8
0
370
    35
390
0
 62
     7
 48
0.0625
100
AcDbLine
 10
493.477539
 20
170.352234
 30
0.0
 11
490.977539
 21
170.352234
 31
0.0
210
0.0
220
0.0
230
1.0
  0
LINE
  5
3E9
100
AcDbEntity
  8
0
370
    35
390
0
 62
     7
100
AcDbLine
 10
493.477539
 20
145.352234
 30
0.0
 11
493.477539
 21
170.352234
 31
0.0
210
0.0
220
0.0
230
1.0
  0
LINE
  5
3EA
100
AcDbEntity
  8
0
370
    35
390
0
 62
     7
100
AcDbLine
 10
493.477539
 20
145.352234
 30
0.0
 11
592.977539
 21
145.352234
 31
0.0
210
0.0
220
0.0
230
1.0
  0
LINE
  5
3EB
100
AcDbEntity
  8
0
370
    35
390
0
 62
     7
100
AcDbLine
 10
592.977539
 20
145.352234
 30
0.0
 11
592.977539
 21
170.352234
 31
0.0
210
0.0
220
0.0
230
1.0
  0
LINE
  5
3EC
100
AcDbEntity
  8
0
370
    35
390
0
 62
     7
 48
0.0625
100
AcDbLine
 10
595.477539
 20
170.352234
 30
0.0
 11
592.977539
 21
170.352234
 31
0.0
210
0.0
220
0.0
230
1.0
  0
LINE
  5
3ED
100
AcDbEntity
  8
0
370
    35
390
0
 62
     7
100
AcDbLine
 10
595.477539
 20
145.352234
 30
0.0
 11
595.477539
 21
170.352234
 31
0.0
210
0.0
220
0.0
230
1.0
  0
LINE
  5
3EE
100
AcDbEntity
  8
0
370
    35
390
0
 62
     7
100
AcDbLine
 10
595.477539
 20
145.352234
 30
0.0
 11
694.977539
 21
145.352234
 31
0.0
210
0.0
220
0.0
230
1.0
  0
LINE
  5
3EF
100
AcDbEntity
  8
0
370
    35
390
0
 62
     7
100
AcDbLine
 10
694.977539
 20
145.352234
 30
0.0
 11
694.977539
 21
170.352234
 31
0.0
210
0.0
220
0.0
230
1.0
  0
LINE
  5
3F0
100
AcDbEntity
  8
0
370
    35
390
0
 62
     7
 48
0.0625
100
AcDbLine
 10
697.477539
 20
170.352234
 30
0.0
 11
694.977539
 21
170.352234
 31
0.0
210
0.0
220
0.0
230
1.0
  0
LINE
  5
3F1
100
AcDbEntity
  8
0
370
    35
390
0
 62
     7
100
AcDbLine
 10
697.477539
 20
145.352234
 30
0.0
 11
697.477539
 21
170.352234
 31
0.0
210
0.0
220
0.0
230
1.0
  0
LINE
  5
3F2
100
AcDbEntity
  8
0
370
    35
390
0
 62
     7
100
AcDbLine
 10
697.477539
 20
145.352234
 30
0.0
 11
799.477539
 21
145.352234
 31
0.0
210
0.0
220
0.0
230
1.0
  0
LINE
  5
3F3
100
AcDbEntity
  8
0
370
    35
390
0
 62
     7
100
AcDbLine
 10
799.477539
 20
190.352249
 30
0.0
 11
799.477539
 21
145.352234
 31
0.0
210
0.0
220
0.0
230
1.0
  0
LINE
  5
3F4
100
AcDbEntity
  8
0
370
    35
390
0
 62
     7
 48
0.0625
100
AcDbLine
 10
801.977539
 20
190.352249
 30
0.0
 11
799.477539
 21
190.352249
 31
0.0
210
0.0
220
0.0
230
1.0
  0
LINE
  5
3F5
100
AcDbEntity
  8
0
370
    35
390
0
 62
     7
100
AcDbLine
 10
801.977539
 20
105.344437
 30
0.0
 11
801.977539
 21
190.352249
 31
0.0
210
0.0
220
0.0
230
1.0
  0
LINE
  5
3F6
100
AcDbEntity
  8
0
370
    35
390
0
 62
     7
100
AcDbLine
 10
836.977539
 20
105.344437
 30
0.0
 11
801.977539
 21
105.344437
 31
0.0
210
0.0
220
0.0
230
1.0
  0
LINE
  5
3F7
100
AcDbEntity
  8
0
370
    35
390
0
 62
     7
100
AcDbLine
 10
836.977539
 20
105.344437
 30
0.0
 11
836.977539
 21
145.352234
 31
0.0
210
0.0
220
0.0
230
1.0
  0
LINE
  5
3F8
100
AcDbEntity
  8
0
370
    35
390
0
 62
     7
 48
0.0625
100
AcDbLine
 10
836.977539
 20
145.352234
 30
0.0
 11
839.477539
 21
145.352234
 31
0.0
210
0.0
220
0.0
230
1.0
  0
LINE
  5
3F9
100
AcDbEntity
  8
0
370
    35
390
0
 62
     7
100
AcDbLine
 10
839.477539
 20
195.344437
 30
0.0
 11
839.477539
 21
145.352234
 31
0.0
210
0.0
220
0.0
230
1.0
  0
LINE
  5
3FA
100
AcDbEntity
  8
0
370
    35
390
0
 62
     7
 48
0.000195
100
AcDbLine
 10
839.477539
 20
195.352249
 30
0.0
 11
839.477539
 21
195.344437
 31
0.0
210
0.0
220
0.0
230
1.0
  0
LINE
  5
3FB
100
AcDbEntity
  8
0
370
    35
390
0
 62
     7
 48
0.0625
100
AcDbLine
 10
839.477539
 20
195.344437
 30
0.0
 11
836.977539
 21
195.344437
 31
0.0
210
0.0
220
0.0
230
1.0
  0
LINE
  5
3FC
100
AcDbEntity
  8
0
370
    35
390
0
 62
     7
100
AcDbLine
 10
836.977539
 20
195.344437
 30
0.0
 11
836.977539
 21
235.352249
 31
0.0
210
0.0
220
0.0
230
1.0
  0
LINE
  5
3FD
100
AcDbEntity
  8
0
370
    35
390
0
 62
     7
100
AcDbLine
 10
836.977539
 20
235.352249
 30
0.0
 11
799.477539
 21
235.352249
 31
0.0
210
0.0
220
0.0
230
1.0
  0
ARC
  5
3FE
100
AcDbEntity
  8
0
370
    35
390
0
 62
     7
100
AcDbCircle
 10
839.477539
 20
1366.602173
 30
0.0
 40
1131.956909
210
0.0
220
0.0
230
1.0
100
AcDbArc
 50
252.785633
 51
267.974928
  0
ARC
  5
3FF
100
AcDbEntity
  8
0
370
    35
390
0
 62
     7
100
AcDbCircle
 10
315.469543
 20
-388.647827
 30
0.0
 40
700.0
210
0.0
220
0.0
230
1.0
100
AcDbArc
 50
74.335052
 51
90.000003
  0
LINE
  5
400
100
AcDbEntity
  8
0
370
    35
390
0
 62
     7
100
AcDbLine
 10
315.469543
 20
311.352234
 30
0.0
 11
209.477478
 21
311.352234
 31
0.0
210
0.0
220
0.0
230
1.0
  0
LINE
  5
401
100
AcDbEntity
  8
0
370
    35
390
0
 62
     7
100
AcDbLine
 10
209.477478
 20
250.347244
 30
0.0
 11
209.477478
 21
311.352234
 31
0.0
210
0.0
220
0.0
230
1.0
  0
LINE
  5
402
100
AcDbEntity
  8
0
370
    35
390
0
 62
     7
 48
0.125
100
AcDbLine
 10
209.477478
 20
250.347244
 30
0.0
 11
214.477478
 21
250.347244
 31
0.0
210
0.0
220
0.0
230
1.0
  0
LINE
  5
403
100
AcDbEntity
  8
0
370
    35
390
0
 62
     7
 48
0.125
100
AcDbLine
 10
209.477478
 20
250.347244
 30
0.0
 11
214.477478
 21
250.347244
 31
0.0
210
0.0
220
0.0
230
1.0
  0
LINE
  5
404
100
AcDbEntity
  8
0
370
    35
390
0
 62
     7
100
AcDbLine
 10
214.477478
 20
205.352249
 30
0.0
 11
214.477478
 21
250.347244
 31
0.0
210
0.0
220
0.0
230
1.0
  0
LINE
  5
405
100
AcDbEntity
  8
0
370
    35
390
0
 62
     7
100
AcDbLine
 10
214.477478
 20
205.352249
 30
0.0
 11
249.477478
 21
205.352249
 31
0.0
210
0.0
220
0.0
230
1.0
  0
LINE
  5
406
100
AcDbEntity
  8
0
370
    35
390
0
 62
     7
100
AcDbLine
 10
249.477478
 20
250.348099
 30
0.0
 11
249.477478
 21
205.352249
 31
0.0
210
0.0
220
0.0
230
1.0
  0
LINE
  5
407
100
AcDbEntity
  8
0
370
    35
390
0
 62
     7
 48
0.0625
100
AcDbLine
 10
251.977478
 20
250.348099
 30
0.0
 11
249.477478
 21
250.348099
 31
0.0
210
0.0
220
0.0
230
1.0
  0
LINE
  5
408
100
AcDbEntity
  8
0
370
    35
390
0
 62
     7
100
AcDbLine
 10
251.977478
 20
250.348099
 30
0.0
 11
251.977478
 21
205.352249
 31
0.0
210
0.0
220
0.0
230
1.0
  0
LINE
  5
409
100
AcDbEntity
  8
0
370
    35
390
0
 62
     7
 48
0.0625
100
AcDbLine
 10
251.977478
 20
205.352249
 30
0.0
 11
254.477478
 21
205.352249
 31
0.0
210
0.0
220
0.0
230
1.0
  0
LINE
  5
40A
100
AcDbEntity
  8
0
370
    35
390
0
 62
     7
100
AcDbLine
 10
254.477478
 20
175.352249
 30
0.0
 11
254.477478
 21
205.352249
 31
0.0
210
0.0
220
0.0
230
1.0
  0
LINE
  5
40B
100
AcDbEntity
  8
0
370
    35
390
0
 62
     7
100
AcDbLine
 10
286.977478
 20
241.767288
 30
0.0
 11
286.977478
 21
145.352234
 31
0.0
210
0.0
220
0.0
230
1.0
  0
LINE
  5
40C
100
AcDbEntity
  8
0
370
    35
390
0
 62
     7
100
AcDbLine
 10
251.977478
 20
145.352234
 30
0.0
 11
286.977478
 21
145.352234
 31
0.0
210
0.0
220
0.0
230
1.0
  0
LINE
  5
40D
100
AcDbEntity
  8
0
370
    35
390
0
 62
     7
100
AcDbLine
 10
251.977478
 20
145.352234
 30
0.0
 11
251.977478
 21
175.352249
 31
0.0
210
0.0
220
0.0
230
1.0
  0
LINE
  5
40E
100
AcDbEntity
  8
0
370
    35
390
0
 62
     7
 48
0.0625
100
AcDbLine
 10
251.977478
 20
175.352249
 30
0.0
 11
254.477478
 21
175.352249
 31
0.0
210
0.0
220
0.0
230
1.0
  0
LINE
  5
40F
100
AcDbEntity
  8
0
370
    35
390
0
 62
     7
 48
0.0625
100
AcDbLine
 10
214.477478
 20
301.352234
 30
0.0
 11
211.977478
 21
301.352234
 31
0.0
210
0.0
220
0.0
230
1.0
  0
LINE
  5
410
100
AcDbEntity
  8
0
370
    35
390
0
 62
     7
 48
0.125
100
AcDbLine
 10
214.477478
 20
301.352234
 30
0.0
 11
214.477478
 21
306.352234
 31
0.0
210
0.0
220
0.0
230
1.0
  0
LINE
  5
411
100
AcDbEntity
  8
0
370
    35
390
0
 62
     7
 48
0.0625
100
AcDbLine
 10
214.477478
 20
306.352234
 30
0.0
 11
211.977478
 21
306.352234
 31
0.0
210
0.0
220
0.0
230
1.0
  0
LINE
  5
412
100
AcDbEntity
  8
0
370
    35
390
0
 62
     7
 48
0.125
100
AcDbLine
 10
211.977478
 20
301.352234
 30
0.0
 11
211.977478
 21
306.352234
 31
0.0
210
0.0
220
0.0
230
1.0
  0
LINE
  5
413
100
AcDbEntity
  8
0
370
    35
390
0
 62
     7
 48
0.0625
100
AcDbLine
 10
595.477539
 20
190.343948
 30
0.0
 11
592.977539
 21
190.343948
 31
0.0
210
0.0
220
0.0
230
1.0
  0
LINE
  5
414
100
AcDbEntity
  8
0
370
    35
390
0
 62
     7
 48
0.125012
100
AcDbLine
 10
595.477539
 20
190.343948
 30
0.0
 11
595.477539
 21
195.344437
 31
0.0
210
0.0
220
0.0
230
1.0
  0
LINE
  5
415
100
AcDbEntity
  8
0
370
    35
390
0
 62
     7
 48
0.0625
100
AcDbLine
 10
592.977539
 20
195.344437
 30
0.0
 11
595.477539
 21
195.344437
 31
0.0
210
0.0
220
0.0
230
1.0
  0
LINE
  5
416
100
AcDbEntity
  8
0
370
    35
390
0
 62
     7
 48
0.125012
100
AcDbLine
 10
592.977539
 20
190.343948
 30
0.0
 11
592.977539
 21
195.344437
 31
0.0
210
0.0
220
0.0
230
1.0
  0
LINE
  5
417
100
AcDbEntity
  8
0
370
    35
390
0
 62
     7
 48
0.0625
100
AcDbLine
 10
799.477539
 20
230.34639
 30
0.0
 11
801.977539
 21
230.34639
 31
0.0
210
0.0
220
0.0
230
1.0
  0
LINE
  5
418
100
AcDbEntity
  8
0
370
    35
390
0
 62
     7
 48
0.125003
100
AcDbLine
 10
799.477539
 20
230.34639
 30
0.0
 11
799.477539
 21
225.346268
 31
0.0
210
0.0
220
0.0
230
1.0
  0
LINE
  5
419
100
AcDbEntity
  8
0
370
    35
390
0
 62
     7
 48
0.0625
100
AcDbLine
 10
801.977539
 20
225.346268
 30
0.0
 11
799.477539
 21
225.346268
 31
0.0
210
0.0
220
0.0
230
1.0
  0
LINE
  5
41A
100
AcDbEntity
  8
0
370
    35
390
0
 62
     7
 48
0.125003
100
AcDbLine
 10
801.977539
 20
230.34639
 30
0.0
 11
801.977539
 21
225.346268
 31
0.0
210
0.0
220
0.0
230
1.0
  0
LINE
  5
41B
100
AcDbEntity
  8
0
370
    35
390
0
 62
     7
 48
0.0625
100
AcDbLine
 10
697.477539
 20
190.343948
 30
0.0
 11
694.977539
 21
190.343948
 31
0.0
210
0.0
220
0.0
230
1.0
  0
LINE
  5
41C
100
AcDbEntity
  8
0
370
    35
390
0
 62
     7
 48
0.125012
100
AcDbLine
 10
697.477539
 20
190.343948
 30
0.0
 11
697.477539
 21
195.344437
 31
0.0
210
0.0
220
0.0
230
1.0
  0
LINE
  5
41D
100
AcDbEntity
  8
0
370
    35
390
0
 62
     7
 48
0.0625
100
AcDbLine
 10
694.977539
 20
195.344437
 30
0.0
 11
697.477539
 21
195.344437
 31
0.0
210
0.0
220
0.0
230
1.0
  0
LINE
  5
41E
100
AcDbEntity
  8
0
370
    35
390
0
 62
     7
 48
0.125012
100
AcDbLine
 10
694.977539
 20
190.343948
 30
0.0
 11
694.977539
 21
195.344437
 31
0.0
210
0.0
220
0.0
230
1.0
  0
LINE
  5
41F
100
AcDbEntity
  8
0
370
    35
390
0
 62
     7
 48
0.0625
100
AcDbLine
 10
391.477478
 20
190.343948
 30
0.0
 11
388.977478
 21
190.343948
 31
0.0
210
0.0
220
0.0
230
1.0
  0
LINE
  5
420
100
AcDbEntity
  8
0
370
    35
390
0
 62
     7
 48
0.125012
100
AcDbLine
 10
391.477478
 20
190.343948
 30
0.0
 11
391.477478
 21
195.344437
 31
0.0
210
0.0
220
0.0
230
1.0
  0
LINE
  5
421
100
AcDbEntity
  8
0
370
    35
390
0
 62
     7
 48
0.0625
100
AcDbLine
 10
388.977478
 20
195.344437
 30
0.0
 11
391.477478
 21
195.344437
 31
0.0
210
0.0
220
0.0
230
1.0
  0
LINE
  5
422
100
AcDbEntity
  8
0
370
    35
390
0
 62
     7
 48
0.125012
100
AcDbLine
 10
388.977478
 20
190.343948
 30
0.0
 11
388.977478
 21
195.344437
 31
0.0
210
0.0
220
0.0
230
1.0
  0
LINE
  5
423
100
AcDbEntity
  8
0
370
    35
390
0
 62
     7
 48
0.0625
100
AcDbLine
 10
490.977539
 20
195.344437
 30
0.0
 11
493.477539
 21
195.344437
 31
0.0
210
0.0
220
0.0
230
1.0
  0
LINE
  5
424
100
AcDbEntity
  8
0
370
    35
390
0
 62
     7
 48
0.125012
100
AcDbLine
 10
490.977539
 20
190.343948
 30
0.0
 11
490.977539
 21
195.344437
 31
0.0
210
0.0
220
0.0
230
1.0
  0
LINE
  5
425
100
AcDbEntity
  8
0
370
    35
390
0
 62
     7
 48
0.0625
100
AcDbLine
 10
493.477539
 20
190.343948
 30
0.0
 11
490.977539
 21
190.343948
 31
0.0
210
0.0
220
0.0
230
1.0
  0
LINE
  5
426
100
AcDbEntity
  8
0
370
    35
390
0
 62
     7
 48
0.125012
100
AcDbLine
 10
493.477539
 20
190.343948
 30
0.0
 11
493.477539
 21
195.344437
 31
0.0
210
0.0
220
0.0
230
1.0
  0
LINE
  5
427
100
AcDbEntity
  8
0
370
    35
390
0
 62
     7
 48
0.0625
100
AcDbLine
 10
251.977478
 20
301.352234
 30
0.0
 11
249.477478
 21
301.352234
 31
0.0
210
0.0
220
0.0
230
1.0
  0
LINE
  5
428
100
AcDbEntity
  8
0
370
    35
390
0
 62
     7
 48
0.125
100
AcDbLine
 10
251.977478
 20
301.352234
 30
0.0
 11
251.977478
 21
306.352234
 31
0.0
210
0.0
220
0.0
230
1.0
  0
LINE
  5
429
100
AcDbEntity
  8
0
370
    35
390
0
 62
     7
 48
0.0625
100
AcDbLine
 10
251.977478
 20
306.352234
 30
0.0
 11
249.477478
 21
306.352234
 31
0.0
210
0.0
220
0.0
230
1.0
  0
LINE
  5
42A
100
AcDbEntity
  8
0
370
    35
390
0
 62
     7
 48
0.125
100
AcDbLine
 10
249.477478
 20
301.352234
 30
0.0
 11
249.477478
 21
306.352234
 31
0.0
210
0.0
220
0.0
230
1.0
  0
LINE
  5
42B
100
AcDbEntity
  8
0
370
    35
390
0
 62
     7
 48
0.0625
100
AcDbLine
 10
289.477478
 20
301.352234
 30
0.0
 11
286.977478
 21
301.352234
 31
0.0
210
0.0
220
0.0
230
1.0
  0
LINE
  5
42C
100
AcDbEntity
  8
0
370
    35
390
0
 62
     7
 48
0.125
100
AcDbLine
 10
289.477478
 20
301.352234
 30
0.0
 11
289.477478
 21
306.352234
 31
0.0
210
0.0
220
0.0
230
1.0
  0
LINE
  5
42D
100
AcDbEntity
  8
0
370
    35
390
0
 62
     7
 48
0.0625
100
AcDbLine
 10
289.477478
 20
306.352234
 30
0.0
 11
286.977478
 21
306.352234
 31
0.0
210
0.0
220
0.0
230
1.0
  0
LINE
  5
42E
100
AcDbEntity
  8
0
370
    35
390
0
 62
     7
 48
0.125
100
AcDbLine
 10
286.977478
 20
301.352234
 30
0.0
 11
286.977478
 21
306.352234
 31
0.0
210
0.0
220
0.0
230
1.0
  0
LINE
  5
42F
100
AcDbEntity
  8
0
370
    35
390
0
 62
     7
 48
0.0625
100
AcDbLine
 10
839.477539
 20
195.352249
 30
0.0
 11
836.977539
 21
195.352249
 31
0.0
210
0.0
220
0.0
230
1.0
  0
LINE
  5
430
100
AcDbEntity
  8
0
370
    35
390
0
 62
     7
 48
0.0625
100
AcDbLine
 10
760.79895
 20
322.425232
 30
0.0
 11
763.29895
 21
322.425232
 31
0.0
210
0.0
220
0.0
230
1.0
  0
LINE
  5
431
100
AcDbEntity
  8
0
370
    35
390
0
 62
     7
100
AcDbLine
 10
760.79895
 20
322.425232
 30
0.0
 11
760.79895
 21
418.840271
 31
0.0
210
0.0
220
0.0
230
1.0
  0
LINE
  5
432
100
AcDbEntity
  8
0
370
    35
390
0
 62
     7
100
AcDbLine
 10
760.79895
 20
418.840271
 30
0.0
 11
661.29895
 21
418.840271
 31
0.0
210
0.0
220
0.0
230
1.0
  0
LINE
  5
433
100
AcDbEntity
  8
0
370
    35
390
0
 62
     7
100
AcDbLine
 10
661.29895
 20
418.840271
 30
0.0
 11
661.29895
 21
393.840271
 31
0.0
210
0.0
220
0.0
230
1.0
  0
LINE
  5
434
100
AcDbEntity
  8
0
370
    35
390
0
 62
     7
 48
0.0625
100
AcDbLine
 10
658.79895
 20
393.840271
 30
0.0
 11
661.29895
 21
393.840271
 31
0.0
210
0.0
220
0.0
230
1.0
  0
LINE
  5
435
100
AcDbEntity
  8
0
370
    35
390
0
 62
     7
100
AcDbLine
 10
658.79895
 20
418.840271
 30
0.0
 11
658.79895
 21
393.840271
 31
0.0
210
0.0
220
0.0
230
1.0
  0
LINE
  5
436
100
AcDbEntity
  8
0
370
    35
390
0
 62
     7
100
AcDbLine
 10
658.79895
 20
418.840271
 30
0.0
 11
559.29895
 21
418.840271
 31
0.0
210
0.0
220
0.0
230
1.0
  0
LINE
  5
437
100
AcDbEntity
  8
0
370
    35
390
0
 62
     7
100
AcDbLine
 10
559.29895
 20
418.840271
 30
0.0
 11
559.29895
 21
393.840271
 31
0.0
210
0.0
220
0.0
230
1.0
  0
LINE
  5
438
100
AcDbEntity
  8
0
370
    35
390
0
 62
     7
 48
0.0625
100
AcDbLine
 10
556.79895
 20
393.840271
 30
0.0
 11
559.29895
 21
393.840271
 31
0.0
210
0.0
220
0.0
230
1.0
  0
LINE
  5
439
100
AcDbEntity
  8
0
370
    35
390
0
 62
     7
100
AcDbLine
 10
556.79895
 20
418.840271
 30
0.0
 11
556.79895
 21
393.840271
 31
0.0
210
0.0
220
0.0
230
1.0
  0
LINE
  5
43A
100
AcDbEntity
  8
0
370
    35
390
0
 62
     7
100
AcDbLine
 10
556.79895
 20
418.840271
 30
0.0
 11
457.299011
 21
418.840271
 31
0.0
210
0.0
220
0.0
230
1.0
  0
LINE
  5
43B
100
AcDbEntity
  8
0
370
    35
390
0
 62
     7
100
AcDbLine
 10
457.299011
 20
418.840271
 30
0.0
 11
457.299011
 21
393.840271
 31
0.0
210
0.0
220
0.0
230
1.0
  0
LINE
  5
43C
100
AcDbEntity
  8
0
370
    35
390
0
 62
     7
 48
0.0625
100
AcDbLine
 10
454.799011
 20
393.840271
 30
0.0
 11
457.299011
 21
393.840271
 31
0.0
210
0.0
220
0.0
230
1.0
  0
LINE
  5
43D
100
AcDbEntity
  8
0
370
    35
390
0
 62
     7
100
AcDbLine
 10
454.799011
 20
418.840271
 30
0.0
 11
454.799011
 21
393.840271
 31
0.0
210
0.0
220
0.0
230
1.0
  0
LINE
  5
43E
100
AcDbEntity
  8
0
370
    35
390
0
 62
     7
100
AcDbLine
 10
454.799011
 20
418.840271
 30
0.0
 11
355.299011
 21
418.840271
 31
0.0
210
0.0
220
0.0
230
1.0
  0
LINE
  5
43F
100
AcDbEntity
  8
0
370
    35
390
0
 62
     7
100
AcDbLine
 10
355.299011
 20
418.840271
 30
0.0
 11
355.299011
 21
393.840271
 31
0.0
210
0.0
220
0.0
230
1.0
  0
LINE
  5
440
100
AcDbEntity
  8
0
370
    35
390
0
 62
     7
 48
0.0625
100
AcDbLine
 10
352.799011
 20
393.840271
 30
0.0
 11
355.299011
 21
393.840271
 31
0.0
210
0.0
220
0.0
230
1.0
  0
LINE
  5
441
100
AcDbEntity
  8
0
370
    35
390
0
 62
     7
100
AcDbLine
 10
352.799011
 20
418.840271
 30
0.0
 11
352.799011
 21
393.840271
 31
0.0
210
0.0
220
0.0
230
1.0
  0
LINE
  5
442
100
AcDbEntity
  8
0
370
    35
390
0
 62
     7
100
AcDbLine
 10
352.799011
 20
418.840271
 30
0.0
 11
250.799011
 21
418.840271
 31
0.0
210
0.0
220
0.0
230
1.0
  0
LINE
  5
443
100
AcDbEntity
  8
0
370
    35
390
0
 62
     7
100
AcDbLine
 10
250.799011
 20
373.840271
 30
0.0
 11
250.799011
 21
418.840271
 31
0.0
210
0.0
220
0.0
230
1.0
  0
LINE
  5
444
100
AcDbEntity
  8
0
370
    35
390
0
 62
     7
 48
0.0625
100
AcDbLine
 10
248.299011
 20
373.840271
 30
0.0
 11
250.799011
 21
373.840271
 31
0.0
210
0.0
220
0.0
230
1.0
  0
LINE
  5
445
100
AcDbEntity
  8
0
370
    35
390
0
 62
     7
100
AcDbLine
 10
248.299011
 20
458.848083
 30
0.0
 11
248.299011
 21
373.840271
 31
0.0
210
0.0
220
0.0
230
1.0
  0
LINE
  5
446
100
AcDbEntity
  8
0
370
    35
390
0
 62
     7
100
AcDbLine
 10
213.299011
 20
458.848083
 30
0.0
 11
248.299011
 21
458.848083
 31
0.0
210
0.0
220
0.0
230
1.0
  0
LINE
  5
447
100
AcDbEntity
  8
0
370
    35
390
0
 62
     7
100
AcDbLine
 10
213.299011
 20
458.848083
 30
0.0
 11
213.299011
 21
418.840271
 31
0.0
210
0.0
220
0.0
230
1.0
  0
LINE
  5
448
100
AcDbEntity
  8
0
370
    35
390
0
 62
     7
 48
0.0625
100
AcDbLine
 10
213.299011
 20
418.840271
 30
0.0
 11
210.799011
 21
418.840271
 31
0.0
210
0.0
220
0.0
230
1.0
  0
LINE
  5
449
100
AcDbEntity
  8
0
370
    35
390
0
 62
     7
100
AcDbLine
 10
210.799011
 20
368.848083
 30
0.0
 11
210.799011
 21
418.840271
 31
0.0
210
0.0
220
0.0
230
1.0
  0
LINE
  5
44A
100
AcDbEntity
  8
0
370
    35
390
0
 62
     7
 48
0.000195
100
AcDbLine
 10
210.799011
 20
368.840271
 30
0.0
 11
210.799011
 21
368.848083
 31
0.0
210
0.0
220
0.0
230
1.0
  0
LINE
  5
44B
100
AcDbEntity
  8
0
370
    35
390
0
 62
     7
 48
0.0625
100
AcDbLine
 10
210.799011
 20
368.848083
 30
0.0
 11
213.299011
 21
368.848083
 31
0.0
210
0.0
220
0.0
230
1.0
  0
LINE
  5
44C
100
AcDbEntity
  8
0
370
    35
390
0
 62
     7
100
AcDbLine
 10
213.299011
 20
368.848083
 30
0.0
 11
213.299011
 21
328.840271
 31
0.0
210
0.0
220
0.0
230
1.0
  0
LINE
  5
44D
100
AcDbEntity
  8
0
370
    35
390
0
 62
     7
100
AcDbLine
 10
213.299011
 20
328.840271
 30
0.0
 11
250.799011
 21
328.840271
 31
0.0
210
0.0
220
0.0
230
1.0
  0
ARC
  5
44E
100
AcDbEntity
  8
0
370
    35
390
0
 62
     7
100
AcDbCircle
 10
210.799011
 20
-802.409668
 30
0.0
 40
1131.956909
210
0.0
220
0.0
230
1.0
100
AcDbArc
 50
72.785638
 51
87.974913
  0
ARC
  5
44F
100
AcDbEntity
  8
0
370
    35
390
0
 62
     7
100
AcDbCircle
 10
734.806885
 20
952.840271
 30
0.0
 40
700.0
210
0.0
220
0.0
230
1.0
100
AcDbArc
 50
254.335068
 51
269.999997
  0
LINE
  5
450
100
AcDbEntity
  8
0
370
    35
390
0
 62
     7
100
AcDbLine
 10
734.806885
 20
252.840286
 30
0.0
 11
840.79895
 21
252.840286
 31
0.0
210
0.0
220
0.0
230
1.0
  0
LINE
  5
451
100
AcDbEntity
  8
0
370
    35
390
0
 62
     7
100
AcDbLine
 10
840.79895
 20
313.845276
 30
0.0
 11
840.79895
 21
252.840286
 31
0.0
210
0.0
220
0.0
230
1.0
  0
LINE
  5
452
100
AcDbEntity
  8
0
370
    35
390
0
 62
     7
 48
0.125
100
AcDbLine
 10
840.79895
 20
313.845276
 30
0.0
 11
835.79895
 21
313.845276
 31
0.0
210
0.0
220
0.0
230
1.0
  0
LINE
  5
453
100
AcDbEntity
  8
0
370
    35
390
0
 62
     7
 48
0.125
100
AcDbLine
 10
840.79895
 20
313.845276
 30
0.0
 11
835.79895
 21
313.845276
 31
0.0
210
0.0
220
0.0
230
1.0
  0
LINE
  5
454
100
AcDbEntity
  8
0
370
    35
390
0
 62
     7
100
AcDbLine
 10
835.79895
 20
358.840271
 30
0.0
 11
835.79895
 21
313.845276
 31
0.0
210
0.0
220
0.0
230
1.0
  0
LINE
  5
455
100
AcDbEntity
  8
0
370
    35
390
0
 62
     7
100
AcDbLine
 10
835.79895
 20
358.840271
 30
0.0
 11
800.79895
 21
358.840271
 31
0.0
210
0.0
220
0.0
230
1.0
  0
LINE
  5
456
100
AcDbEntity
  8
0
370
    35
390
0
 62
     7
100
AcDbLine
 10
800.79895
 20
313.844421
 30
0.0
 11
800.79895
 21
358.840271
 31
0.0
210
0.0
220
0.0
230
1.0
  0
LINE
  5
457
100
AcDbEntity
  8
0
370
    35
390
0
 62
     7
 48
0.0625
100
AcDbLine
 10
798.29895
 20
313.844421
 30
0.0
 11
800.79895
 21
313.844421
 31
0.0
210
0.0
220
0.0
230
1.0
  0
LINE
  5
458
100
AcDbEntity
  8
0
370
    35
390
0
 62
     7
100
AcDbLine
 10
798.29895
 20
313.844421
 30
0.0
 11
798.29895
 21
358.840271
 31
0.0
210
0.0
220
0.0
230
1.0
  0
LINE
  5
459
100
AcDbEntity
  8
0
370
    35
390
0
 62
     7
 48
0.0625
100
AcDbLine
 10
798.29895
 20
358.840271
 30
0.0
 11
795.79895
 21
358.840271
 31
0.0
210
0.0
220
0.0
230
1.0
  0
LINE
  5
45A
100
AcDbEntity
  8
0
370
    35
390
0
 62
     7
100
AcDbLine
 10
795.79895
 20
388.840271
 30
0.0
 11
795.79895
 21
358.840271
 31
0.0
210
0.0
220
0.0
230
1.0
  0
LINE
  5
45B
100
AcDbEntity
  8
0
370
    35
390
0
 62
     7
100
AcDbLine
 10
763.29895
 20
322.425232
 30
0.0
 11
763.29895
 21
418.840271
 31
0.0
210
0.0
220
0.0
230
1.0
  0
LINE
  5
45C
100
AcDbEntity
  8
0
370
    35
390
0
 62
     7
100
AcDbLine
 10
798.29895
 20
418.840271
 30
0.0
 11
763.29895
 21
418.840271
 31
0.0
210
0.0
220
0.0
230
1.0
  0
LINE
  5
45D
100
AcDbEntity
  8
0
370
    35
390
0
 62
     7
100
AcDbLine
 10
798.29895
 20
418.840271
 30
0.0
 11
798.29895
 21
388.840271
 31
0.0
210
0.0
220
0.0
230
1.0
  0
LINE
  5
45E
100
AcDbEntity
  8
0
370
    35
390
0
 62
     7
 48
0.0625
100
AcDbLine
 10
798.29895
 20
388.840271
 30
0.0
 11
795.79895
 21
388.840271
 31
0.0
210
0.0
220
0.0
230
1.0
  0
LINE
  5
45F
100
AcDbEntity
  8
0
370
    35
390
0
 62
     7
 48
0.0625
100
AcDbLine
 10
835.79895
 20
262.840271
 30
0.0
 11
838.29895
 21
262.840271
 31
0.0
210
0.0
220
0.0
230
1.0
  0
LINE
  5
460
100
AcDbEntity
  8
0
370
    35
390
0
 62
     7
 48
0.125
100
AcDbLine
 10
835.79895
 20
262.840271
 30
0.0
 11
835.79895
 21
257.840271
 31
0.0
210
0.0
220
0.0
230
1.0
  0
LINE
  5
461
100
AcDbEntity
  8
0
370
    35
390
0
 62
     7
 48
0.0625
100
AcDbLine
 10
835.79895
 20
257.840271
 30
0.0
 11
838.29895
 21
257.840271
 31
0.0
210
0.0
220
0.0
230
1.0
  0
LINE
  5
462
100
AcDbEntity
  8
0
370
    35
390
0
 62
     7
 48
0.125
100
AcDbLine
 10
838.29895
 20
262.840271
 30
0.0
 11
838.29895
 21
257.840271
 31
0.0
210
0.0
220
0.0
230
1.0
  0
LINE
  5
463
100
AcDbEntity
  8
0
370
    35
390
0
 62
     7
 48
0.0625
100
AcDbLine
 10
454.799011
 20
373.848572
 30
0.0
 11
457.299011
 21
373.848572
 31
0.0
210
0.0
220
0.0
230
1.0
  0
LINE
  5
464
100
AcDbEntity
  8
0
370
    35
390
0
 62
     7
 48
0.125012
100
AcDbLine
 10
454.799011
 20
373.848572
 30
0.0
 11
454.799011
 21
368.848083
 31
0.0
210
0.0
220
0.0
230
1.0
  0
LINE
  5
465
100
AcDbEntity
  8
0
370
    35
390
0
 62
     7
 48
0.0625
100
AcDbLine
 10
457.299011
 20
368.848083
 30
0.0
 11
454.799011
 21
368.848083
 31
0.0
210
0.0
220
0.0
230
1.0
  0
LINE
  5
466
100
AcDbEntity
  8
0
370
    35
390
0
 62
     7
 48
0.125012
100
AcDbLine
 10
457.299011
 20
373.848572
 30
0.0
 11
457.299011
 21
368.848083
 31
0.0
210
0.0
220
0.0
230
1.0
  0
LINE
  5
467
100
AcDbEntity
  8
0
370
    35
390
0
 62
     7
 48
0.0625
100
AcDbLine
 10
250.799011
 20
333.84613
 30
0.0
 11
248.299011
 21
333.84613
 31
0.0
210
0.0
220
0.0
230
1.0
  0
LINE
  5
468
100
AcDbEntity
  8
0
370
    35
390
0
 62
     7
 48
0.125003
100
AcDbLine
 10
250.799011
 20
333.84613
 30
0.0
 11
250.799011
 21
338.846252
 31
0.0
210
0.0
220
0.0
230
1.0
  0
LINE
  5
469
100
AcDbEntity
  8
0
370
    35
390
0
 62
     7
 48
0.0625
100
AcDbLine
 10
248.299011
 20
338.846252
 30
0.0
 11
250.799011
 21
338.846252
 31
0.0
210
0.0
220
0.0
230
1.0
  0
LINE
  5
46A
100
AcDbEntity
  8
0
370
    35
390
0
 62
     7
 48
0.125003
100
AcDbLine
 10
248.299011
 20
333.84613
 30
0.0
 11
248.299011
 21
338.846252
 31
0.0
210
0.0
220
0.0
230
1.0
  0
LINE
  5
46B
100
AcDbEntity
  8
0
370
    35
390
0
 62
     7
 48
0.0625
100
AcDbLine
 10
352.799011
 20
373.848572
 30
0.0
 11
355.299011
 21
373.848572
 31
0.0
210
0.0
220
0.0
230
1.0
  0
LINE
  5
46C
100
AcDbEntity
  8
0
370
    35
390
0
 62
     7
 48
0.125012
100
AcDbLine
 10
352.799011
 20
373.848572
 30
0.0
 11
352.799011
 21
368.848083
 31
0.0
210
0.0
220
0.0
230
1.0
  0
LINE
  5
46D
100
AcDbEntity
  8
0
370
    35
390
0
 62
     7
 48
0.0625
100
AcDbLine
 10
355.299011
 20
368.848083
 30
0.0
 11
352.799011
 21
368.848083
 31
0.0
210
0.0
220
0.0
230
1.0
  0
LINE
  5
46E
100
AcDbEntity
  8
0
370
    35
390
0
 62
     7
 48
0.125012
100
AcDbLine
 10
355.299011
 20
373.848572
 30
0.0
 11
355.299011
 21
368.848083
 31
0.0
210
0.0
220
0.0
230
1.0
  0
LINE
  5
46F
100
AcDbEntity
  8
0
370
    35
390
0
 62
     7
 48
0.0625
100
AcDbLine
 10
658.79895
 20
373.848572
 30
0.0
 11
661.29895
 21
373.848572
 31
0.0
210
0.0
220
0.0
230
1.0
  0
LINE
  5
470
100
AcDbEntity
  8
0
370
    35
390
0
 62
     7
 48
0.125012
100
AcDbLine
 10
658.79895
 20
373.848572
 30
0.0
 11
658.79895
 21
368.848083
 31
0.0
210
0.0
220
0.0
230
1.0
  0
LINE
  5
471
100
AcDbEntity
  8
0
370
    35
390
0
 62
     7
 48
0.0625
100
AcDbLine
 10
661.29895
 20
368.848083
 30
0.0
 11
658.79895
 21
368.848083
 31
0.0
210
0.0
220
0.0
230
1.0
  0
LINE
  5
472
100
AcDbEntity
  8
0
370
    35
390
0
 62
     7
 48
0.125012
100
AcDbLine
 10
661.29895
 20
373.848572
 30
0.0
 11
661.29895
 21
368.848083
 31
0.0
210
0.0
220
0.0
230
1.0
  0
LINE
  5
473
100
AcDbEntity
  8
0
370
    35
390
0
 62
     7
 48
0.0625
100
AcDbLine
 10
559.29895
 20
368.848083
 30
0.0
 11
556.79895
 21
368.848083
 31
0.0
210
0.0
220
0.0
230
1.0
  0
LINE
  5
474
100
AcDbEntity
  8
0
370
    35
390
0
 62
     7
 48
0.125012
100
AcDbLine
 10
559.29895
 20
373.848572
 30
0.0
 11
559.29895
 21
368.848083
 31
0.0
210
0.0
220
0.0
230
1.0
  0
LINE
  5
475
100
AcDbEntity
  8
0
370
    35
390
0
 62
     7
 48
0.0625
100
AcDbLine
 10
556.79895
 20
373.848572
 30
0.0
 11
559.29895
 21
373.848572
 31
0.0
210
0.0
220
0.0
230
1.0
  0
LINE
  5
476
100
AcDbEntity
  8
0
370
    35
390
0
 62
     7
 48
0.125012
100
AcDbLine
 10
556.79895
 20
373.848572
 30
0.0
 11
556.79895
 21
368.848083
 31
0.0
210
0.0
220
0.0
230
1.0
  0
LINE
  5
477
100
AcDbEntity
  8
0
370
    35
390
0
 62
     7
 48
0.0625
100
AcDbLine
 10
798.29895
 20
262.840271
 30
0.0
 11
800.79895
 21
262.840271
 31
0.0
210
0.0
220
0.0
230
1.0
  0
LINE
  5
478
100
AcDbEntity
  8
0
370
    35
390
0
 62
     7
 48
0.125
100
AcDbLine
 10
798.29895
 20
262.840271
 30
0.0
 11
798.29895
 21
257.840271
 31
0.0
210
0.0
220
0.0
230
1.0
  0
LINE
  5
479
100
AcDbEntity
  8
0
370
    35
390
0
 62
     7
 48
0.0625
100
AcDbLine
 10
798.29895
 20
257.840271
 30
0.0
 11
800.79895
 21
257.840271
 31
0.0
210
0.0
220
0.0
230
1.0
  0
LINE
  5
47A
100
AcDbEntity
  8
0
370
    35
390
0
 62
     7
 48
0.125
100
AcDbLine
 10
800.79895
 20
262.840271
 30
0.0
 11
800.79895
 21
257.840271
 31
0.0
210
0.0
220
0.0
230
1.0
  0
LINE
  5
47B
100
AcDbEntity
  8
0
370
    35
390
0
 62
     7
 48
0.0625
100
AcDbLine
 10
760.79895
 20
262.840271
 30
0.0
 11
763.29895
 21
262.840271
 31
0.0
210
0.0
220
0.0
230
1.0
  0
LINE
  5
47C
100
AcDbEntity
  8
0
370
    35
390
0
 62
     7
 48
0.125
100
AcDbLine
 10
760.79895
 20
262.840271
 30
0.0
 11
760.79895
 21
257.840271
 31
0.0
210
0.0
220
0.0
230
1.0
  0
LINE
  5
47D
100
AcDbEntity
  8
0
370
    35
390
0
 62
     7
 48
0.0625
100
AcDbLine
 10
760.79895
 20
257.840271
 30
0.0
 11
763.29895
 21
257.840271
 31
0.0
210
0.0
220
0.0
230
1.0
  0
LINE
  5
47E
100
AcDbEntity
  8
0
370
    35
390
0
 62
     7
 48
0.125
100
AcDbLine
 10
763.29895
 20
262.840271
 30
0.0
 11
763.29895
 21
257.840271
 31
0.0
210
0.0
220
0.0
230
1.0
  0
LINE
  5
47F
100
AcDbEntity
  8
0
370
    35
390
0
 62
     7
 48
0.0625
100
AcDbLine
 10
210.799011
 20
368.840271
 30
0.0
 11
213.299011
 21
368.840271
 31
0.0
210
0.0
220
0.0
230
1.0
  0
LINE
  5
480
100
AcDbEntity
  8
0
370
    35
390
0
 62
     7
 48
0.25
100
AcDbLine
 10
258.80719
 20
486.904297
 30
0.0
 11
258.80719
 21
476.904297
 31
0.0
210
0.0
220
0.0
230
1.0
  0
LINE
  5
481
100
AcDbEntity
  8
0
370
    35
390
0
 62
     7
100
AcDbLine
 10
768.807129
 20
486.904297
 30
0.0
 11
258.80719
 21
486.904297
 31
0.0
210
0.0
220
0.0
230
1.0
  0
LINE
  5
482
100
AcDbEntity
  8
0
370
    35
390
0
 62
     7
 48
0.25
100
AcDbLine
 10
768.807129
 20
486.904297
 30
0.0
 11
768.807129
 21
476.904297
 31
0.0
210
0.0
220
0.0
230
1.0
  0
LINE
  5
483
100
AcDbEntity
  8
0
370
    35
390
0
 62
     7
 48
0.25
100
AcDbLine
 10
768.807129
 20
436.904297
 30
0.0
 11
768.807129
 21
426.904297
 31
0.0
210
0.0
220
0.0
230
1.0
  0
LINE
  5
484
100
AcDbEntity
  8
0
370
    35
390
0
 62
     7
100
AcDbLine
 10
768.807129
 20
426.904297
 30
0.0
 11
258.80719
 21
426.904297
 31
0.0
210
0.0
220
0.0
230
1.0
  0
LINE
  5
485
100
AcDbEntity
  8
0
370
    35
390
0
 62
     7
 48
0.25
100
AcDbLine
 10
258.80719
 20
436.904297
 30
0.0
 11
258.80719
 21
426.904297
 31
0.0
210
0.0
220
0.0
230
1.0
  0
LINE
  5
486
100
AcDbEntity
  8
0
370
    35
390
0
 62
     7
100
AcDbLine
 10
253.80719
 20
476.904297
 30
0.0
 11
253.80719
 21
436.904297
 31
0.0
210
0.0
220
0.0
230
1.0
  0
LINE
  5
487
100
AcDbEntity
  8
0
370
    35
390
0
 62
     7
 48
0.125
100
AcDbLine
 10
768.807129
 20
476.904297
 30
0.0
 11
773.807129
 21
476.904297
 31
0.0
210
0.0
220
0.0
230
1.0
  0
LINE
  5
488
100
AcDbEntity
  8
0
370
    35
390
0
 62
     7
 48
0.125
100
AcDbLine
 10
253.80719
 20
476.904297
 30
0.0
 11
258.80719
 21
476.904297
 31
0.0
210
0.0
220
0.0
230
1.0
  0
LINE
  5
489
100
AcDbEntity
  8
0
370
    35
390
0
 62
     7
 48
0.125
100
AcDbLine
 10
768.807129
 20
436.904297
 30
0.0
 11
773.807129
 21
436.904297
 31
0.0
210
0.0
220
0.0
230
1.0
  0
LINE
  5
48A
100
AcDbEntity
  8
0
370
    35
390
0
 62
     7
 48
0.125
100
AcDbLine
 10
253.80719
 20
436.904297
 30
0.0
 11
258.80719
 21
436.904297
 31
0.0
210
0.0
220
0.0
230
1.0
  0
LINE
  5
48B
100
AcDbEntity
  8
0
370
    35
390
0
 62
     7
100
AcDbLine
 10
773.807129
 20
476.904297
 30
0.0
 11
773.807129
 21
436.904297
 31
0.0
210
0.0
220
0.0
230
1.0
  0
LINE
  5
48C
100
AcDbEntity
  8
0
370
    35
390
0
 62
     7
 48
0.25
100
AcDbLine
 10
1014.137695
 20
141.91626
 30
0.0
 11
1014.137695
 21
131.91626
 31
0.0
210
0.0
220
0.0
230
1.0
  0
LINE
  5
48D
100
AcDbEntity
  8
0
370
    35
390
0
 62
     7
100
AcDbLine
 10
1524.137817
 20
141.91626
 30
0.0
 11
1014.137695
 21
141.91626
 31
0.0
210
0.0
220
0.0
230
1.0
  0
LINE
  5
48E
100
AcDbEntity
  8
0
370
    35
390
0
 62
     7
 48
0.25
100
AcDbLine
 10
1524.137817
 20
141.91626
 30
0.0
 11
1524.137817
 21
131.91626
 31
0.0
210
0.0
220
0.0
230
1.0
  0
LINE
  5
48F
100
AcDbEntity
  8
0
370
    35
390
0
 62
     7
 48
0.25
100
AcDbLine
 10
1524.137817
 20
91.916275
 30
0.0
 11
1524.137817
 21
81.916275
 31
0.0
210
0.0
220
0.0
230
1.0
  0
LINE
  5
490
100
AcDbEntity
  8
0
370
    35
390
0
 62
     7
100
AcDbLine
 10
1524.137817
 20
81.916275
 30
0.0
 11
1014.137695
 21
81.916275
 31
0.0
210
0.0
220
0.0
230
1.0
  0
LINE
  5
491
100
AcDbEntity
  8
0
370
    35
390
0
 62
     7
 48
0.25
100
AcDbLine
 10
1014.137695
 20
91.916275
 30
0.0
 11
1014.137695
 21
81.916275
 31
0.0
210
0.0
220
0.0
230
1.0
  0
LINE
  5
492
100
AcDbEntity
  8
0
370
    35
390
0
 62
     7
100
AcDbLine
 10
1009.137695
 20
131.91626
 30
0.0
 11
1009.137695
 21
91.916275
 31
0.0
210
0.0
220
0.0
230
1.0
  0
LINE
  5
493
100
AcDbEntity
  8
0
370
    35
390
0
 62
     7
 48
0.125
100
AcDbLine
 10
1524.137817
 20
131.91626
 30
0.0
 11
1529.137817
 21
131.91626
 31
0.0
210
0.0
220
0.0
230
1.0
  0
LINE
  5
494
100
AcDbEntity
  8
0
370
    35
390
0
 62
     7
 48
0.125
100
AcDbLine
 10
1009.137695
 20
131.91626
 30
0.0
 11
1014.137695
 21
131.91626
 31
0.0
210
0.0
220
0.0
230
1.0
  0
LINE
  5
495
100
AcDbEntity
  8
0
370
    35
390
0
 62
     7
 48
0.125
100
AcDbLine
 10
1524.137817
 20
91.916275
 30
0.0
 11
1529.137817
 21
91.916275
 31
0.0
210
0.0
220
0.0
230
1.0
  0
LINE
  5
496
100
AcDbEntity
  8
0
370
    35
390
0
 62
     7
 48
0.125
100
AcDbLine
 10
1009.137695
 20
91.916275
 30
0.0
 11
1014.137695
 21
91.916275
 31
0.0
210
0.0
220
0.0
230
1.0
  0
LINE
  5
497
100
AcDbEntity
  8
0
370
    35
390
0
 62
     7
100
AcDbLine
 10
1529.137817
 20
131.91626
 30
0.0
 11
1529.137817
 21
91.916275
 31
0.0
210
0.0
220
0.0
230
1.0
  0
LINE
  5
498
100
AcDbEntity
  8
0
370
    35
390
0
 62
     7
 48
0.0625
100
AcDbLine
 10
1019.477539
 20
241.767288
 30
0.0
 11
1016.977539
 21
241.767288
 31
0.0
210
0.0
220
0.0
230
1.0
  0
LINE
  5
499
100
AcDbEntity
  8
0
370
    35
390
0
 62
     7
100
AcDbLine
 10
1019.477539
 20
241.767288
 30
0.0
 11
1019.477539
 21
145.352234
 31
0.0
210
0.0
220
0.0
230
1.0
  0
LINE
  5
49A
100
AcDbEntity
  8
0
370
    35
390
0
 62
     7
100
AcDbLine
 10
1019.477539
 20
145.352234
 30
0.0
 11
1118.977539
 21
145.352234
 31
0.0
210
0.0
220
0.0
230
1.0
  0
LINE
  5
49B
100
AcDbEntity
  8
0
370
    35
390
0
 62
     7
100
AcDbLine
 10
1118.977539
 20
145.352234
 30
0.0
 11
1118.977539
 21
170.352234
 31
0.0
210
0.0
220
0.0
230
1.0
  0
LINE
  5
49C
100
AcDbEntity
  8
0
370
    35
390
0
 62
     7
 48
0.0625
100
AcDbLine
 10
1121.477539
 20
170.352234
 30
0.0
 11
1118.977539
 21
170.352234
 31
0.0
210
0.0
220
0.0
230
1.0
  0
LINE
  5
49D
100
AcDbEntity
  8
0
370
    35
390
0
 62
     7
100
AcDbLine
 10
1121.477539
 20
145.352234
 30
0.0
 11
1121.477539
 21
170.352234
 31
0.0
210
0.0
220
0.0
230
1.0
  0
LINE
  5
49E
100
AcDbEntity
  8
0
370
    35
390
0
 62
     7
100
AcDbLine
 10
1121.477539
 20
145.352234
 30
0.0
 11
1220.977539
 21
145.352234
 31
0.0
210
0.0
220
0.0
230
1.0
  0
LINE
  5
49F
100
AcDbEntity
  8
0
370
    35
390
0
 62
     7
100
AcDbLine
 10
1220.977539
 20
145.352234
 30
0.0
 11
1220.977539
 21
170.352234
 31
0.0
210
0.0
220
0.0
230
1.0
  0
LINE
  5
4A0
100
AcDbEntity
  8
0
370
    35
390
0
 62
     7
 48
0.0625
100
AcDbLine
 10
1223.477539
 20
170.352234
 30
0.0
 11
1220.977539
 21
170.352234
 31
0.0
210
0.0
220
0.0
230
1.0
  0
LINE
  5
4A1
100
AcDbEntity
  8
0
370
    35
390
0
 62
     7
100
AcDbLine
 10
1223.477539
 20
145.352234
 30
0.0
 11
1223.477539
 21
170.352234
 31
0.0
210
0.0
220
0.0
230
1.0
  0
LINE
  5
4A2
100
AcDbEntity
  8
0
370
    35
390
0
 62
     7
100
AcDbLine
 10
1223.477539
 20
145.352234
 30
0.0
 11
1322.977539
 21
145.352234
 31
0.0
210
0.0
220
0.0
230
1.0
  0
LINE
  5
4A3
100
AcDbEntity
  8
0
370
    35
390
0
 62
     7
100
AcDbLine
 10
1322.977539
 20
145.352234
 30
0.0
 11
1322.977539
 21
170.352234
 31
0.0
210
0.0
220
0.0
230
1.0
  0
LINE
  5
4A4
100
AcDbEntity
  8
0
370
    35
390
0
 62
     7
 48
0.0625
100
AcDbLine
 10
1325.477539
 20
170.352234
 30
0.0
 11
1322.977539
 21
170.352234
 31
0.0
210
0.0
220
0.0
230
1.0
  0
LINE
  5
4A5
100
AcDbEntity
  8
0
370
    35
390
0
 62
     7
100
AcDbLine
 10
1325.477539
 20
145.352234
 30
0.0
 11
1325.477539
 21
170.352234
 31
0.0
210
0.0
220
0.0
230
1.0
  0
LINE
  5
4A6
100
AcDbEntity
  8
0
370
    35
390
0
 62
     7
100
AcDbLine
 10
1325.477539
 20
145.352234
 30
0.0
 11
1424.977539
 21
145.352234
 31
0.0
210
0.0
220
0.0
230
1.0
  0
LINE
  5
4A7
100
AcDbEntity
  8
0
370
    35
390
0
 62
     7
100
AcDbLine
 10
1424.977539
 20
145.352234
 30
0.0
 11
1424.977539
 21
170.352234
 31
0.0
210
0.0
220
0.0
230
1.0
  0
LINE
  5
4A8
100
AcDbEntity
  8
0
370
    35
390
0
 62
     7
 48
0.0625
100
AcDbLine
 10
1427.477539
 20
170.352234
 30
0.0
 11
1424.977539
 21
170.352234
 31
0.0
210
0.0
220
0.0
230
1.0
  0
LINE
  5
4A9
100
AcDbEntity
  8
0
370
    35
390
0
 62
     7
100
AcDbLine
 10
1427.477539
 20
145.352234
 30
0.0
 11
1427.477539
 21
170.352234
 31
0.0
210
0.0
220
0.0
230
1.0
  0
LINE
  5
4AA
100
AcDbEntity
  8
0
370
    35
390
0
 62
     7
100
AcDbLine
 10
1427.477539
 20
145.352234
 30
0.0
 11
1529.477417
 21
145.352234
 31
0.0
210
0.0
220
0.0
230
1.0
  0
LINE
  5
4AB
100
AcDbEntity
  8
0
370
    35
390
0
 62
     7
100
AcDbLine
 10
1529.477417
 20
190.352249
 30
0.0
 11
1529.477417
 21
145.352234
 31
0.0
210
0.0
220
0.0
230
1.0
  0
LINE
  5
4AC
100
AcDbEntity
  8
0
370
    35
390
0
 62
     7
 48
0.0625
100
AcDbLine
 10
1531.977417
 20
190.352249
 30
0.0
 11
1529.477417
 21
190.352249
 31
0.0
210
0.0
220
0.0
230
1.0
  0
LINE
  5
4AD
100
AcDbEntity
  8
0
370
    35
390
0
 62
     7
100
AcDbLine
 10
1531.977417
 20
105.344437
 30
0.0
 11
1531.977417
 21
190.352249
 31
0.0
210
0.0
220
0.0
230
1.0
  0
LINE
  5
4AE
100
AcDbEntity
  8
0
370
    35
390
0
 62
     7
100
AcDbLine
 10
1566.977417
 20
105.344437
 30
0.0
 11
1531.977417
 21
105.344437
 31
0.0
210
0.0
220
0.0
230
1.0
  0
LINE
  5
4AF
100
AcDbEntity
  8
0
370
    35
390
0
 62
     7
100
AcDbLine
 10
1566.977417
 20
105.344437
 30
0.0
 11
1566.977417
 21
145.352234
 31
0.0
210
0.0
220
0.0
230
1.0
  0
LINE
  5
4B0
100
AcDbEntity
  8
0
370
    35
390
0
 62
     7
 48
0.0625
100
AcDbLine
 10
1566.977417
 20
145.352234
 30
0.0
 11
1569.477417
 21
145.352234
 31
0.0
210
0.0
220
0.0
230
1.0
  0
LINE
  5
4B1
100
AcDbEntity
  8
0
370
    35
390
0
 62
     7
100
AcDbLine
 10
1569.477417
 20
195.344437
 30
0.0
 11
1569.477417
 21
145.352234
 31
0.0
210
0.0
220
0.0
230
1.0
  0
LINE
  5
4B2
100
AcDbEntity
  8
0
370
    35
390
0
 62
     7
 48
0.000195
100
AcDbLine
 10
1569.477417
 20
195.352249
 30
0.0
 11
1569.477417
 21
195.344437
 31
0.0
210
0.0
220
0.0
230
1.0
  0
LINE
  5
4B3
100
AcDbEntity
  8
0
370
    35
390
0
 62
     7
 48
0.0625
100
AcDbLine
 10
1569.477417
 20
195.344437
 30
0.0
 11
1566.977417
 21
195.344437
 31
0.0
210
0.0
220
0.0
230
1.0
  0
LINE
  5
4B4
100
AcDbEntity
  8
0
370
    35
390
0
 62
     7
100
AcDbLine
 10
1566.977417
 20
195.344437
 30
0.0
 11
1566.977417
 21
235.352249
 31
0.0
210
0.0
220
0.0
230
1.0
  0
LINE
  5
4B5
100
AcDbEntity
  8
0
370
    35
390
0
 62
     7
100
AcDbLine
 10
1566.977417
 20
235.352249
 30
0.0
 11
1529.477417
 21
235.352249
 31
0.0
210
0.0
220
0.0
230
1.0
  0
ARC
  5
4B6
100
AcDbEntity
  8
0
370
    35
390
0
 62
     7
100
AcDbCircle
 10
1569.477417
 20
1366.602173
 30
0.0
 40
1131.956909
210
0.0
220
0.0
230
1.0
100
AcDbArc
 50
252.785633
 51
267.974928
  0
ARC
  5
4B7
100
AcDbEntity
  8
0
370
    35
390
0
 62
     7
100
AcDbCircle
 10
1045.469604
 20
-388.647827
 30
0.0
 40
700.0
210
0.0
220
0.0
230
1.0
100
AcDbArc
 50
74.335052
 51
90.000003
  0
LINE
  5
4B8
100
AcDbEntity
  8
0
370
    35
390
0
 62
     7
100
AcDbLine
 10
1045.469604
 20
311.352234
 30
0.0
 11
939.477539
 21
311.352234
 31
0.0
210
0.0
220
0.0
230
1.0
  0
LINE
  5
4B9
100
AcDbEntity
  8
0
370
    35
390
0
 62
     7
100
AcDbLine
 10
939.477539
 20
250.347244
 30
0.0
 11
939.477539
 21
311.352234
 31
0.0
210
0.0
220
0.0
230
1.0
  0
LINE
  5
4BA
100
AcDbEntity
  8
0
370
    35
390
0
 62
     7
 48
0.125
100
AcDbLine
 10
939.477539
 20
250.347244
 30
0.0
 11
944.477539
 21
250.347244
 31
0.0
210
0.0
220
0.0
230
1.0
  0
LINE
  5
4BB
100
AcDbEntity
  8
0
370
    35
390
0
 62
     7
 48
0.125
100
AcDbLine
 10
939.477539
 20
250.347244
 30
0.0
 11
944.477539
 21
250.347244
 31
0.0
210
0.0
220
0.0
230
1.0
  0
LINE
  5
4BC
100
AcDbEntity
  8
0
370
    35
390
0
 62
     7
100
AcDbLine
 10
944.477539
 20
205.352249
 30
0.0
 11
944.477539
 21
250.347244
 31
0.0
210
0.0
220
0.0
230
1.0
  0
LINE
  5
4BD
100
AcDbEntity
  8
0
370
    35
390
0
 62
     7
100
AcDbLine
 10
944.477539
 20
205.352249
 30
0.0
 11
979.477539
 21
205.352249
 31
0.0
210
0.0
220
0.0
230
1.0
  0
LINE
  5
4BE
100
AcDbEntity
  8
0
370
    35
390
0
 62
     7
100
AcDbLine
 10
979.477539
 20
250.348099
 30
0.0
 11
979.477539
 21
205.352249
 31
0.0
210
0.0
220
0.0
230
1.0
  0
LINE
  5
4BF
100
AcDbEntity
  8
0
370
    35
390
0
 62
     7
 48
0.0625
100
AcDbLine
 10
981.977539
 20
250.348099
 30
0.0
 11
979.477539
 21
250.348099
 31
0.0
210
0.0
220
0.0
230
1.0
  0
LINE
  5
4C0
100
AcDbEntity
  8
0
370
    35
390
0
 62
     7
100
AcDbLine
 10
981.977539
 20
250.348099
 30
0.0
 11
981.977539
 21
205.352249
 31
0.0
210
0.0
220
0.0
230
1.0
  0
LINE
  5
4C1
100
AcDbEntity
  8
0
370
    35
390
0
 62
     7
 48
0.0625
100
AcDbLine
 10
981.977539
 20
205.352249
 30
0.0
 11
984.477539
 21
205.352249
 31
0.0
210
0.0
220
0.0
230
1.0
  0
LINE
  5
4C2
100
AcDbEntity
  8
0
370
    35
390
0
 62
     7
100
AcDbLine
 10
984.477539
 20
175.352249
 30
0.0
 11
984.477539
 21
205.352249
 31
0.0
210
0.0
220
0.0
230
1.0
  0
LINE
  5
4C3
100
AcDbEntity
  8
0
370
    35
390
0
 62
     7
100
AcDbLine
 10
1016.977539
 20
241.767288
 30
0.0
 11
1016.977539
 21
145.352234
 31
0.0
210
0.0
220
0.0
230
1.0
  0
LINE
  5
4C4
100
AcDbEntity
  8
0
370
    35
390
0
 62
     7
100
AcDbLine
 10
981.977539
 20
145.352234
 30
0.0
 11
1016.977539
 21
145.352234
 31
0.0
210
0.0
220
0.0
230
1.0
  0
LINE
  5
4C5
100
AcDbEntity
  8
0
370
    35
390
0
 62
     7
100
AcDbLine
 10
981.977539
 20
145.352234
 30
0.0
 11
981.977539
 21
175.352249
 31
0.0
210
0.0
220
0.0
230
1.0
  0
LINE
  5
4C6
100
AcDbEntity
  8
0
370
    35
390
0
 62
     7
 48
0.0625
100
AcDbLine
 10
981.977539
 20
175.352249
 30
0.0
 11
984.477539
 21
175.352249
 31
0.0
210
0.0
220
0.0
230
1.0
  0
LINE
  5
4C7
100
AcDbEntity
  8
0
370
    35
390
0
 62
     7
 48
0.0625
100
AcDbLine
 10
944.477539
 20
301.352234
 30
0.0
 11
941.977539
 21
301.352234
 31
0.0
210
0.0
220
0.0
230
1.0
  0
LINE
  5
4C8
100
AcDbEntity
  8
0
370
    35
390
0
 62
     7
 48
0.125
100
AcDbLine
 10
944.477539
 20
301.352234
 30
0.0
 11
944.477539
 21
306.352234
 31
0.0
210
0.0
220
0.0
230
1.0
  0
LINE
  5
4C9
100
AcDbEntity
  8
0
370
    35
390
0
 62
     7
 48
0.0625
100
AcDbLine
 10
944.477539
 20
306.352234
 30
0.0
 11
941.977539
 21
306.352234
 31
0.0
210
0.0
220
0.0
230
1.0
  0
LINE
  5
4CA
100
AcDbEntity
  8
0
370
    35
390
0
 62
     7
 48
0.125
100
AcDbLine
 10
941.977539
 20
301.352234
 30
0.0
 11
941.977539
 21
306.352234
 31
0.0
210
0.0
220
0.0
230
1.0
  0
LINE
  5
4CB
100
AcDbEntity
  8
0
370
    35
390
0
 62
     7
 48
0.0625
100
AcDbLine
 10
1325.477539
 20
190.343948
 30
0.0
 11
1322.977539
 21
190.343948
 31
0.0
210
0.0
220
0.0
230
1.0
  0
LINE
  5
4CC
100
AcDbEntity
  8
0
370
    35
390
0
 62
     7
 48
0.125012
100
AcDbLine
 10
1325.477539
 20
190.343948
 30
0.0
 11
1325.477539
 21
195.344437
 31
0.0
210
0.0
220
0.0
230
1.0
  0
LINE
  5
4CD
100
AcDbEntity
  8
0
370
    35
390
0
 62
     7
 48
0.0625
100
AcDbLine
 10
1322.977539
 20
195.344437
 30
0.0
 11
1325.477539
 21
195.344437
 31
0.0
210
0.0
220
0.0
230
1.0
  0
LINE
  5
4CE
100
AcDbEntity
  8
0
370
    35
390
0
 62
     7
 48
0.125012
100
AcDbLine
 10
1322.977539
 20
190.343948
 30
0.0
 11
1322.977539
 21
195.344437
 31
0.0
210
0.0
220
0.0
230
1.0
  0
LINE
  5
4CF
100
AcDbEntity
  8
0
370
    35
390
0
 62
     7
 48
0.0625
100
AcDbLine
 10
1529.477417
 20
230.34639
 30
0.0
 11
1531.977417
 21
230.34639
 31
0.0
210
0.0
220
0.0
230
1.0
  0
LINE
  5
4D0
100
AcDbEntity
  8
0
370
    35
390
0
 62
     7
 48
0.125003
100
AcDbLine
 10
1529.477417
 20
230.34639
 30
0.0
 11
1529.477417
 21
225.346268
 31
0.0
210
0.0
220
0.0
230
1.0
  0
LINE
  5
4D1
100
AcDbEntity
  8
0
370
    35
390
0
 62
     7
 48
0.0625
100
AcDbLine
 10
1531.977417
 20
225.346268
 30
0.0
 11
1529.477417
 21
225.346268
 31
0.0
210
0.0
220
0.0
230
1.0
  0
LINE
  5
4D2
100
AcDbEntity
  8
0
370
    35
390
0
 62
     7
 48
0.125003
100
AcDbLine
 10
1531.977417
 20
230.34639
 30
0.0
 11
1531.977417
 21
225.346268
 31
0.0
210
0.0
220
0.0
230
1.0
  0
LINE
  5
4D3
100
AcDbEntity
  8
0
370
    35
390
0
 62
     7
 48
0.0625
100
AcDbLine
 10
1427.477539
 20
190.343948
 30
0.0
 11
1424.977539
 21
190.343948
 31
0.0
210
0.0
220
0.0
230
1.0
  0
LINE
  5
4D4
100
AcDbEntity
  8
0
370
    35
390
0
 62
     7
 48
0.125012
100
AcDbLine
 10
1427.477539
 20
190.343948
 30
0.0
 11
1427.477539
 21
195.344437
 31
0.0
210
0.0
220
0.0
230
1.0
  0
LINE
  5
4D5
100
AcDbEntity
  8
0
370
    35
390
0
 62
     7
 48
0.0625
100
AcDbLine
 10
1424.977539
 20
195.344437
 30
0.0
 11
1427.477539
 21
195.344437
 31
0.0
210
0.0
220
0.0
230
1.0
  0
LINE
  5
4D6
100
AcDbEntity
  8
0
370
    35
390
0
 62
     7
 48
0.125012
100
AcDbLine
 10
1424.977539
 20
190.343948
 30
0.0
 11
1424.977539
 21
195.344437
 31
0.0
210
0.0
220
0.0
230
1.0
  0
LINE
  5
4D7
100
AcDbEntity
  8
0
370
    35
390
0
 62
     7
 48
0.0625
100
AcDbLine
 10
1121.477539
 20
190.343948
 30
0.0
 11
1118.977539
 21
190.343948
 31
0.0
210
0.0
220
0.0
230
1.0
  0
LINE
  5
4D8
100
AcDbEntity
  8
0
370
    35
390
0
 62
     7
 48
0.125012
100
AcDbLine
 10
1121.477539
 20
190.343948
 30
0.0
 11
1121.477539
 21
195.344437
 31
0.0
210
0.0
220
0.0
230
1.0
  0
LINE
  5
4D9
100
AcDbEntity
  8
0
370
    35
390
0
 62
     7
 48
0.0625
100
AcDbLine
 10
1118.977539
 20
195.344437
 30
0.0
 11
1121.477539
 21
195.344437
 31
0.0
210
0.0
220
0.0
230
1.0
  0
LINE
  5
4DA
100
AcDbEntity
  8
0
370
    35
390
0
 62
     7
 48
0.125012
100
AcDbLine
 10
1118.977539
 20
190.343948
 30
0.0
 11
1118.977539
 21
195.344437
 31
0.0
210
0.0
220
0.0
230
1.0
  0
LINE
  5
4DB
100
AcDbEntity
  8
0
370
    35
390
0
 62
     7
 48
0.0625
100
AcDbLine
 10
1220.977539
 20
195.344437
 30
0.0
 11
1223.477539
 21
195.344437
 31
0.0
210
0.0
220
0.0
230
1.0
  0
LINE
  5
4DC
100
AcDbEntity
  8
0
370
    35
390
0
 62
     7
 48
0.125012
100
AcDbLine
 10
1220.977539
 20
190.343948
 30
0.0
 11
1220.977539
 21
195.344437
 31
0.0
210
0.0
220
0.0
230
1.0
  0
LINE
  5
4DD
100
AcDbEntity
  8
0
370
    35
390
0
 62
     7
 48
0.0625
100
AcDbLine
 10
1223.477539
 20
190.343948
 30
0.0
 11
1220.977539
 21
190.343948
 31
0.0
210
0.0
220
0.0
230
1.0
  0
LINE
  5
4DE
100
AcDbEntity
  8
0
370
    35
390
0
 62
     7
 48
0.125012
100
AcDbLine
 10
1223.477539
 20
190.343948
 30
0.0
 11
1223.477539
 21
195.344437
 31
0.0
210
0.0
220
0.0
230
1.0
  0
LINE
  5
4DF
100
AcDbEntity
  8
0
370
    35
390
0
 62
     7
 48
0.0625
100
AcDbLine
 10
981.977539
 20
301.352234
 30
0.0
 11
979.477539
 21
301.352234
 31
0.0
210
0.0
220
0.0
230
1.0
  0
LINE
  5
4E0
100
AcDbEntity
  8
0
370
    35
390
0
 62
     7
 48
0.125
100
AcDbLine
 10
981.977539
 20
301.352234
 30
0.0
 11
981.977539
 21
306.352234
 31
0.0
210
0.0
220
0.0
230
1.0
  0
LINE
  5
4E1
100
AcDbEntity
  8
0
370
    35
390
0
 62
     7
 48
0.0625
100
AcDbLine
 10
981.977539
 20
306.352234
 30
0.0
 11
979.477539
 21
306.352234
 31
0.0
210
0.0
220
0.0
230
1.0
  0
LINE
  5
4E2
100
AcDbEntity
  8
0
370
    35
390
0
 62
     7
 48
0.125
100
AcDbLine
 10
979.477539
 20
301.352234
 30
0.0
 11
979.477539
 21
306.352234
 31
0.0
210
0.0
220
0.0
230
1.0
  0
LINE
  5
4E3
100
AcDbEntity
  8
0
370
    35
390
0
 62
     7
 48
0.0625
100
AcDbLine
 10
1019.477539
 20
301.352234
 30
0.0
 11
1016.977539
 21
301.352234
 31
0.0
210
0.0
220
0.0
230
1.0
  0
LINE
  5
4E4
100
AcDbEntity
  8
0
370
    35
390
0
 62
     7
 48
0.125
100
AcDbLine
 10
1019.477539
 20
301.352234
 30
0.0
 11
1019.477539
 21
306.352234
 31
0.0
210
0.0
220
0.0
230
1.0
  0
LINE
  5
4E5
100
AcDbEntity
  8
0
370
    35
390
0
 62
     7
 48
0.0625
100
AcDbLine
 10
1019.477539
 20
306.352234
 30
0.0
 11
1016.977539
 21
306.352234
 31
0.0
210
0.0
220
0.0
230
1.0
  0
LINE
  5
4E6
100
AcDbEntity
  8
0
370
    35
390
0
 62
     7
 48
0.125
100
AcDbLine
 10
1016.977539
 20
301.352234
 30
0.0
 11
1016.977539
 21
306.352234
 31
0.0
210
0.0
220
0.0
230
1.0
  0
LINE
  5
4E7
100
AcDbEntity
  8
0
370
    35
390
0
 62
     7
 48
0.0625
100
AcDbLine
 10
1569.477417
 20
195.352249
 30
0.0
 11
1566.977417
 21
195.352249
 31
0.0
210
0.0
220
0.0
230
1.0
  0
LINE
  5
4E8
100
AcDbEntity
  8
0
370
    35
390
0
 62
     7
 48
0.0625
100
AcDbLine
 10
1490.79895
 20
322.425232
 30
0.0
 11
1493.29895
 21
322.425232
 31
0.0
210
0.0
220
0.0
230
1.0
  0
LINE
  5
4E9
100
AcDbEntity
  8
0
370
    35
390
0
 62
     7
100
AcDbLine
 10
1490.79895
 20
322.425232
 30
0.0
 11
1490.79895
 21
418.840271
 31
0.0
210
0.0
220
0.0
230
1.0
  0
LINE
  5
4EA
100
AcDbEntity
  8
0
370
    35
390
0
 62
     7
100
AcDbLine
 10
1490.79895
 20
418.840271
 30
0.0
 11
1391.29895
 21
418.840271
 31
0.0
210
0.0
220
0.0
230
1.0
  0
LINE
  5
4EB
100
AcDbEntity
  8
0
370
    35
390
0
 62
     7
100
AcDbLine
 10
1391.29895
 20
418.840271
 30
0.0
 11
1391.29895
 21
393.840271
 31
0.0
210
0.0
220
0.0
230
1.0
  0
LINE
  5
4EC
100
AcDbEntity
  8
0
370
    35
390
0
 62
     7
 48
0.0625
100
AcDbLine
 10
1388.79895
 20
393.840271
 30
0.0
 11
1391.29895
 21
393.840271
 31
0.0
210
0.0
220
0.0
230
1.0
  0
LINE
  5
4ED
100
AcDbEntity
  8
0
370
    35
390
0
 62
     7
100
AcDbLine
 10
1388.79895
 20
418.840271
 30
0.0
 11
1388.79895
 21
393.840271
 31
0.0
210
0.0
220
0.0
230
1.0
  0
LINE
  5
4EE
100
AcDbEntity
  8
0
370
    35
390
0
 62
     7
100
AcDbLine
 10
1388.79895
 20
418.840271
 30
0.0
 11
1289.29895
 21
418.840271
 31
0.0
210
0.0
220
0.0
230
1.0
  0
LINE
  5
4EF
100
AcDbEntity
  8
0
370
    35
390
0
 62
     7
100
AcDbLine
 10
1289.29895
 20
418.840271
 30
0.0
 11
1289.29895
 21
393.840271
 31
0.0
210
0.0
220
0.0
230
1.0
  0
LINE
  5
4F0
100
AcDbEntity
  8
0
370
    35
390
0
 62
     7
 48
0.0625
100
AcDbLine
 10
1286.79895
 20
393.840271
 30
0.0
 11
1289.29895
 21
393.840271
 31
0.0
210
0.0
220
0.0
230
1.0
  0
LINE
  5
4F1
100
AcDbEntity
  8
0
370
    35
390
0
 62
     7
100
AcDbLine
 10
1286.79895
 20
418.840271
 30
0.0
 11
1286.79895
 21
393.840271
 31
0.0
210
0.0
220
0.0
230
1.0
  0
LINE
  5
4F2
100
AcDbEntity
  8
0
370
    35
390
0
 62
     7
100
AcDbLine
 10
1286.79895
 20
418.840271
 30
0.0
 11
1187.29895
 21
418.840271
 31
0.0
210
0.0
220
0.0
230
1.0
  0
LINE
  5
4F3
100
AcDbEntity
  8
0
370
    35
390
0
 62
     7
100
AcDbLine
 10
1187.29895
 20
418.840271
 30
0.0
 11
1187.29895
 21
393.840271
 31
0.0
210
0.0
220
0.0
230
1.0
  0
LINE
  5
4F4
100
AcDbEntity
  8
0
370
    35
390
0
 62
     7
 48
0.0625
100
AcDbLine
 10
1184.79895
 20
393.840271
 30
0.0
 11
1187.29895
 21
393.840271
 31
0.0
210
0.0
220
0.0
230
1.0
  0
LINE
  5
4F5
100
AcDbEntity
  8
0
370
    35
390
0
 62
     7
100
AcDbLine
 10
1184.79895
 20
418.840271
 30
0.0
 11
1184.79895
 21
393.840271
 31
0.0
210
0.0
220
0.0
230
1.0
  0
LINE
  5
4F6
100
AcDbEntity
  8
0
370
    35
390
0
 62
     7
100
AcDbLine
 10
1184.79895
 20
418.840271
 30
0.0
 11
1085.29895
 21
418.840271
 31
0.0
210
0.0
220
0.0
230
1.0
  0
LINE
  5
4F7
100
AcDbEntity
  8
0
370
    35
390
0
 62
     7
100
AcDbLine
 10
1085.29895
 20
418.840271
 30
0.0
 11
1085.29895
 21
393.840271
 31
0.0
210
0.0
220
0.0
230
1.0
  0
LINE
  5
4F8
100
AcDbEntity
  8
0
370
    35
390
0
 62
     7
 48
0.0625
100
AcDbLine
 10
1082.79895
 20
393.840271
 30
0.0
 11
1085.29895
 21
393.840271
 31
0.0
210
0.0
220
0.0
230
1.0
  0
LINE
  5
4F9
100
AcDbEntity
  8
0
370
    35
390
0
 62
     7
100
AcDbLine
 10
1082.79895
 20
418.840271
 30
0.0
 11
1082.79895
 21
393.840271
 31
0.0
210
0.0
220
0.0
230
1.0
  0
LINE
  5
4FA
100
AcDbEntity
  8
0
370
    35
390
0
 62
     7
100
AcDbLine
 10
1082.79895
 20
418.840271
 30
0.0
 11
980.79895
 21
418.840271
 31
0.0
210
0.0
220
0.0
230
1.0
  0
LINE
  5
4FB
100
AcDbEntity
  8
0
370
    35
390
0
 62
     7
100
AcDbLine
 10
980.79895
 20
373.840271
 30
0.0
 11
980.79895
 21
418.840271
 31
0.0
210
0.0
220
0.0
230
1.0
  0
LINE
  5
4FC
100
AcDbEntity
  8
0
370
    35
390
0
 62
     7
 48
0.0625
100
AcDbLine
 10
978.29895
 20
373.840271
 30
0.0
 11
980.79895
 21
373.840271
 31
0.0
210
0.0
220
0.0
230
1.0
  0
LINE
  5
4FD
100
AcDbEntity
  8
0
370
    35
390
0
 62
     7
100
AcDbLine
 10
978.29895
 20
458.848083
 30
0.0
 11
978.29895
 21
373.840271
 31
0.0
210
0.0
220
0.0
230
1.0
  0
LINE
  5
4FE
100
AcDbEntity
  8
0
370
    35
390
0
 62
     7
100
AcDbLine
 10
943.29895
 20
458.848083
 30
0.0
 11
978.29895
 21
458.848083
 31
0.0
210
0.0
220
0.0
230
1.0
  0
LINE
  5
4FF
100
AcDbEntity
  8
0
370
    35
390
0
 62
     7
100
AcDbLine
 10
943.29895
 20
458.848083
 30
0.0
 11
943.29895
 21
418.840271
 31
0.0
210
0.0
220
0.0
230
1.0
  0
LINE
  5
500
100
AcDbEntity
  8
0
370
    35
390
0
 62
     7
 48
0.0625
100
AcDbLine
 10
943.29895
 20
418.840271
 30
0.0
 11
940.79895
 21
418.840271
 31
0.0
210
0.0
220
0.0
230
1.0
  0
LINE
  5
501
100
AcDbEntity
  8
0
370
    35
390
0
 62
     7
100
AcDbLine
 10
940.79895
 20
368.848083
 30
0.0
 11
940.79895
 21
418.840271
 31
0.0
210
0.0
220
0.0
230
1.0
  0
LINE
  5
502
100
AcDbEntity
  8
0
370
    35
390
0
 62
     7
 48
0.000195
100
AcDbLine
 10
940.79895
 20
368.840271
 30
0.0
 11
940.79895
 21
368.848083
 31
0.0
210
0.0
220
0.0
230
1.0
  0
LINE
  5
503
100
AcDbEntity
  8
0
370
    35
390
0
 62
     7
 48
0.0625
100
AcDbLine
 10
940.79895
 20
368.848083
 30
0.0
 11
943.29895
 21
368.848083
 31
0.0
210
0.0
220
0.0
230
1.0
  0
LINE
  5
504
100
AcDbEntity
  8
0
370
    35
390
0
 62
     7
100
AcDbLine
 10
943.29895
 20
368.848083
 30
0.0
 11
943.29895
 21
328.840271
 31
0.0
210
0.0
220
0.0
230
1.0
  0
LINE
  5
505
100
AcDbEntity
  8
0
370
    35
390
0
 62
     7
100
AcDbLine
 10
943.29895
 20
328.840271
 30
0.0
 11
980.79895
 21
328.840271
 31
0.0
210
0.0
220
0.0
230
1.0
  0
ARC
  5
506
100
AcDbEntity
  8
0
370
    35
390
0
 62
     7
100
AcDbCircle
 10
940.79895
 20
-802.409668
 30
0.0
 40
1131.956909
210
0.0
220
0.0
230
1.0
100
AcDbArc
 50
72.785638
 51
87.974913
  0
ARC
  5
507
100
AcDbEntity
  8
0
370
    35
390
0
 62
     7
100
AcDbCircle
 10
1464.806885
 20
952.840271
 30
0.0
 40
700.0
210
0.0
220
0.0
230
1.0
100
AcDbArc
 50
254.335068
 51
269.999997
  0
LINE
  5
508
100
AcDbEntity
  8
0
370
    35
390
0
 62
     7
100
AcDbLine
 10
1464.806885
 20
252.840286
 30
0.0
 11
1570.79895
 21
252.840286
 31
0.0
210
0.0
220
0.0
230
1.0
  0
LINE
  5
509
100
AcDbEntity
  8
0
370
    35
390
0
 62
     7
100
AcDbLine
 10
1570.79895
 20
313.845276
 30
0.0
 11
1570.79895
 21
252.840286
 31
0.0
210
0.0
220
0.0
230
1.0
  0
LINE
  5
50A
100
AcDbEntity
  8
0
370
    35
390
0
 62
     7
 48
0.125
100
AcDbLine
 10
1570.79895
 20
313.845276
 30
0.0
 11
1565.79895
 21
313.845276
 31
0.0
210
0.0
220
0.0
230
1.0
  0
LINE
  5
50B
100
AcDbEntity
  8
0
370
    35
390
0
 62
     7
 48
0.125
100
AcDbLine
 10
1570.79895
 20
313.845276
 30
0.0
 11
1565.79895
 21
313.845276
 31
0.0
210
0.0
220
0.0
230
1.0
  0
LINE
  5
50C
100
AcDbEntity
  8
0
370
    35
390
0
 62
     7
100
AcDbLine
 10
1565.79895
 20
358.840271
 30
0.0
 11
1565.79895
 21
313.845276
 31
0.0
210
0.0
220
0.0
230
1.0
  0
LINE
  5
50D
100
AcDbEntity
  8
0
370
    35
390
0
 62
     7
100
AcDbLine
 10
1565.79895
 20
358.840271
 30
0.0
 11
1530.79895
 21
358.840271
 31
0.0
210
0.0
220
0.0
230
1.0
  0
LINE
  5
50E
100
AcDbEntity
  8
0
370
    35
390
0
 62
     7
100
AcDbLine
 10
1530.79895
 20
313.844421
 30
0.0
 11
1530.79895
 21
358.840271
 31
0.0
210
0.0
220
0.0
230
1.0
  0
LINE
  5
50F
100
AcDbEntity
  8
0
370
    35
390
0
 62
     7
 48
0.0625
100
AcDbLine
 10
1528.29895
 20
313.844421
 30
0.0
 11
1530.79895
 21
313.844421
 31
0.0
210
0.0
220
0.0
230
1.0
  0
LINE
  5
510
100
AcDbEntity
  8
0
370
    35
390
0
 62
     7
100
AcDbLine
 10
1528.29895
 20
313.844421
 30
0.0
 11
1528.29895
 21
358.840271
 31
0.0
210
0.0
220
0.0
230
1.0
  0
LINE
  5
511
100
AcDbEntity
  8
0
370
    35
390
0
 62
     7
 48
0.0625
100
AcDbLine
 10
1528.29895
 20
358.840271
 30
0.0
 11
1525.79895
 21
358.840271
 31
0.0
210
0.0
220
0.0
230
1.0
  0
LINE
  5
512
100
AcDbEntity
  8
0
370
    35
390
0
 62
     7
100
AcDbLine
 10
1525.79895
 20
388.840271
 30
0.0
 11
1525.79895
 21
358.840271
 31
0.0
210
0.0
220
0.0
230
1.0
  0
LINE
  5
513
100
AcDbEntity
  8
0
370
    35
390
0
 62
     7
100
AcDbLine
 10
1493.29895
 20
322.425232
 30
0.0
 11
1493.29895
 21
418.840271
 31
0.0
210
0.0
220
0.0
230
1.0
  0
LINE
  5
514
100
AcDbEntity
  8
0
370
    35
390
0
 62
     7
100
AcDbLine
 10
1528.29895
 20
418.840271
 30
0.0
 11
1493.29895
 21
418.840271
 31
0.0
210
0.0
220
0.0
230
1.0
  0
LINE
  5
515
100
AcDbEntity
  8
0
370
    35
390
0
 62
     7
100
AcDbLine
 10
1528.29895
 20
418.840271
 30
0.0
 11
1528.29895
 21
388.840271
 31
0.0
210
0.0
220
0.0
230
1.0
  0
LINE
  5
516
100
AcDbEntity
  8
0
370
    35
390
0
 62
     7
 48
0.0625
100
AcDbLine
 10
1528.29895
 20
388.840271
 30
0.0
 11
1525.79895
 21
388.840271
 31
0.0
210
0.0
220
0.0
230
1.0
  0
LINE
  5
517
100
AcDbEntity
  8
0
370
    35
390
0
 62
     7
 48
0.0625
100
AcDbLine
 10
1565.79895
 20
262.840271
 30
0.0
 11
1568.29895
 21
262.840271
 31
0.0
210
0.0
220
0.0
230
1.0
  0
LINE
  5
518
100
AcDbEntity
  8
0
370
    35
390
0
 62
     7
 48
0.125
100
AcDbLine
 10
1565.79895
 20
262.840271
 30
0.0
 11
1565.79895
 21
257.840271
 31
0.0
210
0.0
220
0.0
230
1.0
  0
LINE
  5
519
100
AcDbEntity
  8
0
370
    35
390
0
 62
     7
 48
0.0625
100
AcDbLine
 10
1565.79895
 20
257.840271
 30
0.0
 11
1568.29895
 21
257.840271
 31
0.0
210
0.0
220
0.0
230
1.0
  0
LINE
  5
51A
100
AcDbEntity
  8
0
370
    35
390
0
 62
     7
 48
0.125
100
AcDbLine
 10
1568.29895
 20
262.840271
 30
0.0
 11
1568.29895
 21
257.840271
 31
0.0
210
0.0
220
0.0
230
1.0
  0
LINE
  5
51B
100
AcDbEntity
  8
0
370
    35
390
0
 62
     7
 48
0.0625
100
AcDbLine
 10
1184.79895
 20
373.848572
 30
0.0
 11
1187.29895
 21
373.848572
 31
0.0
210
0.0
220
0.0
230
1.0
  0
LINE
  5
51C
100
AcDbEntity
  8
0
370
    35
390
0
 62
     7
 48
0.125012
100
AcDbLine
 10
1184.79895
 20
373.848572
 30
0.0
 11
1184.79895
 21
368.848083
 31
0.0
210
0.0
220
0.0
230
1.0
  0
LINE
  5
51D
100
AcDbEntity
  8
0
370
    35
390
0
 62
     7
 48
0.0625
100
AcDbLine
 10
1187.29895
 20
368.848083
 30
0.0
 11
1184.79895
 21
368.848083
 31
0.0
210
0.0
220
0.0
230
1.0
  0
LINE
  5
51E
100
AcDbEntity
  8
0
370
    35
390
0
 62
     7
 48
0.125012
100
AcDbLine
 10
1187.29895
 20
373.848572
 30
0.0
 11
1187.29895
 21
368.848083
 31
0.0
210
0.0
220
0.0
230
1.0
  0
LINE
  5
51F
100
AcDbEntity
  8
0
370
    35
390
0
 62
     7
 48
0.0625
100
AcDbLine
 10
980.79895
 20
333.84613
 30
0.0
 11
978.29895
 21
333.84613
 31
0.0
210
0.0
220
0.0
230
1.0
  0
LINE
  5
520
100
AcDbEntity
  8
0
370
    35
390
0
 62
     7
 48
0.125003
100
AcDbLine
 10
980.79895
 20
333.84613
 30
0.0
 11
980.79895
 21
338.846252
 31
0.0
210
0.0
220
0.0
230
1.0
  0
LINE
  5
521
100
AcDbEntity
  8
0
370
    35
390
0
 62
     7
 48
0.0625
100
AcDbLine
 10
978.29895
 20
338.846252
 30
0.0
 11
980.79895
 21
338.846252
 31
0.0
210
0.0
220
0.0
230
1.0
  0
LINE
  5
522
100
AcDbEntity
  8
0
370
    35
390
0
 62
     7
 48
0.125003
100
AcDbLine
 10
978.29895
 20
333.84613
 30
0.0
 11
978.29895
 21
338.846252
 31
0.0
210
0.0
220
0.0
230
1.0
  0
LINE
  5
523
100
AcDbEntity
  8
0
370
    35
390
0
 62
     7
 48
0.0625
100
AcDbLine
 10
1082.79895
 20
373.848572
 30
0.0
 11
1085.29895
 21
373.848572
 31
0.0
210
0.0
220
0.0
230
1.0
  0
LINE
  5
524
100
AcDbEntity
  8
0
370
    35
390
0
 62
     7
 48
0.125012
100
AcDbLine
 10
1082.79895
 20
373.848572
 30
0.0
 11
1082.79895
 21
368.848083
 31
0.0
210
0.0
220
0.0
230
1.0
  0
LINE
  5
525
100
AcDbEntity
  8
0
370
    35
390
0
 62
     7
 48
0.0625
100
AcDbLine
 10
1085.29895
 20
368.848083
 30
0.0
 11
1082.79895
 21
368.848083
 31
0.0
210
0.0
220
0.0
230
1.0
  0
LINE
  5
526
100
AcDbEntity
  8
0
370
    35
390
0
 62
     7
 48
0.125012
100
AcDbLine
 10
1085.29895
 20
373.848572
 30
0.0
 11
1085.29895
 21
368.848083
 31
0.0
210
0.0
220
0.0
230
1.0
  0
LINE
  5
527
100
AcDbEntity
  8
0
370
    35
390
0
 62
     7
 48
0.0625
100
AcDbLine
 10
1388.79895
 20
373.848572
 30
0.0
 11
1391.29895
 21
373.848572
 31
0.0
210
0.0
220
0.0
230
1.0
  0
LINE
  5
528
100
AcDbEntity
  8
0
370
    35
390
0
 62
     7
 48
0.125012
100
AcDbLine
 10
1388.79895
 20
373.848572
 30
0.0
 11
1388.79895
 21
368.848083
 31
0.0
210
0.0
220
0.0
230
1.0
  0
LINE
  5
529
100
AcDbEntity
  8
0
370
    35
390
0
 62
     7
 48
0.0625
100
AcDbLine
 10
1391.29895
 20
368.848083
 30
0.0
 11
1388.79895
 21
368.848083
 31
0.0
210
0.0
220
0.0
230
1.0
  0
LINE
  5
52A
100
AcDbEntity
  8
0
370
    35
390
0
 62
     7
 48
0.125012
100
AcDbLine
 10
1391.29895
 20
373.848572
 30
0.0
 11
1391.29895
 21
368.848083
 31
0.0
210
0.0
220
0.0
230
1.0
  0
LINE
  5
52B
100
AcDbEntity
  8
0
370
    35
390
0
 62
     7
 48
0.0625
100
AcDbLine
 10
1289.29895
 20
368.848083
 30
0.0
 11
1286.79895
 21
368.848083
 31
0.0
210
0.0
220
0.0
230
1.0
  0
LINE
  5
52C
100
AcDbEntity
  8
0
370
    35
390
0
 62
     7
 48
0.125012
100
AcDbLine
 10
1289.29895
 20
373.848572
 30
0.0
 11
1289.29895
 21
368.848083
 31
0.0
210
0.0
220
0.0
230
1.0
  0
LINE
  5
52D
100
AcDbEntity
  8
0
370
    35
390
0
 62
     7
 48
0.0625
100
AcDbLine
 10
1286.79895
 20
373.848572
 30
0.0
 11
1289.29895
 21
373.848572
 31
0.0
210
0.0
220
0.0
230
1.0
  0
LINE
  5
52E
100
AcDbEntity
  8
0
370
    35
390
0
 62
     7
 48
0.125012
100
AcDbLine
 10
1286.79895
 20
373.848572
 30
0.0
 11
1286.79895
 21
368.848083
 31
0.0
210
0.0
220
0.0
230
1.0
  0
LINE
  5
52F
100
AcDbEntity
  8
0
370
    35
390
0
 62
     7
 48
0.0625
100
AcDbLine
 10
1528.29895
 20
262.840271
 30
0.0
 11
1530.79895
 21
262.840271
 31
0.0
210
0.0
220
0.0
230
1.0
  0
LINE
  5
530
100
AcDbEntity
  8
0
370
    35
390
0
 62
     7
 48
0.125
100
AcDbLine
 10
1528.29895
 20
262.840271
 30
0.0
 11
1528.29895
 21
257.840271
 31
0.0
210
0.0
220
0.0
230
1.0
  0
LINE
  5
531
100
AcDbEntity
  8
0
370
    35
390
0
 62
     7
 48
0.0625
100
AcDbLine
 10
1528.29895
 20
257.840271
 30
0.0
 11
1530.79895
 21
257.840271
 31
0.0
210
0.0
220
0.0
230
1.0
  0
LINE
  5
532
100
AcDbEntity
  8
0
370
    35
390
0
 62
     7
 48
0.125
100
AcDbLine
 10
1530.79895
 20
262.840271
 30
0.0
 11
1530.79895
 21
257.840271
 31
0.0
210
0.0
220
0.0
230
1.0
  0
LINE
  5
533
100
AcDbEntity
  8
0
370
    35
390
0
 62
     7
 48
0.0625
100
AcDbLine
 10
1490.79895
 20
262.840271
 30
0.0
 11
1493.29895
 21
262.840271
 31
0.0
210
0.0
220
0.0
230
1.0
  0
LINE
  5
534
100
AcDbEntity
  8
0
370
    35
390
0
 62
     7
 48
0.125
100
AcDbLine
 10
1490.79895
 20
262.840271
 30
0.0
 11
1490.79895
 21
257.840271
 31
0.0
210
0.0
220
0.0
230
1.0
  0
LINE
  5
535
100
AcDbEntity
  8
0
370
    35
390
0
 62
     7
 48
0.0625
100
AcDbLine
 10
1490.79895
 20
257.840271
 30
0.0
 11
1493.29895
 21
257.840271
 31
0.0
210
0.0
220
0.0
230
1.0
  0
LINE
  5
536
100
AcDbEntity
  8
0
370
    35
390
0
 62
     7
 48
0.125
100
AcDbLine
 10
1493.29895
 20
262.840271
 30
0.0
 11
1493.29895
 21
257.840271
 31
0.0
210
0.0
220
0.0
230
1.0
  0
LINE
  5
537
100
AcDbEntity
  8
0
370
    35
390
0
 62
     7
 48
0.0625
100
AcDbLine
 10
940.79895
 20
368.840271
 30
0.0
 11
943.29895
 21
368.840271
 31
0.0
210
0.0
220
0.0
230
1.0
  0
LINE
  5
538
100
AcDbEntity
  8
0
370
    35
390
0
 62
     7
 48
0.25
100
AcDbLine
 10
988.807129
 20
486.904297
 30
0.0
 11
988.807129
 21
476.904297
 31
0.0
210
0.0
220
0.0
230
1.0
  0
LINE
  5
539
100
AcDbEntity
  8
0
370
    35
390
0
 62
     7
100
AcDbLine
 10
1498.807129
 20
486.904297
 30
0.0
 11
988.807129
 21
486.904297
 31
0.0
210
0.0
220
0.0
230
1.0
  0
LINE
  5
53A
100
AcDbEntity
  8
0
370
    35
390
0
 62
     7
 48
0.25
100
AcDbLine
 10
1498.807129
 20
486.904297
 30
0.0
 11
1498.807129
 21
476.904297
 31
0.0
210
0.0
220
0.0
230
1.0
  0
LINE
  5
53B
100
AcDbEntity
  8
0
370
    35
390
0
 62
     7
 48
0.25
100
AcDbLine
 10
1498.807129
 20
436.904297
 30
0.0
 11
1498.807129
 21
426.904297
 31
0.0
210
0.0
220
0.0
230
1.0
  0
LINE
  5
53C
100
AcDbEntity
  8
0
370
    35
390
0
 62
     7
100
AcDbLine
 10
1498.807129
 20
426.904297
 30
0.0
 11
988.807129
 21
426.904297
 31
0.0
210
0.0
220
0.0
230
1.0
  0
LINE
  5
53D
100
AcDbEntity
  8
0
370
    35
390
0
 62
     7
 48
0.25
100
AcDbLine
 10
988.807129
 20
436.904297
 30
0.0
 11
988.807129
 21
426.904297
 31
0.0
210
0.0
220
0.0
230
1.0
  0
LINE
  5
53E
100
AcDbEntity
  8
0
370
    35
390
0
 62
     7
100
AcDbLine
 10
983.807129
 20
476.904297
 30
0.0
 11
983.807129
 21
436.904297
 31
0.0
210
0.0
220
0.0
230
1.0
  0
LINE
  5
53F
100
AcDbEntity
  8
0
370
    35
390
0
 62
     7
 48
0.125
100
AcDbLine
 10
1498.807129
 20
476.904297
 30
0.0
 11
1503.807129
 21
476.904297
 31
0.0
210
0.0
220
0.0
230
1.0
  0
LINE
  5
540
100
AcDbEntity
  8
0
370
    35
390
0
 62
     7
 48
0.125
100
AcDbLine
 10
983.807129
 20
476.904297
 30
0.0
 11
988.807129
 21
476.904297
 31
0.0
210
0.0
220
0.0
230
1.0
  0
LINE
  5
541
100
AcDbEntity
  8
0
370
    35
390
0
 62
     7
 48
0.125
100
AcDbLine
 10
1498.807129
 20
436.904297
 30
0.0
 11
1503.807129
 21
436.904297
 31
0.0
210
0.0
220
0.0
230
1.0
  0
LINE
  5
542
100
AcDbEntity
  8
0
370
    35
390
0
 62
     7
 48
0.125
100
AcDbLine
 10
983.807129
 20
436.904297
 30
0.0
 11
988.807129
 21
436.904297
 31
0.0
210
0.0
220
0.0
230
1.0
  0
LINE
  5
543
100
AcDbEntity
  8
0
370
    35
390
0
 62
     7
100
AcDbLine
 10
1503.807129
 20
476.904297
 30
0.0
 11
1503.807129
 21
436.904297
 31
0.0
210
0.0
220
0.0
230
1.0
  0
LINE
  5
544
100
AcDbEntity
  8
0
370
    35
390
0
 62
     7
 48
0.25
100
AcDbLine
 10
1744.137817
 20
141.91626
 30
0.0
 11
1744.137817
 21
131.91626
 31
0.0
210
0.0
220
0.0
230
1.0
  0
LINE
  5
545
100
AcDbEntity
  8
0
370
    35
390
0
 62
     7
100
AcDbLine
 10
2254.137695
 20
141.91626
 30
0.0
 11
1744.137817
 21
141.91626
 31
0.0
210
0.0
220
0.0
230
1.0
  0
LINE
  5
546
100
AcDbEntity
  8
0
370
    35
390
0
 62
     7
 48
0.25
100
AcDbLine
 10
2254.137695
 20
141.91626
 30
0.0
 11
2254.137695
 21
131.91626
 31
0.0
210
0.0
220
0.0
230
1.0
  0
LINE
  5
547
100
AcDbEntity
  8
0
370
    35
390
0
 62
     7
 48
0.25
100
AcDbLine
 10
2254.137695
 20
91.916275
 30
0.0
 11
2254.137695
 21
81.916275
 31
0.0
210
0.0
220
0.0
230
1.0
  0
LINE
  5
548
100
AcDbEntity
  8
0
370
    35
390
0
 62
     7
100
AcDbLine
 10
2254.137695
 20
81.916275
 30
0.0
 11
1744.137817
 21
81.916275
 31
0.0
210
0.0
220
0.0
230
1.0
  0
LINE
  5
549
100
AcDbEntity
  8
0
370
    35
390
0
 62
     7
 48
0.25
100
AcDbLine
 10
1744.137817
 20
91.916275
 30
0.0
 11
1744.137817
 21
81.916275
 31
0.0
210
0.0
220
0.0
230
1.0
  0
LINE
  5
54A
100
AcDbEntity
  8
0
370
    35
390
0
 62
     7
100
AcDbLine
 10
1739.137817
 20
131.91626
 30
0.0
 11
1739.137817
 21
91.916275
 31
0.0
210
0.0
220
0.0
230
1.0
  0
LINE
  5
54B
100
AcDbEntity
  8
0
370
    35
390
0
 62
     7
 48
0.125
100
AcDbLine
 10
2254.137695
 20
131.91626
 30
0.0
 11
2259.137695
 21
131.91626
 31
0.0
210
0.0
220
0.0
230
1.0
  0
LINE
  5
54C
100
AcDbEntity
  8
0
370
    35
390
0
 62
     7
 48
0.125
100
AcDbLine
 10
1739.137817
 20
131.91626
 30
0.0
 11
1744.137817
 21
131.91626
 31
0.0
210
0.0
220
0.0
230
1.0
  0
LINE
  5
54D
100
AcDbEntity
  8
0
370
    35
390
0
 62
     7
 48
0.125
100
AcDbLine
 10
2254.137695
 20
91.916275
 30
0.0
 11
2259.137695
 21
91.916275
 31
0.0
210
0.0
220
0.0
230
1.0
  0
LINE
  5
54E
100
AcDbEntity
  8
0
370
    35
390
0
 62
     7
 48
0.125
100
AcDbLine
 10
1739.137817
 20
91.916275
 30
0.0
 11
1744.137817
 21
91.916275
 31
0.0
210
0.0
220
0.0
230
1.0
  0
LINE
  5
54F
100
AcDbEntity
  8
0
370
    35
390
0
 62
     7
100
AcDbLine
 10
2259.137695
 20
131.91626
 30
0.0
 11
2259.137695
 21
91.916275
 31
0.0
210
0.0
220
0.0
230
1.0
  0
LINE
  5
550
100
AcDbEntity
  8
0
370
    35
390
0
 62
     7
 48
0.0625
100
AcDbLine
 10
1749.477417
 20
241.767288
 30
0.0
 11
1746.977417
 21
241.767288
 31
0.0
210
0.0
220
0.0
230
1.0
  0
LINE
  5
551
100
AcDbEntity
  8
0
370
    35
390
0
 62
     7
100
AcDbLine
 10
1749.477417
 20
241.767288
 30
0.0
 11
1749.477417
 21
145.352234
 31
0.0
210
0.0
220
0.0
230
1.0
  0
LINE
  5
552
100
AcDbEntity
  8
0
370
    35
390
0
 62
     7
100
AcDbLine
 10
1749.477417
 20
145.352234
 30
0.0
 11
1848.977417
 21
145.352234
 31
0.0
210
0.0
220
0.0
230
1.0
  0
LINE
  5
553
100
AcDbEntity
  8
0
370
    35
390
0
 62
     7
100
AcDbLine
 10
1848.977417
 20
145.352234
 30
0.0
 11
1848.977417
 21
170.352234
 31
0.0
210
0.0
220
0.0
230
1.0
  0
LINE
  5
554
100
AcDbEntity
  8
0
370
    35
390
0
 62
     7
 48
0.0625
100
AcDbLine
 10
1851.477417
 20
170.352234
 30
0.0
 11
1848.977417
 21
170.352234
 31
0.0
210
0.0
220
0.0
230
1.0
  0
LINE
  5
555
100
AcDbEntity
  8
0
370
    35
390
0
 62
     7
100
AcDbLine
 10
1851.477417
 20
145.352234
 30
0.0
 11
1851.477417
 21
170.352234
 31
0.0
210
0.0
220
0.0
230
1.0
  0
LINE
  5
556
100
AcDbEntity
  8
0
370
    35
390
0
 62
     7
100
AcDbLine
 10
1851.477417
 20
145.352234
 30
0.0
 11
1950.977417
 21
145.352234
 31
0.0
210
0.0
220
0.0
230
1.0
  0
LINE
  5
557
100
AcDbEntity
  8
0
370
    35
390
0
 62
     7
100
AcDbLine
 10
1950.977417
 20
145.352234
 30
0.0
 11
1950.977417
 21
170.352234
 31
0.0
210
0.0
220
0.0
230
1.0
  0
LINE
  5
558
100
AcDbEntity
  8
0
370
    35
390
0
 62
     7
 48
0.0625
100
AcDbLine
 10
1953.477417
 20
170.352234
 30
0.0
 11
1950.977417
 21
170.352234
 31
0.0
210
0.0
220
0.0
230
1.0
  0
LINE
  5
559
100
AcDbEntity
  8
0
370
    35
390
0
 62
     7
100
AcDbLine
 10
1953.477417
 20
145.352234
 30
0.0
 11
1953.477417
 21
170.352234
 31
0.0
210
0.0
220
0.0
230
1.0
  0
LINE
  5
55A
100
AcDbEntity
  8
0
370
    35
390
0
 62
     7
100
AcDbLine
 10
1953.477417
 20
145.352234
 30
0.0
 11
2052.977539
 21
145.352234
 31
0.0
210
0.0
220
0.0
230
1.0
  0
LINE
  5
55B
100
AcDbEntity
  8
0
370
    35
390
0
 62
     7
100
AcDbLine
 10
2052.977539
 20
145.352234
 30
0.0
 11
2052.977539
 21
170.352234
 31
0.0
210
0.0
220
0.0
230
1.0
  0
LINE
  5
55C
100
AcDbEntity
  8
0
370
    35
390
0
 62
     7
 48
0.0625
100
AcDbLine
 10
2055.477539
 20
170.352234
 30
0.0
 11
2052.977539
 21
170.352234
 31
0.0
210
0.0
220
0.0
230
1.0
  0
LINE
  5
55D
100
AcDbEntity
  8
0
370
    35
390
0
 62
     7
100
AcDbLine
 10
2055.477539
 20
145.352234
 30
0.0
 11
2055.477539
 21
170.352234
 31
0.0
210
0.0
220
0.0
230
1.0
  0
LINE
  5
55E
100
AcDbEntity
  8
0
370
    35
390
0
 62
     7
100
AcDbLine
 10
2055.477539
 20
145.352234
 30
0.0
 11
2154.977539
 21
145.352234
 31
0.0
210
0.0
220
0.0
230
1.0
  0
LINE
  5
55F
100
AcDbEntity
  8
0
370
    35
390
0
 62
     7
100
AcDbLine
 10
2154.977539
 20
145.352234
 30
0.0
 11
2154.977539
 21
170.352234
 31
0.0
210
0.0
220
0.0
230
1.0
  0
LINE
  5
560
100
AcDbEntity
  8
0
370
    35
390
0
 62
     7
 48
0.0625
100
AcDbLine
 10
2157.477539
 20
170.352234
 30
0.0
 11
2154.977539
 21
170.352234
 31
0.0
210
0.0
220
0.0
230
1.0
  0
LINE
  5
561
100
AcDbEntity
  8
0
370
    35
390
0
 62
     7
100
AcDbLine
 10
2157.477539
 20
145.352234
 30
0.0
 11
2157.477539
 21
170.352234
 31
0.0
210
0.0
220
0.0
230
1.0
  0
LINE
  5
562
100
AcDbEntity
  8
0
370
    35
390
0
 62
     7
100
AcDbLine
 10
2157.477539
 20
145.352234
 30
0.0
 11
2259.477539
 21
145.352234
 31
0.0
210
0.0
220
0.0
230
1.0
  0
LINE
  5
563
100
AcDbEntity
  8
0
370
    35
390
0
 62
     7
100
AcDbLine
 10
2259.477539
 20
190.352249
 30
0.0
 11
2259.477539
 21
145.352234
 31
0.0
210
0.0
220
0.0
230
1.0
  0
LINE
  5
564
100
AcDbEntity
  8
0
370
    35
390
0
 62
     7
 48
0.0625
100
AcDbLine
 10
2261.977539
 20
190.352249
 30
0.0
 11
2259.477539
 21
190.352249
 31
0.0
210
0.0
220
0.0
230
1.0
  0
LINE
  5
565
100
AcDbEntity
  8
0
370
    35
390
0
 62
     7
100
AcDbLine
 10
2261.977539
 20
105.344437
 30
0.0
 11
2261.977539
 21
190.352249
 31
0.0
210
0.0
220
0.0
230
1.0
  0
LINE
  5
566
100
AcDbEntity
  8
0
370
    35
390
0
 62
     7
100
AcDbLine
 10
2296.977539
 20
105.344437
 30
0.0
 11
2261.977539
 21
105.344437
 31
0.0
210
0.0
220
0.0
230
1.0
  0
LINE
  5
567
100
AcDbEntity
  8
0
370
    35
390
0
 62
     7
100
AcDbLine
 10
2296.977539
 20
105.344437
 30
0.0
 11
2296.977539
 21
145.352234
 31
0.0
210
0.0
220
0.0
230
1.0
  0
LINE
  5
568
100
AcDbEntity
  8
0
370
    35
390
0
 62
     7
 48
0.0625
100
AcDbLine
 10
2296.977539
 20
145.352234
 30
0.0
 11
2299.477539
 21
145.352234
 31
0.0
210
0.0
220
0.0
230
1.0
  0
LINE
  5
569
100
AcDbEntity
  8
0
370
    35
390
0
 62
     7
100
AcDbLine
 10
2299.477539
 20
195.344437
 30
0.0
 11
2299.477539
 21
145.352234
 31
0.0
210
0.0
220
0.0
230
1.0
  0
LINE
  5
56A
100
AcDbEntity
  8
0
370
    35
390
0
 62
     7
 48
0.000195
100
AcDbLine
 10
2299.477539
 20
195.352249
 30
0.0
 11
2299.477539
 21
195.344437
 31
0.0
210
0.0
220
0.0
230
1.0
  0
LINE
  5
56B
100
AcDbEntity
  8
0
370
    35
390
0
 62
     7
 48
0.0625
100
AcDbLine
 10
2299.477539
 20
195.344437
 30
0.0
 11
2296.977539
 21
195.344437
 31
0.0
210
0.0
220
0.0
230
1.0
  0
LINE
  5
56C
100
AcDbEntity
  8
0
370
    35
390
0
 62
     7
100
AcDbLine
 10
2296.977539
 20
195.344437
 30
0.0
 11
2296.977539
 21
235.352249
 31
0.0
210
0.0
220
0.0
230
1.0
  0
LINE
  5
56D
100
AcDbEntity
  8
0
370
    35
390
0
 62
     7
100
AcDbLine
 10
2296.977539
 20
235.352249
 30
0.0
 11
2259.477539
 21
235.352249
 31
0.0
210
0.0
220
0.0
230
1.0
  0
ARC
  5
56E
100
AcDbEntity
  8
0
370
    35
390
0
 62
     7
100
AcDbCircle
 10
2299.477539
 20
1366.602173
 30
0.0
 40
1131.956909
210
0.0
220
0.0
230
1.0
100
AcDbArc
 50
252.785633
 51
267.974928
  0
ARC
  5
56F
100
AcDbEntity
  8
0
370
    35
390
0
 62
     7
100
AcDbCircle
 10
1775.469604
 20
-388.647827
 30
0.0
 40
700.0
210
0.0
220
0.0
230
1.0
100
AcDbArc
 50
74.335052
 51
90.000003
  0
LINE
  5
570
100
AcDbEntity
  8
0
370
    35
390
0
 62
     7
100
AcDbLine
 10
1775.469604
 20
311.352234
 30
0.0
 11
1669.477417
 21
311.352234
 31
0.0
210
0.0
220
0.0
230
1.0
  0
LINE
  5
571
100
AcDbEntity
  8
0
370
    35
390
0
 62
     7
100
AcDbLine
 10
1669.477417
 20
250.347244
 30
0.0
 11
1669.477417
 21
311.352234
 31
0.0
210
0.0
220
0.0
230
1.0
  0
LINE
  5
572
100
AcDbEntity
  8
0
370
    35
390
0
 62
     7
 48
0.125
100
AcDbLine
 10
1669.477417
 20
250.347244
 30
0.0
 11
1674.477417
 21
250.347244
 31
0.0
210
0.0
220
0.0
230
1.0
  0
LINE
  5
573
100
AcDbEntity
  8
0
370
    35
390
0
 62
     7
 48
0.125
100
AcDbLine
 10
1669.477417
 20
250.347244
 30
0.0
 11
1674.477417
 21
250.347244
 31
0.0
210
0.0
220
0.0
230
1.0
  0
LINE
  5
574
100
AcDbEntity
  8
0
370
    35
390
0
 62
     7
100
AcDbLine
 10
1674.477417
 20
205.352249
 30
0.0
 11
1674.477417
 21
250.347244
 31
0.0
210
0.0
220
0.0
230
1.0
  0
LINE
  5
575
100
AcDbEntity
  8
0
370
    35
390
0
 62
     7
100
AcDbLine
 10
1674.477417
 20
205.352249
 30
0.0
 11
1709.477417
 21
205.352249
 31
0.0
210
0.0
220
0.0
230
1.0
  0
LINE
  5
576
100
AcDbEntity
  8
0
370
    35
390
0
 62
     7
100
AcDbLine
 10
1709.477417
 20
250.348099
 30
0.0
 11
1709.477417
 21
205.352249
 31
0.0
210
0.0
220
0.0
230
1.0
  0
LINE
  5
577
100
AcDbEntity
  8
0
370
    35
390
0
 62
     7
 48
0.0625
100
AcDbLine
 10
1711.977417
 20
250.348099
 30
0.0
 11
1709.477417
 21
250.348099
 31
0.0
210
0.0
220
0.0
230
1.0
  0
LINE
  5
578
100
AcDbEntity
  8
0
370
    35
390
0
 62
     7
100
AcDbLine
 10
1711.977417
 20
250.348099
 30
0.0
 11
1711.977417
 21
205.352249
 31
0.0
210
0.0
220
0.0
230
1.0
  0
LINE
  5
579
100
AcDbEntity
  8
0
370
    35
390
0
 62
     7
 48
0.0625
100
AcDbLine
 10
1711.977417
 20
205.352249
 30
0.0
 11
1714.477417
 21
205.352249
 31
0.0
210
0.0
220
0.0
230
1.0
  0
LINE
  5
57A
100
AcDbEntity
  8
0
370
    35
390
0
 62
     7
100
AcDbLine
 10
1714.477417
 20
175.352249
 30
0.0
 11
1714.477417
 21
205.352249
 31
0.0
210
0.0
220
0.0
230
1.0
  0
LINE
  5
57B
100
AcDbEntity
  8
0
370
    35
390
0
 62
     7
100
AcDbLine
 10
1746.977417
 20
241.767288
 30
0.0
 11
1746.977417
 21
145.352234
 31
0.0
210
0.0
220
0.0
230
1.0
  0
LINE
  5
57C
100
AcDbEntity
  8
0
370
    35
390
0
 62
     7
100
AcDbLine
 10
1711.977417
 20
145.352234
 30
0.0
 11
1746.977417
 21
145.352234
 31
0.0
210
0.0
220
0.0
230
1.0
  0
LINE
  5
57D
100
AcDbEntity
  8
0
370
    35
390
0
 62
     7
100
AcDbLine
 10
1711.977417
 20
145.352234
 30
0.0
 11
1711.977417
 21
175.352249
 31
0.0
210
0.0
220
0.0
230
1.0
  0
LINE
  5
57E
100
AcDbEntity
  8
0
370
    35
390
0
 62
     7
 48
0.0625
100
AcDbLine
 10
1711.977417
 20
175.352249
 30
0.0
 11
1714.477417
 21
175.352249
 31
0.0
210
0.0
220
0.0
230
1.0
  0
LINE
  5
57F
100
AcDbEntity
  8
0
370
    35
390
0
 62
     7
 48
0.0625
100
AcDbLine
 10
1674.477417
 20
301.352234
 30
0.0
 11
1671.977417
 21
301.352234
 31
0.0
210
0.0
220
0.0
230
1.0
  0
LINE
  5
580
100
AcDbEntity
  8
0
370
    35
390
0
 62
     7
 48
0.125
100
AcDbLine
 10
1674.477417
 20
301.352234
 30
0.0
 11
1674.477417
 21
306.352234
 31
0.0
210
0.0
220
0.0
230
1.0
  0
LINE
  5
581
100
AcDbEntity
  8
0
370
    35
390
0
 62
     7
 48
0.0625
100
AcDbLine
 10
1674.477417
 20
306.352234
 30
0.0
 11
1671.977417
 21
306.352234
 31
0.0
210
0.0
220
0.0
230
1.0
  0
LINE
  5
582
100
AcDbEntity
  8
0
370
    35
390
0
 62
     7
 48
0.125
100
AcDbLine
 10
1671.977417
 20
301.352234
 30
0.0
 11
1671.977417
 21
306.352234
 31
0.0
210
0.0
220
0.0
230
1.0
  0
LINE
  5
583
100
AcDbEntity
  8
0
370
    35
390
0
 62
     7
 48
0.0625
100
AcDbLine
 10
2055.477539
 20
190.343948
 30
0.0
 11
2052.977539
 21
190.343948
 31
0.0
210
0.0
220
0.0
230
1.0
  0
LINE
  5
584
100
AcDbEntity
  8
0
370
    35
390
0
 62
     7
 48
0.125012
100
AcDbLine
 10
2055.477539
 20
190.343948
 30
0.0
 11
2055.477539
 21
195.344437
 31
0.0
210
0.0
220
0.0
230
1.0
  0
LINE
  5
585
100
AcDbEntity
  8
0
370
    35
390
0
 62
     7
 48
0.0625
100
AcDbLine
 10
2052.977539
 20
195.344437
 30
0.0
 11
2055.477539
 21
195.344437
 31
0.0
210
0.0
220
0.0
230
1.0
  0
LINE
  5
586
100
AcDbEntity
  8
0
370
    35
390
0
 62
     7
 48
0.125012
100
AcDbLine
 10
2052.977539
 20
190.343948
 30
0.0
 11
2052.977539
 21
195.344437
 31
0.0
210
0.0
220
0.0
230
1.0
  0
LINE
  5
587
100
AcDbEntity
  8
0
370
    35
390
0
 62
     7
 48
0.0625
100
AcDbLine
 10
2259.477539
 20
230.34639
 30
0.0
 11
2261.977539
 21
230.34639
 31
0.0
210
0.0
220
0.0
230
1.0
  0
LINE
  5
588
100
AcDbEntity
  8
0
370
    35
390
0
 62
     7
 48
0.125003
100
AcDbLine
 10
2259.477539
 20
230.34639
 30
0.0
 11
2259.477539
 21
225.346268
 31
0.0
210
0.0
220
0.0
230
1.0
  0
LINE
  5
589
100
AcDbEntity
  8
0
370
    35
390
0
 62
     7
 48
0.0625
100
AcDbLine
 10
2261.977539
 20
225.346268
 30
0.0
 11
2259.477539
 21
225.346268
 31
0.0
210
0.0
220
0.0
230
1.0
  0
LINE
  5
58A
100
AcDbEntity
  8
0
370
    35
390
0
 62
     7
 48
0.125003
100
AcDbLine
 10
2261.977539
 20
230.34639
 30
0.0
 11
2261.977539
 21
225.346268
 31
0.0
210
0.0
220
0.0
230
1.0
  0
LINE
  5
58B
100
AcDbEntity
  8
0
370
    35
390
0
 62
     7
 48
0.0625
100
AcDbLine
 10
2157.477539
 20
190.343948
 30
0.0
 11
2154.977539
 21
190.343948
 31
0.0
210
0.0
220
0.0
230
1.0
  0
LINE
  5
58C
100
AcDbEntity
  8
0
370
    35
390
0
 62
     7
 48
0.125012
100
AcDbLine
 10
2157.477539
 20
190.343948
 30
0.0
 11
2157.477539
 21
195.344437
 31
0.0
210
0.0
220
0.0
230
1.0
  0
LINE
  5
58D
100
AcDbEntity
  8
0
370
    35
390
0
 62
     7
 48
0.0625
100
AcDbLine
 10
2154.977539
 20
195.344437
 30
0.0
 11
2157.477539
 21
195.344437
 31
0.0
210
0.0
220
0.0
230
1.0
  0
LINE
  5
58E
100
AcDbEntity
  8
0
370
    35
390
0
 62
     7
 48
0.125012
100
AcDbLine
 10
2154.977539
 20
190.343948
 30
0.0
 11
2154.977539
 21
195.344437
 31
0.0
210
0.0
220
0.0
230
1.0
  0
LINE
  5
58F
100
AcDbEntity
  8
0
370
    35
390
0
 62
     7
 48
0.0625
100
AcDbLine
 10
1851.477417
 20
190.343948
 30
0.0
 11
1848.977417
 21
190.343948
 31
0.0
210
0.0
220
0.0
230
1.0
  0
LINE
  5
590
100
AcDbEntity
  8
0
370
    35
390
0
 62
     7
 48
0.125012
100
AcDbLine
 10
1851.477417
 20
190.343948
 30
0.0
 11
1851.477417
 21
195.344437
 31
0.0
210
0.0
220
0.0
230
1.0
  0
LINE
  5
591
100
AcDbEntity
  8
0
370
    35
390
0
 62
     7
 48
0.0625
100
AcDbLine
 10
1848.977417
 20
195.344437
 30
0.0
 11
1851.477417
 21
195.344437
 31
0.0
210
0.0
220
0.0
230
1.0
  0
LINE
  5
592
100
AcDbEntity
  8
0
370
    35
390
0
 62
     7
 48
0.125012
100
AcDbLine
 10
1848.977417
 20
190.343948
 30
0.0
 11
1848.977417
 21
195.344437
 31
0.0
210
0.0
220
0.0
230
1.0
  0
LINE
  5
593
100
AcDbEntity
  8
0
370
    35
390
0
 62
     7
 48
0.0625
100
AcDbLine
 10
1950.977417
 20
195.344437
 30
0.0
 11
1953.477417
 21
195.344437
 31
0.0
210
0.0
220
0.0
230
1.0
  0
LINE
  5
594
100
AcDbEntity
  8
0
370
    35
390
0
 62
     7
 48
0.125012
100
AcDbLine
 10
1950.977417
 20
190.343948
 30
0.0
 11
1950.977417
 21
195.344437
 31
0.0
210
0.0
220
0.0
230
1.0
  0
LINE
  5
595
100
AcDbEntity
  8
0
370
    35
390
0
 62
     7
 48
0.0625
100
AcDbLine
 10
1953.477417
 20
190.343948
 30
0.0
 11
1950.977417
 21
190.343948
 31
0.0
210
0.0
220
0.0
230
1.0
  0
LINE
  5
596
100
AcDbEntity
  8
0
370
    35
390
0
 62
     7
 48
0.125012
100
AcDbLine
 10
1953.477417
 20
190.343948
 30
0.0
 11
1953.477417
 21
195.344437
 31
0.0
210
0.0
220
0.0
230
1.0
  0
LINE
  5
597
100
AcDbEntity
  8
0
370
    35
390
0
 62
     7
 48
0.0625
100
AcDbLine
 10
1711.977417
 20
301.352234
 30
0.0
 11
1709.477417
 21
301.352234
 31
0.0
210
0.0
220
0.0
230
1.0
  0
LINE
  5
598
100
AcDbEntity
  8
0
370
    35
390
0
 62
     7
 48
0.125
100
AcDbLine
 10
1711.977417
 20
301.352234
 30
0.0
 11
1711.977417
 21
306.352234
 31
0.0
210
0.0
220
0.0
230
1.0
  0
LINE
  5
599
100
AcDbEntity
  8
0
370
    35
390
0
 62
     7
 48
0.0625
100
AcDbLine
 10
1711.977417
 20
306.352234
 30
0.0
 11
1709.477417
 21
306.352234
 31
0.0
210
0.0
220
0.0
230
1.0
  0
LINE
  5
59A
100
AcDbEntity
  8
0
370
    35
390
0
 62
     7
 48
0.125
100
AcDbLine
 10
1709.477417
 20
301.352234
 30
0.0
 11
1709.477417
 21
306.352234
 31
0.0
210
0.0
220
0.0
230
1.0
  0
LINE
  5
59B
100
AcDbEntity
  8
0
370
    35
390
0
 62
     7
 48
0.0625
100
AcDbLine
 10
1749.477417
 20
301.352234
 30
0.0
 11
1746.977417
 21
301.352234
 31
0.0
210
0.0
220
0.0
230
1.0
  0
LINE
  5
59C
100
AcDbEntity
  8
0
370
    35
390
0
 62
     7
 48
0.125
100
AcDbLine
 10
1749.477417
 20
301.352234
 30
0.0
 11
1749.477417
 21
306.352234
 31
0.0
210
0.0
220
0.0
230
1.0
  0
LINE
  5
59D
100
AcDbEntity
  8
0
370
    35
390
0
 62
     7
 48
0.0625
100
AcDbLine
 10
1749.477417
 20
306.352234
 30
0.0
 11
1746.977417
 21
306.352234
 31
0.0
210
0.0
220
0.0
230
1.0
  0
LINE
  5
59E
100
AcDbEntity
  8
0
370
    35
390
0
 62
     7
 48
0.125
100
AcDbLine
 10
1746.977417
 20
301.352234
 30
0.0
 11
1746.977417
 21
306.352234
 31
0.0
210
0.0
220
0.0
230
1.0
  0
LINE
  5
59F
100
AcDbEntity
  8
0
370
    35
390
0
 62
     7
 48
0.0625
100
AcDbLine
 10
2299.477539
 20
195.352249
 30
0.0
 11
2296.977539
 21
195.352249
 31
0.0
210
0.0
220
0.0
230
1.0
  0
ENDSEC
  0
SECTION
  2
OBJECTS
  0
DICTIONARY
  5
19
100
AcDbDictionary
280
     0
281
     1
  3
ACAD_GROUP
350
1A
  3
ACAD_MLINESTYLE
350
1B
  3
ACAD_LAYOUT
350
1E
  3
ACAD_PLOTSETTINGS
350
22
  3
ACAD_PLOTSTYLENAME
350
1F
  3
ACAD_WIPEOUT_VARS
350
23
  0
DICTIONARY
  5
1A
102
{ACAD_REACTORS
330
19
102
}
100
AcDbDictionary
280
     0
281
     1
  0
DICTIONARY
  5
1B
102
{ACAD_REACTORS
330
19
102
}
100
AcDbDictionary
280
     0
281
     1
  3
Standard
350
1C
  0
MLINESTYLE
  5
1C
102
{ACAD_REACTORS
330
1B
102
}
100
AcDbMlineStyle
  2
Standard
 70
     0
  3

 62
     0
 51
90.0
 52
90.0
 71
     2
 49
0.5
 62
   256
  6
ByLayer
 49
-0.5
 62
   256
  6
ByLayer
  0
ACDBDICTIONARYWDFLT
  5
1F
102
{ACAD_REACTORS
330
19
102
}
100
AcDbDictionary
281
     1
  3
Normal
350
1D
100
AcDbDictionaryWithDefault
340
1D
  0
ACDBPLACEHOLDER
  5
1D
102
{ACAD_REACTORS
330
1F
102
}
  0
LAYOUT
  5
20
102
{ACAD_REACTORS
330
1E
102
}
100
AcDbPlotSettings
  1

  2

  4

  6

 40
0.0
 41
0.0
 42
0.0
 43
0.0
 44
0.0
 45
0.0
 46
0.0
 47
0.0
 48
0.0
 49
0.0
140
0.0
141
0.0
142
1.0
143
1.0
 70
  1024
 72
     0
 73
     0
 74
     0
  7

 75
     0
147
1.0
148
0.0
149
0.0
100
AcDbLayout
  1
Model
 70
     0
 71
     0
 10
0.0
 20
0.0
 11
0.0
 21
0.0
 12
0.0
 22
0.0
 32
0.0
 14
0.0
 24
0.0
 34
0.0
 15
0.0
 25
0.0
 35
0.0
146
0.0
 13
0.0
 23
0.0
 33
0.0
 16
0.0
 26
0.0
 36
0.0
 17
0.0
 27
0.0
 37
0.0
 76
     0
330
A
331
0
345
0
346
0
  0
LAYOUT
  5
21
102
{ACAD_REACTORS
330
1E
102
}
100
AcDbPlotSettings
  1

  2

  4

  6

 40
0.0
 41
0.0
 42
0.0
 43
0.0
 44
0.0
 45
0.0
 46
0.0
 47
0.0
 48
0.0
 49
0.0
140
0.0
141
0.0
142
1.0
143
1.0
 70
     0
 72
     0
 73
     0
 74
     0
  7

 75
     0
147
1.0
148
0.0
149
0.0
100
AcDbLayout
  1
Layout1
 70
     0
 71
     0
 10
0.0
 20
0.0
 11
0.0
 21
0.0
 12
0.0
 22
0.0
 32
0.0
 14
0.0
 24
0.0
 34
0.0
 15
0.0
 25
0.0
 35
0.0
146
0.0
 13
0.0
 23
0.0
 33
0.0
 16
0.0
 26
0.0
 36
0.0
 17
0.0
 27
0.0
 37
0.0
 76
     0
330
B
331
0
345
0
346
0
  0
DICTIONARY
  5
1E
102
{ACAD_REACTORS
330
19
102
}
100
AcDbDictionary
280
     0
281
     1
  3
Layout1
350
21
  3
Model
350
20
  0
DICTIONARY
  5
22
102
{ACAD_REACTORS
330
19
102
}
100
AcDbDictionary
280
     0
281
     1
  0
WIPEOUTVARIABLES
  5
23
100
AcDbWipeoutVariables
 70
     1
  0
ENDSEC
  0
EOF
