0
SECTION
2
HEADER
9
$INSUNITS
70
1
0
ENDSEC
0
SECTION
2
TABLES
0
TABLE
2
LTYPE
0
LTYPE
72
65
70
64
2
CONTINUOUS
3
______
73
0
40
0
0
ENDTAB
0
TABLE
2
LAYER
0
ENDTAB
0
ENDSEC
0
SECTION
2
ENTITIES
0
LINE
8
front_outsideCutPath
10
0
20
4.125
11
0
21
2.67075
0
LINE
8
front_outsideCutPath
10
0
20
2.67075
11
0.118
21
2.67075
0
LINE
8
front_outsideCutPath
10
0.118
20
2.67075
11
0.118
21
1.57925
0
LINE
8
front_outsideCutPath
10
0.118
20
1.57925
11
0
21
1.57925
0
LINE
8
front_outsideCutPath
10
0
20
1.57925
11
0
21
0.48775
0
LINE
8
front_outsideCutPath
10
0
20
0.48775
11
0
21
0.125
0
LINE
8
front_outsideCutPath
10
0
20
0.125
11
1.45425
21
0.125
0
LINE
8
front_outsideCutPath
10
1.45425
20
0.125
11
1.45425
21
0.243
0
LINE
8
front_outsideCutPath
10
1.45425
20
0.243
11
2.54575
21
0.243
0
LINE
8
front_outsideCutPath
10
2.54575
20
0.243
11
2.54575
21
0.125
0
LINE
8
front_outsideCutPath
10
2.54575
20
0.125
11
3.63725
21
0.125
0
LINE
8
front_outsideCutPath
10
3.63725
20
0.125
11
4
21
0.125
0
LINE
8
front_outsideCutPath
10
4
20
0.125
11
4
21
1.57925
0
LINE
8
front_outsideCutPath
10
4
20
1.57925
11
3.882
21
1.57925
0
LINE
8
front_outsideCutPath
10
3.882
20
1.57925
11
3.882
21
2.67075
0
LINE
8
front_outsideCutPath
10
3.882
20
2.67075
11
4
21
2.67075
0
LINE
8
front_outsideCutPath
10
4
20
2.67075
11
4
21
3.76225
0
LINE
8
front_outsideCutPath
10
4
20
3.76225
11
4
21
4.125
0
LINE
8
front_outsideCutPath
10
4
20
4.125
11
0
21
4.125
0
LINE
8
front_labelLayer
10
1.3373047
20
2.2509851
11
1.3373047
21
2.2005944
0
LINE
8
front_labelLayer
10
1.3373047
20
2.2005944
11
1.2283203
21
2.2005944
0
LINE
8
front_labelLayer
10
1.2283203
20
2.2005944
11
1.2283203
21
1.8228601
0
LINE
8
front_labelLayer
10
1.2283203
20
1.8228601
11
1.1634766
21
1.8228601
0
LINE
8
front_labelLayer
10
1.1634766
20
1.8228601
11
1.1634766
21
2.2005944
0
LINE
8
front_labelLayer
10
1.1634766
20
2.2005944
11
1.0869141
21
2.2005944
0
LINE
8
front_labelLayer
10
1.0869141
20
2.2005944
11
1.0869141
21
2.2298913
0
LINE
8
front_labelLayer
10
1.0869141
20
2.2298913
11
1.1634766
21
2.2533288
0
LINE
8
front_labelLayer
10
1.1634766
20
2.2533288
11
1.1634766
21
2.2771569
0
LINE
8
front_labelLayer
10
1.3810547
20
2.4212976
11
1.3642578
21
2.3693444
0
LINE
8
front_labelLayer
10
1.2283203
20
2.2787194
11
1.2283203
21
2.2509851
0
LINE
8
front_labelLayer
10
1.2283203
20
2.2509851
11
1.3373047
21
2.2509851
0
ARC
8
front_labelLayer
10
1.4262573
20
2.2801789
40
0.2627981
50
167.577386
51
180.6588771
0
ARC
8
front_labelLayer
10
1.3026837
20
2.3089905
40
0.1359286
50
141.7431422
51
168.2323149
0
ARC
8
front_labelLayer
10
1.2825638
20
2.3194917
40
0.1137055
50
98.2550248
51
139.6202577
0
ARC
8
front_labelLayer
10
1.300232
20
2.2378622
40
0.1971105
50
89.6700356
51
99.9309842
0
ARC
8
front_labelLayer
10
1.3002817
20
2.2261638
40
0.2088084
50
81.5643691
51
89.7021608
0
ARC
8
front_labelLayer
10
1.2856035
20
2.12376
40
0.3122579
50
75.973907
51
81.6566644
0
ARC
8
front_labelLayer
10
1.2603784
20
2.0191412
40
0.4198721
50
73.296923
51
76.0943788
0
ARC
8
front_labelLayer
10
1.2667477
20
2.069918
40
0.3149038
50
71.9618356
51
76.5919699
0
ARC
8
front_labelLayer
10
1.291181
20
2.1735605
40
0.2084209
50
76.5189098
51
83.0219252
0
ARC
8
front_labelLayer
10
1.2996906
20
2.2419863
40
0.1394683
50
83.0768152
51
89.7926752
0
ARC
8
front_labelLayer
10
1.2994099
20
2.2940149
40
0.0874425
50
89.4853838
51
103.4202324
0
ARC
8
front_labelLayer
10
1.2915259
20
2.3242994
40
0.0561587
50
102.7673155
51
144.338405
0
ARC
8
front_labelLayer
10
1.3074148
20
2.314077
40
0.0750337
50
145.0697534
51
162.1798419
0
ARC
8
front_labelLayer
10
1.3618628
20
2.2957576
40
0.1324781
50
161.8434648
51
171.7848061
0
ARC
8
front_labelLayer
10
1.4507274
20
2.2824124
40
0.2223383
50
171.653327
51
178.4377719
0
ARC
8
front_labelLayer
10
1.5342703
20
2.2788493
40
0.3059499
50
178.19727
51
180.0243186
0
LINE
8
front_labelLayer
10
1.6619141
20
2.2541101
11
1.6529297
21
2.1939538
0
LINE
8
front_labelLayer
10
1.4802734
20
2.0525476
11
1.4802734
21
1.8228601
0
LINE
8
front_labelLayer
10
1.4802734
20
1.8228601
11
1.4154297
21
1.8228601
0
LINE
8
front_labelLayer
10
1.4154297
20
1.8228601
11
1.4154297
21
2.2509851
0
LINE
8
front_labelLayer
10
1.4154297
20
2.2509851
11
1.4689453
21
2.2509851
0
LINE
8
front_labelLayer
10
1.4689453
20
2.2509851
11
1.4763672
21
2.1716882
0
LINE
8
front_labelLayer
10
1.4763672
20
2.1716882
11
1.4794922
21
2.1716882
0
ARC
8
front_labelLayer
10
1.6114099
20
1.9611263
40
0.297672
50
84.9924491
51
90.1285285
0
ARC
8
front_labelLayer
10
1.6185576
20
2.041216
40
0.217264
50
78.4889585
51
85.0266114
0
ARC
8
front_labelLayer
10
1.5907909
20
1.9149118
40
0.2858771
50
77.4458722
51
81.6351591
0
ARC
8
front_labelLayer
10
1.6032598
20
2.0008412
40
0.1990479
50
81.5878192
51
87.1914046
0
ARC
8
front_labelLayer
10
1.6059688
20
2.0479134
40
0.1518998
50
87.3420074
51
89.9676118
0
ARC
8
front_labelLayer
10
1.6053359
20
2.0874602
40
0.1123552
50
89.6334499
51
137.0879368
0
ARC
8
front_labelLayer
10
1.6328062
20
2.0565507
40
0.1535702
50
135.6199093
51
138.8397157
0
ARC
8
front_labelLayer
10
1.6288713
20
2.0603958
40
0.1480774
50
138.9577831
51
174.5419872
0
ARC
8
front_labelLayer
10
1.6771392
20
2.052849
40
0.1968659
50
173.6916753
51
180.0877441
0
ARC
8
front_labelLayer
10
1.6702704
20
2.0642054
40
0.2189723
50
139.41374
51
150.6034651
0
ARC
8
front_labelLayer
10
1.6310143
20
2.0978443
40
0.1672749
50
124.2322023
51
139.4160007
0
ARC
8
front_labelLayer
10
1.6100192
20
2.1295358
40
0.1292637
50
89.679558
51
124.4405461
0
ARC
8
front_labelLayer
10
1.7765821
20
2.0350551
40
0.334949
50
349.1763443
51
0.3862683
0
ARC
8
front_labelLayer
10
1.8893546
20
2.012575
40
0.219963
50
330.2506036
51
349.4115498
0
ARC
8
front_labelLayer
10
1.9240505
20
1.9945422
40
0.1808988
50
318.1444194
51
329.7564337
0
ARC
8
front_labelLayer
10
1.930322
20
1.9895177
40
0.1728754
50
278.8960073
51
317.9978505
0
ARC
8
front_labelLayer
10
1.9141834
20
2.0668343
40
0.2517892
50
269.7502702
51
279.8035482
0
ARC
8
front_labelLayer
10
1.9115666
20
2.0232749
40
0.2082329
50
253.543622
51
270.4180554
0
ARC
8
front_labelLayer
10
1.9046321
20
1.996456
40
0.1805508
50
238.811443
51
253.2431052
0
ARC
8
front_labelLayer
10
1.9023981
20
1.9919621
40
0.1755499
50
207.7947236
51
238.675642
0
ARC
8
front_labelLayer
10
1.9345808
20
2.0116656
40
0.2132212
50
205.6570391
51
208.4459165
0
ARC
8
front_labelLayer
10
1.9592259
20
2.021925
40
0.2398827
50
188.9104529
51
205.3171201
0
ARC
8
front_labelLayer
10
2.042538
20
2.0360363
40
0.3243765
50
179.7744522
51
189.0935728
0
ARC
8
front_labelLayer
10
2.0548419
20
2.0395935
40
0.3366855
50
169.244328
51
180.3880586
0
ARC
8
front_labelLayer
10
1.9405037
20
2.0621943
40
0.2201399
50
150.7111349
51
169.4696653
0
ARC
8
front_labelLayer
10
1.9040095
20
2.0809352
40
0.179149
50
138.1762471
51
150.2287576
0
ARC
8
front_labelLayer
10
1.8979344
20
2.0855966
40
0.1715143
50
99.1759624
51
137.9833325
0
ARC
8
front_labelLayer
10
1.9146452
20
2.0069533
40
0.2518471
50
89.7326528
51
100.0759795
0
ARC
8
front_labelLayer
10
1.9179844
20
2.0409171
40
0.2178912
50
73.5221181
51
90.5690812
0
ARC
8
front_labelLayer
10
1.9307624
20
2.0873417
40
0.1697515
50
41.1447204
51
73.2132889
0
ARC
8
front_labelLayer
10
1.9063714
20
2.0663779
40
0.2019127
50
13.5015179
51
41.0704863
0
ARC
8
front_labelLayer
10
1.8121244
20
2.0417163
40
0.2993192
50
1.1278154
51
13.8797899
0
ARC
8
front_labelLayer
10
1.7314885
20
2.0373743
40
0.3800349
50
359.9907787
51
1.5430191
0
ARC
8
front_labelLayer
10
2.1137082
20
2.035628
40
0.3283609
50
179.7059533
51
187.916232
0
ARC
8
front_labelLayer
10
1.9932867
20
2.0183292
40
0.2067053
50
187.7640742
51
200.0974121
0
ARC
8
front_labelLayer
10
1.9269369
20
1.9940208
40
0.1360427
50
200.085069
51
216.9130132
0
ARC
8
front_labelLayer
10
1.9027051
20
1.9767183
40
0.106279
50
217.3009009
51
261.7098175
0
ARC
8
front_labelLayer
10
1.9139523
20
2.0303896
40
0.1610467
50
260.503336
51
270.2476757
0
ARC
8
front_labelLayer
10
1.9160991
20
2.019955
40
0.1506175
50
269.4481605
51
284.7253533
0
ARC
8
front_labelLayer
10
1.9280229
20
1.9757322
40
0.1048167
50
284.5660678
51
322.63358
0
ARC
8
front_labelLayer
10
1.9001488
20
1.9958716
40
0.1391961
50
323.0085069
51
342.6391979
0
ARC
8
front_labelLayer
10
1.8204112
20
2.0219325
40
0.2230799
50
342.3615719
51
353.7538372
0
ARC
8
front_labelLayer
10
1.702789
20
2.0361109
40
0.3415489
50
353.5362747
51
0.2016839
0
ARC
8
front_labelLayer
10
1.7208088
20
2.0389658
40
0.3235314
50
359.7073289
51
7.8973263
0
ARC
8
front_labelLayer
10
1.8392892
20
2.0559511
40
0.2038416
50
7.7440828
51
20.0691926
0
ARC
8
front_labelLayer
10
1.9053095
20
2.0801776
40
0.1335167
50
20.0261614
51
37.4346543
0
ARC
8
front_labelLayer
10
1.927222
20
2.095725
40
0.1066711
50
37.9579729
51
80.4003659
0
ARC
8
front_labelLayer
10
1.9147745
20
2.0401867
40
0.1635352
50
79.3451919
51
90.3178771
0
ARC
8
front_labelLayer
10
1.9124683
20
2.0494007
40
0.1543251
50
89.4806306
51
103.8801225
0
ARC
8
front_labelLayer
10
1.8995009
20
2.0987837
40
0.1032759
50
103.4683454
51
142.3119643
0
ARC
8
front_labelLayer
10
1.924711
20
2.081054
40
0.1340722
50
142.902633
51
162.3748601
0
ARC
8
front_labelLayer
10
2.0041442
20
2.0545838
40
0.2177947
50
162.0654193
51
173.1675171
0
ARC
8
front_labelLayer
10
2.1280301
20
2.0387851
40
0.3426817
50
173.0089817
51
180.2460994
0
LINE
8
front_labelLayer
10
2.5830078
20
1.8228601
11
2.5181641
21
1.8228601
0
LINE
8
front_labelLayer
10
2.5181641
20
1.8228601
11
2.5181641
21
2.0998132
0
LINE
8
front_labelLayer
10
2.2900391
20
2.0474694
11
2.2900391
21
1.8228601
0
LINE
8
front_labelLayer
10
2.2900391
20
1.8228601
11
2.2251953
21
1.8228601
0
LINE
8
front_labelLayer
10
2.2251953
20
1.8228601
11
2.2251953
21
2.2509851
0
LINE
8
front_labelLayer
10
2.2251953
20
2.2509851
11
2.2779297
21
2.2509851
0
LINE
8
front_labelLayer
10
2.2779297
20
2.2509851
11
2.2884766
21
2.1923913
0
LINE
8
front_labelLayer
10
2.2884766
20
2.1923913
11
2.2916016
21
2.1923913
0
LINE
8
front_labelLayer
10
2.5830078
20
2.1021569
11
2.5830078
21
1.8228601
0
ARC
8
front_labelLayer
10
2.3348612
20
2.1008643
40
0.1833059
50
359.6714543
51
8.6873303
0
ARC
8
front_labelLayer
10
2.4028071
20
2.1116387
40
0.1145127
50
8.4931591
51
22.6582486
0
ARC
8
front_labelLayer
10
2.4373219
20
2.1259831
40
0.0771359
50
22.7020058
51
42.3418974
0
ARC
8
front_labelLayer
10
2.4412001
20
2.1277266
40
0.0731069
50
43.3791816
51
71.5383713
0
ARC
8
front_labelLayer
10
2.4266942
20
2.0871957
40
0.1161491
50
71.0823297
51
84.3695959
0
ARC
8
front_labelLayer
10
2.4201781
20
2.0317965
40
0.1719236
50
84.0198803
51
90.1504753
0
ARC
8
front_labelLayer
10
2.4183326
20
2.0074846
40
0.1962398
50
89.5930114
51
100.3721744
0
ARC
8
front_labelLayer
10
2.4044633
20
2.0802413
40
0.1221762
50
100.1173187
51
118.1604219
0
ARC
8
front_labelLayer
10
2.3904888
20
2.1076444
40
0.0914237
50
118.5441909
51
139.1927493
0
ARC
8
front_labelLayer
10
2.4026795
20
2.099465
40
0.1060113
50
140.1525242
51
160.3142529
0
ARC
8
front_labelLayer
10
2.4762507
20
2.0719073
40
0.1845694
50
159.9529657
51
171.380617
0
ARC
8
front_labelLayer
10
2.5964674
20
2.0525811
40
0.3063267
50
171.1765396
51
178.321985
0
ARC
8
front_labelLayer
10
2.7056708
20
2.047641
40
0.4156316
50
178.082095
51
180.0236488
0
ARC
8
front_labelLayer
10
2.4025263
20
2.1221389
40
0.1313
50
116.9441762
51
147.6525392
0
ARC
8
front_labelLayer
10
2.4163411
20
2.098991
40
0.1582056
50
115.8097219
51
117.6056143
0
ARC
8
front_labelLayer
10
2.4231799
20
2.0829906
40
0.1755892
50
94.3225989
51
115.5455078
0
ARC
8
front_labelLayer
10
2.4273854
20
2.0464732
40
0.2123246
50
89.9585275
51
94.7114872
0
ARC
8
front_labelLayer
10
2.42912
20
2.0027895
40
0.256013
50
80.558477
51
90.3538132
0
ARC
8
front_labelLayer
10
2.44512
20
2.0954655
40
0.1619687
50
65.109145
51
80.7638681
0
ARC
8
front_labelLayer
10
2.463821
20
2.1368867
40
0.1165251
50
46.5584765
51
64.8780827
0
ARC
8
front_labelLayer
10
2.4653176
20
2.1412026
40
0.1123781
50
19.3847606
51
45.5993881
0
ARC
8
front_labelLayer
10
2.4003195
20
2.1168118
40
0.1817929
50
6.9628543
51
19.8369023
0
ARC
8
front_labelLayer
10
2.3000192
20
2.1033267
40
0.2829909
50
359.7631566
51
7.2112096
0
LINE
8
front_labelLayer
10
2.9130859
20
1.8763757
11
2.9130859
21
1.8267663
0
LINE
8
front_labelLayer
10
2.7208984
20
1.9459069
11
2.7208984
21
2.2005944
0
LINE
8
front_labelLayer
10
2.7208984
20
2.2005944
11
2.6595703
21
2.2005944
0
LINE
8
front_labelLayer
10
2.6595703
20
2.2005944
11
2.6595703
21
2.2318444
0
LINE
8
front_labelLayer
10
2.6595703
20
2.2318444
11
2.7208984
21
2.2587976
0
LINE
8
front_labelLayer
10
2.7208984
20
2.2587976
11
2.7482422
21
2.3502038
0
LINE
8
front_labelLayer
10
2.7482422
20
2.3502038
11
2.7857422
21
2.3502038
0
LINE
8
front_labelLayer
10
2.7857422
20
2.3502038
11
2.7857422
21
2.2509851
0
LINE
8
front_labelLayer
10
2.7857422
20
2.2509851
11
2.9099609
21
2.2509851
0
LINE
8
front_labelLayer
10
2.9099609
20
2.2509851
11
2.9099609
21
2.2005944
0
LINE
8
front_labelLayer
10
2.9099609
20
2.2005944
11
2.7857422
21
2.2005944
0
LINE
8
front_labelLayer
10
2.7857422
20
2.2005944
11
2.7857422
21
1.9486413
0
ARC
8
front_labelLayer
10
2.8549382
20
2.0815188
40
0.2129561
50
269.879997
51
278.3024663
0
ARC
8
front_labelLayer
10
2.8571212
20
2.0639768
40
0.1952829
50
278.4118817
51
279.0074698
0
ARC
8
front_labelLayer
10
2.8331187
20
2.2173167
40
0.3504897
50
278.958281
51
280.5110044
0
ARC
8
front_labelLayer
10
2.8558926
20
2.0951564
40
0.2262248
50
280.4839747
51
282.6285311
0
ARC
8
front_labelLayer
10
2.8758122
20
2.006697
40
0.1355505
50
282.5871425
51
285.5787887
0
ARC
8
front_labelLayer
10
2.8860605
20
1.9689871
40
0.0964739
50
285.7306322
51
286.2680348
0
ARC
8
front_labelLayer
10
2.8858223
20
1.8844292
40
0.0637834
50
287.9895683
51
295.3052585
0
ARC
8
front_labelLayer
10
2.8704243
20
1.9310225
40
0.1128546
50
283.3086929
51
288.119149
0
ARC
8
front_labelLayer
10
2.8542068
20
1.998678
40
0.1824264
50
280.0059493
51
283.3739479
0
ARC
8
front_labelLayer
10
2.8432929
20
2.0578404
40
0.2425858
50
279.1888755
51
280.1165972
0
ARC
8
front_labelLayer
10
2.836645
20
2.0957099
40
0.2810312
50
275.5257553
51
279.2939123
0
ARC
8
front_labelLayer
10
2.8441663
20
2.0171198
40
0.2020821
50
270.8925541
51
275.5488149
0
ARC
8
front_labelLayer
10
2.8451232
20
1.9794573
40
0.1644097
50
269.9979137
51
270.7635923
0
ARC
8
front_labelLayer
10
2.8425
20
1.9843881
40
0.1693608
50
253.7848156
51
270.8854429
0
ARC
8
front_labelLayer
10
2.8224356
20
1.9159607
40
0.0980525
50
190.3817828
51
253.8772612
0
ARC
8
front_labelLayer
10
2.9247014
20
1.9436121
40
0.2038158
50
179.354861
51
192.8478523
0
ARC
8
front_labelLayer
10
2.9163177
20
1.9478257
40
0.1305781
50
179.642129
51
189.7507278
0
ARC
8
front_labelLayer
10
2.8702199
20
1.9396031
40
0.0837542
50
189.5478405
51
205.7869718
0
ARC
8
front_labelLayer
10
2.851273
20
1.9308663
40
0.0628944
50
206.1291188
51
221.4087188
0
ARC
8
front_labelLayer
10
2.8491513
20
1.9292564
40
0.0602386
50
221.595082
51
262.3504407
0
ARC
8
front_labelLayer
10
2.8542016
20
1.9552244
40
0.0866616
50
261.3264892
51
270.1920986
0
LINE
8
left_outsideCutPath
10
4.243
20
4.125
11
4.243
21
2.67075
0
LINE
8
left_outsideCutPath
10
4.243
20
2.67075
11
4.125
21
2.67075
0
LINE
8
left_outsideCutPath
10
4.125
20
2.67075
11
4.125
21
1.57925
0
LINE
8
left_outsideCutPath
10
4.125
20
1.57925
11
4.243
21
1.57925
0
LINE
8
left_outsideCutPath
10
4.243
20
1.57925
11
4.243
21
0.48775
0
LINE
8
left_outsideCutPath
10
4.243
20
0.48775
11
4.243
21
0.125
0
LINE
8
left_outsideCutPath
10
4.243
20
0.125
11
5.57925
21
0.125
0
LINE
8
left_outsideCutPath
10
5.57925
20
0.125
11
5.57925
21
0.243
0
LINE
8
left_outsideCutPath
10
5.57925
20
0.243
11
6.67075
21
0.243
0
LINE
8
left_outsideCutPath
10
6.67075
20
0.243
11
6.67075
21
0.125
0
LINE
8
left_outsideCutPath
10
6.67075
20
0.125
11
7.76225
21
0.125
0
LINE
8
left_outsideCutPath
10
7.76225
20
0.125
11
8.007
21
0.125
0
LINE
8
left_outsideCutPath
10
8.007
20
0.125
11
8.007
21
1.57925
0
LINE
8
left_outsideCutPath
10
8.007
20
1.57925
11
8.125
21
1.57925
0
LINE
8
left_outsideCutPath
10
8.125
20
1.57925
11
8.125
21
2.67075
0
LINE
8
left_outsideCutPath
10
8.125
20
2.67075
11
8.007
21
2.67075
0
LINE
8
left_outsideCutPath
10
8.007
20
2.67075
11
8.007
21
3.76225
0
LINE
8
left_outsideCutPath
10
8.007
20
3.76225
11
8.007
21
4.125
0
LINE
8
left_outsideCutPath
10
8.007
20
4.125
11
4.243
21
4.125
0
LINE
8
left_labelLayer
10
5.6302734
20
2.4306726
11
5.6302734
21
1.8228601
0
LINE
8
left_labelLayer
10
5.6302734
20
1.8228601
11
5.5654297
21
1.8228601
0
LINE
8
left_labelLayer
10
5.5654297
20
1.8228601
11
5.5654297
21
2.4306726
0
LINE
8
left_labelLayer
10
5.5654297
20
2.4306726
11
5.6302734
21
2.4306726
0
LINE
8
left_labelLayer
10
6.1060547
20
2.0662194
11
6.1060547
21
2.0252038
0
LINE
8
left_labelLayer
10
6.1060547
20
2.0252038
11
5.8111328
21
2.0252038
0
LINE
8
left_labelLayer
10
6.0876953
20
1.9005944
11
6.0876953
21
1.8427819
0
LINE
8
left_labelLayer
10
5.8126953
20
2.0779382
11
6.0365234
21
2.0779382
0
ARC
8
left_labelLayer
10
5.9465006
20
2.0670211
40
0.2519825
50
256.0089537
51
270.4848211
0
ARC
8
left_labelLayer
10
5.9281513
20
1.9957832
40
0.1784226
50
223.546594
51
256.1957654
0
ARC
8
left_labelLayer
10
5.9382747
20
2.0031408
40
0.1908361
50
194.0877816
51
223.0537493
0
ARC
8
left_labelLayer
10
6.0310169
20
2.0285028
40
0.2869695
50
181.3573089
51
194.4920922
0
ARC
8
left_labelLayer
10
6.1138952
20
2.0333277
40
0.36995
50
179.9877246
51
181.8003034
0
ARC
8
left_labelLayer
10
6.0844366
20
2.03569
40
0.3404989
50
168.9539565
51
180.3841756
0
ARC
8
left_labelLayer
10
5.9732293
20
2.0583333
40
0.2270155
50
149.4072421
51
169.1853371
0
ARC
8
left_labelLayer
10
5.9422177
20
2.0747233
40
0.1919863
50
140.1049536
51
148.9075703
0
ARC
8
left_labelLayer
10
5.9232094
20
2.092253
40
0.1661642
50
92.4763701
51
140.5385938
0
ARC
8
left_labelLayer
10
5.9316884
20
2.0295751
40
0.2292223
50
89.9631106
51
93.9169867
0
ARC
8
left_labelLayer
10
5.9337152
20
2.0612526
40
0.1975539
50
74.2126028
51
90.5450365
0
ARC
8
left_labelLayer
10
5.9460878
20
2.1068406
40
0.1503202
50
41.2065404
51
74.0231093
0
ARC
8
left_labelLayer
10
5.9226556
20
2.0865616
40
0.1813086
50
11.5995576
51
41.1497025
0
ARC
8
left_labelLayer
10
5.8421411
20
2.0679938
40
0.2639196
50
359.6147964
51
12.0336544
0
ARC
8
left_labelLayer
10
6.07133
20
2.0304024
40
0.2602491
50
181.1445804
51
190.8009456
0
ARC
8
left_labelLayer
10
5.979526
20
2.0122954
40
0.1666794
50
190.6007704
51
206.0274528
0
ARC
8
left_labelLayer
10
5.9389025
20
1.9930909
40
0.1217501
50
206.2951303
51
222.5555952
0
ARC
8
left_labelLayer
10
5.9353007
20
1.9912043
40
0.1178257
50
223.0643581
51
258.1402134
0
ARC
8
left_labelLayer
10
5.9496308
20
2.0502145
40
0.1785313
50
257.531539
51
270.4319123
0
ARC
8
left_labelLayer
10
5.9497912
20
2.2141605
40
0.3424744
50
270.1983188
51
292.2090434
0
ARC
8
left_labelLayer
10
5.9331342
20
2.2618991
40
0.3929761
50
291.8265535
51
293.1605668
0
ARC
8
left_labelLayer
10
5.9325697
20
2.199777
40
0.3892421
50
287.9020591
51
293.4864576
0
ARC
8
left_labelLayer
10
5.9607857
20
2.1127239
40
0.2977305
50
281.9938719
51
287.8846363
0
ARC
8
left_labelLayer
10
5.9676361
20
2.0881124
40
0.2722374
50
275.9055845
51
281.6599963
0
ARC
8
left_labelLayer
10
5.9539406
20
2.2159623
40
0.4008182
50
271.911749
51
275.9725488
0
ARC
8
left_labelLayer
10
5.9489432
20
2.3432455
40
0.5281979
50
269.9663272
51
271.992926
0
ARC
8
left_labelLayer
10
5.9298111
20
2.0766823
40
0.1278244
50
89.442562
51
106.2089801
0
ARC
8
left_labelLayer
10
5.9221209
20
2.1047229
40
0.0987529
50
106.4658673
51
137.9176677
0
ARC
8
left_labelLayer
10
5.9441687
20
2.0853615
40
0.1280931
50
138.0996099
51
160.5865688
0
ARC
8
left_labelLayer
10
6.0008511
20
2.0645106
40
0.1884852
50
160.3357079
51
172.5311515
0
ARC
8
left_labelLayer
10
6.0566312
20
2.055574
40
0.2449589
50
172.1545669
51
174.7617437
0
ARC
8
left_labelLayer
10
5.8155708
20
2.0791933
40
0.2209562
50
359.6745238
51
8.922804
0
ARC
8
left_labelLayer
10
5.8945167
20
2.0920578
40
0.1409713
50
8.7342333
51
23.2770431
0
ARC
8
left_labelLayer
10
5.9320049
20
2.1077946
40
0.1003162
50
23.4818531
51
39.7075461
0
ARC
8
left_labelLayer
10
5.9412093
20
2.1146833
40
0.088836
50
40.0821232
51
80.6245713
0
ARC
8
left_labelLayer
10
5.9317316
20
2.0712417
40
0.1332608
50
79.6466685
51
90.2910368
0
LINE
8
left_labelLayer
10
6.4095703
20
2.2509851
11
6.4095703
21
2.2005944
0
LINE
8
left_labelLayer
10
6.4095703
20
2.2005944
11
6.3005859
21
2.2005944
0
LINE
8
left_labelLayer
10
6.3005859
20
2.2005944
11
6.3005859
21
1.8228601
0
LINE
8
left_labelLayer
10
6.3005859
20
1.8228601
11
6.2357422
21
1.8228601
0
LINE
8
left_labelLayer
10
6.2357422
20
1.8228601
11
6.2357422
21
2.2005944
0
LINE
8
left_labelLayer
10
6.2357422
20
2.2005944
11
6.1591797
21
2.2005944
0
LINE
8
left_labelLayer
10
6.1591797
20
2.2005944
11
6.1591797
21
2.2298913
0
LINE
8
left_labelLayer
10
6.1591797
20
2.2298913
11
6.2357422
21
2.2533288
0
LINE
8
left_labelLayer
10
6.2357422
20
2.2533288
11
6.2357422
21
2.2771569
0
LINE
8
left_labelLayer
10
6.4533203
20
2.4212976
11
6.4365234
21
2.3693444
0
LINE
8
left_labelLayer
10
6.3005859
20
2.2787194
11
6.3005859
21
2.2509851
0
LINE
8
left_labelLayer
10
6.3005859
20
2.2509851
11
6.4095703
21
2.2509851
0
ARC
8
left_labelLayer
10
6.4985229
20
2.2801789
40
0.2627981
50
167.577386
51
180.6588771
0
ARC
8
left_labelLayer
10
6.3749493
20
2.3089905
40
0.1359286
50
141.7431422
51
168.2323149
0
ARC
8
left_labelLayer
10
6.3548294
20
2.3194917
40
0.1137055
50
98.2550248
51
139.6202577
0
ARC
8
left_labelLayer
10
6.3724977
20
2.2378622
40
0.1971105
50
89.6700356
51
99.9309842
0
ARC
8
left_labelLayer
10
6.3725474
20
2.2261638
40
0.2088084
50
81.5643691
51
89.7021608
0
ARC
8
left_labelLayer
10
6.3578691
20
2.12376
40
0.3122579
50
75.973907
51
81.6566644
0
ARC
8
left_labelLayer
10
6.3326441
20
2.0191412
40
0.4198721
50
73.296923
51
76.0943788
0
ARC
8
left_labelLayer
10
6.3390134
20
2.069918
40
0.3149038
50
71.9618356
51
76.5919699
0
ARC
8
left_labelLayer
10
6.3634466
20
2.1735605
40
0.2084209
50
76.5189098
51
83.0219252
0
ARC
8
left_labelLayer
10
6.3719563
20
2.2419863
40
0.1394683
50
83.0768152
51
89.7926752
0
ARC
8
left_labelLayer
10
6.3716756
20
2.2940149
40
0.0874425
50
89.4853838
51
103.4202324
0
ARC
8
left_labelLayer
10
6.3637916
20
2.3242994
40
0.0561587
50
102.7673155
51
144.338405
0
ARC
8
left_labelLayer
10
6.3796805
20
2.314077
40
0.0750337
50
145.0697534
51
162.1798419
0
ARC
8
left_labelLayer
10
6.4341285
20
2.2957576
40
0.1324781
50
161.8434648
51
171.7848061
0
ARC
8
left_labelLayer
10
6.5229931
20
2.2824124
40
0.2223383
50
171.653327
51
178.4377719
0
ARC
8
left_labelLayer
10
6.6065359
20
2.2788493
40
0.3059499
50
178.19727
51
180.0243186
0
LINE
8
left_labelLayer
10
6.6845703
20
1.8763757
11
6.6845703
21
1.8267663
0
LINE
8
left_labelLayer
10
6.4923828
20
1.9459069
11
6.4923828
21
2.2005944
0
LINE
8
left_labelLayer
10
6.4923828
20
2.2005944
11
6.4310547
21
2.2005944
0
LINE
8
left_labelLayer
10
6.4310547
20
2.2005944
11
6.4310547
21
2.2318444
0
LINE
8
left_labelLayer
10
6.4310547
20
2.2318444
11
6.4923828
21
2.2587976
0
LINE
8
left_labelLayer
10
6.4923828
20
2.2587976
11
6.5197266
21
2.3502038
0
LINE
8
left_labelLayer
10
6.5197266
20
2.3502038
11
6.5572266
21
2.3502038
0
LINE
8
left_labelLayer
10
6.5572266
20
2.3502038
11
6.5572266
21
2.2509851
0
LINE
8
left_labelLayer
10
6.5572266
20
2.2509851
11
6.6814453
21
2.2509851
0
LINE
8
left_labelLayer
10
6.6814453
20
2.2509851
11
6.6814453
21
2.2005944
0
LINE
8
left_labelLayer
10
6.6814453
20
2.2005944
11
6.5572266
21
2.2005944
0
LINE
8
left_labelLayer
10
6.5572266
20
2.2005944
11
6.5572266
21
1.9486413
0
ARC
8
left_labelLayer
10
6.6264226
20
2.0815188
40
0.2129561
50
269.879997
51
278.3024663
0
ARC
8
left_labelLayer
10
6.6286056
20
2.0639768
40
0.1952829
50
278.4118817
51
279.0074698
0
ARC
8
left_labelLayer
10
6.6046031
20
2.2173167
40
0.3504897
50
278.958281
51
280.5110044
0
ARC
8
left_labelLayer
10
6.627377
20
2.0951564
40
0.2262248
50
280.4839747
51
282.6285311
0
ARC
8
left_labelLayer
10
6.6472966
20
2.006697
40
0.1355505
50
282.5871425
51
285.5787887
0
ARC
8
left_labelLayer
10
6.6575449
20
1.9689871
40
0.0964739
50
285.7306322
51
286.2680348
0
ARC
8
left_labelLayer
10
6.6573067
20
1.8844292
40
0.0637834
50
287.9895683
51
295.3052585
0
ARC
8
left_labelLayer
10
6.6419086
20
1.9310225
40
0.1128546
50
283.3086929
51
288.119149
0
ARC
8
left_labelLayer
10
6.6256912
20
1.998678
40
0.1824264
50
280.0059493
51
283.3739479
0
ARC
8
left_labelLayer
10
6.6147772
20
2.0578404
40
0.2425858
50
279.1888755
51
280.1165972
0
ARC
8
left_labelLayer
10
6.6081294
20
2.0957099
40
0.2810312
50
275.5257553
51
279.2939123
0
ARC
8
left_labelLayer
10
6.6156507
20
2.0171198
40
0.2020821
50
270.8925541
51
275.5488149
0
ARC
8
left_labelLayer
10
6.6166075
20
1.9794573
40
0.1644097
50
269.9979137
51
270.7635923
0
ARC
8
left_labelLayer
10
6.6139844
20
1.9843881
40
0.1693608
50
253.7848156
51
270.8854429
0
ARC
8
left_labelLayer
10
6.59392
20
1.9159607
40
0.0980525
50
190.3817828
51
253.8772612
0
ARC
8
left_labelLayer
10
6.6961858
20
1.9436121
40
0.2038158
50
179.354861
51
192.8478523
0
ARC
8
left_labelLayer
10
6.6878021
20
1.9478257
40
0.1305781
50
179.642129
51
189.7507278
0
ARC
8
left_labelLayer
10
6.6417042
20
1.9396031
40
0.0837542
50
189.5478405
51
205.7869718
0
ARC
8
left_labelLayer
10
6.6227574
20
1.9308663
40
0.0628944
50
206.1291188
51
221.4087188
0
ARC
8
left_labelLayer
10
6.6206357
20
1.9292564
40
0.0602386
50
221.595082
51
262.3504407
0
ARC
8
left_labelLayer
10
6.625686
20
1.9552244
40
0.0866616
50
261.3264892
51
270.1920986
0
LINE
8
back_outsideCutPath
10
0
20
8.25
11
0
21
6.79575
0
LINE
8
back_outsideCutPath
10
0
20
6.79575
11
0.118
21
6.79575
0
LINE
8
back_outsideCutPath
10
0.118
20
6.79575
11
0.118
21
5.70425
0
LINE
8
back_outsideCutPath
10
0.118
20
5.70425
11
0
21
5.70425
0
LINE
8
back_outsideCutPath
10
0
20
5.70425
11
0
21
4.61275
0
LINE
8
back_outsideCutPath
10
0
20
4.61275
11
0
21
4.25
0
LINE
8
back_outsideCutPath
10
0
20
4.25
11
1.45425
21
4.25
0
LINE
8
back_outsideCutPath
10
1.45425
20
4.25
11
1.45425
21
4.368
0
LINE
8
back_outsideCutPath
10
1.45425
20
4.368
11
2.54575
21
4.368
0
LINE
8
back_outsideCutPath
10
2.54575
20
4.368
11
2.54575
21
4.25
0
LINE
8
back_outsideCutPath
10
2.54575
20
4.25
11
3.63725
21
4.25
0
LINE
8
back_outsideCutPath
10
3.63725
20
4.25
11
4
21
4.25
0
LINE
8
back_outsideCutPath
10
4
20
4.25
11
4
21
5.70425
0
LINE
8
back_outsideCutPath
10
4
20
5.70425
11
3.882
21
5.70425
0
LINE
8
back_outsideCutPath
10
3.882
20
5.70425
11
3.882
21
6.79575
0
LINE
8
back_outsideCutPath
10
3.882
20
6.79575
11
4
21
6.79575
0
LINE
8
back_outsideCutPath
10
4
20
6.79575
11
4
21
7.88725
0
LINE
8
back_outsideCutPath
10
4
20
7.88725
11
4
21
8.25
0
LINE
8
back_outsideCutPath
10
4
20
8.25
11
0
21
8.25
0
LINE
8
back_labelLayer
10
1.2355469
20
6.0050825
11
1.2308594
21
6.0050825
0
LINE
8
back_labelLayer
10
1.2308594
20
6.0050825
11
1.2171875
21
5.9500044
0
LINE
8
back_labelLayer
10
1.2171875
20
5.9500044
11
1.1707031
21
5.9500044
0
LINE
8
back_labelLayer
10
1.1707031
20
5.9500044
11
1.1707031
21
6.5578169
0
LINE
8
back_labelLayer
10
1.1707031
20
6.5578169
11
1.2355469
21
6.5578169
0
LINE
8
back_labelLayer
10
1.2355469
20
6.5578169
11
1.2355469
21
6.4101607
0
LINE
8
back_labelLayer
10
1.2324219
20
6.3210982
11
1.2355469
21
6.3210982
0
ARC
8
back_labelLayer
10
1.3718665
20
6.1869834
40
0.1981868
50
74.2392945
51
90.5621875
0
ARC
8
back_labelLayer
10
1.3849714
20
6.2350593
40
0.1483596
50
38.5633265
51
74.0670028
0
ARC
8
back_labelLayer
10
1.3512487
20
6.2088379
40
0.1910744
50
16.4709663
51
38.4076954
0
ARC
8
back_labelLayer
10
1.2541012
20
6.1783746
40
0.2928773
50
5.1336614
51
16.7974776
0
ARC
8
back_labelLayer
10
1.1313951
20
6.1653423
40
0.4162621
50
359.8782133
51
5.4089932
0
ARC
8
back_labelLayer
10
1.1674863
20
6.1622134
40
0.3801766
50
350.6560109
51
0.3382065
0
ARC
8
back_labelLayer
10
1.3000125
20
6.1396699
40
0.2457497
50
335.830575
51
350.8255813
0
ARC
8
back_labelLayer
10
1.3583104
20
6.1145078
40
0.1822623
50
321.3163636
51
335.5435677
0
ARC
8
back_labelLayer
10
1.380603
20
6.0963441
40
0.1535079
50
274.0639876
51
321.4079794
0
ARC
8
back_labelLayer
10
1.370217
20
6.1621425
40
0.2199509
50
269.9231219
51
275.5481192
0
ARC
8
back_labelLayer
10
1.3688283
20
6.1388734
40
0.1966845
50
255.7755261
51
270.3185795
0
ARC
8
back_labelLayer
10
1.3632214
20
6.113955
40
0.1711537
50
245.980847
51
255.5451934
0
ARC
8
back_labelLayer
10
1.3523436
20
6.0886551
40
0.1436172
50
215.5851757
51
245.8363402
0
ARC
8
back_labelLayer
10
-0.1163857
20
6.4090121
40
1.3519331
50
358.1125465
51
0.0486757
0
ARC
8
back_labelLayer
10
0.2600515
20
6.3963745
40
0.9752837
50
355.7237176
51
358.1261928
0
ARC
8
back_labelLayer
10
0.4202402
20
6.3853621
40
0.8147204
50
355.4758903
51
355.6560018
0
ARC
8
back_labelLayer
10
1.3564772
20
6.2367703
40
0.1474291
50
95.1833717
51
145.1109463
0
ARC
8
back_labelLayer
10
1.3694362
20
6.1636905
40
0.2214706
50
89.87435
51
96.8143894
0
ARC
8
back_labelLayer
10
1.3591893
20
6.1486552
40
0.1822136
50
89.5731237
51
100.7325835
0
ARC
8
back_labelLayer
10
1.3457003
20
6.2168035
40
0.1127469
50
100.4469439
51
119.6699918
0
ARC
8
back_labelLayer
10
1.3331926
20
6.2401889
40
0.086239
50
120.1403454
51
142.4245926
0
ARC
8
back_labelLayer
10
1.3538892
20
6.2264986
40
0.1110046
50
143.3385633
51
161.2557465
0
ARC
8
back_labelLayer
10
1.4404388
20
6.1957731
40
0.2028414
50
160.893154
51
171.2332456
0
ARC
8
back_labelLayer
10
1.5848964
20
6.1724689
40
0.3491648
50
171.066718
51
177.845551
0
ARC
8
back_labelLayer
10
1.7352058
20
6.1648237
40
0.4996592
50
177.617462
51
180.0419915
0
ARC
8
back_labelLayer
10
1.6643228
20
6.1627851
40
0.4287792
50
179.776523
51
185.7072608
0
ARC
8
back_labelLayer
10
1.4952765
20
6.1453716
40
0.2588397
50
185.5929881
51
194.2045983
0
ARC
8
back_labelLayer
10
1.3869653
20
6.117263
40
0.1469441
50
193.942861
51
208.021548
0
ARC
8
back_labelLayer
10
1.3431376
20
6.0949657
40
0.097783
50
208.5530178
51
217.5614643
0
ARC
8
back_labelLayer
10
1.3395825
20
6.09349
40
0.0940706
50
218.1689967
51
253.8047235
0
ARC
8
back_labelLayer
10
1.3570326
20
6.1472952
40
0.1506178
50
253.1387203
51
266.8478494
0
ARC
8
back_labelLayer
10
1.3619267
20
6.2050264
40
0.2085378
50
266.3774293
51
270.0502001
0
ARC
8
back_labelLayer
10
1.3634926
20
6.1257498
40
0.1292684
50
269.3869182
51
285.8627073
0
ARC
8
back_labelLayer
10
1.3730962
20
6.091038
40
0.0932536
50
286.0162809
51
326.84976
0
ARC
8
back_labelLayer
10
1.3267465
20
6.1217439
40
0.148851
50
326.7101975
51
343.6661388
0
ARC
8
back_labelLayer
10
1.239982
20
6.148258
40
0.2395725
50
343.4167546
51
353.6367811
0
ARC
8
back_labelLayer
10
1.1089185
20
6.1638086
40
0.371553
50
353.4935336
51
0.2205464
0
ARC
8
back_labelLayer
10
1.0973332
20
6.1667879
40
0.3831387
50
359.7683457
51
6.3091706
0
ARC
8
back_labelLayer
10
1.241675
20
6.1833485
40
0.237852
50
6.1650784
51
16.0397935
0
ARC
8
back_labelLayer
10
1.3346429
20
6.2107476
40
0.1409344
50
15.7775879
51
32.0155698
0
ARC
8
back_labelLayer
10
1.3638821
20
6.2275212
40
0.1072574
50
32.698695
51
35.5277214
0
ARC
8
back_labelLayer
10
1.3742272
20
6.2348813
40
0.0945613
50
35.5408321
51
79.8012542
0
ARC
8
back_labelLayer
10
1.3615284
20
6.1808955
40
0.1499715
50
78.6782316
51
90.3749716
0
LINE
8
back_labelLayer
10
1.9722656
20
5.9500044
11
1.9242188
21
5.9500044
0
LINE
8
back_labelLayer
10
1.9242188
20
5.9500044
11
1.9113281
21
6.0109419
0
LINE
8
back_labelLayer
10
1.9113281
20
6.0109419
11
1.9082031
21
6.0109419
0
LINE
8
back_labelLayer
10
1.8363281
20
6.2043013
11
1.9089844
21
6.206645
0
LINE
8
back_labelLayer
10
1.9089844
20
6.206645
11
1.9089844
21
6.2332075
0
LINE
8
back_labelLayer
10
1.696875
20
6.2988325
11
1.6769531
21
6.3484419
0
LINE
8
back_labelLayer
10
1.9722656
20
6.2421919
11
1.9722656
21
5.9500044
0
LINE
8
back_labelLayer
10
1.9074219
20
6.1218794
11
1.9074219
21
6.1605513
0
LINE
8
back_labelLayer
10
1.9074219
20
6.1605513
11
1.8425781
21
6.1578169
0
ARC
8
back_labelLayer
10
1.6972289
20
6.1775162
40
0.2688068
50
314.7444755
51
321.7072198
0
ARC
8
back_labelLayer
10
1.7632657
20
6.1104184
40
0.1746643
50
304.8486518
51
314.8528417
0
ARC
8
back_labelLayer
10
1.7950029
20
6.0652415
40
0.1194546
50
294.3925324
51
304.7378526
0
ARC
8
back_labelLayer
10
1.7841588
20
6.0933301
40
0.1495243
50
281.297594
51
293.7318627
0
ARC
8
back_labelLayer
10
1.7698299
20
6.1627696
40
0.2204258
50
272.9331103
51
281.4139861
0
ARC
8
back_labelLayer
10
1.765075
20
6.2341016
40
0.2919099
50
269.9546145
51
273.1487395
0
ARC
8
back_labelLayer
10
1.7634372
20
6.141175
40
0.1989881
50
258.6678311
51
270.4050074
0
ARC
8
back_labelLayer
10
1.7496117
20
6.0750543
40
0.1314409
50
238.325351
51
258.9134475
0
ARC
8
back_labelLayer
10
1.7400933
20
6.0576895
40
0.1116691
50
227.7695957
51
237.8032133
0
ARC
8
back_labelLayer
10
1.7371102
20
6.0535245
40
0.1065817
50
192.0827362
51
227.45216
0
ARC
8
back_labelLayer
10
1.7920536
20
6.0670694
40
0.1631525
50
179.5454229
51
192.6951285
0
ARC
8
back_labelLayer
10
1.7410125
20
6.0729777
40
0.1122012
50
115.4905024
51
182.3567778
0
ARC
8
back_labelLayer
10
1.7972027
20
5.9699154
40
0.2295015
50
101.3567516
51
117.0801046
0
ARC
8
back_labelLayer
10
1.8423335
20
5.759006
40
0.4451765
50
92.469843
51
101.7062369
0
ARC
8
back_labelLayer
10
1.8552874
20
5.5716134
40
0.632972
50
91.7164236
51
92.9103489
0
ARC
8
back_labelLayer
10
1.722751
20
6.2342057
40
0.1862361
50
359.6929159
51
8.003641
0
ARC
8
back_labelLayer
10
1.7932012
20
6.24447
40
0.1150434
50
7.8268029
51
20.604567
0
ARC
8
back_labelLayer
10
1.8330624
20
6.2597202
40
0.0723656
50
20.4090846
51
41.4477633
0
ARC
8
back_labelLayer
10
1.8389523
20
6.2629563
40
0.0658251
50
42.7300449
51
71.0379632
0
ARC
8
back_labelLayer
10
1.8250829
20
6.2252434
40
0.1060019
50
70.5718934
51
83.9923827
0
ARC
8
back_labelLayer
10
1.8184605
20
6.1714288
40
0.1602168
50
83.6513264
51
90.1758725
0
ARC
8
back_labelLayer
10
1.8196221
20
6.1205272
40
0.2111244
50
90.4486966
51
103.7663265
0
ARC
8
back_labelLayer
10
1.8444524
20
6.0158267
40
0.3187269
50
103.6229213
51
112.4318523
0
ARC
8
back_labelLayer
10
1.8869771
20
5.908445
40
0.4342135
50
112.2117275
51
115.9641046
0
ARC
8
back_labelLayer
10
1.8188563
20
6.085283
40
0.2989802
50
106.3570004
51
118.3348764
0
ARC
8
back_labelLayer
10
1.8315685
20
6.0460268
40
0.3402294
50
104.516141
51
106.5493627
0
ARC
8
back_labelLayer
10
1.8222495
20
6.0848606
40
0.3003003
50
90.0714518
51
104.6520433
0
ARC
8
back_labelLayer
10
1.8234279
20
6.111306
40
0.2738591
50
81.5678022
51
90.3248976
0
ARC
8
back_labelLayer
10
1.8392644
20
6.2144651
40
0.1694938
50
68.2270186
51
81.7497038
0
ARC
8
back_labelLayer
10
1.8613187
20
6.2693335
40
0.1103592
50
47.8683218
51
68.2938103
0
ARC
8
back_labelLayer
10
1.8648986
20
6.2764802
40
0.1026797
50
19.2328574
51
46.6744573
0
ARC
8
back_labelLayer
10
1.8052671
20
6.2542965
40
0.1662956
50
6.3380202
51
19.6816114
0
ARC
8
back_labelLayer
10
1.7171517
20
6.2430723
40
0.2551155
50
359.8022748
51
6.6587785
0
ARC
8
back_labelLayer
10
1.7790465
20
6.1742278
40
0.1785251
50
269.5788965
51
282.0416545
0
ARC
8
back_labelLayer
10
1.7920671
20
6.1164757
40
0.1193293
50
281.7123851
51
306.4590389
0
ARC
8
back_labelLayer
10
1.7978194
20
6.1070048
40
0.1082983
50
306.988943
51
313.8544253
0
ARC
8
back_labelLayer
10
1.7971565
20
6.1067792
40
0.1085967
50
314.1891023
51
347.4271275
0
ARC
8
back_labelLayer
10
1.7427615
20
6.1204117
40
0.1646614
50
346.9174304
51
0.2825242
0
ARC
8
back_labelLayer
10
1.7283502
20
6.1218245
40
0.1790716
50
359.8077434
51
0.0175746
0
ARC
8
back_labelLayer
10
1.8580021
20
5.6819512
40
0.4761156
50
91.8564498
51
96.4478655
0
ARC
8
back_labelLayer
10
1.8365402
20
5.8676926
40
0.2891394
50
96.3552065
51
102.9947453
0
ARC
8
back_labelLayer
10
1.8073899
20
5.9915648
40
0.1618856
50
102.8002085
51
113.242956
0
ARC
8
back_labelLayer
10
1.7833586
20
6.0490431
40
0.0995906
50
113.5891718
51
121.6809028
0
ARC
8
back_labelLayer
10
1.7666639
20
6.0744679
40
0.069192
50
120.9735717
51
172.418039
0
ARC
8
back_labelLayer
10
1.7992961
20
6.0679504
40
0.1024217
50
171.2125135
51
180.2058051
0
ARC
8
back_labelLayer
10
1.7895463
20
6.0668169
40
0.0926745
50
179.5266292
51
192.7780133
0
ARC
8
back_labelLayer
10
1.7581937
20
6.0592186
40
0.0604196
50
192.3268997
51
222.0578241
0
ARC
8
back_labelLayer
10
1.7558528
20
6.0578162
40
0.0577445
50
222.5805972
51
229.2560395
0
ARC
8
back_labelLayer
10
1.7637399
20
6.0679671
40
0.0705861
50
229.7834766
51
254.2725494
0
ARC
8
back_labelLayer
10
1.774236
20
6.1029455
40
0.1071018
50
253.9398986
51
266.4528957
0
ARC
8
back_labelLayer
10
1.7775869
20
6.1416381
40
0.1459306
50
266.0796433
51
270.0578847
0
LINE
8
back_labelLayer
10
2.3914063
20
6.3636763
11
2.3714844
21
6.3085982
0
LINE
8
back_labelLayer
10
2.3851563
20
6.0218794
11
2.3851563
21
5.9644575
0
ARC
8
back_labelLayer
10
2.2748856
20
6.1845346
40
0.2423515
50
256.4244459
51
270.4887964
0
ARC
8
back_labelLayer
10
2.2555187
20
6.1089469
40
0.1643333
50
221.797665
51
256.8021446
0
ARC
8
back_labelLayer
10
2.2742715
20
6.1228031
40
0.1875612
50
196.0166857
51
221.1350911
0
ARC
8
back_labelLayer
10
2.368534
20
6.1516135
40
0.2861187
50
183.59155
51
196.3537879
0
ARC
8
back_labelLayer
10
2.4741352
20
6.1609168
40
0.3921043
50
179.9392583
51
183.9816815
0
ARC
8
back_labelLayer
10
2.4397955
20
6.1636371
40
0.3577717
50
169.897706
51
180.3690711
0
ARC
8
back_labelLayer
10
2.3152568
20
6.1866759
40
0.2311242
50
153.0877141
51
170.1051272
0
ARC
8
back_labelLayer
10
2.2679952
20
6.2092571
40
0.1787644
50
138.6547304
51
152.6851302
0
ARC
8
back_labelLayer
10
2.2591758
20
6.2156857
40
0.1678997
50
101.4912583
51
138.3135242
0
ARC
8
back_labelLayer
10
2.2794258
20
6.1314095
40
0.2545391
50
89.589376
51
102.1788825
0
ARC
8
back_labelLayer
10
2.2809811
20
6.0933107
40
0.2926314
50
77.7704779
51
89.947355
0
ARC
8
back_labelLayer
10
2.2754396
20
6.0627425
40
0.3236814
50
74.6800889
51
77.9580111
0
ARC
8
back_labelLayer
10
2.3053697
20
6.1711778
40
0.2111915
50
70.0943079
51
74.7389636
0
ARC
8
back_labelLayer
10
2.3338207
20
6.2491475
40
0.1281936
50
63.5026262
51
70.1857666
0
ARC
8
back_labelLayer
10
2.3310521
20
6.2453952
40
0.1327895
50
62.9665849
51
63.1558744
0
ARC
8
back_labelLayer
10
2.2649551
20
6.0404976
40
0.2884899
50
68.3296904
51
74.8828345
0
ARC
8
back_labelLayer
10
2.2497308
20
5.9865174
40
0.344573
50
74.7797812
51
77.4490081
0
ARC
8
back_labelLayer
10
2.2657414
20
6.0616597
40
0.2677479
50
77.2989871
51
81.7353751
0
ARC
8
back_labelLayer
10
2.2773745
20
6.1427465
40
0.185831
50
81.6911135
51
87.5076165
0
ARC
8
back_labelLayer
10
2.2796244
20
6.1848843
40
0.1436358
50
87.6732863
51
89.974819
0
ARC
8
back_labelLayer
10
2.2764727
20
6.1847252
40
0.1438307
50
88.7192549
51
112.566988
0
ARC
8
back_labelLayer
10
2.2662524
20
6.2185142
40
0.1087641
50
114.4265018
51
161.6633633
0
ARC
8
back_labelLayer
10
2.3677769
20
6.1787756
40
0.2177122
50
160.1417035
51
175.1369815
0
ARC
8
back_labelLayer
10
2.5074661
20
6.1630847
40
0.3582488
50
174.5304415
51
180.1552886
0
ARC
8
back_labelLayer
10
2.4632285
20
6.1604908
40
0.314014
50
179.7038681
51
188.0746901
0
ARC
8
back_labelLayer
10
2.3501454
20
6.1439444
40
0.1997284
50
187.9317397
51
200.3883231
0
ARC
8
back_labelLayer
10
2.2889752
20
6.1212847
40
0.1344962
50
200.4183311
51
216.6396219
0
ARC
8
back_labelLayer
10
2.2633378
20
6.102956
40
0.1029882
50
216.9694444
51
261.3104086
0
ARC
8
back_labelLayer
10
2.2746545
20
6.1557265
40
0.1568956
50
260.1365321
51
270.2688041
0
ARC
8
back_labelLayer
10
2.2741303
20
6.2702761
40
0.2714465
50
270.266029
51
286.289162
0
ARC
8
back_labelLayer
10
2.2576128
20
6.331862
40
0.3351962
50
286.0465194
51
292.3648868
0
ARC
8
back_labelLayer
10
2.3015736
20
6.1288856
40
0.1844523
50
282.0347603
51
296.9452941
0
ARC
8
back_labelLayer
10
2.2826073
20
6.2143671
40
0.2720105
50
272.5979314
51
282.1877066
0
ARC
8
back_labelLayer
10
2.277171
20
6.2976315
40
0.3554397
50
269.9648827
51
272.8649779
0
LINE
8
back_labelLayer
10
2.5476563
20
6.169145
11
2.5507813
21
6.169145
0
LINE
8
back_labelLayer
10
2.6019531
20
6.231645
11
2.7402344
21
6.3781294
0
LINE
8
back_labelLayer
10
2.7402344
20
6.3781294
11
2.8171875
21
6.3781294
0
LINE
8
back_labelLayer
10
2.8171875
20
6.3781294
11
2.64375
21
6.1957075
0
LINE
8
back_labelLayer
10
2.64375
20
6.1957075
11
2.8292969
21
5.9500044
0
LINE
8
back_labelLayer
10
2.8292969
20
5.9500044
11
2.7507813
21
5.9500044
0
LINE
8
back_labelLayer
10
2.7507813
20
5.9500044
11
2.5996094
21
6.1523482
0
LINE
8
back_labelLayer
10
2.5996094
20
6.1523482
11
2.5507813
21
6.1101607
0
LINE
8
back_labelLayer
10
2.5507813
20
6.1101607
11
2.5507813
21
5.9500044
0
LINE
8
back_labelLayer
10
2.5507813
20
5.9500044
11
2.4867188
21
5.9500044
0
LINE
8
back_labelLayer
10
2.4867188
20
5.9500044
11
2.4867188
21
6.5578169
0
LINE
8
back_labelLayer
10
2.4867188
20
6.5578169
11
2.5507813
21
6.5578169
0
LINE
8
back_labelLayer
10
2.5507813
20
6.5578169
11
2.5507813
21
6.2355513
0
ARC
8
back_labelLayer
10
2.8638943
20
5.9475186
40
0.3836119
50
142.3227961
51
144.7085323
0
ARC
8
back_labelLayer
10
3.0679897
20
5.7901178
40
0.6413518
50
140.4323531
51
142.3378141
0
ARC
8
back_labelLayer
10
3.3344594
20
5.5707864
40
0.986478
50
139.2796268
51
140.4707764
0
ARC
8
back_labelLayer
10
3.6421767
20
5.3061904
40
1.3923115
50
138.3415044
51
139.2881435
0
ARC
8
back_labelLayer
10
2.1184201
20
6.2363599
40
0.4323619
50
358.2749283
51
359.892842
0
ARC
8
back_labelLayer
10
1.7799695
20
6.2458179
40
0.7709441
50
357.5056986
51
358.3295466
0
ARC
8
back_labelLayer
10
1.2758709
20
6.2681306
40
1.2755361
50
356.6336782
51
357.4898339
0
ARC
8
back_labelLayer
10
0.4456654
20
6.3165608
40
2.107153
50
356.0325095
51
356.6446268
0
ARC
8
back_labelLayer
10
0.5890348
20
6.3055284
40
1.9633641
50
356.0167915
51
356.0642077
0
LINE
8
right_outsideCutPath
10
4.243
20
8.25
11
4.243
21
6.79575
0
LINE
8
right_outsideCutPath
10
4.243
20
6.79575
11
4.125
21
6.79575
0
LINE
8
right_outsideCutPath
10
4.125
20
6.79575
11
4.125
21
5.70425
0
LINE
8
right_outsideCutPath
10
4.125
20
5.70425
11
4.243
21
5.70425
0
LINE
8
right_outsideCutPath
10
4.243
20
5.70425
11
4.243
21
4.61275
0
LINE
8
right_outsideCutPath
10
4.243
20
4.61275
11
4.243
21
4.25
0
LINE
8
right_outsideCutPath
10
4.243
20
4.25
11
5.57925
21
4.25
0
LINE
8
right_outsideCutPath
10
5.57925
20
4.25
11
5.57925
21
4.368
0
LINE
8
right_outsideCutPath
10
5.57925
20
4.368
11
6.67075
21
4.368
0
LINE
8
right_outsideCutPath
10
6.67075
20
4.368
11
6.67075
21
4.25
0
LINE
8
right_outsideCutPath
10
6.67075
20
4.25
11
7.76225
21
4.25
0
LINE
8
right_outsideCutPath
10
7.76225
20
4.25
11
8.007
21
4.25
0
LINE
8
right_outsideCutPath
10
8.007
20
4.25
11
8.007
21
5.70425
0
LINE
8
right_outsideCutPath
10
8.007
20
5.70425
11
8.125
21
5.70425
0
LINE
8
right_outsideCutPath
10
8.125
20
5.70425
11
8.125
21
6.79575
0
LINE
8
right_outsideCutPath
10
8.125
20
6.79575
11
8.007
21
6.79575
0
LINE
8
right_outsideCutPath
10
8.007
20
6.79575
11
8.007
21
7.88725
0
LINE
8
right_outsideCutPath
10
8.007
20
7.88725
11
8.007
21
8.25
0
LINE
8
right_outsideCutPath
10
8.007
20
8.25
11
4.243
21
8.25
0
LINE
8
right_labelLayer
10
5.5439453
20
6.4734399
11
5.5349609
21
6.4132837
0
LINE
8
right_labelLayer
10
5.3623047
20
6.2718774
11
5.3623047
21
6.0421899
0
LINE
8
right_labelLayer
10
5.3623047
20
6.0421899
11
5.2974609
21
6.0421899
0
LINE
8
right_labelLayer
10
5.2974609
20
6.0421899
11
5.2974609
21
6.4703149
0
LINE
8
right_labelLayer
10
5.2974609
20
6.4703149
11
5.3509766
21
6.4703149
0
LINE
8
right_labelLayer
10
5.3509766
20
6.4703149
11
5.3583984
21
6.391018
0
LINE
8
right_labelLayer
10
5.3583984
20
6.391018
11
5.3615234
21
6.391018
0
ARC
8
right_labelLayer
10
5.4934412
20
6.1804562
40
0.297672
50
84.9924491
51
90.1285285
0
ARC
8
right_labelLayer
10
5.5005888
20
6.2605459
40
0.217264
50
78.4889585
51
85.0266114
0
ARC
8
right_labelLayer
10
5.4728222
20
6.1342416
40
0.2858771
50
77.4458722
51
81.6351591
0
ARC
8
right_labelLayer
10
5.485291
20
6.220171
40
0.1990479
50
81.5878192
51
87.1914046
0
ARC
8
right_labelLayer
10
5.4880001
20
6.2672433
40
0.1518998
50
87.3420074
51
89.9676118
0
ARC
8
right_labelLayer
10
5.4873671
20
6.3067901
40
0.1123552
50
89.6334499
51
137.0879368
0
ARC
8
right_labelLayer
10
5.5148374
20
6.2758805
40
0.1535702
50
135.6199093
51
138.8397157
0
ARC
8
right_labelLayer
10
5.5109026
20
6.2797257
40
0.1480774
50
138.9577831
51
174.5419872
0
ARC
8
right_labelLayer
10
5.5591705
20
6.2721789
40
0.1968659
50
173.6916753
51
180.0877441
0
ARC
8
right_labelLayer
10
5.5523016
20
6.2835353
40
0.2189723
50
139.41374
51
150.6034651
0
ARC
8
right_labelLayer
10
5.5130455
20
6.3171742
40
0.1672749
50
124.2322023
51
139.4160007
0
ARC
8
right_labelLayer
10
5.4920505
20
6.3488656
40
0.1292637
50
89.679558
51
124.4405461
0
LINE
8
right_labelLayer
10
5.6888672
20
6.4703149
11
5.6888672
21
6.0421899
0
LINE
8
right_labelLayer
10
5.6888672
20
6.0421899
11
5.6240234
21
6.0421899
0
LINE
8
right_labelLayer
10
5.6240234
20
6.0421899
11
5.6240234
21
6.4703149
0
LINE
8
right_labelLayer
10
5.6240234
20
6.4703149
11
5.6888672
21
6.4703149
0
ARC
8
right_labelLayer
10
5.6904034
20
6.5867761
40
0.0718501
50
170.8454141
51
180.3553133
0
ARC
8
right_labelLayer
10
5.6635053
20
6.5912741
40
0.0445791
50
155.9678102
51
171.0527212
0
ARC
8
right_labelLayer
10
5.6504835
20
6.5970505
40
0.0303336
50
133.7900424
51
155.9159689
0
ARC
8
right_labelLayer
10
5.6552895
20
6.5917362
40
0.0374962
50
92.6439547
51
133.4717911
0
ARC
8
right_labelLayer
10
5.6568064
20
6.5798101
40
0.049489
50
89.9658115
51
93.7614206
0
ARC
8
right_labelLayer
10
5.6574277
20
6.5910983
40
0.0382055
50
46.3709543
51
90.8875019
0
ARC
8
right_labelLayer
10
5.6612309
20
6.5950247
40
0.0327396
50
17.7246277
51
46.4474177
0
ARC
8
right_labelLayer
10
5.6435015
20
6.588919
40
0.0514879
50
4.9421459
51
18.1900784
0
ARC
8
right_labelLayer
10
5.6209575
20
6.5864797
40
0.0741599
50
359.8847363
51
5.3192143
0
ARC
8
right_labelLayer
10
5.6280247
20
6.585876
40
0.067094
50
349.8340726
51
0.3881168
0
ARC
8
right_labelLayer
10
5.6524531
20
6.5813187
40
0.0422453
50
332.6319447
51
350.0703188
0
ARC
8
right_labelLayer
10
5.6619639
20
6.5766212
40
0.0316402
50
313.6135683
51
332.2690181
0
ARC
8
right_labelLayer
10
5.6573778
20
6.5807966
40
0.0378293
50
269.1792259
51
314.280297
0
ARC
8
right_labelLayer
10
5.6564056
20
6.584158
40
0.0411891
50
250.5003485
51
270.5985848
0
ARC
8
right_labelLayer
10
5.6551596
20
6.5794979
40
0.0363822
50
225.1304156
51
249.90029
0
ARC
8
right_labelLayer
10
5.6532107
20
6.5773432
40
0.0334804
50
197.7943862
51
224.8927482
0
ARC
8
right_labelLayer
10
5.6714829
20
6.5836032
40
0.052793
50
184.9936152
51
198.2029431
0
ARC
8
right_labelLayer
10
5.6951296
20
6.5861729
40
0.0765752
50
179.8820888
51
185.369016
0
LINE
8
right_labelLayer
10
6.0287109
20
6.4703149
11
6.1767578
21
6.4703149
0
LINE
8
right_labelLayer
10
6.1767578
20
6.4703149
11
6.1767578
21
6.4292993
0
LINE
8
right_labelLayer
10
6.1767578
20
6.4292993
11
6.0974609
21
6.4199243
0
LINE
8
right_labelLayer
10
5.9513672
20
6.1101587
11
6.0271484
21
6.1101587
0
LINE
8
right_labelLayer
10
6.0064453
20
6.0519555
11
5.9287109
21
6.0519555
0
ARC
8
right_labelLayer
10
6.0148259
20
6.3545287
40
0.1053809
50
29.4581867
51
38.3572957
0
ARC
8
right_labelLayer
10
5.9717291
20
6.3299285
40
0.1550042
50
23.185493
51
29.5414758
0
ARC
8
right_labelLayer
10
5.9307596
20
6.311759
40
0.1998191
50
21.2503317
51
23.3495102
0
ARC
8
right_labelLayer
10
6.0005157
20
6.3395013
40
0.1247524
50
6.8505247
51
20.9869983
0
ARC
8
right_labelLayer
10
5.9653712
20
6.3347363
40
0.1602153
50
359.8716471
51
7.0432506
0
ARC
8
right_labelLayer
10
5.9769393
20
6.3328323
40
0.1486547
50
342.5651546
51
0.5955243
0
ARC
8
right_labelLayer
10
6.0043579
20
6.3252618
40
0.1202315
50
310.6097986
51
342.0921899
0
ARC
8
right_labelLayer
10
5.9889846
20
6.3431438
40
0.1438135
50
284.9316289
51
310.6223026
0
ARC
8
right_labelLayer
10
5.9697444
20
6.4105688
40
0.2139227
50
272.5338708
51
285.2576957
0
ARC
8
right_labelLayer
10
5.9647961
20
6.4781462
40
0.2816596
50
269.9699593
51
272.9317325
0
ARC
8
right_labelLayer
10
5.9641844
20
6.4048587
40
0.2083724
50
263.4833292
51
270.1275961
0
ARC
8
right_labelLayer
10
5.9607717
20
6.3725079
40
0.1758435
50
259.494756
51
263.3917956
0
ARC
8
right_labelLayer
10
5.9817967
20
6.0971684
40
0.1153809
50
117.3930162
51
128.4096205
0
ARC
8
right_labelLayer
10
5.9520987
20
6.1340113
40
0.0680614
50
128.0886425
51
147.1391002
0
ARC
8
right_labelLayer
10
5.9360921
20
6.1447544
40
0.0487879
50
147.5370702
51
180.2592225
0
ARC
8
right_labelLayer
10
5.9209144
20
6.1441188
40
0.0336122
50
179.2928818
51
198.3564979
0
ARC
8
right_labelLayer
10
5.9146167
20
6.1424639
40
0.0271169
50
199.228386
51
239.5697984
0
ARC
8
right_labelLayer
10
5.9202082
20
6.1502977
40
0.0367135
50
238.2375271
51
239.8310787
0
ARC
8
right_labelLayer
10
5.9240004
20
6.1582442
40
0.0454951
50
240.7315948
51
254.5013453
0
ARC
8
right_labelLayer
10
5.9364143
20
6.2010264
40
0.0900403
50
254.1638215
51
262.2114755
0
ARC
8
right_labelLayer
10
5.9462423
20
6.2696632
40
0.1593763
50
262.0548001
51
267.2087331
0
ARC
8
right_labelLayer
10
5.9509992
20
6.3569557
40
0.2467974
50
267.0925786
51
270.0854413
0
ARC
8
right_labelLayer
10
6.0285671
20
5.8447442
40
0.2654182
50
81.5742263
51
90.3062564
0
ARC
8
right_labelLayer
10
6.0431258
20
5.9396833
40
0.1693713
50
68.3673759
51
81.740078
0
ARC
8
right_labelLayer
10
6.0621407
20
5.9882805
40
0.1171871
50
52.188294
51
68.2500662
0
ARC
8
right_labelLayer
10
6.0754476
20
6.0062117
40
0.0948641
50
8.6203382
51
51.8982671
0
ARC
8
right_labelLayer
10
6.0288141
20
5.9963434
40
0.1424766
50
359.7434853
51
9.7331695
0
ARC
8
right_labelLayer
10
6.0309011
20
5.9939409
40
0.140399
50
340.5268721
51
0.7201588
0
ARC
8
right_labelLayer
10
6.0515287
20
5.9888048
40
0.1192566
50
302.9905048
51
339.5494887
0
ARC
8
right_labelLayer
10
6.0292592
20
6.0172531
40
0.1552762
50
303.1889707
51
304.167179
0
ARC
8
right_labelLayer
10
6.0096939
20
6.0512627
40
0.1944609
50
286.2542353
51
302.5279925
0
ARC
8
right_labelLayer
10
5.9729696
20
6.1723957
40
0.3210341
50
276.4938602
51
286.4954086
0
ARC
8
right_labelLayer
10
5.9500521
20
6.3639664
40
0.5139688
50
269.7546886
51
276.6169773
0
ARC
8
right_labelLayer
10
5.9461416
20
6.2133175
40
0.3633191
50
262.5636043
51
270.2696686
0
ARC
8
right_labelLayer
10
5.9283434
20
6.0814019
40
0.2302103
50
251.2099943
51
262.7067762
0
ARC
8
right_labelLayer
10
5.9027029
20
6.0061423
40
0.1507027
50
235.967152
51
251.2224746
0
ARC
8
right_labelLayer
10
5.875516
20
5.967355
40
0.1033466
50
208.9034361
51
236.4230074
0
ARC
8
right_labelLayer
10
5.8780129
20
5.9663094
40
0.1050488
50
182.2080644
51
207.7458765
0
ARC
8
right_labelLayer
10
5.9098333
20
5.9694821
40
0.1369817
50
179.9784365
51
183.0213601
0
ARC
8
right_labelLayer
10
5.8719857
20
5.9712731
40
0.0991494
50
138.3916769
51
181.0052488
0
ARC
8
right_labelLayer
10
5.8824543
20
5.961866
40
0.1132235
50
113.811933
51
138.3500458
0
ARC
8
right_labelLayer
10
5.9023142
20
5.918983
40
0.1604764
50
102.2867638
51
114.1175426
0
ARC
8
right_labelLayer
10
5.8960753
20
6.1370214
40
0.0672986
50
216.5861161
51
245.4972057
0
ARC
8
right_labelLayer
10
5.9060451
20
6.1454387
40
0.080325
50
215.4677892
51
217.1685684
0
ARC
8
right_labelLayer
10
5.8896631
20
6.1336045
40
0.0601163
50
182.1764743
51
215.3412911
0
ARC
8
right_labelLayer
10
5.9038326
20
6.1351336
40
0.0743404
50
179.980663
51
182.9393705
0
ARC
8
right_labelLayer
10
5.9036432
20
6.1357854
40
0.0741537
50
161.7227897
51
180.484231
0
ARC
8
right_labelLayer
10
5.89549
20
6.1380096
40
0.0657157
50
144.4964021
51
161.334844
0
ARC
8
right_labelLayer
10
5.9172135
20
6.1218199
40
0.0928043
50
132.7249769
51
144.1484219
0
ARC
8
right_labelLayer
10
5.9520608
20
6.0846087
40
0.1437841
50
125.2216557
51
132.8654071
0
ARC
8
right_labelLayer
10
5.9870719
20
6.0359913
40
0.2036941
50
121.2353786
51
125.3796779
0
ARC
8
right_labelLayer
10
5.9249947
20
6.3151641
40
0.113678
50
215.1643284
51
247.4745335
0
ARC
8
right_labelLayer
10
5.9462594
20
6.3323198
40
0.1409536
50
212.4722882
51
215.8870805
0
ARC
8
right_labelLayer
10
5.9406332
20
6.3282955
40
0.1340469
50
183.016004
51
212.3122342
0
ARC
8
right_labelLayer
10
5.9699213
20
6.3315713
40
0.1634761
50
179.974851
51
183.6224355
0
ARC
8
right_labelLayer
10
5.9937894
20
6.3332246
40
0.1873507
50
166.8197673
51
180.4836722
0
ARC
8
right_labelLayer
10
5.9316323
20
6.3489174
40
0.1232578
50
132.3285032
51
167.3342045
0
ARC
8
right_labelLayer
10
5.9399472
20
6.336967
40
0.1377049
50
106.2186604
51
131.5379549
0
ARC
8
right_labelLayer
10
5.9609873
20
6.2688385
40
0.209002
50
93.6331115
51
106.5405603
0
ARC
8
right_labelLayer
10
5.967857
20
6.1917317
40
0.2863961
50
89.9385772
51
94.0272128
0
ARC
8
right_labelLayer
10
5.9689678
20
6.2295902
40
0.2485385
50
82.5852197
51
90.1852968
0
ARC
8
right_labelLayer
10
5.976565
20
6.2883585
40
0.1892811
50
74.0085153
51
82.5699444
0
ARC
8
right_labelLayer
10
5.9004718
20
5.9694297
40
0.0651263
50
179.2211695
51
200.9354436
0
ARC
8
right_labelLayer
10
5.892726
20
5.967636
40
0.0572614
50
202.0286089
51
236.1455112
0
ARC
8
right_labelLayer
10
5.904419
20
5.9824882
40
0.0761229
50
235.0642151
51
238.5031542
0
ARC
8
right_labelLayer
10
5.9179686
20
6.0066956
40
0.1038487
50
239.1066724
51
254.4858816
0
ARC
8
right_labelLayer
10
5.9360579
20
6.06907
40
0.1687904
50
254.2324668
51
263.4939867
0
ARC
8
right_labelLayer
10
5.947422
20
6.1653208
40
0.2657094
50
263.4109803
51
270.1460678
0
LINE
8
right_labelLayer
10
5.9480994
20
5.8996122
11
5.9486328
21
5.8996118
0
ARC
8
right_labelLayer
10
5.9501868
20
6.3355195
40
0.4359104
50
269.7957438
51
275.3991437
0
ARC
8
right_labelLayer
10
5.9664968
20
6.1680643
40
0.267664
50
275.2961422
51
283.3511291
0
ARC
8
right_labelLayer
10
5.9930829
20
6.0585536
40
0.1549749
50
283.1368461
51
295.8572005
0
ARC
8
right_labelLayer
10
6.0127471
20
6.0156106
40
0.1077599
50
296.4066039
51
301.7996573
0
ARC
8
right_labelLayer
10
6.0204981
20
6.0049158
40
0.0945908
50
301.2230197
51
318.6233758
0
ARC
8
right_labelLayer
10
6.0379163
20
5.9888256
40
0.0708869
50
319.0762403
51
1.1407333
0
ARC
8
right_labelLayer
10
6.0210628
20
5.9909317
40
0.087729
50
359.5461178
51
10.9908514
0
ARC
8
right_labelLayer
10
6.054951
20
5.9978258
40
0.053149
50
10.6602225
51
30.9368371
0
ARC
8
right_labelLayer
10
6.0656919
20
6.0037868
40
0.0408737
50
31.5099789
51
58.0776672
0
ARC
8
right_labelLayer
10
6.0556233
20
5.9857576
40
0.0615082
50
58.9974481
51
73.8592983
0
ARC
8
right_labelLayer
10
6.0352709
20
5.9191373
40
0.1311645
50
73.4094213
51
81.5911426
0
ARC
8
right_labelLayer
10
6.0180232
20
5.8075266
40
0.2440986
50
81.4172504
51
86.5759276
0
ARC
8
right_labelLayer
10
6.0074558
20
5.6393789
40
0.4125777
50
86.5056951
51
90.1403316
0
ARC
8
right_labelLayer
10
5.9277836
20
5.9029081
40
0.1490503
50
89.6435056
51
100.0213569
0
ARC
8
right_labelLayer
10
5.9184171
20
5.9538599
40
0.0972467
50
99.8109525
51
116.8226153
0
ARC
8
right_labelLayer
10
5.9092903
20
5.9731086
40
0.0759527
50
117.2304881
51
130.5019828
0
ARC
8
right_labelLayer
10
5.9046034
20
5.9791328
40
0.0683289
50
130.794375
51
169.0413683
0
ARC
8
right_labelLayer
10
5.9390953
20
5.9710077
40
0.1037461
50
168.25714
51
180.382618
0
ARC
8
right_labelLayer
10
5.9970728
20
6.3322365
40
0.1265687
50
179.5613438
51
191.652939
0
ARC
8
right_labelLayer
10
5.9530677
20
6.3227287
40
0.0815512
50
191.3553402
51
213.3663382
0
ARC
8
right_labelLayer
10
5.9425084
20
6.3166335
40
0.0693838
50
213.9584175
51
227.7961697
0
ARC
8
right_labelLayer
10
5.9516953
20
6.3277782
40
0.0838136
50
228.261958
51
254.7342655
0
ARC
8
right_labelLayer
10
5.9634441
20
6.368057
40
0.1257667
50
254.4021616
51
267.4344261
0
ARC
8
right_labelLayer
10
5.9665075
20
6.4091744
40
0.1669845
50
267.0158932
51
270.0322808
0
ARC
8
right_labelLayer
10
5.9685106
20
6.3834467
40
0.1412697
50
269.2257234
51
284.3769018
0
ARC
8
right_labelLayer
10
5.9877651
20
6.3163602
40
0.071531
50
282.7795359
51
346.4829101
0
ARC
8
right_labelLayer
10
5.9301973
20
6.3326661
40
0.1313372
50
345.4364833
51
0.7465788
0
ARC
8
right_labelLayer
10
5.9221098
20
6.3363713
40
0.1394279
50
359.1806324
51
15.0433824
0
ARC
8
right_labelLayer
10
5.9852858
20
6.3548006
40
0.073647
50
13.9537796
51
77.6672066
0
ARC
8
right_labelLayer
10
5.9671596
20
6.289843
40
0.1410294
50
76.1095435
51
90.7028223
0
ARC
8
right_labelLayer
10
5.9644464
20
6.2948057
40
0.1360596
50
89.585915
51
101.3334622
0
ARC
8
right_labelLayer
10
5.9547218
20
6.3411837
40
0.0886759
50
101.0615807
51
121.974171
0
ARC
8
right_labelLayer
10
5.9478883
20
6.3534752
40
0.074634
50
122.5208209
51
134.9967244
0
ARC
8
right_labelLayer
10
5.9507036
20
6.3517882
40
0.0778216
50
135.5842465
51
163.0017191
0
ARC
8
right_labelLayer
10
5.9918077
20
6.3383167
40
0.1210715
50
162.5916696
51
175.7337991
0
ARC
8
right_labelLayer
10
6.0411637
20
6.3334604
40
0.170656
50
175.3405809
51
180.0855844
0
LINE
8
right_labelLayer
10
6.6224609
20
6.0421899
11
6.5576172
21
6.0421899
0
LINE
8
right_labelLayer
10
6.5576172
20
6.0421899
11
6.5576172
21
6.319143
0
LINE
8
right_labelLayer
10
6.3294922
20
6.266018
11
6.3294922
21
6.0421899
0
LINE
8
right_labelLayer
10
6.3294922
20
6.0421899
11
6.2646484
21
6.0421899
0
LINE
8
right_labelLayer
10
6.2646484
20
6.0421899
11
6.2646484
21
6.6500024
0
LINE
8
right_labelLayer
10
6.2646484
20
6.6500024
11
6.3294922
21
6.6500024
0
LINE
8
right_labelLayer
10
6.3294922
20
6.6500024
11
6.3294922
21
6.466018
0
LINE
8
right_labelLayer
10
6.3263672
20
6.4109399
11
6.3302734
21
6.4109399
0
LINE
8
right_labelLayer
10
6.6224609
20
6.3214868
11
6.6224609
21
6.0421899
0
ARC
8
right_labelLayer
10
6.3743143
20
6.3201941
40
0.1833059
50
359.6714543
51
8.6873303
0
ARC
8
right_labelLayer
10
6.4422602
20
6.3309685
40
0.1145127
50
8.4931591
51
22.6582486
0
ARC
8
right_labelLayer
10
6.476775
20
6.345313
40
0.0771359
50
22.7020058
51
42.3418974
0
ARC
8
right_labelLayer
10
6.4806532
20
6.3470565
40
0.0731069
50
43.3791816
51
71.5383713
0
ARC
8
right_labelLayer
10
6.4661473
20
6.3065256
40
0.1161491
50
71.0823297
51
84.3695959
0
ARC
8
right_labelLayer
10
6.4596312
20
6.2511264
40
0.1719236
50
84.0198803
51
90.1504753
0
ARC
8
right_labelLayer
10
6.4577812
20
6.2268425
40
0.1962118
50
89.5916279
51
100.3600126
0
ARC
8
right_labelLayer
10
6.4438885
20
6.2998433
40
0.1219039
50
100.1070314
51
118.0845858
0
ARC
8
right_labelLayer
10
6.4297566
20
6.3275748
40
0.0907867
50
118.4552733
51
139.6703719
0
ARC
8
right_labelLayer
10
6.4439414
20
6.3178796
40
0.1078897
50
140.6205892
51
160.5050277
0
ARC
8
right_labelLayer
10
6.5187424
20
6.2901902
40
0.1876464
50
160.1572084
51
171.5308497
0
ARC
8
right_labelLayer
10
6.6397226
20
6.271024
40
0.3101322
50
171.320315
51
178.3409221
0
ARC
8
right_labelLayer
10
6.7482238
20
6.2661858
40
0.4187315
50
178.1090056
51
180.0229505
0
ARC
8
right_labelLayer
10
5.7461732
20
6.4653178
40
0.5833195
50
357.8679116
51
0.068783
0
ARC
8
right_labelLayer
10
5.9441797
20
6.4577727
40
0.3851692
50
354.9833859
51
357.8936955
0
ARC
8
right_labelLayer
10
6.0750138
20
6.4463882
40
0.2538408
50
351.9725463
51
354.9608596
0
ARC
8
right_labelLayer
10
6.4401078
20
6.3422346
40
0.1295531
50
119.8315752
51
147.9725456
0
ARC
8
right_labelLayer
10
6.4557931
20
6.3181389
40
0.1582669
50
116.6655984
51
120.4181949
0
ARC
8
right_labelLayer
10
6.4587252
20
6.3104387
40
0.1664661
50
96.6654054
51
116.3780537
0
ARC
8
right_labelLayer
10
6.4650358
20
6.2668874
40
0.2104591
50
89.8927633
51
96.9956058
0
ARC
8
right_labelLayer
10
6.4670538
20
6.2142733
40
0.2630778
50
80.6862105
51
90.3537171
0
ARC
8
right_labelLayer
10
6.483435
20
6.3106218
40
0.1653495
50
65.602341
51
80.8844415
0
ARC
8
right_labelLayer
10
6.5031059
20
6.354926
40
0.1168768
50
46.7397996
51
65.41296
0
ARC
8
right_labelLayer
10
6.504442
20
6.3591458
40
0.1129045
50
19.2204569
51
45.765946
0
ARC
8
right_labelLayer
10
6.4393503
20
6.3350147
40
0.182317
50
6.4730214
51
19.6471054
0
ARC
8
right_labelLayer
10
6.3420303
20
6.3224909
40
0.2804324
50
359.7948473
51
6.773889
0
LINE
8
right_labelLayer
10
6.9525391
20
6.0957055
11
6.9525391
21
6.0460962
0
LINE
8
right_labelLayer
10
6.7603516
20
6.1652368
11
6.7603516
21
6.4199243
0
LINE
8
right_labelLayer
10
6.7603516
20
6.4199243
11
6.6990234
21
6.4199243
0
LINE
8
right_labelLayer
10
6.6990234
20
6.4199243
11
6.6990234
21
6.4511743
0
LINE
8
right_labelLayer
10
6.6990234
20
6.4511743
11
6.7603516
21
6.4781274
0
LINE
8
right_labelLayer
10
6.7603516
20
6.4781274
11
6.7876953
21
6.5695337
0
LINE
8
right_labelLayer
10
6.7876953
20
6.5695337
11
6.8251953
21
6.5695337
0
LINE
8
right_labelLayer
10
6.8251953
20
6.5695337
11
6.8251953
21
6.4703149
0
LINE
8
right_labelLayer
10
6.8251953
20
6.4703149
11
6.9494141
21
6.4703149
0
LINE
8
right_labelLayer
10
6.9494141
20
6.4703149
11
6.9494141
21
6.4199243
0
LINE
8
right_labelLayer
10
6.9494141
20
6.4199243
11
6.8251953
21
6.4199243
0
LINE
8
right_labelLayer
10
6.8251953
20
6.4199243
11
6.8251953
21
6.1679712
0
ARC
8
right_labelLayer
10
6.8943913
20
6.3008486
40
0.2129561
50
269.879997
51
278.3024663
0
ARC
8
right_labelLayer
10
6.8965743
20
6.2833067
40
0.1952829
50
278.4118817
51
279.0074698
0
ARC
8
right_labelLayer
10
6.8725718
20
6.4366465
40
0.3504897
50
278.958281
51
280.5110044
0
ARC
8
right_labelLayer
10
6.8953457
20
6.3144863
40
0.2262248
50
280.4839747
51
282.6285311
0
ARC
8
right_labelLayer
10
6.9152654
20
6.2260268
40
0.1355505
50
282.5871425
51
285.5787887
0
ARC
8
right_labelLayer
10
6.9255137
20
6.1883169
40
0.0964739
50
285.7306322
51
286.2680348
0
ARC
8
right_labelLayer
10
6.9252754
20
6.1037591
40
0.0637834
50
287.9895683
51
295.3052585
0
ARC
8
right_labelLayer
10
6.9098774
20
6.1503524
40
0.1128546
50
283.3086929
51
288.119149
0
ARC
8
right_labelLayer
10
6.89366
20
6.2180079
40
0.1824264
50
280.0059493
51
283.3739479
0
ARC
8
right_labelLayer
10
6.882746
20
6.2771703
40
0.2425858
50
279.1888755
51
280.1165972
0
ARC
8
right_labelLayer
10
6.8760981
20
6.3150398
40
0.2810312
50
275.5257553
51
279.2939123
0
ARC
8
right_labelLayer
10
6.8836194
20
6.2364496
40
0.2020821
50
270.8925541
51
275.5488149
0
ARC
8
right_labelLayer
10
6.8845763
20
6.1987871
40
0.1644097
50
269.9979137
51
270.7635923
0
ARC
8
right_labelLayer
10
6.8819531
20
6.203718
40
0.1693608
50
253.7848156
51
270.8854429
0
ARC
8
right_labelLayer
10
6.8618887
20
6.1352905
40
0.0980525
50
190.3817828
51
253.8772612
0
ARC
8
right_labelLayer
10
6.9641545
20
6.1629419
40
0.2038158
50
179.354861
51
192.8478523
0
ARC
8
right_labelLayer
10
6.9557708
20
6.1671556
40
0.1305781
50
179.642129
51
189.7507278
0
ARC
8
right_labelLayer
10
6.909673
20
6.158933
40
0.0837542
50
189.5478405
51
205.7869718
0
ARC
8
right_labelLayer
10
6.8907262
20
6.1501962
40
0.0628944
50
206.1291188
51
221.4087188
0
ARC
8
right_labelLayer
10
6.8886045
20
6.1485863
40
0.0602386
50
221.595082
51
262.3504407
0
ARC
8
right_labelLayer
10
6.8936548
20
6.1745542
40
0.0866616
50
261.3264892
51
270.1920986
0
LINE
8
bottom_outsideCutPath
10
8.368
20
4.007
11
8.368
21
2.67075
0
LINE
8
bottom_outsideCutPath
10
8.368
20
2.67075
11
8.25
21
2.67075
0
LINE
8
bottom_outsideCutPath
10
8.25
20
2.67075
11
8.25
21
1.57925
0
LINE
8
bottom_outsideCutPath
10
8.25
20
1.57925
11
8.368
21
1.57925
0
LINE
8
bottom_outsideCutPath
10
8.368
20
1.57925
11
8.368
21
0.48775
0
LINE
8
bottom_outsideCutPath
10
8.368
20
0.48775
11
8.368
21
0.243
0
LINE
8
bottom_outsideCutPath
10
8.368
20
0.243
11
9.70425
21
0.243
0
LINE
8
bottom_outsideCutPath
10
9.70425
20
0.243
11
9.70425
21
0.125
0
LINE
8
bottom_outsideCutPath
10
9.70425
20
0.125
11
10.79575
21
0.125
0
LINE
8
bottom_outsideCutPath
10
10.79575
20
0.125
11
10.79575
21
0.243
0
LINE
8
bottom_outsideCutPath
10
10.79575
20
0.243
11
11.88725
21
0.243
0
LINE
8
bottom_outsideCutPath
10
11.88725
20
0.243
11
12.132
21
0.243
0
LINE
8
bottom_outsideCutPath
10
12.132
20
0.243
11
12.132
21
1.57925
0
LINE
8
bottom_outsideCutPath
10
12.132
20
1.57925
11
12.25
21
1.57925
0
LINE
8
bottom_outsideCutPath
10
12.25
20
1.57925
11
12.25
21
2.67075
0
LINE
8
bottom_outsideCutPath
10
12.25
20
2.67075
11
12.132
21
2.67075
0
LINE
8
bottom_outsideCutPath
10
12.132
20
2.67075
11
12.132
21
3.76225
0
LINE
8
bottom_outsideCutPath
10
12.132
20
3.76225
11
12.132
21
4.007
0
LINE
8
bottom_outsideCutPath
10
12.132
20
4.007
11
10.79575
21
4.007
0
LINE
8
bottom_outsideCutPath
10
10.79575
20
4.007
11
10.79575
21
4.125
0
LINE
8
bottom_outsideCutPath
10
10.79575
20
4.125
11
9.70425
21
4.125
0
LINE
8
bottom_outsideCutPath
10
9.70425
20
4.125
11
9.70425
21
4.007
0
LINE
8
bottom_outsideCutPath
10
9.70425
20
4.007
11
8.61275
21
4.007
0
LINE
8
bottom_outsideCutPath
10
8.61275
20
4.007
11
8.368
21
4.007
0
LINE
8
bottom_labelLayer
10
8.9988263
20
1.8800882
11
8.9941388
21
1.8800882
0
LINE
8
bottom_labelLayer
10
8.9941388
20
1.8800882
11
8.9804669
21
1.8250101
0
LINE
8
bottom_labelLayer
10
8.9804669
20
1.8250101
11
8.9339825
21
1.8250101
0
LINE
8
bottom_labelLayer
10
8.9339825
20
1.8250101
11
8.9339825
21
2.4328226
0
LINE
8
bottom_labelLayer
10
8.9339825
20
2.4328226
11
8.9988263
21
2.4328226
0
LINE
8
bottom_labelLayer
10
8.9988263
20
2.4328226
11
8.9988263
21
2.2851664
0
LINE
8
bottom_labelLayer
10
8.9957013
20
2.1961039
11
8.9988263
21
2.1961039
0
ARC
8
bottom_labelLayer
10
9.1351459
20
2.0619891
40
0.1981868
50
74.2392945
51
90.5621875
0
ARC
8
bottom_labelLayer
10
9.1482508
20
2.110065
40
0.1483596
50
38.5633265
51
74.0670028
0
ARC
8
bottom_labelLayer
10
9.1145281
20
2.0838436
40
0.1910744
50
16.4709663
51
38.4076954
0
ARC
8
bottom_labelLayer
10
9.0173806
20
2.0533803
40
0.2928773
50
5.1336614
51
16.7974776
0
ARC
8
bottom_labelLayer
10
8.8946745
20
2.040348
40
0.4162621
50
359.8782133
51
5.4089932
0
ARC
8
bottom_labelLayer
10
8.9307657
20
2.0372191
40
0.3801766
50
350.6560109
51
0.3382065
0
ARC
8
bottom_labelLayer
10
9.0632919
20
2.0146756
40
0.2457497
50
335.830575
51
350.8255813
0
ARC
8
bottom_labelLayer
10
9.1215898
20
1.9895135
40
0.1822623
50
321.3163636
51
335.5435677
0
ARC
8
bottom_labelLayer
10
9.1438824
20
1.9713498
40
0.1535079
50
274.0639876
51
321.4079794
0
ARC
8
bottom_labelLayer
10
9.1334964
20
2.0371482
40
0.2199509
50
269.9231219
51
275.5481192
0
ARC
8
bottom_labelLayer
10
9.1321077
20
2.0138791
40
0.1966845
50
255.7755261
51
270.3185795
0
ARC
8
bottom_labelLayer
10
9.1265008
20
1.9889607
40
0.1711537
50
245.980847
51
255.5451934
0
ARC
8
bottom_labelLayer
10
9.115623
20
1.9636608
40
0.1436172
50
215.5851757
51
245.8363402
0
ARC
8
bottom_labelLayer
10
7.6468937
20
2.2840178
40
1.3519331
50
358.1125465
51
0.0486757
0
ARC
8
bottom_labelLayer
10
8.0233309
20
2.2713802
40
0.9752837
50
355.7237176
51
358.1261928
0
ARC
8
bottom_labelLayer
10
8.1835196
20
2.2603678
40
0.8147204
50
355.4758903
51
355.6560018
0
ARC
8
bottom_labelLayer
10
9.1197566
20
2.111776
40
0.1474291
50
95.1833717
51
145.1109463
0
ARC
8
bottom_labelLayer
10
9.1327156
20
2.0386962
40
0.2214706
50
89.87435
51
96.8143894
0
ARC
8
bottom_labelLayer
10
9.1224687
20
2.0236609
40
0.1822136
50
89.5731237
51
100.7325835
0
ARC
8
bottom_labelLayer
10
9.1089797
20
2.0918092
40
0.1127469
50
100.4469439
51
119.6699918
0
ARC
8
bottom_labelLayer
10
9.096472
20
2.1151946
40
0.086239
50
120.1403454
51
142.4245926
0
ARC
8
bottom_labelLayer
10
9.1171686
20
2.1015043
40
0.1110046
50
143.3385633
51
161.2557465
0
ARC
8
bottom_labelLayer
10
9.2037182
20
2.0707788
40
0.2028414
50
160.893154
51
171.2332456
0
ARC
8
bottom_labelLayer
10
9.3481758
20
2.0474746
40
0.3491648
50
171.066718
51
177.845551
0
ARC
8
bottom_labelLayer
10
9.4984852
20
2.0398294
40
0.4996592
50
177.617462
51
180.0419915
0
ARC
8
bottom_labelLayer
10
9.4276022
20
2.0377908
40
0.4287792
50
179.776523
51
185.7072608
0
ARC
8
bottom_labelLayer
10
9.2585559
20
2.0203773
40
0.2588397
50
185.5929881
51
194.2045983
0
ARC
8
bottom_labelLayer
10
9.1502447
20
1.9922687
40
0.1469441
50
193.942861
51
208.021548
0
ARC
8
bottom_labelLayer
10
9.106417
20
1.9699714
40
0.097783
50
208.5530178
51
217.5614643
0
ARC
8
bottom_labelLayer
10
9.1028619
20
1.9684957
40
0.0940706
50
218.1689967
51
253.8047235
0
ARC
8
bottom_labelLayer
10
9.120312
20
2.0223009
40
0.1506178
50
253.1387203
51
266.8478494
0
ARC
8
bottom_labelLayer
10
9.1252061
20
2.0800321
40
0.2085378
50
266.3774293
51
270.0502001
0
ARC
8
bottom_labelLayer
10
9.126772
20
2.0007555
40
0.1292684
50
269.3869182
51
285.8627073
0
ARC
8
bottom_labelLayer
10
9.1363756
20
1.9660437
40
0.0932536
50
286.0162809
51
326.84976
0
ARC
8
bottom_labelLayer
10
9.0900259
20
1.9967496
40
0.148851
50
326.7101975
51
343.6661388
0
ARC
8
bottom_labelLayer
10
9.0032614
20
2.0232637
40
0.2395725
50
343.4167546
51
353.6367811
0
ARC
8
bottom_labelLayer
10
8.8721979
20
2.0388143
40
0.371553
50
353.4935336
51
0.2205464
0
ARC
8
bottom_labelLayer
10
8.8606126
20
2.0417936
40
0.3831387
50
359.7683457
51
6.3091706
0
ARC
8
bottom_labelLayer
10
9.0049544
20
2.0583542
40
0.237852
50
6.1650784
51
16.0397935
0
ARC
8
bottom_labelLayer
10
9.0979223
20
2.0857533
40
0.1409344
50
15.7775879
51
32.0155698
0
ARC
8
bottom_labelLayer
10
9.1271615
20
2.1025269
40
0.1072574
50
32.698695
51
35.5277214
0
ARC
8
bottom_labelLayer
10
9.1375066
20
2.109887
40
0.0945613
50
35.5408321
51
79.8012542
0
ARC
8
bottom_labelLayer
10
9.1248078
20
2.0559012
40
0.1499715
50
78.6782316
51
90.3749716
0
ARC
8
bottom_labelLayer
10
9.4588068
20
2.0372051
40
0.334949
50
349.1763443
51
0.3862683
0
ARC
8
bottom_labelLayer
10
9.5715793
20
2.014725
40
0.219963
50
330.2506036
51
349.4115498
0
ARC
8
bottom_labelLayer
10
9.6062752
20
1.9966923
40
0.1808988
50
318.1444194
51
329.7564337
0
ARC
8
bottom_labelLayer
10
9.6125467
20
1.9916677
40
0.1728754
50
278.8960073
51
317.9978505
0
ARC
8
bottom_labelLayer
10
9.5964081
20
2.0689843
40
0.2517892
50
269.7502702
51
279.8035482
0
ARC
8
bottom_labelLayer
10
9.5937913
20
2.0254249
40
0.2082329
50
253.543622
51
270.4180554
0
ARC
8
bottom_labelLayer
10
9.5868568
20
1.9986061
40
0.1805508
50
238.811443
51
253.2431052
0
ARC
8
bottom_labelLayer
10
9.5846228
20
1.9941121
40
0.1755499
50
207.7947236
51
238.675642
0
ARC
8
bottom_labelLayer
10
9.6168055
20
2.0138157
40
0.2132212
50
205.6570391
51
208.4459165
0
ARC
8
bottom_labelLayer
10
9.6414506
20
2.024075
40
0.2398827
50
188.9104529
51
205.3171201
0
ARC
8
bottom_labelLayer
10
9.7247627
20
2.0381863
40
0.3243765
50
179.7744522
51
189.0935728
0
ARC
8
bottom_labelLayer
10
9.7370666
20
2.0417436
40
0.3366855
50
169.244328
51
180.3880586
0
ARC
8
bottom_labelLayer
10
9.6227284
20
2.0643443
40
0.2201399
50
150.7111349
51
169.4696653
0
ARC
8
bottom_labelLayer
10
9.5862342
20
2.0830853
40
0.179149
50
138.1762471
51
150.2287576
0
ARC
8
bottom_labelLayer
10
9.5801591
20
2.0877466
40
0.1715143
50
99.1759624
51
137.9833325
0
ARC
8
bottom_labelLayer
10
9.5968699
20
2.0091033
40
0.2518471
50
89.7326528
51
100.0759795
0
ARC
8
bottom_labelLayer
10
9.6002092
20
2.0430671
40
0.2178912
50
73.5221181
51
90.5690812
0
ARC
8
bottom_labelLayer
10
9.6129871
20
2.0894918
40
0.1697515
50
41.1447204
51
73.2132889
0
ARC
8
bottom_labelLayer
10
9.5885961
20
2.068528
40
0.2019127
50
13.5015179
51
41.0704863
0
ARC
8
bottom_labelLayer
10
9.4943491
20
2.0438663
40
0.2993192
50
1.1278154
51
13.8797899
0
ARC
8
bottom_labelLayer
10
9.4137132
20
2.0395244
40
0.3800349
50
359.9907787
51
1.5430191
0
ARC
8
bottom_labelLayer
10
9.7959329
20
2.0377781
40
0.3283609
50
179.7059533
51
187.916232
0
ARC
8
bottom_labelLayer
10
9.6755114
20
2.0204792
40
0.2067053
50
187.7640742
51
200.0974121
0
ARC
8
bottom_labelLayer
10
9.6091616
20
1.9961708
40
0.1360427
50
200.085069
51
216.9130132
0
ARC
8
bottom_labelLayer
10
9.5849299
20
1.9788684
40
0.106279
50
217.3009009
51
261.7098175
0
ARC
8
bottom_labelLayer
10
9.596177
20
2.0325397
40
0.1610467
50
260.503336
51
270.2476757
0
ARC
8
bottom_labelLayer
10
9.5983238
20
2.022105
40
0.1506175
50
269.4481605
51
284.7253533
0
ARC
8
bottom_labelLayer
10
9.6102476
20
1.9778822
40
0.1048167
50
284.5660678
51
322.63358
0
ARC
8
bottom_labelLayer
10
9.5823735
20
1.9980217
40
0.1391961
50
323.0085069
51
342.6391979
0
ARC
8
bottom_labelLayer
10
9.502636
20
2.0240826
40
0.2230799
50
342.3615719
51
353.7538372
0
ARC
8
bottom_labelLayer
10
9.3850138
20
2.038261
40
0.3415489
50
353.5362747
51
0.2016839
0
ARC
8
bottom_labelLayer
10
9.4030335
20
2.0411159
40
0.3235314
50
359.7073289
51
7.8973263
0
ARC
8
bottom_labelLayer
10
9.5215139
20
2.0581011
40
0.2038416
50
7.7440828
51
20.0691926
0
ARC
8
bottom_labelLayer
10
9.5875342
20
2.0823277
40
0.1335167
50
20.0261614
51
37.4346543
0
ARC
8
bottom_labelLayer
10
9.6094467
20
2.0978751
40
0.1066711
50
37.9579729
51
80.4003659
0
ARC
8
bottom_labelLayer
10
9.5969992
20
2.0423368
40
0.1635352
50
79.3451919
51
90.3178771
0
ARC
8
bottom_labelLayer
10
9.594693
20
2.0515507
40
0.1543251
50
89.4806306
51
103.8801225
0
ARC
8
bottom_labelLayer
10
9.5817256
20
2.1009337
40
0.1032759
50
103.4683454
51
142.3119643
0
ARC
8
bottom_labelLayer
10
9.6069357
20
2.0832041
40
0.1340722
50
142.902633
51
162.3748601
0
ARC
8
bottom_labelLayer
10
9.6863689
20
2.0567338
40
0.2177947
50
162.0654193
51
173.1675171
0
ARC
8
bottom_labelLayer
10
9.8102548
20
2.0409351
40
0.3426817
50
173.0089817
51
180.2460994
0
LINE
8
bottom_labelLayer
10
10.104295
20
1.8785257
11
10.104295
21
1.8289164
0
LINE
8
bottom_labelLayer
10
9.9121075
20
1.948057
11
9.9121075
21
2.2027445
0
LINE
8
bottom_labelLayer
10
9.9121075
20
2.2027445
11
9.8507794
21
2.2027445
0
LINE
8
bottom_labelLayer
10
9.8507794
20
2.2027445
11
9.8507794
21
2.2339945
0
LINE
8
bottom_labelLayer
10
9.8507794
20
2.2339945
11
9.9121075
21
2.2609476
0
LINE
8
bottom_labelLayer
10
9.9121075
20
2.2609476
11
9.9394513
21
2.3523539
0
LINE
8
bottom_labelLayer
10
9.9394513
20
2.3523539
11
9.9769513
21
2.3523539
0
LINE
8
bottom_labelLayer
10
9.9769513
20
2.3523539
11
9.9769513
21
2.2531351
0
LINE
8
bottom_labelLayer
10
9.9769513
20
2.2531351
11
10.10117
21
2.2531351
0
LINE
8
bottom_labelLayer
10
10.10117
20
2.2531351
11
10.10117
21
2.2027445
0
LINE
8
bottom_labelLayer
10
10.10117
20
2.2027445
11
9.9769513
21
2.2027445
0
LINE
8
bottom_labelLayer
10
9.9769513
20
2.2027445
11
9.9769513
21
1.9507914
0
ARC
8
bottom_labelLayer
10
10.0461473
20
2.0836688
40
0.2129561
50
269.879997
51
278.3024663
0
ARC
8
bottom_labelLayer
10
10.0483303
20
2.0661269
40
0.1952829
50
278.4118817
51
279.0074698
0
ARC
8
bottom_labelLayer
10
10.0243278
20
2.2194667
40
0.3504897
50
278.958281
51
280.5110044
0
ARC
8
bottom_labelLayer
10
10.0471017
20
2.0973065
40
0.2262248
50
280.4839747
51
282.6285311
0
ARC
8
bottom_labelLayer
10
10.0670213
20
2.008847
40
0.1355505
50
282.5871425
51
285.5787887
0
ARC
8
bottom_labelLayer
10
10.0772696
20
1.9711371
40
0.0964739
50
285.7306322
51
286.2680348
0
ARC
8
bottom_labelLayer
10
10.0770314
20
1.8865793
40
0.0637834
50
287.9895683
51
295.3052585
0
ARC
8
bottom_labelLayer
10
10.0616334
20
1.9331726
40
0.1128546
50
283.3086929
51
288.119149
0
ARC
8
bottom_labelLayer
10
10.0454159
20
2.0008281
40
0.1824264
50
280.0059493
51
283.3739479
0
ARC
8
bottom_labelLayer
10
10.034502
20
2.0599905
40
0.2425858
50
279.1888755
51
280.1165972
0
ARC
8
bottom_labelLayer
10
10.0278541
20
2.09786
40
0.2810312
50
275.5257553
51
279.2939123
0
ARC
8
bottom_labelLayer
10
10.0353754
20
2.0192698
40
0.2020821
50
270.8925541
51
275.5488149
0
ARC
8
bottom_labelLayer
10
10.0363323
20
1.9816073
40
0.1644097
50
269.9979137
51
270.7635923
0
ARC
8
bottom_labelLayer
10
10.0337091
20
1.9865382
40
0.1693608
50
253.7848156
51
270.8854429
0
ARC
8
bottom_labelLayer
10
10.0136447
20
1.9181107
40
0.0980525
50
190.3817828
51
253.8772612
0
ARC
8
bottom_labelLayer
10
10.1159105
20
1.9457621
40
0.2038158
50
179.354861
51
192.8478523
0
ARC
8
bottom_labelLayer
10
10.1075268
20
1.9499758
40
0.1305781
50
179.642129
51
189.7507278
0
ARC
8
bottom_labelLayer
10
10.0614289
20
1.9417532
40
0.0837542
50
189.5478405
51
205.7869718
0
ARC
8
bottom_labelLayer
10
10.0424821
20
1.9330164
40
0.0628944
50
206.1291188
51
221.4087188
0
ARC
8
bottom_labelLayer
10
10.0403604
20
1.9314065
40
0.0602386
50
221.595082
51
262.3504407
0
ARC
8
bottom_labelLayer
10
10.0454107
20
1.9573744
40
0.0866616
50
261.3264892
51
270.1920986
0
LINE
8
bottom_labelLayer
10
10.3867169
20
1.8785257
11
10.3867169
21
1.8289164
0
LINE
8
bottom_labelLayer
10
10.1945294
20
1.948057
11
10.1945294
21
2.2027445
0
LINE
8
bottom_labelLayer
10
10.1945294
20
2.2027445
11
10.1332013
21
2.2027445
0
LINE
8
bottom_labelLayer
10
10.1332013
20
2.2027445
11
10.1332013
21
2.2339945
0
LINE
8
bottom_labelLayer
10
10.1332013
20
2.2339945
11
10.1945294
21
2.2609476
0
LINE
8
bottom_labelLayer
10
10.1945294
20
2.2609476
11
10.2218732
21
2.3523539
0
LINE
8
bottom_labelLayer
10
10.2218732
20
2.3523539
11
10.2593732
21
2.3523539
0
LINE
8
bottom_labelLayer
10
10.2593732
20
2.3523539
11
10.2593732
21
2.2531351
0
LINE
8
bottom_labelLayer
10
10.2593732
20
2.2531351
11
10.3835919
21
2.2531351
0
LINE
8
bottom_labelLayer
10
10.3835919
20
2.2531351
11
10.3835919
21
2.2027445
0
LINE
8
bottom_labelLayer
10
10.3835919
20
2.2027445
11
10.2593732
21
2.2027445
0
LINE
8
bottom_labelLayer
10
10.2593732
20
2.2027445
11
10.2593732
21
1.9507914
0
ARC
8
bottom_labelLayer
10
10.3285692
20
2.0836688
40
0.2129561
50
269.879997
51
278.3024663
0
ARC
8
bottom_labelLayer
10
10.3307522
20
2.0661269
40
0.1952829
50
278.4118817
51
279.0074698
0
ARC
8
bottom_labelLayer
10
10.3067497
20
2.2194667
40
0.3504897
50
278.958281
51
280.5110044
0
ARC
8
bottom_labelLayer
10
10.3295236
20
2.0973065
40
0.2262248
50
280.4839747
51
282.6285311
0
ARC
8
bottom_labelLayer
10
10.3494432
20
2.008847
40
0.1355505
50
282.5871425
51
285.5787887
0
ARC
8
bottom_labelLayer
10
10.3596915
20
1.9711371
40
0.0964739
50
285.7306322
51
286.2680348
0
ARC
8
bottom_labelLayer
10
10.3594533
20
1.8865793
40
0.0637834
50
287.9895683
51
295.3052585
0
ARC
8
bottom_labelLayer
10
10.3440552
20
1.9331726
40
0.1128546
50
283.3086929
51
288.119149
0
ARC
8
bottom_labelLayer
10
10.3278378
20
2.0008281
40
0.1824264
50
280.0059493
51
283.3739479
0
ARC
8
bottom_labelLayer
10
10.3169238
20
2.0599905
40
0.2425858
50
279.1888755
51
280.1165972
0
ARC
8
bottom_labelLayer
10
10.310276
20
2.09786
40
0.2810312
50
275.5257553
51
279.2939123
0
ARC
8
bottom_labelLayer
10
10.3177973
20
2.0192698
40
0.2020821
50
270.8925541
51
275.5488149
0
ARC
8
bottom_labelLayer
10
10.3187541
20
1.9816073
40
0.1644097
50
269.9979137
51
270.7635923
0
ARC
8
bottom_labelLayer
10
10.316131
20
1.9865382
40
0.1693608
50
253.7848156
51
270.8854429
0
ARC
8
bottom_labelLayer
10
10.2960665
20
1.9181107
40
0.0980525
50
190.3817828
51
253.8772612
0
ARC
8
bottom_labelLayer
10
10.3983324
20
1.9457621
40
0.2038158
50
179.354861
51
192.8478523
0
ARC
8
bottom_labelLayer
10
10.3899487
20
1.9499758
40
0.1305781
50
179.642129
51
189.7507278
0
ARC
8
bottom_labelLayer
10
10.3438508
20
1.9417532
40
0.0837542
50
189.5478405
51
205.7869718
0
ARC
8
bottom_labelLayer
10
10.324904
20
1.9330164
40
0.0628944
50
206.1291188
51
221.4087188
0
ARC
8
bottom_labelLayer
10
10.3227823
20
1.9314065
40
0.0602386
50
221.595082
51
262.3504407
0
ARC
8
bottom_labelLayer
10
10.3278326
20
1.9573744
40
0.0866616
50
261.3264892
51
270.1920986
0
ARC
8
bottom_labelLayer
10
10.5068537
20
2.0372051
40
0.334949
50
349.1763443
51
0.3862683
0
ARC
8
bottom_labelLayer
10
10.6196262
20
2.014725
40
0.219963
50
330.2506036
51
349.4115498
0
ARC
8
bottom_labelLayer
10
10.6543221
20
1.9966923
40
0.1808988
50
318.1444194
51
329.7564337
0
ARC
8
bottom_labelLayer
10
10.6605935
20
1.9916677
40
0.1728754
50
278.8960073
51
317.9978505
0
ARC
8
bottom_labelLayer
10
10.644455
20
2.0689843
40
0.2517892
50
269.7502702
51
279.8035482
0
ARC
8
bottom_labelLayer
10
10.6418382
20
2.0254249
40
0.2082329
50
253.543622
51
270.4180554
0
ARC
8
bottom_labelLayer
10
10.6349037
20
1.9986061
40
0.1805508
50
238.811443
51
253.2431052
0
ARC
8
bottom_labelLayer
10
10.6326697
20
1.9941121
40
0.1755499
50
207.7947236
51
238.675642
0
ARC
8
bottom_labelLayer
10
10.6648523
20
2.0138157
40
0.2132212
50
205.6570391
51
208.4459165
0
ARC
8
bottom_labelLayer
10
10.6894975
20
2.024075
40
0.2398827
50
188.9104529
51
205.3171201
0
ARC
8
bottom_labelLayer
10
10.7728096
20
2.0381863
40
0.3243765
50
179.7744522
51
189.0935728
0
ARC
8
bottom_labelLayer
10
10.7851135
20
2.0417436
40
0.3366855
50
169.244328
51
180.3880586
0
ARC
8
bottom_labelLayer
10
10.6707753
20
2.0643443
40
0.2201399
50
150.7111349
51
169.4696653
0
ARC
8
bottom_labelLayer
10
10.6342811
20
2.0830853
40
0.179149
50
138.1762471
51
150.2287576
0
ARC
8
bottom_labelLayer
10
10.628206
20
2.0877466
40
0.1715143
50
99.1759624
51
137.9833325
0
ARC
8
bottom_labelLayer
10
10.6449168
20
2.0091033
40
0.2518471
50
89.7326528
51
100.0759795
0
ARC
8
bottom_labelLayer
10
10.648256
20
2.0430671
40
0.2178912
50
73.5221181
51
90.5690812
0
ARC
8
bottom_labelLayer
10
10.661034
20
2.0894918
40
0.1697515
50
41.1447204
51
73.2132889
0
ARC
8
bottom_labelLayer
10
10.636643
20
2.068528
40
0.2019127
50
13.5015179
51
41.0704863
0
ARC
8
bottom_labelLayer
10
10.542396
20
2.0438663
40
0.2993192
50
1.1278154
51
13.8797899
0
ARC
8
bottom_labelLayer
10
10.4617601
20
2.0395244
40
0.3800349
50
359.9907787
51
1.5430191
0
ARC
8
bottom_labelLayer
10
10.8439798
20
2.0377781
40
0.3283609
50
179.7059533
51
187.916232
0
ARC
8
bottom_labelLayer
10
10.7235583
20
2.0204792
40
0.2067053
50
187.7640742
51
200.0974121
0
ARC
8
bottom_labelLayer
10
10.6572085
20
1.9961708
40
0.1360427
50
200.085069
51
216.9130132
0
ARC
8
bottom_labelLayer
10
10.6329767
20
1.9788684
40
0.106279
50
217.3009009
51
261.7098175
0
ARC
8
bottom_labelLayer
10
10.6442239
20
2.0325397
40
0.1610467
50
260.503336
51
270.2476757
0
ARC
8
bottom_labelLayer
10
10.6463707
20
2.022105
40
0.1506175
50
269.4481605
51
284.7253533
0
ARC
8
bottom_labelLayer
10
10.6582945
20
1.9778822
40
0.1048167
50
284.5660678
51
322.63358
0
ARC
8
bottom_labelLayer
10
10.6304204
20
1.9980217
40
0.1391961
50
323.0085069
51
342.6391979
0
ARC
8
bottom_labelLayer
10
10.5506828
20
2.0240826
40
0.2230799
50
342.3615719
51
353.7538372
0
ARC
8
bottom_labelLayer
10
10.4330606
20
2.038261
40
0.3415489
50
353.5362747
51
0.2016839
0
ARC
8
bottom_labelLayer
10
10.4510803
20
2.0411159
40
0.3235314
50
359.7073289
51
7.8973263
0
ARC
8
bottom_labelLayer
10
10.5695608
20
2.0581011
40
0.2038416
50
7.7440828
51
20.0691926
0
ARC
8
bottom_labelLayer
10
10.6355811
20
2.0823277
40
0.1335167
50
20.0261614
51
37.4346543
0
ARC
8
bottom_labelLayer
10
10.6574936
20
2.0978751
40
0.1066711
50
37.9579729
51
80.4003659
0
ARC
8
bottom_labelLayer
10
10.6450461
20
2.0423368
40
0.1635352
50
79.3451919
51
90.3178771
0
ARC
8
bottom_labelLayer
10
10.6427399
20
2.0515507
40
0.1543251
50
89.4806306
51
103.8801225
0
ARC
8
bottom_labelLayer
10
10.6297725
20
2.1009337
40
0.1032759
50
103.4683454
51
142.3119643
0
ARC
8
bottom_labelLayer
10
10.6549826
20
2.0832041
40
0.1340722
50
142.902633
51
162.3748601
0
ARC
8
bottom_labelLayer
10
10.7344158
20
2.0567338
40
0.2177947
50
162.0654193
51
173.1675171
0
ARC
8
bottom_labelLayer
10
10.8583017
20
2.0409351
40
0.3426817
50
173.0089817
51
180.2460994
0
LINE
8
bottom_labelLayer
10
11.5660138
20
1.8250101
11
11.50117
21
1.8250101
0
LINE
8
bottom_labelLayer
10
11.50117
20
1.8250101
11
11.50117
21
2.1035257
0
LINE
8
bottom_labelLayer
10
11.2929669
20
2.0640726
11
11.2929669
21
1.8250101
0
LINE
8
bottom_labelLayer
10
11.2929669
20
1.8250101
11
11.2281232
21
1.8250101
0
LINE
8
bottom_labelLayer
10
11.2281232
20
1.8250101
11
11.2281232
21
2.1035257
0
LINE
8
bottom_labelLayer
10
11.0203107
20
2.0496195
11
11.0203107
21
1.8250101
0
LINE
8
bottom_labelLayer
10
11.0203107
20
1.8250101
11
10.9554669
21
1.8250101
0
LINE
8
bottom_labelLayer
10
10.9554669
20
1.8250101
11
10.9554669
21
2.2531351
0
LINE
8
bottom_labelLayer
10
10.9554669
20
2.2531351
11
11.0082013
21
2.2531351
0
LINE
8
bottom_labelLayer
10
11.0082013
20
2.2531351
11
11.0187482
21
2.1945414
0
LINE
8
bottom_labelLayer
10
11.0187482
20
2.1945414
11
11.0218732
21
2.1945414
0
LINE
8
bottom_labelLayer
10
11.2796857
20
2.1882914
11
11.2828107
21
2.1882914
0
LINE
8
bottom_labelLayer
10
11.5660138
20
2.104307
11
11.5660138
21
1.8250101
0
ARC
8
bottom_labelLayer
10
11.309883
20
2.1045445
40
0.1912897
50
359.6948437
51
8.1473588
0
ARC
8
bottom_labelLayer
10
11.3803453
20
2.1149739
40
0.1200611
50
7.9859536
51
20.795242
0
ARC
8
bottom_labelLayer
10
11.4192837
20
2.12989
40
0.0783638
50
20.7073918
51
40.0212969
0
ARC
8
bottom_labelLayer
10
11.4278311
20
2.135483
40
0.0682322
50
41.0403767
51
73.1793757
0
ARC
8
bottom_labelLayer
10
11.4154649
20
2.098075
40
0.1076227
50
72.6404831
51
86.2560783
0
ARC
8
bottom_labelLayer
10
11.4115037
20
2.0552992
40
0.1505705
50
85.8148509
51
90.0675276
0
ARC
8
bottom_labelLayer
10
11.4100502
20
2.0390294
40
0.166845
50
89.5617763
51
101.2963924
0
ARC
8
bottom_labelLayer
10
11.397485
20
2.0991813
40
0.1053984
50
101.0034155
51
121.7838585
0
ARC
8
bottom_labelLayer
10
11.3879334
20
2.1162359
40
0.0858747
50
122.3601472
51
140.2878515
0
ARC
8
bottom_labelLayer
10
11.4051183
20
2.1036367
40
0.1071521
50
140.9764833
51
161.1700397
0
ARC
8
bottom_labelLayer
10
11.4698859
20
2.0805889
40
0.1758947
50
160.8736565
51
172.526779
0
ARC
8
bottom_labelLayer
10
11.5780619
20
2.0656494
40
0.2850958
50
172.377472
51
180.1830784
0
ARC
8
bottom_labelLayer
10
11.8458962
20
2.0639071
40
0.5529293
50
179.9138565
51
179.9828458
0
ARC
8
bottom_labelLayer
10
11.0368362
20
2.1045445
40
0.1912897
50
359.6948437
51
8.1473588
0
ARC
8
bottom_labelLayer
10
11.1072985
20
2.1149739
40
0.1200611
50
7.9859536
51
20.795242
0
ARC
8
bottom_labelLayer
10
11.1462368
20
2.12989
40
0.0783638
50
20.7073918
51
40.0212969
0
ARC
8
bottom_labelLayer
10
11.1549616
20
2.1356048
40
0.0680184
50
41.0610995
51
72.8994877
0
ARC
8
bottom_labelLayer
10
11.1423643
20
2.0980996
40
0.1075745
50
72.3604224
51
85.9565216
0
ARC
8
bottom_labelLayer
10
11.1380966
20
2.0539591
40
0.1519106
50
85.5248257
51
90.0783821
0
ARC
8
bottom_labelLayer
10
11.1366453
20
2.0448127
40
0.1610616
50
89.5576526
51
101.4829227
0
ARC
8
bottom_labelLayer
10
11.1242823
20
2.1027381
40
0.1018362
50
101.1543594
51
123.0655845
0
ARC
8
bottom_labelLayer
10
11.1158793
20
2.1173749
40
0.0849903
50
123.7018097
51
142.3023089
0
ARC
8
bottom_labelLayer
10
11.1355623
20
2.1040216
40
0.1087398
50
143.077037
51
161.3916066
0
ARC
8
bottom_labelLayer
10
11.214906
20
2.0759986
40
0.1928816
50
161.0233829
51
171.4466388
0
ARC
8
bottom_labelLayer
10
11.3462221
20
2.0554283
40
0.3257976
50
171.3040381
51
178.3505439
0
ARC
8
bottom_labelLayer
10
11.4717531
20
2.049819
40
0.4514425
50
178.0975148
51
180.0253174
0
ARC
8
bottom_labelLayer
10
11.1317274
20
2.1299413
40
0.1274406
50
117.1209273
51
149.5422433
0
ARC
8
bottom_labelLayer
10
11.1447327
20
2.1068274
40
0.1539454
50
93.8340643
51
117.5074044
0
ARC
8
bottom_labelLayer
10
11.1483259
20
2.0749824
40
0.1859652
50
89.9661739
51
94.282579
0
ARC
8
bottom_labelLayer
10
11.1504783
20
2.0486609
40
0.2122965
50
77.5570672
51
90.5512829
0
ARC
8
bottom_labelLayer
10
11.1701781
20
2.1333892
40
0.1253177
50
52.7025587
51
78.0055663
0
ARC
8
bottom_labelLayer
10
11.177195
20
2.1464452
40
0.1107042
50
22.2098344
51
51.4968766
0
ARC
8
bottom_labelLayer
10
11.4002772
20
2.1209714
40
0.1353897
50
119.4040728
51
150.1830137
0
ARC
8
bottom_labelLayer
10
11.4150359
20
2.0985977
40
0.162138
50
118.2553663
51
120.0658644
0
ARC
8
bottom_labelLayer
10
11.4152501
20
2.0964674
40
0.1641179
50
95.8633361
51
117.9691785
0
ARC
8
bottom_labelLayer
10
11.4208051
20
2.0563215
40
0.2046264
50
89.9196814
51
96.2622616
0
ARC
8
bottom_labelLayer
10
11.4225883
20
2.0355559
40
0.2253966
50
79.9359468
51
90.3803915
0
ARC
8
bottom_labelLayer
10
11.4376065
20
2.1168894
40
0.1426915
50
62.9726317
51
80.1664919
0
ARC
8
bottom_labelLayer
10
11.4533074
20
2.1491038
40
0.1068623
50
44.2286621
51
62.6227461
0
ARC
8
bottom_labelLayer
10
11.448635
20
2.1470385
40
0.1116653
50
19.5614111
51
43.3157272
0
ARC
8
bottom_labelLayer
10
11.3808122
20
2.1215658
40
0.184107
50
7.5044069
51
19.964215
0
ARC
8
bottom_labelLayer
10
11.2686106
20
2.1058099
40
0.2974069
50
359.7104519
51
7.6907127
0
ENDSEC
0
EOF