999
DXF created by Inkscape
  0
SECTION
  2
HEADER
  9
$ACADVER
  1
AC1014
  9
$HANDSEED
  5
FFFF
  9
$MEASUREMENT
 70
     1
  0
ENDSEC
  0
SECTION
  2
TABLES
  0
TABLE
  2
VPORT
  5
8
330
0
100
AcDbSymbolTable
 70
     4
  0
VPORT
  5
2E
330
8
100
AcDbSymbolTableRecord
100
AcDbViewportTableRecord
  2
*ACTIVE
 70
     0
 10
0.0
 20
0.0
 11
1.0
 21
1.0
 12
210.0
 22
148.5
 13
0.0
 23
0.0
 14
10.0
 24
10.0
 15
10.0
 25
10.0
 16
0.0
 26
0.0
 36
1.0
 17
0.0
 27
0.0
 37
0.0
 40
341.0
 41
1.24
 42
50.0
 43
0.0
 44
0.0
 50
0.0
 51
0.0
 71
     0
 72
   100
 73
     1
 74
     3
 75
     0
 76
     0
 77
     0
 78
     0
  0
ENDTAB
  0
TABLE
  2
LTYPE
  5
5
330
0
100
AcDbSymbolTable
 70
     1
  0
LTYPE
  5
14
330
5
100
AcDbSymbolTableRecord
100
AcDbLinetypeTableRecord
  2
BYBLOCK
 70
     0
  3

 72
    65
 73
     0
 40
0.0
  0
LTYPE
  5
15
330
5
100
AcDbSymbolTableRecord
100
AcDbLinetypeTableRecord
  2
BYLAYER
 70
     0
  3

 72
    65
 73
     0
 40
0.0
  0
LTYPE
  5
16
330
5
100
AcDbSymbolTableRecord
100
AcDbLinetypeTableRecord
  2
CONTINUOUS
 70
     0
  3
Solid line
 72
    65
 73
     0
 40
0.0
  0
ENDTAB
  0
TABLE
  2
LAYER
  5
2
100
AcDbSymbolTable
 70
2
  0
LAYER
  5
50
100
AcDbSymbolTableRecord
100
AcDbLayerTableRecord
  2
0
 70
0
  6
CONTINUOUS
  0
LAYER
  5
51
100
AcDbSymbolTableRecord
100
AcDbLayerTableRecord
  2
Layer_1
 70
0
  6
CONTINUOUS
  0
ENDTAB
  0
TABLE
  2
STYLE
  5
3
330
0
100
AcDbSymbolTable
 70
     1
  0
STYLE
  5
11
330
3
100
AcDbSymbolTableRecord
100
AcDbTextStyleTableRecord
  2
STANDARD
 70
     0
 40
0.0
 41
1.0
 50
0.0
 71
     0
 42
2.5
  3
txt
  4

  0
ENDTAB
  0
TABLE
  2
VIEW
  5
6
330
0
100
AcDbSymbolTable
 70
     0
  0
ENDTAB
  0
TABLE
  2
UCS
  5
7
330
0
100
AcDbSymbolTable
 70
     0
  0
ENDTAB
  0
TABLE
  2
APPID
  5
9
330
0
100
AcDbSymbolTable
 70
     2
  0
APPID
  5
12
330
9
100
AcDbSymbolTableRecord
100
AcDbRegAppTableRecord
  2
ACAD
 70
     0
  0
ENDTAB
  0
TABLE
  2
DIMSTYLE
  5
A
330
0
100
AcDbSymbolTable
 70
     1
  0
DIMSTYLE
105
27
330
A
100
AcDbSymbolTableRecord
100
AcDbDimStyleTableRecord
  2
ISO-25
 70
     0
  3

  4

  5

  6

  7

 40
1.0
 41
2.5
 42
0.625
 43
3.75
 44
1.25
 45
0.0
 46
0.0
 47
0.0
 48
0.0
140
2.5
141
2.5
142
0.0
143
0.03937007874016
144
1.0
145
0.0
146
1.0
147
0.625
 71
     0
 72
     0
 73
     0
 74
     0
 75
     0
 76
     0
 77
     1
 78
     8
170
     0
171
     3
172
     1
173
     0
174
     0
175
     0
176
     0
177
     0
178
     0
270
     2
271
     2
272
     2
273
     2
274
     3
340
11
275
     0
280
     0
281
     0
282
     0
283
     0
284
     8
285
     0
286
     0
287
     3
288
     0
  0
ENDTAB
  0
TABLE
  2
BLOCK_RECORD
  5
1
330
0
100
AcDbSymbolTable
 70
     1
  0
BLOCK_RECORD
  5
1F
330
1
100
AcDbSymbolTableRecord
100
AcDbBlockTableRecord
  2
*MODEL_SPACE
  0
BLOCK_RECORD
  5
1B
330
1
100
AcDbSymbolTableRecord
100
AcDbBlockTableRecord
  2
*PAPER_SPACE
  0
ENDTAB
  0
ENDSEC
  0
SECTION
  2
BLOCKS
  0
BLOCK
  5
20
330
1F
100
AcDbEntity
  8
0
100
AcDbBlockBegin
  2
*MODEL_SPACE
 70
     0
 10
0.0
 20
0.0
 30
0.0
  3
*MODEL_SPACE
  1

  0
ENDBLK
  5
21
330
1F
100
AcDbEntity
  8
0
100
AcDbBlockEnd
  0
BLOCK
  5
1C
330
1B
100
AcDbEntity
 67
     1
  8
0
100
AcDbBlockBegin
  2
*PAPER_SPACE
  1

  0
ENDBLK
  5
1D
330
1B
100
AcDbEntity
 67
     1
  8
0
100
AcDbBlockEnd
  0
ENDSEC
  0
SECTION
  2
ENTITIES
  0
SPLINE
  5
100
100
AcDbEntity
  8
Layer_1
 62
1
100
AcDbSpline
 70
8
 71
3
 72
8
 73
4
 74
0
 40
0
 40
0
 40
0
 40
0
 40
1
 40
1
 40
1
 40
1
 10
20.388394
 20
280.798813
 30
0.0
 10
20.388394
 20
279.418101
 30
0.0
 10
19.269090
 20
278.298813
 30
0.0
 10
17.888358
 20
278.298813
 30
0.0
  0
SPLINE
  5
101
100
AcDbEntity
  8
Layer_1
 62
1
100
AcDbSpline
 70
8
 71
3
 72
8
 73
4
 74
0
 40
0
 40
0
 40
0
 40
0
 40
1
 40
1
 40
1
 40
1
 10
17.888358
 20
278.298813
 30
0.0
 10
16.507626
 20
278.298813
 30
0.0
 10
15.388322
 20
279.418101
 30
0.0
 10
15.388322
 20
280.798813
 30
0.0
  0
SPLINE
  5
102
100
AcDbEntity
  8
Layer_1
 62
1
100
AcDbSpline
 70
8
 71
3
 72
8
 73
4
 74
0
 40
0
 40
0
 40
0
 40
0
 40
1
 40
1
 40
1
 40
1
 10
15.388322
 20
280.798813
 30
0.0
 10
15.388322
 20
282.179524
 30
0.0
 10
16.507626
 20
283.298812
 30
0.0
 10
17.888358
 20
283.298812
 30
0.0
  0
SPLINE
  5
103
100
AcDbEntity
  8
Layer_1
 62
1
100
AcDbSpline
 70
8
 71
3
 72
8
 73
4
 74
0
 40
0
 40
0
 40
0
 40
0
 40
1
 40
1
 40
1
 40
1
 10
17.888358
 20
283.298812
 30
0.0
 10
19.269090
 20
283.298812
 30
0.0
 10
20.388394
 20
282.179524
 30
0.0
 10
20.388394
 20
280.798813
 30
0.0
  0
LWPOLYLINE
  5
104
100
AcDbEntity
  8
Layer_1
 62
1
100
AcDbPolyline
 90
5
 70
0
 10
12.229804
 20
285.911991
 30
0.0
 10
202.711510
 20
285.911991
 30
0.0
 10
202.711510
 20
156.092741
 30
0.0
 10
12.229804
 20
156.092741
 30
0.0
 10
12.229804
 20
285.911991
 30
0.0
  0
SPLINE
  5
105
100
AcDbEntity
  8
Layer_1
 62
1
100
AcDbSpline
 70
8
 71
3
 72
8
 73
4
 74
0
 40
0
 40
0
 40
0
 40
0
 40
1
 40
1
 40
1
 40
1
 10
199.848734
 20
280.586979
 30
0.0
 10
199.848734
 20
279.206268
 30
0.0
 10
198.729430
 20
278.086980
 30
0.0
 10
197.348698
 20
278.086980
 30
0.0
  0
SPLINE
  5
106
100
AcDbEntity
  8
Layer_1
 62
1
100
AcDbSpline
 70
8
 71
3
 72
8
 73
4
 74
0
 40
0
 40
0
 40
0
 40
0
 40
1
 40
1
 40
1
 40
1
 10
197.348698
 20
278.086980
 30
0.0
 10
195.967966
 20
278.086980
 30
0.0
 10
194.848662
 20
279.206268
 30
0.0
 10
194.848662
 20
280.586979
 30
0.0
  0
SPLINE
  5
107
100
AcDbEntity
  8
Layer_1
 62
1
100
AcDbSpline
 70
8
 71
3
 72
8
 73
4
 74
0
 40
0
 40
0
 40
0
 40
0
 40
1
 40
1
 40
1
 40
1
 10
194.848662
 20
280.586979
 30
0.0
 10
194.848662
 20
281.967691
 30
0.0
 10
195.967966
 20
283.086978
 30
0.0
 10
197.348698
 20
283.086978
 30
0.0
  0
SPLINE
  5
108
100
AcDbEntity
  8
Layer_1
 62
1
100
AcDbSpline
 70
8
 71
3
 72
8
 73
4
 74
0
 40
0
 40
0
 40
0
 40
0
 40
1
 40
1
 40
1
 40
1
 10
197.348698
 20
283.086978
 30
0.0
 10
198.729430
 20
283.086978
 30
0.0
 10
199.848734
 20
281.967691
 30
0.0
 10
199.848734
 20
280.586979
 30
0.0
  0
LWPOLYLINE
  5
109
100
AcDbEntity
  8
Layer_1
 62
1
100
AcDbPolyline
 90
2
 70
0
 10
20.388394
 20
280.798813
 30
0.0
 10
20.388394
 20
280.798813
 30
0.0
  0
SPLINE
  5
10a
100
AcDbEntity
  8
Layer_1
 62
1
100
AcDbSpline
 70
8
 71
3
 72
8
 73
4
 74
0
 40
0
 40
0
 40
0
 40
0
 40
1
 40
1
 40
1
 40
1
 10
20.392722
 20
161.265139
 30
0.0
 10
20.392722
 20
159.884428
 30
0.0
 10
19.273418
 20
158.765140
 30
0.0
 10
17.892686
 20
158.765140
 30
0.0
  0
SPLINE
  5
10b
100
AcDbEntity
  8
Layer_1
 62
1
100
AcDbSpline
 70
8
 71
3
 72
8
 73
4
 74
0
 40
0
 40
0
 40
0
 40
0
 40
1
 40
1
 40
1
 40
1
 10
17.892686
 20
158.765140
 30
0.0
 10
16.511954
 20
158.765140
 30
0.0
 10
15.392650
 20
159.884428
 30
0.0
 10
15.392650
 20
161.265139
 30
0.0
  0
SPLINE
  5
10c
100
AcDbEntity
  8
Layer_1
 62
1
100
AcDbSpline
 70
8
 71
3
 72
8
 73
4
 74
0
 40
0
 40
0
 40
0
 40
0
 40
1
 40
1
 40
1
 40
1
 10
15.392650
 20
161.265139
 30
0.0
 10
15.392650
 20
162.645851
 30
0.0
 10
16.511954
 20
163.765139
 30
0.0
 10
17.892686
 20
163.765139
 30
0.0
  0
SPLINE
  5
10d
100
AcDbEntity
  8
Layer_1
 62
1
100
AcDbSpline
 70
8
 71
3
 72
8
 73
4
 74
0
 40
0
 40
0
 40
0
 40
0
 40
1
 40
1
 40
1
 40
1
 10
17.892686
 20
163.765139
 30
0.0
 10
19.273418
 20
163.765139
 30
0.0
 10
20.392722
 20
162.645851
 30
0.0
 10
20.392722
 20
161.265139
 30
0.0
  0
LWPOLYLINE
  5
10e
100
AcDbEntity
  8
Layer_1
 62
1
100
AcDbPolyline
 90
2
 70
0
 10
199.848734
 20
280.586979
 30
0.0
 10
199.848734
 20
280.586979
 30
0.0
  0
SPLINE
  5
10f
100
AcDbEntity
  8
Layer_1
 62
1
100
AcDbSpline
 70
8
 71
3
 72
8
 73
4
 74
0
 40
0
 40
0
 40
0
 40
0
 40
1
 40
1
 40
1
 40
1
 10
199.853061
 20
161.053306
 30
0.0
 10
199.853061
 20
159.672595
 30
0.0
 10
198.733757
 20
158.553307
 30
0.0
 10
197.353025
 20
158.553307
 30
0.0
  0
SPLINE
  5
110
100
AcDbEntity
  8
Layer_1
 62
1
100
AcDbSpline
 70
8
 71
3
 72
8
 73
4
 74
0
 40
0
 40
0
 40
0
 40
0
 40
1
 40
1
 40
1
 40
1
 10
197.353025
 20
158.553307
 30
0.0
 10
195.972293
 20
158.553307
 30
0.0
 10
194.852988
 20
159.672595
 30
0.0
 10
194.852988
 20
161.053306
 30
0.0
  0
SPLINE
  5
111
100
AcDbEntity
  8
Layer_1
 62
1
100
AcDbSpline
 70
8
 71
3
 72
8
 73
4
 74
0
 40
0
 40
0
 40
0
 40
0
 40
1
 40
1
 40
1
 40
1
 10
194.852988
 20
161.053306
 30
0.0
 10
194.852988
 20
162.434018
 30
0.0
 10
195.972293
 20
163.553306
 30
0.0
 10
197.353025
 20
163.553306
 30
0.0
  0
SPLINE
  5
112
100
AcDbEntity
  8
Layer_1
 62
1
100
AcDbSpline
 70
8
 71
3
 72
8
 73
4
 74
0
 40
0
 40
0
 40
0
 40
0
 40
1
 40
1
 40
1
 40
1
 10
197.353025
 20
163.553306
 30
0.0
 10
198.733757
 20
163.553306
 30
0.0
 10
199.853061
 20
162.434018
 30
0.0
 10
199.853061
 20
161.053306
 30
0.0
  0
LWPOLYLINE
  5
113
100
AcDbEntity
  8
Layer_1
 62
1
100
AcDbPolyline
 90
2
 70
0
 10
20.392722
 20
161.265139
 30
0.0
 10
20.392722
 20
161.265139
 30
0.0
  0
LWPOLYLINE
  5
114
100
AcDbEntity
  8
Layer_1
 62
1
100
AcDbPolyline
 90
2
 70
0
 10
199.853061
 20
161.053306
 30
0.0
 10
199.853061
 20
161.053306
 30
0.0
  0
SPLINE
  5
115
100
AcDbEntity
  8
Layer_1
 62
1
100
AcDbSpline
 70
8
 71
3
 72
8
 73
4
 74
0
 40
0
 40
0
 40
0
 40
0
 40
1
 40
1
 40
1
 40
1
 10
20.099731
 20
140.528608
 30
0.0
 10
20.099731
 20
139.147897
 30
0.0
 10
18.980427
 20
138.028609
 30
0.0
 10
17.599695
 20
138.028609
 30
0.0
  0
SPLINE
  5
116
100
AcDbEntity
  8
Layer_1
 62
1
100
AcDbSpline
 70
8
 71
3
 72
8
 73
4
 74
0
 40
0
 40
0
 40
0
 40
0
 40
1
 40
1
 40
1
 40
1
 10
17.599695
 20
138.028609
 30
0.0
 10
16.218963
 20
138.028609
 30
0.0
 10
15.099659
 20
139.147897
 30
0.0
 10
15.099659
 20
140.528608
 30
0.0
  0
SPLINE
  5
117
100
AcDbEntity
  8
Layer_1
 62
1
100
AcDbSpline
 70
8
 71
3
 72
8
 73
4
 74
0
 40
0
 40
0
 40
0
 40
0
 40
1
 40
1
 40
1
 40
1
 10
15.099659
 20
140.528608
 30
0.0
 10
15.099659
 20
141.909320
 30
0.0
 10
16.218963
 20
143.028608
 30
0.0
 10
17.599695
 20
143.028608
 30
0.0
  0
SPLINE
  5
118
100
AcDbEntity
  8
Layer_1
 62
1
100
AcDbSpline
 70
8
 71
3
 72
8
 73
4
 74
0
 40
0
 40
0
 40
0
 40
0
 40
1
 40
1
 40
1
 40
1
 10
17.599695
 20
143.028608
 30
0.0
 10
18.980427
 20
143.028608
 30
0.0
 10
20.099731
 20
141.909320
 30
0.0
 10
20.099731
 20
140.528608
 30
0.0
  0
LWPOLYLINE
  5
119
100
AcDbEntity
  8
Layer_1
 62
1
100
AcDbPolyline
 90
5
 70
0
 10
11.941141
 20
145.641787
 30
0.0
 10
202.422847
 20
145.641787
 30
0.0
 10
202.422847
 20
15.822537
 30
0.0
 10
11.941141
 20
15.822537
 30
0.0
 10
11.941141
 20
145.641787
 30
0.0
  0
SPLINE
  5
11a
100
AcDbEntity
  8
Layer_1
 62
1
100
AcDbSpline
 70
8
 71
3
 72
8
 73
4
 74
0
 40
0
 40
0
 40
0
 40
0
 40
1
 40
1
 40
1
 40
1
 10
199.560072
 20
140.316775
 30
0.0
 10
199.560072
 20
138.936064
 30
0.0
 10
198.440768
 20
137.816776
 30
0.0
 10
197.060036
 20
137.816776
 30
0.0
  0
SPLINE
  5
11b
100
AcDbEntity
  8
Layer_1
 62
1
100
AcDbSpline
 70
8
 71
3
 72
8
 73
4
 74
0
 40
0
 40
0
 40
0
 40
0
 40
1
 40
1
 40
1
 40
1
 10
197.060036
 20
137.816776
 30
0.0
 10
195.679304
 20
137.816776
 30
0.0
 10
194.559999
 20
138.936064
 30
0.0
 10
194.559999
 20
140.316775
 30
0.0
  0
SPLINE
  5
11c
100
AcDbEntity
  8
Layer_1
 62
1
100
AcDbSpline
 70
8
 71
3
 72
8
 73
4
 74
0
 40
0
 40
0
 40
0
 40
0
 40
1
 40
1
 40
1
 40
1
 10
194.559999
 20
140.316775
 30
0.0
 10
194.559999
 20
141.697487
 30
0.0
 10
195.679304
 20
142.816774
 30
0.0
 10
197.060036
 20
142.816774
 30
0.0
  0
SPLINE
  5
11d
100
AcDbEntity
  8
Layer_1
 62
1
100
AcDbSpline
 70
8
 71
3
 72
8
 73
4
 74
0
 40
0
 40
0
 40
0
 40
0
 40
1
 40
1
 40
1
 40
1
 10
197.060036
 20
142.816774
 30
0.0
 10
198.440768
 20
142.816774
 30
0.0
 10
199.560072
 20
141.697487
 30
0.0
 10
199.560072
 20
140.316775
 30
0.0
  0
LWPOLYLINE
  5
11e
100
AcDbEntity
  8
Layer_1
 62
1
100
AcDbPolyline
 90
2
 70
0
 10
20.099731
 20
140.528608
 30
0.0
 10
20.099731
 20
140.528608
 30
0.0
  0
SPLINE
  5
11f
100
AcDbEntity
  8
Layer_1
 62
1
100
AcDbSpline
 70
8
 71
3
 72
8
 73
4
 74
0
 40
0
 40
0
 40
0
 40
0
 40
1
 40
1
 40
1
 40
1
 10
20.104060
 20
20.994935
 30
0.0
 10
20.104060
 20
19.614224
 30
0.0
 10
18.984755
 20
18.494936
 30
0.0
 10
17.604023
 20
18.494936
 30
0.0
  0
SPLINE
  5
120
100
AcDbEntity
  8
Layer_1
 62
1
100
AcDbSpline
 70
8
 71
3
 72
8
 73
4
 74
0
 40
0
 40
0
 40
0
 40
0
 40
1
 40
1
 40
1
 40
1
 10
17.604023
 20
18.494936
 30
0.0
 10
16.223292
 20
18.494936
 30
0.0
 10
15.103987
 20
19.614224
 30
0.0
 10
15.103987
 20
20.994935
 30
0.0
  0
SPLINE
  5
121
100
AcDbEntity
  8
Layer_1
 62
1
100
AcDbSpline
 70
8
 71
3
 72
8
 73
4
 74
0
 40
0
 40
0
 40
0
 40
0
 40
1
 40
1
 40
1
 40
1
 10
15.103987
 20
20.994935
 30
0.0
 10
15.103987
 20
22.375647
 30
0.0
 10
16.223292
 20
23.494935
 30
0.0
 10
17.604023
 20
23.494935
 30
0.0
  0
SPLINE
  5
122
100
AcDbEntity
  8
Layer_1
 62
1
100
AcDbSpline
 70
8
 71
3
 72
8
 73
4
 74
0
 40
0
 40
0
 40
0
 40
0
 40
1
 40
1
 40
1
 40
1
 10
17.604023
 20
23.494935
 30
0.0
 10
18.984755
 20
23.494935
 30
0.0
 10
20.104060
 20
22.375647
 30
0.0
 10
20.104060
 20
20.994935
 30
0.0
  0
LWPOLYLINE
  5
123
100
AcDbEntity
  8
Layer_1
 62
1
100
AcDbPolyline
 90
2
 70
0
 10
199.560072
 20
140.316775
 30
0.0
 10
199.560072
 20
140.316775
 30
0.0
  0
SPLINE
  5
124
100
AcDbEntity
  8
Layer_1
 62
1
100
AcDbSpline
 70
8
 71
3
 72
8
 73
4
 74
0
 40
0
 40
0
 40
0
 40
0
 40
1
 40
1
 40
1
 40
1
 10
199.564398
 20
20.783102
 30
0.0
 10
199.564398
 20
19.402391
 30
0.0
 10
198.445094
 20
18.283103
 30
0.0
 10
197.064362
 20
18.283103
 30
0.0
  0
SPLINE
  5
125
100
AcDbEntity
  8
Layer_1
 62
1
100
AcDbSpline
 70
8
 71
3
 72
8
 73
4
 74
0
 40
0
 40
0
 40
0
 40
0
 40
1
 40
1
 40
1
 40
1
 10
197.064362
 20
18.283103
 30
0.0
 10
195.683630
 20
18.283103
 30
0.0
 10
194.564326
 20
19.402391
 30
0.0
 10
194.564326
 20
20.783102
 30
0.0
  0
SPLINE
  5
126
100
AcDbEntity
  8
Layer_1
 62
1
100
AcDbSpline
 70
8
 71
3
 72
8
 73
4
 74
0
 40
0
 40
0
 40
0
 40
0
 40
1
 40
1
 40
1
 40
1
 10
194.564326
 20
20.783102
 30
0.0
 10
194.564326
 20
22.163814
 30
0.0
 10
195.683630
 20
23.283101
 30
0.0
 10
197.064362
 20
23.283101
 30
0.0
  0
SPLINE
  5
127
100
AcDbEntity
  8
Layer_1
 62
1
100
AcDbSpline
 70
8
 71
3
 72
8
 73
4
 74
0
 40
0
 40
0
 40
0
 40
0
 40
1
 40
1
 40
1
 40
1
 10
197.064362
 20
23.283101
 30
0.0
 10
198.445094
 20
23.283101
 30
0.0
 10
199.564398
 20
22.163814
 30
0.0
 10
199.564398
 20
20.783102
 30
0.0
  0
LWPOLYLINE
  5
128
100
AcDbEntity
  8
Layer_1
 62
1
100
AcDbPolyline
 90
2
 70
0
 10
20.104060
 20
20.994935
 30
0.0
 10
20.104060
 20
20.994935
 30
0.0
  0
LWPOLYLINE
  5
129
100
AcDbEntity
  8
Layer_1
 62
1
100
AcDbPolyline
 90
2
 70
0
 10
199.564398
 20
20.783102
 30
0.0
 10
199.564398
 20
20.783102
 30
0.0
  0
LWPOLYLINE
  5
12a
100
AcDbEntity
  8
Layer_1
 62
7
100
AcDbPolyline
 90
5
 70
0
 10
112.675249
 20
276.201291
 30
0.0
 10
161.660964
 20
276.201291
 30
0.0
 10
161.660964
 20
236.690180
 30
0.0
 10
112.675249
 20
236.690180
 30
0.0
 10
112.675249
 20
276.201291
 30
0.0
  0
SPLINE
  5
12b
100
AcDbEntity
  8
Layer_1
 62
7
100
AcDbSpline
 70
8
 71
3
 72
8
 73
4
 74
0
 40
0
 40
0
 40
0
 40
0
 40
1
 40
1
 40
1
 40
1
 10
72.559376
 20
206.048908
 30
0.0
 10
72.280422
 20
200.603718
 30
0.0
 10
70.426701
 20
196.283358
 30
0.0
 10
62.681598
 20
196.171130
 30
0.0
  0
LWPOLYLINE
  5
12c
100
AcDbEntity
  8
Layer_1
 62
7
100
AcDbPolyline
 90
3
 70
0
 10
92.516517
 20
255.840971
 30
0.0
 10
72.357787
 20
256.244145
 30
0.0
 10
72.559376
 20
206.048908
 30
0.0
  0
SPLINE
  5
12d
100
AcDbEntity
  8
Layer_1
 62
7
100
AcDbSpline
 70
8
 71
3
 72
8
 73
4
 74
0
 40
0
 40
0
 40
0
 40
0
 40
1
 40
1
 40
1
 40
1
 10
91.911757
 20
195.969544
 30
0.0
 10
86.745795
 20
196.957531
 30
0.0
 10
82.601353
 20
199.194040
 30
0.0
 10
82.235565
 20
206.048908
 30
0.0
  0
LWPOLYLINE
  5
12e
100
AcDbEntity
  8
Layer_1
 62
7
100
AcDbPolyline
 90
7
 70
0
 10
62.681598
 20
196.171130
 30
0.0
 10
42.522868
 20
196.372718
 30
0.0
 10
42.119694
 20
186.091766
 30
0.0
 10
152.791120
 20
186.091766
 30
0.0
 10
152.992709
 20
206.048908
 30
0.0
 10
142.711757
 20
195.566367
 30
0.0
 10
91.911757
 20
195.969544
 30
0.0
  0
SPLINE
  5
12f
100
AcDbEntity
  8
Layer_1
 62
7
100
AcDbSpline
 70
8
 71
3
 72
8
 73
4
 74
0
 40
0
 40
0
 40
0
 40
0
 40
1
 40
1
 40
1
 40
1
 10
82.235565
 20
236.287004
 30
0.0
 10
82.274932
 20
248.121527
 30
0.0
 10
101.077045
 20
249.796521
 30
0.0
 10
102.192709
 20
235.883830
 30
0.0
  0
LWPOLYLINE
  5
130
100
AcDbEntity
  8
Layer_1
 62
7
100
AcDbPolyline
 90
2
 70
0
 10
82.235565
 20
206.048908
 30
0.0
 10
82.235565
 20
236.287004
 30
0.0
  0
SPLINE
  5
131
100
AcDbEntity
  8
Layer_1
 62
7
100
AcDbSpline
 70
8
 71
3
 72
8
 73
4
 74
0
 40
0
 40
0
 40
0
 40
0
 40
1
 40
1
 40
1
 40
1
 10
172.748265
 20
265.718749
 30
0.0
 10
172.931703
 20
278.342274
 30
0.0
 10
192.253444
 20
278.692193
 30
0.0
 10
193.108583
 20
265.718749
 30
0.0
  0
LWPOLYLINE
  5
132
100
AcDbEntity
  8
Layer_1
 62
7
100
AcDbPolyline
 90
7
 70
0
 10
102.192709
 20
235.883830
 30
0.0
 10
102.797472
 20
216.128274
 30
0.0
 10
132.632391
 20
216.128274
 30
0.0
 10
142.510169
 20
226.207637
 30
0.0
 10
163.072072
 20
225.804463
 30
0.0
 10
172.546676
 20
236.287004
 30
0.0
 10
172.748265
 20
265.718749
 30
0.0
  0
SPLINE
  5
133
100
AcDbEntity
  8
Layer_1
 62
7
100
AcDbSpline
 70
8
 71
3
 72
8
 73
4
 74
0
 40
0
 40
0
 40
0
 40
0
 40
1
 40
1
 40
1
 40
1
 10
182.626042
 20
185.487004
 30
0.0
 10
198.130863
 20
185.401341
 30
0.0
 10
196.189702
 20
166.086439
 30
0.0
 10
182.424454
 20
166.134622
 30
0.0
  0
LWPOLYLINE
  5
134
100
AcDbEntity
  8
Layer_1
 62
7
100
AcDbPolyline
 90
5
 70
0
 10
193.108583
 20
265.718749
 30
0.0
 10
192.705406
 20
225.804463
 30
0.0
 10
171.941916
 20
205.444145
 30
0.0
 10
172.345090
 20
185.688589
 30
0.0
 10
182.626042
 20
185.487004
 30
0.0
  0
SPLINE
  5
135
100
AcDbEntity
  8
Layer_1
 62
7
100
AcDbSpline
 70
8
 71
3
 72
8
 73
4
 74
0
 40
0
 40
0
 40
0
 40
0
 40
1
 40
1
 40
1
 40
1
 10
31.838739
 20
165.731448
 30
0.0
 10
26.875198
 20
167.103344
 30
0.0
 10
23.049408
 20
169.897429
 30
0.0
 10
22.364139
 20
176.617163
 30
0.0
  0
LWPOLYLINE
  5
136
100
AcDbEntity
  8
Layer_1
 62
7
100
AcDbPolyline
 90
2
 70
0
 10
182.424454
 20
166.134622
 30
0.0
 10
31.838739
 20
165.731448
 30
0.0
  0
SPLINE
  5
137
100
AcDbEntity
  8
Layer_1
 62
7
100
AcDbSpline
 70
8
 71
3
 72
8
 73
4
 74
0
 40
0
 40
0
 40
0
 40
0
 40
1
 40
1
 40
1
 40
1
 10
22.162550
 20
206.250496
 30
0.0
 10
23.379676
 20
210.570257
 30
0.0
 10
24.716994
 20
214.839935
 30
0.0
 10
32.241916
 20
216.531448
 30
0.0
  0
LWPOLYLINE
  5
138
100
AcDbEntity
  8
Layer_1
 62
7
100
AcDbPolyline
 90
2
 70
0
 10
22.364139
 20
176.617163
 30
0.0
 10
22.162550
 20
206.250496
 30
0.0
  0
SPLINE
  5
139
100
AcDbEntity
  8
Layer_1
 62
7
100
AcDbSpline
 70
8
 71
3
 72
8
 73
4
 74
0
 40
0
 40
0
 40
0
 40
0
 40
1
 40
1
 40
1
 40
1
 10
32.241916
 20
226.207637
 30
0.0
 10
24.620920
 20
226.475655
 30
0.0
 10
22.660915
 20
231.098280
 30
0.0
 10
21.960962
 20
236.690178
 30
0.0
  0
LWPOLYLINE
  5
13a
100
AcDbEntity
  8
Layer_1
 62
7
100
AcDbPolyline
 90
4
 70
0
 10
32.241916
 20
216.531448
 30
0.0
 10
52.602232
 20
216.329860
 30
0.0
 10
52.400646
 20
226.207637
 30
0.0
 10
32.241916
 20
226.207637
 30
0.0
  0
SPLINE
  5
13b
100
AcDbEntity
  8
Layer_1
 62
7
100
AcDbSpline
 70
8
 71
3
 72
8
 73
4
 74
0
 40
0
 40
0
 40
0
 40
0
 40
1
 40
1
 40
1
 40
1
 10
22.162550
 20
266.525100
 30
0.0
 10
22.539035
 20
279.795936
 30
0.0
 10
42.681141
 20
279.902712
 30
0.0
 10
42.926042
 20
266.323511
 30
0.0
  0
LWPOLYLINE
  5
13c
100
AcDbEntity
  8
Layer_1
 62
7
100
AcDbPolyline
 90
2
 70
0
 10
21.960962
 20
236.690178
 30
0.0
 10
22.162550
 20
266.525100
 30
0.0
  0
SPLINE
  5
13d
100
AcDbEntity
  8
Layer_1
 62
7
100
AcDbSpline
 70
8
 71
3
 72
8
 73
4
 74
0
 40
0
 40
0
 40
0
 40
0
 40
1
 40
1
 40
1
 40
1
 10
52.400646
 20
266.525100
 30
0.0
 10
52.430576
 20
274.728320
 30
0.0
 10
56.558084
 20
276.971420
 30
0.0
 10
62.480009
 20
276.604466
 30
0.0
  0
LWPOLYLINE
  5
13e
100
AcDbEntity
  8
Layer_1
 62
7
100
AcDbPolyline
 90
4
 70
0
 10
42.926042
 20
266.323511
 30
0.0
 10
42.321280
 20
246.366367
 30
0.0
 10
52.602232
 20
246.164781
 30
0.0
 10
52.400646
 20
266.525100
 30
0.0
  0
SPLINE
  5
13f
100
AcDbEntity
  8
Layer_1
 62
7
100
AcDbSpline
 70
8
 71
3
 72
8
 73
4
 74
0
 40
0
 40
0
 40
0
 40
0
 40
1
 40
1
 40
1
 40
1
 10
92.718105
 20
276.201289
 30
0.0
 10
106.421019
 20
273.906272
 30
0.0
 10
105.216650
 20
256.725692
 30
0.0
 10
92.516517
 20
255.840971
 30
0.0
  0
LWPOLYLINE
  5
140
100
AcDbEntity
  8
Layer_1
 62
7
100
AcDbPolyline
 90
2
 70
0
 10
62.480009
 20
276.604466
 30
0.0
 10
92.718105
 20
276.201289
 30
0.0
  0
SPLINE
  5
141
100
AcDbEntity
  8
Layer_1
 62
7
100
AcDbSpline
 70
8
 71
3
 72
8
 73
4
 74
0
 40
0
 40
0
 40
0
 40
0
 40
1
 40
1
 40
1
 40
1
 10
193.554815
 20
35.484289
 30
0.0
 10
193.554815
 20
31.687264
 30
0.0
 10
191.529126
 20
28.178667
 30
0.0
 10
188.240806
 20
26.280155
 30
0.0
  0
SPLINE
  5
142
100
AcDbEntity
  8
Layer_1
 62
7
100
AcDbSpline
 70
8
 71
3
 72
8
 73
4
 74
0
 40
0
 40
0
 40
0
 40
0
 40
1
 40
1
 40
1
 40
1
 10
188.240806
 20
26.280155
 30
0.0
 10
184.952486
 20
24.381642
 30
0.0
 10
180.901108
 20
24.381642
 30
0.0
 10
177.612787
 20
26.280155
 30
0.0
  0
SPLINE
  5
143
100
AcDbEntity
  8
Layer_1
 62
7
100
AcDbSpline
 70
8
 71
3
 72
8
 73
4
 74
0
 40
0
 40
0
 40
0
 40
0
 40
1
 40
1
 40
1
 40
1
 10
177.612787
 20
26.280155
 30
0.0
 10
174.324467
 20
28.178667
 30
0.0
 10
172.298778
 20
31.687264
 30
0.0
 10
172.298778
 20
35.484289
 30
0.0
  0
SPLINE
  5
144
100
AcDbEntity
  8
Layer_1
 62
7
100
AcDbSpline
 70
8
 71
3
 72
8
 73
4
 74
0
 40
0
 40
0
 40
0
 40
0
 40
1
 40
1
 40
1
 40
1
 10
172.298778
 20
35.484289
 30
0.0
 10
172.298778
 20
39.281315
 30
0.0
 10
174.324467
 20
42.789911
 30
0.0
 10
177.612788
 20
44.688424
 30
0.0
  0
SPLINE
  5
145
100
AcDbEntity
  8
Layer_1
 62
7
100
AcDbSpline
 70
8
 71
3
 72
8
 73
4
 74
0
 40
0
 40
0
 40
0
 40
0
 40
1
 40
1
 40
1
 40
1
 10
177.612788
 20
44.688424
 30
0.0
 10
180.901108
 20
46.586937
 30
0.0
 10
184.952486
 20
46.586937
 30
0.0
 10
188.240807
 20
44.688424
 30
0.0
  0
SPLINE
  5
146
100
AcDbEntity
  8
Layer_1
 62
7
100
AcDbSpline
 70
8
 71
3
 72
8
 73
4
 74
0
 40
0
 40
0
 40
0
 40
0
 40
1
 40
1
 40
1
 40
1
 10
188.240807
 20
44.688424
 30
0.0
 10
191.529127
 20
42.789911
 30
0.0
 10
193.554816
 20
39.281315
 30
0.0
 10
193.554816
 20
35.484289
 30
0.0
  0
LWPOLYLINE
  5
147
100
AcDbEntity
  8
Layer_1
 62
7
100
AcDbPolyline
 90
2
 70
0
 10
92.516517
 20
255.840971
 30
0.0
 10
92.516517
 20
255.840971
 30
0.0
  0
LWPOLYLINE
  5
148
100
AcDbEntity
  8
Layer_1
 62
7
100
AcDbPolyline
 90
2
 70
0
 10
193.554816
 20
35.484289
 30
0.0
 10
193.554817
 20
35.484289
 30
0.0
  0
ENDSEC
  0
SECTION
  2
OBJECTS
  0
DICTIONARY
  5
C
330
0
100
AcDbDictionary
  3
ACAD_GROUP
350
D
  3
ACAD_MLINESTYLE
350
17
  0
DICTIONARY
  5
D
330
C
100
AcDbDictionary
  0
DICTIONARY
  5
1A
330
C
100
AcDbDictionary
  0
DICTIONARY
  5
17
330
C
100
AcDbDictionary
  3
STANDARD
350
18
  0
DICTIONARY
  5
19
330
C
100
AcDbDictionary
  0
ENDSEC
  0
EOF
