  0
SECTION
  2
HEADER
  9
$ACADVER
  1
AC1006
  0
ENDSEC
  0
SECTION
  2
TABLES
  0
TABLE
  2
LTYPE
 70
    25
  0
LTYPE
  2
CONTINUOUS
 70
    64
  3
Solid line
 72
    64
 73
     0
 40
0.000000
  0
LTYPE
  2
DASHDOT
 70
    64
  3
__ . __ . __ . __ . __ . __ . __ . __ . __ . __
 72
    65
 73
     4
 40
1.000000
 49
0.500000
 49
-0.250000
 49
0.000000
 49
-0.250000
  0
LTYPE
  2
DASHED
 70
    64
  3
__ __ __ __ __ __ __ __ __ __ __ __ __ __ __ __
 72
    65
 73
     2
 40
0.750000
 49
0.500000
 49
-0.250000
  0
LTYPE
  2
DIVIDE
 70
    64
  3
____ . . ____ . . ____ . . ____ . . ____ . . __
 72
    65
 73
     6
 40
1.250000
 49
0.500000
 49
-0.250000
 49
0.000000
 49
-0.250000
 49
0.000000
 49
-0.250000
  0
LTYPE
  2
DOT
 70
    64
  3
. . . . . . . . . . . . . . . . . . . . . . . . 
 72
    65
 73
     2
 40
0.250000
 49
0.000000
 49
-0.250000
  0
ENDTAB
  0
ENDSEC
  0
SECTION
  2
BLOCKS
  0
BLOCK
  8
0
  2
Object_0
 70
    64
 10
0.000000
 20
0.000000
 30
0.000000
  0
ENDBLK
  0
ENDSEC
  0
SECTION
  2
ENTITIES
  0
ARC
  8
0
 62
     7
  6
CONTINUOUS
 10
4.378010
 20
2.403347
 30
0.000000
 40
1.210000
 50
255.105926
 51
264.973801
  0
ARC
  8
0
 62
     7
  6
CONTINUOUS
 10
4.285717
 20
1.353963
 30
0.000000
 40
0.156565
 50
264.973801
 51
312.753379
  0
ARC
  8
0
 62
     7
  6
CONTINUOUS
 10
4.012640
 20
-1.582183
 30
0.000000
 40
2.896935
 50
82.814398
 51
85.062028
  0
ARC
  8
0
 62
     7
  6
CONTINUOUS
 10
4.309925
 20
1.858703
 30
0.000000
 40
0.556770
 50
253.092359
 51
265.062020
  0
ARC
  8
0
 62
     7
  6
CONTINUOUS
 10
2.225188
 20
0.090909
 30
0.000000
 40
1.879512
 50
21.409839
 51
30.895876
  0
ARC
  8
0
 62
     7
  6
CONTINUOUS
 10
3.730693
 20
1.122937
 30
0.000000
 40
0.235699
 50
56.728263
 51
84.063550
  0
ARC
  8
0
 62
     7
  6
CONTINUOUS
 10
3.753002
 20
1.337480
 30
0.000000
 40
0.020000
 50
84.063550
 51
134.636224
  0
ARC
  8
0
 62
     7
  6
CONTINUOUS
 10
4.282929
 20
2.045857
 30
0.000000
 40
0.840082
 50
239.772315
 51
255.105926
  0
ARC
  8
0
 62
     7
  6
CONTINUOUS
 10
4.504196
 20
2.497819
 30
0.000000
 40
1.224759
 50
246.457923
 51
253.092359
  0
ARC
  8
0
 62
     7
  6
CONTINUOUS
 10
4.226749
 20
1.861014
 30
0.000000
 40
0.530139
 50
229.915997
 51
246.457923
  0
ARC
  8
0
 62
     7
  6
CONTINUOUS
 10
1.416979
 20
-0.437447
 30
0.000000
 40
2.831670
 50
18.328217
 51
25.396510
  0
ARC
  8
0
 62
     7
  6
CONTINUOUS
 10
2.168771
 20
0.547599
 30
0.000000
 40
1.488266
 50
18.994655
 51
24.129371
  0
ARC
  8
0
 62
     7
  6
CONTINUOUS
 10
4.349958
 20
1.362350
 30
0.000000
 40
0.596617
 50
197.192575
 51
210.895874
  0
ARC
  8
0
 62
     7
  6
CONTINUOUS
 10
2.545294
 20
0.803970
 30
0.000000
 40
1.292457
 50
17.192570
 51
23.338825
  0
ARC
  8
0
 62
     7
  6
CONTINUOUS
 10
3.761600
 20
1.328771
 30
0.000000
 40
0.032238
 50
134.636224
 51
203.338830
  0
ARC
  8
0
 62
     7
  6
CONTINUOUS
 10
3.507985
 20
0.978476
 30
0.000000
 40
0.345026
 50
113.031195
 51
153.207454
  0
ARC
  8
0
 62
     7
  6
CONTINUOUS
 10
3.400227
 20
1.231954
 30
0.000000
 40
0.069593
 50
25.577904
 51
113.031195
  0
ARC
  8
0
 62
     7
  6
CONTINUOUS
 10
4.040974
 20
1.538645
 30
0.000000
 40
0.640771
 50
205.577902
 51
216.667042
  0
ARC
  8
0
 62
     7
  6
CONTINUOUS
 10
2.642883
 20
-0.086803
 30
0.000000
 40
1.390806
 50
22.480582
 51
37.247747
  0
ARC
  8
0
 62
     7
  6
CONTINUOUS
 10
4.256259
 20
1.266161
 30
0.000000
 40
0.719433
 50
198.994652
 51
225.276045
  0
ARC
  8
0
 62
     7
  6
CONTINUOUS
 10
3.799807
 20
0.902529
 30
0.000000
 40
0.645473
 50
188.241803
 51
205.661982
  0
ARC
  8
0
 62
     7
  6
CONTINUOUS
 10
2.832657
 20
0.466202
 30
0.000000
 40
0.424643
 50
272.610827
 51
355.515526
  0
ARC
  8
0
 62
     7
  6
CONTINUOUS
 10
2.889235
 20
1.643452
 30
0.000000
 40
1.611056
 50
249.953778
 51
259.187210
  0
ARC
  8
0
 62
     7
  6
CONTINUOUS
 10
2.800226
 20
1.177417
 30
0.000000
 40
1.136597
 50
259.187210
 51
272.358520
  0
LINE
  8
0
 62
     7
  6
CONTINUOUS
 10
-0.202499
 20
-0.178687
 30
0.000000
 11
2.847000
 21
-0.178687
 31
0.000000
  0
LINE
  8
0
 62
     7
  6
CONTINUOUS
 10
2.852000
 20
-0.178687
 30
0.000000
 11
4.797501
 21
-0.178687
 31
0.000000
  0
ARC
  8
0
 62
     7
  6
CONTINUOUS
 10
1.895756
 20
-1.079271
 30
0.000000
 40
1.287258
 50
69.953773
 51
80.960677
  0
ARC
  8
0
 62
     7
  6
CONTINUOUS
 10
1.717536
 20
0.133722
 30
0.000000
 40
0.392222
 50
84.925951
 51
118.194306
  0
ARC
  8
0
 62
     7
  6
CONTINUOUS
 10
1.878770
 20
-0.525227
 30
0.000000
 40
0.749985
 50
73.003521
 51
112.232603
  0
LINE
  8
0
 62
     7
  6
CONTINUOUS
 10
2.110000
 20
0.616000
 30
0.000000
 11
2.087226
 21
0.608407
 31
0.000000
  0
ARC
  8
0
 62
     7
  6
CONTINUOUS
 10
1.717286
 20
1.373757
 30
0.000000
 40
0.850068
 50
272.355678
 51
295.797297
  0
LINE
  8
0
 62
     7
  6
CONTINUOUS
 10
1.910000
 20
0.859000
 30
0.000000
 11
2.110000
 21
0.616000
 31
0.000000
  0
ARC
  8
0
 62
     7
  6
CONTINUOUS
 10
-2.086277
 20
3.283274
 30
0.000000
 40
3.917141
 50
314.617337
 51
316.924165
  0
ARC
  8
0
 62
     7
  6
CONTINUOUS
 10
1.579323
 20
-0.144036
 30
0.000000
 40
1.101133
 50
124.540057
 51
136.924160
  0
ARC
  8
0
 62
     7
  6
CONTINUOUS
 10
2.323391
 20
-0.195613
 30
0.000000
 40
1.643209
 50
130.601509
 51
139.709033
  0
ARC
  8
0
 62
     7
  6
CONTINUOUS
 10
0.378498
 20
2.073411
 30
0.000000
 40
1.345282
 50
310.601514
 51
317.352418
  0
ARC
  8
0
 62
     7
  6
CONTINUOUS
 10
1.969259
 20
0.608192
 30
0.000000
 40
0.817445
 50
128.266431
 51
137.352427
  0
ARC
  8
0
 62
     7
  6
CONTINUOUS
 10
1.873304
 20
0.840620
 30
0.000000
 40
0.579605
 50
123.310418
 51
135.064614
  0
ARC
  8
0
 62
     7
  6
CONTINUOUS
 10
1.638687
 20
1.197649
 30
0.000000
 40
0.152387
 50
88.754258
 51
123.310418
  0
ARC
  8
0
 62
     7
  6
CONTINUOUS
 10
1.633672
 20
0.967033
 30
0.000000
 40
0.383058
 50
72.321096
 51
88.754258
  0
ARC
  8
0
 62
     7
  6
CONTINUOUS
 10
1.399422
 20
0.232097
 30
0.000000
 40
1.154423
 50
61.797163
 51
72.321096
  0
ARC
  8
0
 62
     7
  6
CONTINUOUS
 10
1.865631
 20
0.764619
 30
0.000000
 40
0.316194
 50
134.167878
 51
147.823776
  0
ARC
  8
0
 62
     7
  6
CONTINUOUS
 10
1.669445
 20
0.966588
 30
0.000000
 40
0.034626
 50
61.438405
 51
134.167878
  0
ARC
  8
0
 62
     7
  6
CONTINUOUS
 10
1.636828
 20
0.634245
 30
0.000000
 40
0.353748
 50
39.446204
 51
60.988528
  0
ARC
  8
0
 62
     7
  6
CONTINUOUS
 10
1.443053
 20
0.272877
 30
0.000000
 40
0.763791
 50
61.798554
 51
71.453116
  0
ARC
  8
0
 62
     7
  6
CONTINUOUS
 10
1.178395
 20
1.196996
 30
0.000000
 40
0.495744
 50
304.613979
 51
327.823781
  0
ARC
  8
0
 62
     7
  6
CONTINUOUS
 10
0.621972
 20
1.246834
 30
0.000000
 40
0.587370
 50
304.540049
 51
319.709025
  0
ARC
  8
0
 62
     7
  6
CONTINUOUS
 10
0.209244
 20
2.601128
 30
0.000000
 40
2.201862
 50
292.166341
 51
304.613979
  0
ARC
  8
0
 62
     7
  6
CONTINUOUS
 10
1.274149
 20
0.895125
 30
0.000000
 40
0.489310
 50
272.820377
 51
301.831906
  0
ARC
  8
0
 62
     7
  6
CONTINUOUS
 10
0.890181
 20
0.665356
 30
0.000000
 40
0.309728
 50
267.190635
 51
285.704327
  0
ARC
  8
0
 62
     7
  6
CONTINUOUS
 10
0.823102
 20
0.415444
 30
0.000000
 40
0.078912
 50
311.122985
 51
407.905936
  0
ARC
  8
0
 62
     7
  6
CONTINUOUS
 10
1.596043
 20
-0.671080
 30
0.000000
 40
1.352653
 50
114.272432
 51
122.162277
  0
ARC
  8
0
 62
     7
  6
CONTINUOUS
 10
3.707217
 20
-18.274724
 30
0.000000
 40
18.841214
 50
97.643066
 51
98.341043
  0
ARC
  8
0
 62
     7
  6
CONTINUOUS
 10
1.217946
 20
0.824863
 30
0.000000
 40
0.426086
 50
267.762212
 51
280.860165
  0
ARC
  8
0
 62
     7
  6
CONTINUOUS
 10
0.355312
 20
0.456625
 30
0.000000
 40
0.175731
 50
276.432454
 51
322.645104
  0
ARC
  8
0
 62
     7
  6
CONTINUOUS
 10
0.645877
 20
-0.017143
 30
0.000000
 40
0.198090
 50
133.309160
 51
150.492495
  0
ARC
  8
0
 62
     7
  6
CONTINUOUS
 10
2.045799
 20
45.280026
 30
0.000000
 40
45.150976
 50
268.111453
 51
268.525527
  0
ARC
  8
0
 62
     7
  6
CONTINUOUS
 10
0.556514
 20
0.113597
 30
0.000000
 40
0.040000
 50
88.111455
 51
125.611086
  0
ARC
  8
0
 62
     7
  6
CONTINUOUS
 10
0.704091
 20
0.224432
 30
0.000000
 40
0.243898
 50
117.890335
 51
149.013349
  0
ARC
  8
0
 62
     7
  6
CONTINUOUS
 10
0.440446
 20
0.722574
 30
0.000000
 40
0.319710
 50
297.890340
 51
314.617337
  0
ARC
  8
0
 62
     7
  6
CONTINUOUS
 10
0.041444
 20
0.266338
 30
0.000000
 40
0.116900
 50
264.382143
 51
294.542482
  0
ARC
  8
0
 62
     7
  6
CONTINUOUS
 10
0.050109
 20
0.131384
 30
0.000000
 40
0.050128
 50
181.581576
 51
254.840478
  0
ARC
  8
0
 62
     7
  6
CONTINUOUS
 10
0.030840
 20
0.130852
 30
0.000000
 40
0.030852
 50
141.684788
 51
181.581576
  0
LINE
  8
0
 62
     7
  6
CONTINUOUS
 10
0.006633
 20
0.149979
 30
0.000000
 11
0.030000
 21
0.150000
 31
0.000000
  0
ARC
  8
0
 62
     7
  6
CONTINUOUS
 10
0.507000
 20
-0.488500
 30
0.000000
 40
0.771000
 50
112.657024
 51
122.741928
  0
ARC
  8
0
 62
     7
  6
CONTINUOUS
 10
0.407115
 20
-0.002857
 30
0.000000
 40
0.286661
 50
96.432456
 51
110.868382
  0
ARC
  8
0
 62
     7
  6
CONTINUOUS
 10
0.338866
 20
0.071415
 30
0.000000
 40
0.196525
 50
99.923052
 51
114.584025
  0
ARC
  8
0
 62
     7
  6
CONTINUOUS
 10
0.282068
 20
0.195564
 30
0.000000
 40
0.060000
 50
114.584025
 51
126.761180
  0
ARC
  8
0
 62
     7
  6
CONTINUOUS
 10
0.141944
 20
0.681035
 30
0.000000
 40
0.607173
 50
260.047022
 51
283.239530
  0
ARC
  8
0
 62
     7
  6
CONTINUOUS
 10
0.314080
 20
-0.050603
 30
0.000000
 40
0.144442
 50
72.298119
 51
103.239532
  0
ARC
  8
0
 62
     7
  6
CONTINUOUS
 10
0.244115
 20
-0.269809
 30
0.000000
 40
0.374543
 50
63.369191
 51
72.298119
  0
ARC
  8
0
 62
     7
  6
CONTINUOUS
 10
0.434931
 20
0.108609
 30
0.000000
 40
0.049271
 50
242.263149
 51
293.776600
  0
ARC
  8
0
 62
     7
  6
CONTINUOUS
 10
0.438669
 20
0.100125
 30
0.000000
 40
0.040000
 50
293.776600
 51
330.492500
  0
ARC
  8
0
 62
     7
  6
CONTINUOUS
 10
0.663677
 20
-0.036026
 30
0.000000
 40
0.224041
 50
125.611086
 51
133.309160
  0
LINE
  8
0
 62
     7
  6
CONTINUOUS
 10
-0.202499
 20
3.106242
 30
0.000000
 11
-0.202499
 21
-0.178687
 31
0.000000
  0
ARC
  8
0
 62
     7
  6
CONTINUOUS
 10
0.144687
 20
0.379465
 30
0.000000
 40
0.169550
 50
292.657022
 51
306.761172
  0
ARC
  8
0
 62
     7
  6
CONTINUOUS
 10
3.911527
 20
0.239355
 30
0.000000
 40
0.114799
 50
4.318960
 51
35.488539
  0
ARC
  8
0
 62
     7
  6
CONTINUOUS
 10
4.927802
 20
0.164284
 30
0.000000
 40
0.905679
 50
174.696349
 51
183.689782
  0
LINE
  8
0
 62
     7
  6
CONTINUOUS
 10
4.024000
 20
0.106000
 30
0.000000
 11
3.959686
 21
0.047121
 31
0.000000
  0
ARC
  8
0
 62
     7
  6
CONTINUOUS
 10
3.974134
 20
0.034319
 30
0.000000
 40
0.022165
 50
244.194399
 51
262.755356
  0
ARC
  8
0
 62
     7
  6
CONTINUOUS
 10
3.973191
 20
0.032370
 30
0.000000
 40
0.020000
 50
132.473882
 51
244.194399
  0
ARC
  8
0
 62
     7
  6
CONTINUOUS
 10
3.952211
 20
0.191634
 30
0.000000
 40
0.180926
 50
277.731611
 51
321.092138
  0
ARC
  8
0
 62
     7
  6
CONTINUOUS
 10
4.136567
 20
0.042836
 30
0.000000
 40
0.055988
 50
99.838945
 51
141.092147
  0
ARC
  8
0
 62
     7
  6
CONTINUOUS
 10
3.973861
 20
0.032171
 30
0.000000
 40
0.020000
 50
262.755356
 51
277.731611
  0
ARC
  8
0
 62
     7
  6
CONTINUOUS
 10
3.967294
 20
-1.549999
 30
0.000000
 40
1.655719
 50
79.887771
 51
84.464810
  0
ARC
  8
0
 62
     7
  6
CONTINUOUS
 10
4.270473
 20
0.149936
 30
0.000000
 40
0.071039
 50
259.887769
 51
289.381591
  0
ARC
  8
0
 62
     7
  6
CONTINUOUS
 10
4.386395
 20
0.218352
 30
0.000000
 40
0.084455
 50
279.270261
 51
305.969471
  0
ARC
  8
0
 62
     7
  6
CONTINUOUS
 10
4.418307
 20
0.174379
 30
0.000000
 40
0.030122
 50
305.969471
 51
389.994267
  0
ARC
  8
0
 62
     7
  6
CONTINUOUS
 10
4.374540
 20
-0.137731
 30
0.000000
 40
0.341491
 50
80.595269
 51
98.510944
  0
ARC
  8
0
 62
     7
  6
CONTINUOUS
 10
4.427074
 20
0.179439
 30
0.000000
 40
0.020000
 50
29.994267
 51
80.595269
  0
ARC
  8
0
 62
     7
  6
CONTINUOUS
 10
4.256598
 20
0.600738
 30
0.000000
 40
0.406367
 50
266.812160
 51
279.547512
  0
ARC
  8
0
 62
     7
  6
CONTINUOUS
 10
4.227115
 20
0.285380
 30
0.000000
 40
0.090642
 50
205.050871
 51
274.356213
  0
ARC
  8
0
 62
     7
  6
CONTINUOUS
 10
0.977614
 20
-0.261143
 30
0.000000
 40
3.207887
 50
9.114283
 51
12.863019
  0
ARC
  8
0
 62
     7
  6
CONTINUOUS
 10
4.020214
 20
0.682810
 30
0.000000
 40
0.659432
 50
294.535570
 51
299.869101
  0
ARC
  8
0
 62
     7
  6
CONTINUOUS
 10
4.359304
 20
0.155078
 30
0.000000
 40
0.045379
 50
256.387461
 51
333.739790
  0
LINE
  8
0
 62
     7
  6
CONTINUOUS
 10
4.797501
 20
-0.178687
 30
0.000000
 11
4.797501
 21
3.106242
 31
0.000000
  0
ARC
  8
0
 62
     7
  6
CONTINUOUS
 10
0.856923
 20
-0.907945
 30
0.000000
 40
1.052293
 50
80.864242
 51
88.525535
  0
ARC
  8
0
 62
     7
  6
CONTINUOUS
 10
1.285970
 20
0.924219
 30
0.000000
 40
0.835359
 50
251.723535
 51
260.632342
  0
ARC
  8
0
 62
     7
  6
CONTINUOUS
 10
1.235241
 20
0.616712
 30
0.000000
 40
0.523696
 50
260.632342
 51
277.258771
  0
ARC
  8
0
 62
     7
  6
CONTINUOUS
 10
1.229614
 20
1.027090
 30
0.000000
 40
0.932645
 50
274.415144
 51
293.064976
  0
ARC
  8
Default
 62
     7
  6
CONTINUOUS
 10
2.070233
 20
1.483006
 30
0.000000
 40
0.265000
 50
241.797163
 51
241.841823
  0
ARC
  8
0
 62
     7
  6
CONTINUOUS
 10
2.771738
 20
1.454406
 30
0.000000
 40
0.179940
 50
185.069836
 51
204.341392
  0
LINE
  8
0
 62
     7
  6
CONTINUOUS
 10
2.577024
 20
1.465217
 30
0.000000
 11
2.592502
 21
1.438504
 31
0.000000
  0
LINE
  8
0
 62
     7
  6
CONTINUOUS
 10
2.578936
 20
1.477617
 30
0.000000
 11
2.598679
 21
1.495633
 31
0.000000
  0
ARC
  8
0
 62
     7
  6
CONTINUOUS
 10
2.585677
 20
1.470230
 30
0.000000
 40
0.010000
 50
132.380814
 51
210.088600
  0
LINE
  8
0
 62
     7
  6
CONTINUOUS
 10
2.607794
 20
1.380240
 30
0.000000
 11
2.625000
 21
1.345000
 31
0.000000
  0
LINE
  8
0
 62
     7
  6
CONTINUOUS
 10
2.840958
 20
2.005235
 30
0.000000
 11
2.821450
 21
2.016529
 31
0.000000
  0
LINE
  8
0
 62
     7
  6
CONTINUOUS
 10
2.811493
 20
2.032908
 30
0.000000
 11
2.810514
 21
2.053957
 31
0.000000
  0
LINE
  8
0
 62
     7
  6
CONTINUOUS
 10
2.800376
 20
2.070439
 30
0.000000
 11
2.798183
 21
2.071679
 31
0.000000
  0
LINE
  8
0
 62
     7
  6
CONTINUOUS
 10
2.788097
 20
2.090799
 30
0.000000
 11
2.790221
 21
2.115574
 31
0.000000
  0
LINE
  8
0
 62
     7
  6
CONTINUOUS
 10
2.850868
 20
1.989588
 30
0.000000
 11
2.854098
 21
1.950820
 31
0.000000
  0
ARC
  8
0
 62
     7
  6
CONTINUOUS
 10
2.830937
 20
1.987927
 30
0.000000
 40
0.020000
 50
4.763642
 51
59.931420
  0
ARC
  8
0
 62
     7
  6
CONTINUOUS
 10
2.831471
 20
2.033837
 30
0.000000
 40
0.020000
 50
182.663000
 51
239.931404
  0
ARC
  8
0
 62
     7
  6
CONTINUOUS
 10
2.790535
 20
2.053028
 30
0.000000
 40
0.020000
 50
2.663001
 51
60.524109
  0
ARC
  8
0
 62
     7
  6
CONTINUOUS
 10
2.808024
 20
2.089091
 30
0.000000
 40
0.020000
 50
175.100902
 51
240.524101
  0
LINE
  8
0
 62
     7
  6
CONTINUOUS
 10
2.764902
 20
2.144993
 30
0.000000
 11
2.781443
 21
2.133886
 31
0.000000
  0
ARC
  8
0
 62
     7
  6
CONTINUOUS
 10
2.770294
 20
2.117282
 30
0.000000
 40
0.020000
 50
355.100907
 51
416.118296
  0
LINE
  8
0
 62
     7
  6
CONTINUOUS
 10
2.758344
 20
2.170893
 30
0.000000
 11
2.813000
 21
2.275000
 31
0.000000
  0
ARC
  8
0
 62
     7
  6
CONTINUOUS
 10
2.776052
 20
2.161597
 30
0.000000
 40
0.020000
 50
152.300528
 51
236.118301
  0
ARC
  8
0
 62
     7
  6
CONTINUOUS
 10
3.136215
 20
2.661894
 30
0.000000
 40
0.504138
 50
208.932878
 51
230.124318
  0
ARC
  8
0
 62
     7
  6
CONTINUOUS
 10
2.935944
 20
2.516298
 30
0.000000
 40
0.260224
 50
127.727570
 51
202.194117
  0
LINE
  8
0
 62
     7
  6
CONTINUOUS
 10
4.797501
 20
3.106242
 30
0.000000
 11
-0.202499
 21
3.106242
 31
0.000000
  0
ARC
  8
0
 62
     7
  6
CONTINUOUS
 10
2.931315
 20
1.833373
 30
0.000000
 40
0.101604
 50
24.185859
 51
60.724534
  0
LINE
  8
0
 62
     7
  6
CONTINUOUS
 10
2.891894
 20
1.914195
 30
0.000000
 11
2.915000
 21
1.913000
 31
0.000000
  0
LINE
  8
0
 62
     7
  6
CONTINUOUS
 10
2.915000
 20
1.913000
 30
0.000000
 11
2.981000
 21
1.922000
 31
0.000000
  0
ARC
  8
0
 62
     7
  6
CONTINUOUS
 10
2.893960
 20
1.954142
 30
0.000000
 40
0.040000
 50
184.763638
 51
267.039059
  0
ARC
  8
0
 62
     7
  6
CONTINUOUS
 10
3.080066
 20
2.428525
 30
0.000000
 40
0.568178
 50
11.417520
 51
27.321353
  0
ARC
  8
0
 62
     7
  6
CONTINUOUS
 10
3.050157
 20
2.371383
 30
0.000000
 40
0.444733
 50
91.308715
 51
127.941451
  0
ARC
  8
0
 62
     7
  6
CONTINUOUS
 10
3.291676
 20
4.052732
 30
0.000000
 40
1.262081
 50
258.497334
 51
272.648721
  0
ARC
  8
0
 62
     7
  6
CONTINUOUS
 10
3.375833
 20
2.531167
 30
0.000000
 40
0.262109
 50
37.109483
 51
95.656219
  0
ARC
  8
0
 62
     7
  6
CONTINUOUS
 10
4.117040
 20
2.637946
 30
0.000000
 40
0.489732
 50
191.417527
 51
206.034050
  0
ARC
  8
0
 62
     7
  6
CONTINUOUS
 10
3.020344
 20
2.102244
 30
0.000000
 40
0.730809
 50
15.374390
 51
26.034057
  0
ARC
  8
0
 62
     7
  6
CONTINUOUS
 10
6.957900
 20
3.184935
 30
0.000000
 40
3.352887
 50
195.374392
 51
198.158828
  0
ARC
  8
0
 62
     7
  6
CONTINUOUS
 10
2.915752
 20
1.859162
 30
0.000000
 40
0.901127
 50
9.313705
 51
18.158831
  0
ARC
  8
0
 62
     7
  6
CONTINUOUS
 10
4.088910
 20
1.365119
 30
0.000000
 40
0.396811
 50
75.875602
 51
84.346655
  0
ARC
  8
0
 62
     7
  6
CONTINUOUS
 10
4.231996
 20
1.691934
 30
0.000000
 40
0.044111
 50
23.906087
 51
75.456631
  0
ARC
  8
0
 62
     7
  6
CONTINUOUS
 10
4.187165
 20
1.779756
 30
0.000000
 40
0.122781
 50
291.468843
 51
310.589739
  0
ARC
  8
0
 62
     7
  6
CONTINUOUS
 10
4.254038
 20
1.701705
 30
0.000000
 40
0.020000
 50
310.589739
 51
383.906087
  0
ARC
  8
0
 62
     7
  6
CONTINUOUS
 10
4.041257
 20
1.560414
 30
0.000000
 40
0.020000
 50
316.105089
 51
391.011989
  0
ARC
  8
0
 62
     7
  6
CONTINUOUS
 10
3.967754
 20
0.818187
 30
0.000000
 40
0.956908
 50
73.278675
 51
76.832060
  0
ARC
  8
0
 62
     7
  6
CONTINUOUS
 10
4.195503
 20
1.758555
 30
0.000000
 40
0.100000
 50
266.597173
 51
291.468843
  0
ARC
  8
0
 62
     7
  6
CONTINUOUS
 10
4.371160
 20
1.261542
 30
0.000000
 40
0.030699
 50
312.753379
 51
442.814398
  0
ARC
  8
0
 62
     7
  6
CONTINUOUS
 10
4.147734
 20
2.135771
 30
0.000000
 40
0.366834
 50
200.884497
 51
246.251296
  0
ARC
  8
0
 62
     7
  6
CONTINUOUS
 10
4.160571
 20
2.089026
 30
0.000000
 40
0.330634
 50
240.945305
 51
264.346653
  0
ARC
  8
0
 62
     7
  6
CONTINUOUS
 10
4.269642
 20
3.005414
 30
0.000000
 40
1.349061
 50
250.980683
 51
266.597173
  0
ARC
  8
0
 62
     7
  6
CONTINUOUS
 10
3.960078
 20
1.511614
 30
0.000000
 40
0.114718
 50
31.011989
 51
61.273238
  0
ARC
  8
0
 62
     7
  6
CONTINUOUS
 10
3.991045
 20
1.608726
 30
0.000000
 40
0.089680
 50
274.419270
 51
316.105089
  0
ARC
  8
0
 62
     7
  6
CONTINUOUS
 10
4.004633
 20
1.810133
 30
0.000000
 40
0.192140
 50
204.648887
 51
266.816067
  0
ARC
  8
0
 62
     7
  6
CONTINUOUS
 10
3.966689
 20
1.881980
 30
0.000000
 40
0.362157
 50
232.750881
 51
263.499737
  0
ARC
  8
0
 62
     7
  6
CONTINUOUS
 10
4.078391
 20
1.789161
 30
0.000000
 40
0.384326
 50
210.569568
 51
237.896582
  0
ARC
  8
0
 62
     7
  6
CONTINUOUS
 10
3.991184
 20
1.568367
 30
0.000000
 40
0.050000
 50
61.273238
 51
86.816076
  0
ARC
  8
0
 62
     7
  6
CONTINUOUS
 10
3.973426
 20
1.816130
 30
0.000000
 40
0.297829
 50
260.776814
 51
274.724142
  0
ARC
  8
0
 62
     7
  6
CONTINUOUS
 10
3.820997
 20
1.378894
 30
0.000000
 40
0.100000
 50
49.915986
 51
57.896570
  0
ARC
  8
0
 62
     7
  6
CONTINUOUS
 10
4.576117
 20
0.713202
 30
0.000000
 40
0.701419
 50
202.480575
 51
215.488534
  0
ARC
  8
0
 62
     7
  6
CONTINUOUS
 10
2.754660
 20
1.447983
 30
0.000000
 40
0.163096
 50
122.734347
 51
163.012764
  0
ARC
  8
0
 62
     7
  6
CONTINUOUS
 10
2.912387
 20
1.249948
 30
0.000000
 40
0.415759
 50
109.442054
 51
126.263341
  0
ARC
  8
0
 62
     7
  6
CONTINUOUS
 10
3.162203
 20
0.542214
 30
0.000000
 40
1.166290
 50
104.763402
 51
109.442054
  0
ARC
  8
0
 62
     7
  6
CONTINUOUS
 10
2.798931
 20
1.920709
 30
0.000000
 40
0.259268
 50
284.763400
 51
305.638835
  0
ARC
  8
0
 62
     7
  6
CONTINUOUS
 10
2.808429
 20
1.907461
 30
0.000000
 40
0.242967
 50
305.638835
 51
330.549273
  0
ARC
  8
0
 62
     7
  6
CONTINUOUS
 10
2.935953
 20
1.835456
 30
0.000000
 40
0.096519
 50
330.549273
 51
384.185859
  0
ARC
  8
0
 62
     7
  6
CONTINUOUS
 10
2.111136
 20
1.086591
 30
0.000000
 40
0.709362
 50
341.797255
 51
357.851724
  0
ARC
  8
0
 62
     7
  6
CONTINUOUS
 10
2.687387
 20
1.106500
 30
0.000000
 40
0.140529
 50
340.677050
 51
419.835865
  0
ARC
  8
0
 62
     7
  6
CONTINUOUS
 10
2.928627
 20
1.521589
 30
0.000000
 40
0.339571
 50
225.353417
 51
239.835864
  0
ARC
  8
0
 62
     7
  6
CONTINUOUS
 10
2.892027
 20
1.547027
 30
0.000000
 40
0.334841
 50
217.110376
 51
232.889616
  0
ARC
  8
0
 62
     7
  6
CONTINUOUS
 10
3.627317
 20
0.918217
 30
0.000000
 40
0.478709
 50
153.207454
 51
193.065173
  0
ARC
  8
0
 62
     7
  6
CONTINUOUS
 10
2.865710
 20
0.453742
 30
0.000000
 40
0.390841
 50
356.957871
 51
385.661980
  0
ARC
  8
0
 62
     7
  6
CONTINUOUS
 10
1.284196
 20
-0.610296
 30
0.000000
 40
1.951562
 50
46.401252
 51
64.901523
  0
ARC
  8
0
 62
     7
  6
CONTINUOUS
 10
2.686169
 20
0.887327
 30
0.000000
 40
0.101321
 50
236.332687
 51
347.270122
  0
ARC
  8
0
 62
     7
  6
CONTINUOUS
 10
-1.217284
 20
-4.658949
 30
0.000000
 40
6.701447
 50
60.211437
 51
61.841823
  0
INSERT
  8
Default
 62
     7
  2
Object_0
 10
-10.160000
 20
-10.160000
 30
0.000000
  0
ENDSEC
  0
EOF
