ISO-10303-21;
HEADER;
/* Generated by software containing ST-Developer
 * from STEP Tools, Inc. (www.steptools.com) 
 */

FILE_DESCRIPTION(
/* description */ (''),
/* implementation_level */ '2;1');

FILE_NAME(
/* name */ 'C:/Users/jjsch/Desktop/Puzzlebox Files/Inner Wheel v2.step',

/* time_stamp */ '2022-02-24T15:32:44-08:00',
/* author */ (''),
/* organization */ (''),
/* preprocessor_version */ 'ST-DEVELOPER v18.1',
/* originating_system */ 'Autodesk Translation Framework v10.13.0.1454',

/* authorisation */ '');

FILE_SCHEMA (('AUTOMOTIVE_DESIGN { 1 0 10303 214 3 1 1 }'));
ENDSEC;

DATA;
#10=MECHANICAL_DESIGN_GEOMETRIC_PRESENTATION_REPRESENTATION('',(#13),#224);
#11=SHAPE_REPRESENTATION_RELATIONSHIP('SRR','None',#234,#12);
#12=ADVANCED_BREP_SHAPE_REPRESENTATION('',(#14),#223);
#13=STYLED_ITEM('',(#243),#14);
#14=MANIFOLD_SOLID_BREP('Body1',#128);
#15=FACE_BOUND('',#35,.T.);
#16=FACE_BOUND('',#37,.T.);
#17=PLANE('',#145);
#18=PLANE('',#146);
#19=PLANE('',#150);
#20=PLANE('',#151);
#21=PLANE('',#152);
#22=FACE_OUTER_BOUND('',#29,.T.);
#23=FACE_OUTER_BOUND('',#30,.T.);
#24=FACE_OUTER_BOUND('',#31,.T.);
#25=FACE_OUTER_BOUND('',#32,.T.);
#26=FACE_OUTER_BOUND('',#33,.T.);
#27=FACE_OUTER_BOUND('',#34,.T.);
#28=FACE_OUTER_BOUND('',#36,.T.);
#29=EDGE_LOOP('',(#89,#90,#91,#92));
#30=EDGE_LOOP('',(#93,#94,#95,#96));
#31=EDGE_LOOP('',(#97,#98,#99,#100));
#32=EDGE_LOOP('',(#101,#102,#103,#104));
#33=EDGE_LOOP('',(#105,#106,#107,#108));
#34=EDGE_LOOP('',(#109,#110,#111,#112));
#35=EDGE_LOOP('',(#113));
#36=EDGE_LOOP('',(#114,#115,#116,#117));
#37=EDGE_LOOP('',(#118));
#38=LINE('',#193,#49);
#39=LINE('',#198,#50);
#40=LINE('',#200,#51);
#41=LINE('',#202,#52);
#42=LINE('',#203,#53);
#43=LINE('',#206,#54);
#44=LINE('',#208,#55);
#45=LINE('',#209,#56);
#46=LINE('',#215,#57);
#47=LINE('',#217,#58);
#48=LINE('',#218,#59);
#49=VECTOR('',#159,0.125);
#50=VECTOR('',#164,0.393700787401575);
#51=VECTOR('',#165,0.393700787401575);
#52=VECTOR('',#166,0.393700787401575);
#53=VECTOR('',#167,0.393700787401575);
#54=VECTOR('',#170,0.393700787401575);
#55=VECTOR('',#171,0.393700787401575);
#56=VECTOR('',#172,0.393700787401575);
#57=VECTOR('',#179,0.393700787401575);
#58=VECTOR('',#182,0.393700787401575);
#59=VECTOR('',#183,0.393700787401575);
#60=CIRCLE('',#143,0.125);
#61=CIRCLE('',#144,0.125);
#62=CIRCLE('',#148,0.5);
#63=CIRCLE('',#149,0.5);
#64=VERTEX_POINT('',#190);
#65=VERTEX_POINT('',#192);
#66=VERTEX_POINT('',#196);
#67=VERTEX_POINT('',#197);
#68=VERTEX_POINT('',#199);
#69=VERTEX_POINT('',#201);
#70=VERTEX_POINT('',#205);
#71=VERTEX_POINT('',#207);
#72=VERTEX_POINT('',#211);
#73=VERTEX_POINT('',#213);
#74=EDGE_CURVE('',#64,#64,#60,.T.);
#75=EDGE_CURVE('',#64,#65,#38,.T.);
#76=EDGE_CURVE('',#65,#65,#61,.T.);
#77=EDGE_CURVE('',#66,#67,#39,.T.);
#78=EDGE_CURVE('',#66,#68,#40,.T.);
#79=EDGE_CURVE('',#69,#68,#41,.T.);
#80=EDGE_CURVE('',#67,#69,#42,.T.);
#81=EDGE_CURVE('',#67,#70,#43,.T.);
#82=EDGE_CURVE('',#71,#69,#44,.T.);
#83=EDGE_CURVE('',#70,#71,#45,.T.);
#84=EDGE_CURVE('',#72,#70,#62,.T.);
#85=EDGE_CURVE('',#73,#71,#63,.T.);
#86=EDGE_CURVE('',#72,#73,#46,.T.);
#87=EDGE_CURVE('',#72,#66,#47,.T.);
#88=EDGE_CURVE('',#68,#73,#48,.T.);
#89=ORIENTED_EDGE('',*,*,#74,.F.);
#90=ORIENTED_EDGE('',*,*,#75,.T.);
#91=ORIENTED_EDGE('',*,*,#76,.T.);
#92=ORIENTED_EDGE('',*,*,#75,.F.);
#93=ORIENTED_EDGE('',*,*,#77,.F.);
#94=ORIENTED_EDGE('',*,*,#78,.T.);
#95=ORIENTED_EDGE('',*,*,#79,.F.);
#96=ORIENTED_EDGE('',*,*,#80,.F.);
#97=ORIENTED_EDGE('',*,*,#81,.F.);
#98=ORIENTED_EDGE('',*,*,#80,.T.);
#99=ORIENTED_EDGE('',*,*,#82,.F.);
#100=ORIENTED_EDGE('',*,*,#83,.F.);
#101=ORIENTED_EDGE('',*,*,#84,.T.);
#102=ORIENTED_EDGE('',*,*,#83,.T.);
#103=ORIENTED_EDGE('',*,*,#85,.F.);
#104=ORIENTED_EDGE('',*,*,#86,.F.);
#105=ORIENTED_EDGE('',*,*,#87,.F.);
#106=ORIENTED_EDGE('',*,*,#86,.T.);
#107=ORIENTED_EDGE('',*,*,#88,.F.);
#108=ORIENTED_EDGE('',*,*,#78,.F.);
#109=ORIENTED_EDGE('',*,*,#88,.T.);
#110=ORIENTED_EDGE('',*,*,#85,.T.);
#111=ORIENTED_EDGE('',*,*,#82,.T.);
#112=ORIENTED_EDGE('',*,*,#79,.T.);
#113=ORIENTED_EDGE('',*,*,#74,.T.);
#114=ORIENTED_EDGE('',*,*,#87,.T.);
#115=ORIENTED_EDGE('',*,*,#77,.T.);
#116=ORIENTED_EDGE('',*,*,#81,.T.);
#117=ORIENTED_EDGE('',*,*,#84,.F.);
#118=ORIENTED_EDGE('',*,*,#76,.F.);
#119=CYLINDRICAL_SURFACE('',#142,0.125);
#120=CYLINDRICAL_SURFACE('',#147,0.5);
#121=ADVANCED_FACE('',(#22),#119,.F.);
#122=ADVANCED_FACE('',(#23),#17,.T.);
#123=ADVANCED_FACE('',(#24),#18,.T.);
#124=ADVANCED_FACE('',(#25),#120,.T.);
#125=ADVANCED_FACE('',(#26),#19,.T.);
#126=ADVANCED_FACE('',(#27,#15),#20,.T.);
#127=ADVANCED_FACE('',(#28,#16),#21,.F.);
#128=CLOSED_SHELL('',(#121,#122,#123,#124,#125,#126,#127));
#129=DERIVED_UNIT_ELEMENT(#131,1.);
#130=DERIVED_UNIT_ELEMENT(#228,-3.);
#131=(
MASS_UNIT()
NAMED_UNIT(*)
SI_UNIT(.KILO.,.GRAM.)
);
#132=DERIVED_UNIT((#129,#130));
#133=MEASURE_REPRESENTATION_ITEM('density measure',
POSITIVE_RATIO_MEASURE(570.2572828),#132);
#134=PROPERTY_DEFINITION_REPRESENTATION(#139,#136);
#135=PROPERTY_DEFINITION_REPRESENTATION(#140,#137);
#136=REPRESENTATION('material name',(#138),#223);
#137=REPRESENTATION('density',(#133),#223);
#138=DESCRIPTIVE_REPRESENTATION_ITEM('Pine','Pine');
#139=PROPERTY_DEFINITION('material property','material name',#236);
#140=PROPERTY_DEFINITION('material property','density of part',#236);
#141=AXIS2_PLACEMENT_3D('placement',#188,#153,#154);
#142=AXIS2_PLACEMENT_3D('',#189,#155,#156);
#143=AXIS2_PLACEMENT_3D('',#191,#157,#158);
#144=AXIS2_PLACEMENT_3D('',#194,#160,#161);
#145=AXIS2_PLACEMENT_3D('',#195,#162,#163);
#146=AXIS2_PLACEMENT_3D('',#204,#168,#169);
#147=AXIS2_PLACEMENT_3D('',#210,#173,#174);
#148=AXIS2_PLACEMENT_3D('',#212,#175,#176);
#149=AXIS2_PLACEMENT_3D('',#214,#177,#178);
#150=AXIS2_PLACEMENT_3D('',#216,#180,#181);
#151=AXIS2_PLACEMENT_3D('',#219,#184,#185);
#152=AXIS2_PLACEMENT_3D('',#220,#186,#187);
#153=DIRECTION('axis',(0.,0.,1.));
#154=DIRECTION('refdir',(1.,0.,0.));
#155=DIRECTION('center_axis',(0.,1.,0.));
#156=DIRECTION('ref_axis',(1.,0.,0.));
#157=DIRECTION('center_axis',(0.,-1.,0.));
#158=DIRECTION('ref_axis',(1.,0.,0.));
#159=DIRECTION('',(0.,-1.,0.));
#160=DIRECTION('center_axis',(0.,-1.,0.));
#161=DIRECTION('ref_axis',(1.,0.,0.));
#162=DIRECTION('center_axis',(0.,0.,-1.));
#163=DIRECTION('ref_axis',(-1.,0.,0.));
#164=DIRECTION('',(1.,0.,0.));
#165=DIRECTION('',(0.,1.,0.));
#166=DIRECTION('',(-1.,0.,0.));
#167=DIRECTION('',(0.,1.,0.));
#168=DIRECTION('center_axis',(-1.,0.,0.));
#169=DIRECTION('ref_axis',(0.,0.,1.));
#170=DIRECTION('',(0.,0.,-1.));
#171=DIRECTION('',(0.,0.,1.));
#172=DIRECTION('',(0.,1.,0.));
#173=DIRECTION('center_axis',(0.,1.,0.));
#174=DIRECTION('ref_axis',(-3.05966975290397E-16,0.,1.));
#175=DIRECTION('center_axis',(0.,1.,0.));
#176=DIRECTION('ref_axis',(-0.275,0.,-0.961444226151471));
#177=DIRECTION('center_axis',(0.,1.,0.));
#178=DIRECTION('ref_axis',(-0.275,0.,-0.961444226151471));
#179=DIRECTION('',(0.,1.,0.));
#180=DIRECTION('center_axis',(1.,0.,0.));
#181=DIRECTION('ref_axis',(0.,0.,-1.));
#182=DIRECTION('',(0.,0.,1.));
#183=DIRECTION('',(0.,0.,-1.));
#184=DIRECTION('center_axis',(0.,1.,0.));
#185=DIRECTION('ref_axis',(1.,0.,0.));
#186=DIRECTION('center_axis',(0.,1.,0.));
#187=DIRECTION('ref_axis',(1.,0.,0.));
#188=CARTESIAN_POINT('',(0.,0.,0.));
#189=CARTESIAN_POINT('Origin',(0.,0.,0.));
#190=CARTESIAN_POINT('',(-0.125,0.2,1.53080849893419E-17));
#191=CARTESIAN_POINT('Origin',(0.,0.2,0.));
#192=CARTESIAN_POINT('',(-0.125,0.,1.53080849893419E-17));
#193=CARTESIAN_POINT('',(-0.125,0.,1.53080849893419E-17));
#194=CARTESIAN_POINT('Origin',(0.,0.,0.));
#195=CARTESIAN_POINT('Origin',(0.1375,0.,-0.2));
#196=CARTESIAN_POINT('',(-0.1375,0.,-0.2));
#197=CARTESIAN_POINT('',(0.1375,0.,-0.2));
#198=CARTESIAN_POINT('',(-0.1375,0.,-0.2));
#199=CARTESIAN_POINT('',(-0.1375,0.2,-0.2));
#200=CARTESIAN_POINT('',(-0.1375,0.,-0.2));
#201=CARTESIAN_POINT('',(0.1375,0.2,-0.2));
#202=CARTESIAN_POINT('',(-0.1375,0.2,-0.2));
#203=CARTESIAN_POINT('',(0.1375,0.,-0.2));
#204=CARTESIAN_POINT('Origin',(0.1375,0.,-0.480722113075735));
#205=CARTESIAN_POINT('',(0.1375,0.,-0.480722113075735));
#206=CARTESIAN_POINT('',(0.1375,0.,-0.2));
#207=CARTESIAN_POINT('',(0.1375,0.2,-0.480722113075735));
#208=CARTESIAN_POINT('',(0.1375,0.2,-0.2));
#209=CARTESIAN_POINT('',(0.1375,0.,-0.480722113075735));
#210=CARTESIAN_POINT('Origin',(0.,0.,0.));
#211=CARTESIAN_POINT('',(-0.1375,0.,-0.480722113075735));
#212=CARTESIAN_POINT('Origin',(0.,0.,0.));
#213=CARTESIAN_POINT('',(-0.1375,0.2,-0.480722113075735));
#214=CARTESIAN_POINT('Origin',(0.,0.2,0.));
#215=CARTESIAN_POINT('',(-0.1375,0.,-0.480722113075735));
#216=CARTESIAN_POINT('Origin',(-0.1375,0.,-0.2));
#217=CARTESIAN_POINT('',(-0.1375,0.,-0.480722113075735));
#218=CARTESIAN_POINT('',(-0.1375,0.2,-0.480722113075735));
#219=CARTESIAN_POINT('Origin',(8.74191357972564E-17,0.2,0.00963894346213231));
#220=CARTESIAN_POINT('Origin',(8.74191357972564E-17,0.,0.00963894346213231));
#221=UNCERTAINTY_MEASURE_WITH_UNIT(LENGTH_MEASURE(0.000393700787401575),
#226,'DISTANCE_ACCURACY_VALUE',
'Maximum model space distance between geometric entities at asserted c
onnectivities');
#222=UNCERTAINTY_MEASURE_WITH_UNIT(LENGTH_MEASURE(0.000393700787401575),
#226,'DISTANCE_ACCURACY_VALUE',
'Maximum model space distance between geometric entities at asserted c
onnectivities');
#223=(
GEOMETRIC_REPRESENTATION_CONTEXT(3)
GLOBAL_UNCERTAINTY_ASSIGNED_CONTEXT((#221))
GLOBAL_UNIT_ASSIGNED_CONTEXT((#226,#230,#231))
REPRESENTATION_CONTEXT('','3D')
);
#224=(
GEOMETRIC_REPRESENTATION_CONTEXT(3)
GLOBAL_UNCERTAINTY_ASSIGNED_CONTEXT((#222))
GLOBAL_UNIT_ASSIGNED_CONTEXT((#226,#230,#231))
REPRESENTATION_CONTEXT('','3D')
);
#225=DIMENSIONAL_EXPONENTS(1.,0.,0.,0.,0.,0.,0.);
#226=(
CONVERSION_BASED_UNIT('inch',#229)
LENGTH_UNIT()
NAMED_UNIT(#225)
);
#227=(
LENGTH_UNIT()
NAMED_UNIT(*)
SI_UNIT(.MILLI.,.METRE.)
);
#228=(
LENGTH_UNIT()
NAMED_UNIT(*)
SI_UNIT($,.METRE.)
);
#229=LENGTH_MEASURE_WITH_UNIT(LENGTH_MEASURE(25.4),#227);
#230=(
NAMED_UNIT(*)
PLANE_ANGLE_UNIT()
SI_UNIT($,.RADIAN.)
);
#231=(
NAMED_UNIT(*)
SI_UNIT($,.STERADIAN.)
SOLID_ANGLE_UNIT()
);
#232=SHAPE_DEFINITION_REPRESENTATION(#233,#234);
#233=PRODUCT_DEFINITION_SHAPE('',$,#236);
#234=SHAPE_REPRESENTATION('',(#141),#223);
#235=PRODUCT_DEFINITION_CONTEXT('part definition',#240,'design');
#236=PRODUCT_DEFINITION('Inner Wheel','Inner Wheel v2',#237,#235);
#237=PRODUCT_DEFINITION_FORMATION('',$,#242);
#238=PRODUCT_RELATED_PRODUCT_CATEGORY('Inner Wheel v2','Inner Wheel v2',
(#242));
#239=APPLICATION_PROTOCOL_DEFINITION('international standard',
'automotive_design',2009,#240);
#240=APPLICATION_CONTEXT(
'Core Data for Automotive Mechanical Design Process');
#241=PRODUCT_CONTEXT('part definition',#240,'mechanical');
#242=PRODUCT('Inner Wheel','Inner Wheel v2',$,(#241));
#243=PRESENTATION_STYLE_ASSIGNMENT((#244));
#244=SURFACE_STYLE_USAGE(.BOTH.,#245);
#245=SURFACE_SIDE_STYLE('',(#246));
#246=SURFACE_STYLE_FILL_AREA(#247);
#247=FILL_AREA_STYLE('Pine',(#248));
#248=FILL_AREA_STYLE_COLOUR('Pine',#249);
#249=COLOUR_RGB('Pine',0.,0.,0.);
ENDSEC;
END-ISO-10303-21;
