0
SECTION
2
HEADER
9
$INSUNITS
70
4
9
$ACADVER
1
AC1014
9
$HANDSEED
5
FFFF
0
ENDSEC
0
SECTION
2
TABLES
0
TABLE
2
VPORT
5
8
100
AcDbSymbolTable
0
ENDTAB
0
TABLE
2
LTYPE
5
5
100
AcDbSymbolTable
0
LTYPE
5
14
100
AcDbSymbolTableRecord
100
AcDbLinetypeTableRecord
2
BYBLOCK
70
0
0
LTYPE
5
15
100
AcDbSymbolTableRecord
100
AcDbLinetypeTableRecord
2
BYLAYER
70
0
0
ENDTAB
0
TABLE
2
LAYER
5
2
100
AcDbSymbolTable
70
2
0
LAYER
5
50
100
AcDbSymbolTableRecord
100
AcDbLayerTableRecord
2
0
70
0
6
CONTINUOUS
0
ENDTAB
0
TABLE
2
STYLE
5
3
100
AcDbSymbolTable
70
1
0
STYLE
5
11
100
AcDbSymbolTableRecord
100
AcDbTextStyleTableRecord
2
STANDARD
70
0
0
ENDTAB
0
TABLE
2
VIEW
5
6
100
AcDbSymbolTable
70
0
0
ENDTAB
0
TABLE
2
UCS
5
7
100
AcDbSymbolTable
70
0
0
ENDTAB
0
TABLE
2
APPID
5
9
100
AcDbSymbolTable
70
2
0
APPID
5
12
100
AcDbSymbolTableRecord
100
AcDbRegAppTableRecord
2
ACAD
70
0
0
ENDTAB
0
TABLE
2
DIMSTYLE
5
A
100
AcDbSymbolTable
70
1
0
ENDTAB
0
TABLE
2
BLOCK_RECORD
5
1
100
AcDbSymbolTable
70
1
0
BLOCK_RECORD
5
1F
100
AcDbSymbolTableRecord
100
AcDbBlockTableRecord
2
*MODEL_SPACE
0
BLOCK_RECORD
5
1B
100
AcDbSymbolTableRecord
100
AcDbBlockTableRecord
2
*PAPER_SPACE
0
ENDTAB
0
ENDSEC
0
SECTION
2
BLOCKS
0
BLOCK
5
20
100
AcDbEntity
100
AcDbBlockBegin
2
*MODEL_SPACE
0
ENDBLK
5
21
100
AcDbEntity
100
AcDbBlockEnd
0
BLOCK
5
1C
100
AcDbEntity
100
AcDbBlockBegin
2
*PAPER_SPACE
0
ENDBLK
5
1D
100
AcDbEntity
100
AcDbBlockEnd
0
ENDSEC
0
SECTION
2
ENTITIES
0
LINE
5
100
100
AcDbEntity
8
0
100
AcDbLine
10
9.5442240491772878
20
154.07232020784741
30
0
11
64.49329766043671
21
154.07232020784741
31
0
0
LINE
5
101
100
AcDbEntity
8
0
100
AcDbLine
10
359.54422404917727
20
140.07232020784741
30
0
11
359.54422404917739
21
154.07232020784741
31
0
0
LINE
5
102
100
AcDbEntity
8
0
100
AcDbLine
10
9.5442240491772896
20
80.072320207847412
30
0
11
9.5442240491772878
21
140.07232020784741
31
0
0
LINE
5
103
100
AcDbEntity
8
0
100
AcDbLine
10
9.5442240491772878
20
140.07232020784741
30
0
11
9.5442240491772878
21
154.07232020784741
31
0
0
LINE
5
104
100
AcDbEntity
8
0
100
AcDbLine
10
9.5442240491772878
20
10.072320207847412
30
0
11
359.54422404917727
21
10.072320207847412
31
0
0
LINE
5
105
100
AcDbEntity
8
0
100
AcDbLine
10
359.54422404917727
20
10.072320207847412
30
0
11
359.54422404917727
21
40.072320207847412
31
0
0
LINE
5
106
100
AcDbEntity
8
0
100
AcDbLine
10
368.54422404917727
20
80.072320207847412
30
0
11
359.54422404917727
21
80.072320207847412
31
0
0
LINE
5
107
100
AcDbEntity
8
0
100
AcDbLine
10
359.54422404917739
20
154.07232020784741
30
0
11
293.52427842885356
21
154.07232020784764
31
0
0
LINE
5
108
100
AcDbEntity
8
0
100
AcDbLine
10
359.54422404917727
20
40.072320207847412
30
0
11
368.54422404917727
21
40.072320207847412
31
0
0
LINE
5
109
100
AcDbEntity
8
0
100
AcDbLine
10
0.54422404917728873
20
40.072320207847412
30
0
11
0.54422404917728873
21
80.072320207847412
31
0
0
LINE
5
110
100
AcDbEntity
8
0
100
AcDbLine
10
359.54422404917727
20
80.072320207847412
30
0
11
359.54422404917727
21
140.07232020784741
31
0
0
LINE
5
111
100
AcDbEntity
8
0
100
AcDbLine
10
9.5442240491772878
20
40.072320207847412
30
0
11
0.54422404917728873
21
40.072320207847412
31
0
0
LINE
5
112
100
AcDbEntity
8
0
100
AcDbLine
10
0.54422404917728873
20
80.072320207847412
30
0
11
9.5442240491772896
21
80.072320207847412
31
0
0
LINE
5
113
100
AcDbEntity
8
0
100
AcDbLine
10
368.54422404917727
20
40.072320207847412
30
0
11
368.54422404917727
21
80.072320207847412
31
0
0
LINE
5
114
100
AcDbEntity
8
0
100
AcDbLine
10
9.5442240491772878
20
10.072320207847412
30
0
11
9.5442240491772878
21
40.072320207847412
31
0
0
SPLINE
5
115
100
AcDbEntity
8
0
100
AcDbSpline
70
4
71
5
72
36
73
30
74
0
42
0.000000001
43
0.0000000001
44
0.0000000001
40
0
40
0
40
0
40
0
40
0
40
0
40
0.040000000000000001
40
0.080000000000000002
40
0.12
40
0.16
40
0.20000000000000001
40
0.24000000000000002
40
0.28000000000000003
40
0.32000000000000001
40
0.35999999999999999
40
0.39999999999999997
40
0.43999999999999995
40
0.47999999999999993
40
0.51999999999999991
40
0.55999999999999994
40
0.59999999999999998
40
0.64000000000000001
40
0.68000000000000005
40
0.72000000000000008
40
0.76000000000000012
40
0.80000000000000016
40
0.84000000000000019
40
0.88000000000000023
40
0.92000000000000026
40
0.9600000000000003
40
1
40
1
40
1
40
1
40
1
40
1
41
1
41
1
41
1
41
1
41
1
41
1
41
1
41
1
41
1
41
1
41
1
41
1
41
1
41
1
41
1
41
1
41
1
41
1
41
1
41
1
41
1
41
1
41
1
41
1
41
1
41
1
41
1
41
1
41
1
41
1
10
64.49329766043671
20
154.07232020784741
30
0
10
64.410410330171459
20
154.15840918423964
30
0
10
64.259472512030968
20
154.34728086328161
30
0
10
64.077576653873095
20
154.68067116056477
30
0
10
63.924299879659578
20
155.22560474917708
30
0
10
63.881509459719503
20
156.06704046487812
30
0
10
63.985247543581316
20
157.04448504775903
30
0
10
64.229234767150388
20
158.1077526695891
30
0
10
64.606522802531487
20
159.19463421761074
30
0
10
65.112694486127111
20
160.24417160196214
30
0
10
65.748910940153522
20
161.20966607350826
30
0
10
66.525444140225233
20
162.07313230871171
30
0
10
67.457250628007344
20
162.83824613584014
30
0
10
68.558662813225268
20
163.52144322325478
30
0
10
69.83873806829618
20
164.14432260147382
30
0
10
71.295279151481793
20
164.72460095447894
30
0
10
72.912347252913406
20
165.27110542905024
30
0
10
74.664896103718959
20
165.78665640885944
30
0
10
76.521766727983632
20
166.26925470342138
30
0
10
78.449159133287665
20
166.71388661307498
30
0
10
80.413895827480161
20
167.11408047622061
30
0
10
82.386526599592173
20
167.46347135232443
30
0
10
84.345051055014579
20
167.75762272038901
30
0
10
86.274406336580824
20
167.99394560834358
30
0
10
88.164910310937969
20
168.17114351789658
30
0
10
90.011131601665454
20
168.28885886827021
30
0
10
91.450744133502695
20
168.33559017708166
30
0
10
92.509188062472006
20
168.34412183416964
30
0
10
93.205390469430668
20
168.33805496850226
30
0
10
93.551134962359939
20
168.33208287915824
30
0
0
SPLINE
5
116
100
AcDbEntity
8
0
100
AcDbSpline
70
4
71
5
72
31
73
25
74
0
42
0.000000001
43
0.0000000001
44
0.0000000001
40
0
40
0
40
0
40
0
40
0
40
0
40
0.050000000000000003
40
0.10000000000000001
40
0.15000000000000002
40
0.20000000000000001
40
0.25
40
0.29999999999999999
40
0.34999999999999998
40
0.39999999999999997
40
0.44999999999999996
40
0.49999999999999994
40
0.54999999999999993
40
0.59999999999999998
40
0.65000000000000002
40
0.70000000000000007
40
0.75000000000000011
40
0.80000000000000016
40
0.8500000000000002
40
0.90000000000000024
40
0.95000000000000029
40
1
40
1
40
1
40
1
40
1
40
1
41
1
41
1
41
1
41
1
41
1
41
1
41
1
41
1
41
1
41
1
41
1
41
1
41
1
41
1
41
1
41
1
41
1
41
1
41
1
41
1
41
1
41
1
41
1
41
1
41
1
10
93.551134962359939
20
168.33208287915824
30
0
10
93.498178876636956
20
168.445248374659
30
0
10
93.401532183633137
20
168.68658748803205
30
0
10
93.284355099779901
20
169.09361614291171
30
0
10
93.183962002128894
20
169.72676655606821
30
0
10
93.150242570930459
20
170.66706746263802
30
0
10
93.202588370994363
20
171.74746250832141
30
0
10
93.326574920051598
20
172.94593969848879
30
0
10
93.501749476652961
20
174.22962764345914
30
0
10
93.708248606704643
20
175.56208918328099
30
0
10
93.932297748364107
20
176.90906810416317
30
0
10
94.171867939549045
20
178.24453038284406
30
0
10
94.443317665212518
20
179.5574267497995
30
0
10
94.776346393454517
20
180.84857807856454
30
0
10
95.2076960225086
20
182.126503365313
30
0
10
95.775270251619133
20
183.40373826270928
30
0
10
96.512295505477624
20
184.69318217332625
30
0
10
97.440569590167257
20
186.00411726496139
30
0
10
98.572367846040521
20
187.34254590441165
30
0
10
99.91322908629823
20
188.71204048905867
30
0
10
101.46409332431423
20
190.11433928286306
30
0
10
102.87153254709706
20
191.26285310960381
30
0
10
104.01989312311271
20
192.13919723540087
30
0
10
104.82653520150811
20
192.73004801627792
30
0
10
105.24012333877096
20
193.0271287448154
30
0
0
LINE
5
117
100
AcDbEntity
8
0
100
AcDbLine
10
105.24012333877096
20
193.0271287448154
30
0
11
105.24012333877096
21
195.9082174291421
31
0
0
SPLINE
5
118
100
AcDbEntity
8
0
100
AcDbSpline
70
4
71
5
72
46
73
40
74
0
42
0.000000001
43
0.0000000001
44
0.0000000001
40
0
40
0
40
0
40
0
40
0
40
0
40
0.028571428571428571
40
0.057142857142857141
40
0.085714285714285715
40
0.11428571428571428
40
0.14285714285714285
40
0.17142857142857143
40
0.20000000000000001
40
0.22857142857142859
40
0.25714285714285717
40
0.28571428571428575
40
0.31428571428571433
40
0.34285714285714292
40
0.3714285714285715
40
0.40000000000000008
40
0.42857142857142866
40
0.45714285714285724
40
0.48571428571428582
40
0.51428571428571435
40
0.54285714285714293
40
0.57142857142857151
40
0.60000000000000009
40
0.62857142857142867
40
0.65714285714285725
40
0.68571428571428583
40
0.71428571428571441
40
0.74285714285714299
40
0.77142857142857157
40
0.80000000000000016
40
0.82857142857142874
40
0.85714285714285732
40
0.8857142857142859
40
0.91428571428571448
40
0.94285714285714306
40
0.97142857142857164
40
1
40
1
40
1
40
1
40
1
40
1
41
1
41
1
41
1
41
1
41
1
41
1
41
1
41
1
41
1
41
1
41
1
41
1
41
1
41
1
41
1
41
1
41
1
41
1
41
1
41
1
41
1
41
1
41
1
41
1
41
1
41
1
41
1
41
1
41
1
41
1
41
1
41
1
41
1
41
1
41
1
41
1
41
1
41
1
41
1
41
1
10
105.24012333877096
20
195.9082174291421
30
0
10
105.03086152017063
20
195.98135580832678
30
0
10
104.61523119780709
20
196.12698213268402
30
0
10
104.00046646930208
20
196.34347015005721
30
0
10
103.19815774904107
20
196.6282141555937
30
0
10
102.22321489880486
20
196.97798209725195
30
0
10
101.27278734773746
20
197.32271618459743
30
0
10
100.34005975978624
20
197.66466953707149
30
0
10
99.412952730593702
20
198.00775264763854
30
0
10
98.475253344555753
20
198.35744750372055
30
0
10
97.511562939474828
20
198.71993377631443
30
0
10
96.511316270780952
20
199.10141426533909
30
0
10
95.473127524982843
20
199.50736607848813
30
0
10
94.409243964950321
20
199.9418006937216
30
0
10
93.340270919726308
20
200.40736205989606
30
0
10
92.289618064486405
20
200.90544339790972
30
0
10
91.27812464264629
20
201.43629091417966
30
0
10
90.318486863162647
20
201.99909201495564
30
0
10
89.410049037049859
20
202.59208845483244
30
0
10
88.543478096673098
20
203.21338893514331
30
0
10
87.705183859914811
20
203.86179702381156
30
0
10
86.881585618855212
20
204.53754946595879
30
0
10
86.063939434364983
20
205.24329279454724
30
0
10
85.251225934266458
20
205.98430507069912
30
0
10
84.449219899625348
20
206.76729974850025
30
0
10
83.670496153014369
20
207.59950504303899
30
0
10
82.93394419761421
20
208.48771197849049
30
0
10
82.264901554978863
20
209.4371344867651
30
0
10
81.693491061377173
20
210.45115740091256
30
0
10
81.251634723358222
20
211.53183324218594
30
0
10
80.970330412626055
20
212.68015535939691
30
0
10
80.877055097008693
20
213.89639684416707
30
0
10
80.992462297590919
20
215.18043843960058
30
0
10
81.330087296538295
20
216.53195698481773
30
0
10
81.898176321856212
20
217.95049599148868
30
0
10
82.700833960754522
20
219.43556393167586
30
0
10
83.531687009457087
20
220.67648298628501
30
0
10
84.260899020425882
20
221.63676226814587
30
0
10
84.794121237187099
20
222.29008206871526
30
0
10
85.072502548484294
20
222.6200253738279
30
0
0
SPLINE
5
119
100
AcDbEntity
8
0
100
AcDbSpline
70
4
71
5
72
31
73
25
74
0
42
0.000000001
43
0.0000000001
44
0.0000000001
40
0
40
0
40
0
40
0
40
0
40
0
40
0.050000000000000003
40
0.10000000000000001
40
0.15000000000000002
40
0.20000000000000001
40
0.25
40
0.29999999999999999
40
0.34999999999999998
40
0.39999999999999997
40
0.44999999999999996
40
0.49999999999999994
40
0.54999999999999993
40
0.59999999999999998
40
0.65000000000000002
40
0.70000000000000007
40
0.75000000000000011
40
0.80000000000000016
40
0.8500000000000002
40
0.90000000000000024
40
0.95000000000000029
40
1
40
1
40
1
40
1
40
1
40
1
41
1
41
1
41
1
41
1
41
1
41
1
41
1
41
1
41
1
41
1
41
1
41
1
41
1
41
1
41
1
41
1
41
1
41
1
41
1
41
1
41
1
41
1
41
1
41
1
41
1
10
85.072502548484294
20
222.6200253738279
30
0
10
85.105464943221932
20
222.87125681805858
30
0
10
85.177627829172721
20
223.38753284932935
30
0
10
85.304586530242858
20
224.20338854698099
30
0
10
85.51144553821176
20
225.37439849323937
30
0
10
85.833588727689857
20
226.97508356839177
30
0
10
86.220515039868047
20
228.70354860718714
30
0
10
86.673450026937573
20
230.53928972485951
30
0
10
87.193184209043523
20
232.44373288064256
30
0
10
87.780024088792914
20
234.36201005495832
30
0
10
88.434212734770568
20
236.23462600719506
30
0
10
89.156162986894657
20
238.00655237409771
30
0
10
89.94668882444148
20
239.63716426031425
30
0
10
90.807181316157951
20
241.11073500785281
30
0
10
91.739703101797716
20
242.44542048437037
30
0
10
92.746629576897291
20
243.68098346490879
30
0
10
93.830237666099862
20
244.86817320102961
30
0
10
94.992299454486343
20
246.05858749371998
30
0
10
96.233428270516498
20
247.29263943308189
30
0
10
97.552990840755385
20
248.59490123288469
30
0
10
98.949794064214984
20
249.97935529944675
30
0
10
100.12795139306897
20
251.15741004287858
30
0
10
101.04523969151543
20
252.08117402568746
30
0
10
101.67166862685052
20
252.7148178321531
30
0
10
101.98860896645945
20
253.03609019836227
30
0
0
SPLINE
5
120
100
AcDbEntity
8
0
100
AcDbSpline
70
4
71
5
72
181
73
175
74
0
42
0.000000001
43
0.0000000001
44
0.0000000001
40
0
40
0
40
0
40
0
40
0
40
0
40
0.0058823529411764705
40
0.011764705882352941
40
0.017647058823529412
40
0.023529411764705882
40
0.029411764705882353
40
0.035294117647058823
40
0.041176470588235294
40
0.047058823529411764
40
0.052941176470588235
40
0.058823529411764705
40
0.064705882352941169
40
0.070588235294117646
40
0.076470588235294124
40
0.082352941176470601
40
0.088235294117647078
40
0.094117647058823556
40
0.10000000000000003
40
0.10588235294117651
40
0.11176470588235299
40
0.11764705882352947
40
0.12352941176470594
40
0.12941176470588242
40
0.1352941176470589
40
0.14117647058823538
40
0.14705882352941185
40
0.15294117647058833
40
0.15882352941176481
40
0.16470588235294129
40
0.17058823529411776
40
0.17647058823529424
40
0.18235294117647072
40
0.18823529411764719
40
0.19411764705882367
40
0.20000000000000015
40
0.20588235294117663
40
0.2117647058823531
40
0.21764705882352958
40
0.22352941176470606
40
0.22941176470588254
40
0.23529411764705901
40
0.24117647058823549
40
0.24705882352941197
40
0.25294117647058845
40
0.2588235294117649
40
0.26470588235294135
40
0.2705882352941178
40
0.27647058823529425
40
0.2823529411764707
40
0.28823529411764715
40
0.29411764705882359
40
0.30000000000000004
40
0.30588235294117649
40
0.31176470588235294
40
0.31764705882352939
40
0.32352941176470584
40
0.32941176470588229
40
0.33529411764705874
40
0.34117647058823519
40
0.34705882352941164
40
0.35294117647058809
40
0.35882352941176454
40
0.36470588235294099
40
0.37058823529411744
40
0.37647058823529389
40
0.38235294117647034
40
0.38823529411764679
40
0.39411764705882324
40
0.39999999999999969
40
0.40588235294117614
40
0.41176470588235259
40
0.41764705882352904
40
0.42352941176470549
40
0.42941176470588194
40
0.43529411764705839
40
0.44117647058823484
40
0.44705882352941129
40
0.45294117647058774
40
0.45882352941176419
40
0.46470588235294064
40
0.47058823529411709
40
0.47647058823529354
40
0.48235294117646998
40
0.48823529411764643
40
0.49411764705882288
40
0.49999999999999933
40
0.50588235294117578
40
0.51176470588235223
40
0.51764705882352868
40
0.52352941176470513
40
0.52941176470588158
40
0.53529411764705803
40
0.54117647058823448
40
0.54705882352941093
40
0.55294117647058738
40
0.55882352941176383
40
0.56470588235294028
40
0.57058823529411673
40
0.57647058823529318
40
0.58235294117646963
40
0.58823529411764608
40
0.59411764705882253
40
0.59999999999999898
40
0.60588235294117543
40
0.61176470588235188
40
0.61764705882352833
40
0.62352941176470478
40
0.62941176470588123
40
0.63529411764705768
40
0.64117647058823413
40
0.64705882352941058
40
0.65294117647058703
40
0.65882352941176348
40
0.66470588235293993
40
0.67058823529411637
40
0.67647058823529282
40
0.68235294117646927
40
0.68823529411764572
40
0.69411764705882217
40
0.69999999999999862
40
0.70588235294117507
40
0.71176470588235152
40
0.71764705882352797
40
0.72352941176470442
40
0.72941176470588087
40
0.73529411764705732
40
0.74117647058823377
40
0.74705882352941022
40
0.75294117647058667
40
0.75882352941176312
40
0.76470588235293957
40
0.77058823529411602
40
0.77647058823529247
40
0.78235294117646892
40
0.78823529411764537
40
0.79411764705882182
40
0.79999999999999827
40
0.80588235294117472
40
0.81176470588235117
40
0.81764705882352762
40
0.82352941176470407
40
0.82941176470588052
40
0.83529411764705697
40
0.84117647058823342
40
0.84705882352940987
40
0.85294117647058632
40
0.85882352941176276
40
0.86470588235293921
40
0.87058823529411566
40
0.87647058823529211
40
0.88235294117646856
40
0.88823529411764501
40
0.89411764705882146
40
0.89999999999999791
40
0.90588235294117436
40
0.91176470588235081
40
0.91764705882352726
40
0.92352941176470371
40
0.92941176470588016
40
0.93529411764705661
40
0.94117647058823306
40
0.94705882352940951
40
0.95294117647058596
40
0.95882352941176241
40
0.96470588235293886
40
0.97058823529411531
40
0.97647058823529176
40
0.98235294117646821
40
0.98823529411764466
40
0.99411764705882111
40
1
40
1
40
1
40
1
40
1
40
1
41
1
41
1
41
1
41
1
41
1
41
1
41
1
41
1
41
1
41
1
41
1
41
1
41
1
41
1
41
1
41
1
41
1
41
1
41
1
41
1
41
1
41
1
41
1
41
1
41
1
41
1
41
1
41
1
41
1
41
1
41
1
41
1
41
1
41
1
41
1
41
1
41
1
41
1
41
1
41
1
41
1
41
1
41
1
41
1
41
1
41
1
41
1
41
1
41
1
41
1
41
1
41
1
41
1
41
1
41
1
41
1
41
1
41
1
41
1
41
1
41
1
41
1
41
1
41
1
41
1
41
1
41
1
41
1
41
1
41
1
41
1
41
1
41
1
41
1
41
1
41
1
41
1
41
1
41
1
41
1
41
1
41
1
41
1
41
1
41
1
41
1
41
1
41
1
41
1
41
1
41
1
41
1
41
1
41
1
41
1
41
1
41
1
41
1
41
1
41
1
41
1
41
1
41
1
41
1
41
1
41
1
41
1
41
1
41
1
41
1
41
1
41
1
41
1
41
1
41
1
41
1
41
1
41
1
41
1
41
1
41
1
41
1
41
1
41
1
41
1
41
1
41
1
41
1
41
1
41
1
41
1
41
1
41
1
41
1
41
1
41
1
41
1
41
1
41
1
41
1
41
1
41
1
41
1
41
1
41
1
41
1
41
1
41
1
41
1
41
1
41
1
41
1
41
1
41
1
41
1
41
1
41
1
41
1
41
1
41
1
41
1
41
1
41
1
41
1
41
1
41
1
41
1
41
1
41
1
41
1
41
1
41
1
41
1
41
1
41
1
10
101.98860896645945
20
253.03609019836227
30
0
10
102.00322185934806
20
253.18707834571711
30
0
10
102.02788446969363
20
253.49323088050522
30
0
10
102.05119054596317
20
253.96498760039594
30
0
10
102.05487345691837
20
254.61906076952744
30
0
10
102.01576694214232
20
255.4780693367394
30
0
10
101.93851913598019
20
256.37754232270146
30
0
10
101.83482889759915
20
257.3153012948078
30
0
10
101.72060919352157
20
258.28946561161894
30
0
10
101.61234490728121
20
259.30090528313298
30
0
10
101.52414851949291
20
260.35517233151529
30
0
10
101.46418056570431
20
261.46521106266687
30
0
10
101.43547201089845
20
262.64680598788397
30
0
10
101.43723615942919
20
263.91301873584632
30
0
10
101.46603772350556
20
265.26919674235057
30
0
10
101.51695476968015
20
266.70724236166518
30
0
10
101.58495029345471
20
268.20168719044437
30
0
10
101.66765534221551
20
269.71416338603183
30
0
10
101.76779617679537
20
271.19677874042566
30
0
10
101.89609946623675
20
272.59588592689136
30
0
10
102.07321928487275
20
273.85574830202518
30
0
10
102.33401185460174
20
274.92208439925895
30
0
10
102.72286509999046
20
275.74637711853779
30
0
10
103.28049496655778
20
276.29112541071572
30
0
10
104.03377118364268
20
276.53452990158735
30
0
10
104.98268075963168
20
276.47615995472142
30
0
10
106.10351806873281
20
276.13544802336702
30
0
10
107.35463276329079
20
275.54913205190462
30
0
10
108.68148655127264
20
274.76868481957786
30
0
10
110.02153792678767
20
273.85867209173597
30
0
10
111.31119001357774
20
272.89076100039597
30
0
10
112.49469644065391
20
271.93412303439311
30
0
10
113.53226931636227
20
271.047055277509
30
0
10
114.40901038256402
20
270.26771717769412
30
0
10
115.1423493185596
20
269.60613137722873
30
0
10
115.79313753542016
20
269.03329265326533
30
0
10
116.44002758650844
20
268.49949139017656
30
0
10
117.1520600389857
20
267.95448311378448
30
0
10
117.95704172345901
20
267.37001680355837
30
0
10
118.82680758824384
20
266.75197950641319
30
0
10
119.71088265842587
20
266.12267802553305
30
0
10
120.55968635608757
20
265.50932697582022
30
0
10
121.35484970709298
20
264.92880514196997
30
0
10
122.12754143059053
20
264.37783304019246
30
0
10
122.93089567240564
20
263.84236576776863
30
0
10
123.82024713766401
20
263.30396130395394
30
0
10
124.82732612243326
20
262.74813824870694
30
0
10
125.94647781770416
20
262.16931115964991
30
0
10
127.14965689291392
20
261.56790090456275
30
0
10
128.39640944792365
20
260.94884355981594
30
0
10
129.64534650990566
20
260.31957356471867
30
0
10
130.86612142343921
20
259.68817478033725
30
0
10
132.04768092578436
20
259.06163647119581
30
0
10
133.19112529232393
20
258.44494501874658
30
0
10
134.30497219765192
20
257.84001373089785
30
0
10
135.39956324549519
20
257.24471620885714
30
0
10
136.48163900516326
20
256.65178128914641
30
0
10
137.54940010334397
20
256.04800837944276
30
0
10
138.59657365492558
20
255.41752822268563
30
0
10
139.61604932663815
20
254.74493169377754
30
0
10
140.60341086747056
20
254.01823313785746
30
0
10
141.56114300379474
20
253.23240973519819
30
0
10
142.50058480324199
20
252.39112111211409
30
0
10
143.43658809635198
20
251.50259291729995
30
0
10
144.38331110691541
20
250.57640690846438
30
0
10
145.34977727106426
20
249.62010509584508
30
0
10
146.33503423910821
20
248.63547194725999
30
0
10
147.32498507828947
20
247.61616359277059
30
0
10
148.298154047472
20
246.55260464019889
30
0
10
149.23016087722965
20
245.4357832091475
30
0
10
150.09892544465868
20
244.26176720458582
30
0
10
150.88903534757304
20
243.03524185600654
30
0
10
151.59778538307481
20
241.77514409772107
30
0
10
152.23481030682453
20
240.51215104221157
30
0
10
152.81699792120352
20
239.28024023494814
30
0
10
153.36469148022377
20
238.10972558842653
30
0
10
153.89754241955279
20
237.02022607152455
30
0
10
154.43008513222804
20
236.01237550505175
30
0
10
154.96875125016228
20
235.06402474078158
30
0
10
155.51452103920616
20
234.14296143655002
30
0
10
156.0646900635351
20
233.21730631127741
30
0
10
156.61494388895073
20
232.26618663905333
30
0
10
157.16139852089674
20
231.29196335115313
30
0
10
157.70174646422558
20
230.31219793738643
30
0
10
158.23638604660573
20
229.34796719085452
30
0
10
158.76928599959615
20
228.41476604200284
30
0
10
159.30961720936099
20
227.50922947727429
30
0
10
159.87040148617046
20
226.6100863745495
30
0
10
160.46407859487539
20
225.69300526474512
30
0
10
161.09923217340946
20
224.74083877012194
30
0
10
161.77613985507935
20
223.75755042911146
30
0
10
162.48494787788033
20
222.77510143049102
30
0
10
163.21238339704269
20
221.83809100754732
30
0
10
163.94754083541218
20
220.99111753473602
30
0
10
164.68719063847007
20
220.26655565345169
30
0
10
165.4433868886058
20
219.66847314830585
30
0
10
166.23931698746958
20
219.17707531576357
30
0
10
167.09868488937272
20
218.76433085762787
30
0
10
168.03771146485832
20
218.40536047853308
30
0
10
169.05456514690204
20
218.09340814119457
30
0
10
170.13363395996208
20
217.8364972445442
30
0
10
171.25258922510011
20
217.65088561179357
30
0
10
172.38803989766211
20
217.55592252355109
30
0
10
173.52285887490808
20
217.56757638796898
30
0
10
174.64810017210544
20
217.69574801046844
30
0
10
175.76107891947458
20
217.94414953689866
30
0
10
176.8645431675086
20
218.30950517920445
30
0
10
177.96543654997157
20
218.78089713087394
30
0
10
179.07372785882362
20
219.33942509179855
30
0
10
180.2000524893231
20
219.96186482437815
30
0
10
181.35345760251184
20
220.62399336535819
30
0
10
182.53916042698086
20
221.30398375601217
30
0
10
183.75617285533113
20
221.98590666901788
30
0
10
184.99534955091332
20
222.66279601981705
30
0
10
186.2432219659955
20
223.33364812252387
30
0
10
187.48535867423001
20
224.00088506779292
30
0
10
188.71009630272181
20
224.66751244608119
30
0
10
189.91167617149949
20
225.33470513919124
30
0
10
191.09472772261557
20
225.99846623505715
30
0
10
192.27337237724979
20
226.64995427880137
30
0
10
193.46651194166213
20
227.27840421468099
30
0
10
194.69415394331421
20
227.8733492145501
30
0
10
195.973491109702
20
228.42699606062797
30
0
10
197.31465536887725
20
228.93685510599582
30
0
10
198.71793964976138
20
229.40727321605448
30
0
10
200.17679300164519
20
229.8466587660732
30
0
10
201.67987757627327
20
230.26541978176337
30
0
10
203.21353642546779
20
230.67356113912388
30
0
10
204.76398497778408
20
231.078568437836
30
0
10
206.31986245650336
20
231.48282873980153
30
0
10
207.87386639691121
20
231.88232210259372
30
0
10
209.42173136488694
20
232.26906060683518
30
0
10
210.96167200209024
20
232.6328669166225
30
0
10
212.49364162727187
20
232.96342229568126
30
0
10
214.01867474701251
20
233.25217735541801
30
0
10
215.53818251585199
20
233.49437461469248
30
0
10
217.05330045724278
20
233.69087520461653
30
0
10
218.56506870149565
20
233.84607087278818
30
0
10
220.07457963527639
20
233.96596107541015
30
0
10
221.58314031977989
20
234.05614960432393
30
0
10
223.09242265150417
20
234.1199187952692
30
0
10
224.604633193148
20
234.15616704483412
30
0
10
226.12263350700584
20
234.1576999223268
30
0
10
227.64949578718233
20
234.11357830981649
30
0
10
229.18809872605686
20
234.01117724590182
30
0
10
230.74070652348993
20
233.83836439313467
30
0
10
232.30855848570616
20
233.58560428114538
30
0
10
233.89144543761506
20
233.24815031228491
30
0
10
235.48731550350777
20
232.8280435276298
30
0
10
237.09245381288235
20
232.33255224625037
30
0
10
238.70163023714503
20
231.77276518241064
30
0
10
240.30827043032502
20
231.16214236162659
30
0
10
241.90459025624381
20
230.5150517227126
30
0
10
243.48180714114955
20
229.8453888876212
30
0
10
245.03016644419819
20
229.16497219690706
30
0
10
246.53963295478786
20
228.48276047420896
30
0
10
248.00132759186147
20
227.80497363180149
30
0
10
249.40874714819358
20
227.13498021816005
30
0
10
250.75911734510078
20
226.47326654979611
30
0
10
252.05458726069799
20
225.81739959067011
30
0
10
253.30373889413951
20
225.16192128643837
30
0
10
254.52219685844906
20
224.49849171264378
30
0
10
255.73011500480291
20
223.81693957878426
30
0
10
256.95020360415458
20
223.1061492960846
30
0
10
258.20547675828163
20
222.35504258793927
30
0
10
259.51727657484076
20
221.55344929818366
30
0
10
260.90278127832829
20
220.69320373885586
30
0
10
262.37470542309501
20
219.76826159685029
30
0
10
263.94217254495788
20
218.77429065115876
30
0
10
265.61122479093211
20
217.70842456966921
30
0
10
267.38548225058162
20
216.56894947476763
30
0
10
268.89048630461178
20
215.59780566258951
30
0
10
270.06765231535144
20
214.83581985416993
30
0
10
270.873945241054
20
214.31288443704341
30
0
10
271.28247060473791
20
214.04768050689938
30
0
0
SPLINE
5
121
100
AcDbEntity
8
0
100
AcDbSpline
70
4
71
5
72
71
73
65
74
0
42
0.000000001
43
0.0000000001
44
0.0000000001
40
0
40
0
40
0
40
0
40
0
40
0
40
0.016666666666666666
40
0.033333333333333333
40
0.050000000000000003
40
0.066666666666666666
40
0.083333333333333329
40
0.099999999999999992
40
0.11666666666666665
40
0.13333333333333333
40
0.14999999999999999
40
0.16666666666666666
40
0.18333333333333332
40
0.19999999999999998
40
0.21666666666666665
40
0.23333333333333331
40
0.24999999999999997
40
0.26666666666666666
40
0.28333333333333333
40
0.29999999999999999
40
0.31666666666666665
40
0.33333333333333331
40
0.34999999999999998
40
0.36666666666666664
40
0.3833333333333333
40
0.39999999999999997
40
0.41666666666666663
40
0.43333333333333329
40
0.44999999999999996
40
0.46666666666666662
40
0.48333333333333328
40
0.49999999999999994
40
0.51666666666666661
40
0.53333333333333333
40
0.55000000000000004
40
0.56666666666666676
40
0.58333333333333348
40
0.6000000000000002
40
0.61666666666666692
40
0.63333333333333364
40
0.65000000000000036
40
0.66666666666666707
40
0.68333333333333379
40
0.70000000000000051
40
0.71666666666666723
40
0.73333333333333395
40
0.75000000000000067
40
0.76666666666666738
40
0.7833333333333341
40
0.80000000000000082
40
0.81666666666666754
40
0.83333333333333426
40
0.85000000000000098
40
0.8666666666666677
40
0.88333333333333441
40
0.90000000000000113
40
0.91666666666666785
40
0.93333333333333457
40
0.95000000000000129
40
0.96666666666666801
40
0.98333333333333472
40
1
40
1
40
1
40
1
40
1
40
1
41
1
41
1
41
1
41
1
41
1
41
1
41
1
41
1
41
1
41
1
41
1
41
1
41
1
41
1
41
1
41
1
41
1
41
1
41
1
41
1
41
1
41
1
41
1
41
1
41
1
41
1
41
1
41
1
41
1
41
1
41
1
41
1
41
1
41
1
41
1
41
1
41
1
41
1
41
1
41
1
41
1
41
1
41
1
41
1
41
1
41
1
41
1
41
1
41
1
41
1
41
1
41
1
41
1
41
1
41
1
41
1
41
1
41
1
41
1
41
1
41
1
41
1
41
1
41
1
41
1
10
271.28247060473791
20
214.04768050689938
30
0
10
271.96626210834944
20
213.93213688209019
30
0
10
273.21112942134346
20
213.91115609418949
30
0
10
274.71027529094607
20
214.51002947313947
30
0
10
275.9725632643636
20
216.56956654663736
30
0
10
276.34852065948974
20
221.18618259547975
30
0
10
275.60464887810485
20
227.65572060292754
30
0
10
273.87968338124472
20
235.68648050280504
30
0
10
271.36772139786228
20
244.91812303072464
30
0
10
268.31712531865514
20
254.95245032593198
30
0
10
265.0305568150938
20
265.38651309186406
30
0
10
261.86207580997444
20
275.84196007806361
30
0
10
259.2219964508937
20
286.00279784246584
30
0
10
257.55115464737912
20
295.62068563721573
30
0
10
257.27055705797432
20
304.49449864780257
30
0
10
258.73860301301869
20
312.4575976321903
30
0
10
262.20393465327243
20
319.36152723768112
30
0
10
267.76259618319511
20
325.06242211104785
30
0
10
275.30671514795296
20
329.40359627144397
30
0
10
284.49564807916084
20
332.2079158072782
30
0
10
294.82486110092498
20
333.31151566703352
30
0
10
305.6808166695086
20
332.59186981186167
30
0
10
316.40086315904335
20
329.99784824135975
30
0
10
326.33130410692848
20
325.57974983602463
30
0
10
334.8851867757366
20
319.51797690081372
30
0
10
341.60280504823385
20
312.15630709312694
30
0
10
346.20407980029881
20
304.02250374673417
30
0
10
348.58196605227448
20
295.75026451271788
30
0
10
348.79947124710606
20
288.0117030538886
30
0
10
347.0906256667796
20
281.4444925980921
30
0
10
343.84873020459759
20
276.58447008886162
30
0
10
339.64828455554607
20
273.7877914228211
30
0
10
335.15014916896439
20
273.18796905826258
30
0
10
330.89101860047663
20
274.69734451034157
30
0
10
327.07422118620775
20
277.99031884684246
30
0
10
323.4393052698465
20
282.5112333334834
30
0
10
319.53763617549077
20
287.57023068688818
30
0
10
314.96116393642734
20
292.42874947863493
30
0
10
309.565098737656
20
296.38561592766735
30
0
10
303.75575287679732
20
298.87118046012665
30
0
10
298.31184527639141
20
299.48114481302366
30
0
10
294.06578129879301
20
297.99444419375993
30
0
10
291.64379067492001
20
294.39435462144604
30
0
10
291.15210622852294
20
288.89513666229414
30
0
10
292.29965852918252
20
281.87485645837523
30
0
10
294.55957185200708
20
273.79876163906556
30
0
10
297.31849214390832
20
265.14529885371752
30
0
10
300.02622451752256
20
256.33335736295453
30
0
10
302.35744137595452
20
247.64286780425823
30
0
10
304.17518877146927
20
239.23411422731158
30
0
10
305.47556956895005
20
231.17621819995202
30
0
10
306.3402342860241
20
223.47183418083893
30
0
10
306.88411742745842
20
216.08397583782187
30
0
10
307.20919006460366
20
208.96024422906794
30
0
10
307.3457246255889
20
202.06218237159032
30
0
10
307.25607753226222
20
195.36893590739766
30
0
10
306.86242830684455
20
188.87096634127036
30
0
10
306.06738696886327
20
182.56690233186404
30
0
10
304.7759342070292
20
176.45933251458487
30
0
10
302.92083445598939
20
170.55046431920712
30
0
10
300.4637140588826
20
164.8412074717514
30
0
10
298.0012060870967
20
160.43374844013499
30
0
10
295.87235548293569
20
157.21807836997445
30
0
10
294.32784918007849
20
155.1142480332025
30
0
10
293.52427842885356
20
154.07232020784764
30
0
0
ENDSEC
0
SECTION
2
OBJECTS
0
DICTIONARY
5
C
100
AcDbDictionary
3
ACAD_GROUP
350
D
3
ACAD_MLINESTYLE
350
17
0
DICTIONARY
5
D
100
AcDbDictionary
0
DICTIONARY
5
1A
330
C
100
AcDbDictionary
0
DICTIONARY
5
17
100
AcDbDictionary
0
ENDSEC
0
EOF
