0
SECTION
2
HEADER
9
$INSUNITS
70
4
9
$ACADVER
1
AC1014
9
$HANDSEED
5
FFFF
0
ENDSEC
0
SECTION
2
TABLES
0
TABLE
2
VPORT
5
8
100
AcDbSymbolTable
0
ENDTAB
0
TABLE
2
LTYPE
5
5
100
AcDbSymbolTable
0
LTYPE
5
14
100
AcDbSymbolTableRecord
100
AcDbLinetypeTableRecord
2
BYBLOCK
70
0
0
LTYPE
5
15
100
AcDbSymbolTableRecord
100
AcDbLinetypeTableRecord
2
BYLAYER
70
0
0
ENDTAB
0
TABLE
2
LAYER
5
2
100
AcDbSymbolTable
70
2
0
LAYER
5
50
100
AcDbSymbolTableRecord
100
AcDbLayerTableRecord
2
0
70
0
6
CONTINUOUS
0
ENDTAB
0
TABLE
2
STYLE
5
3
100
AcDbSymbolTable
70
1
0
STYLE
5
11
100
AcDbSymbolTableRecord
100
AcDbTextStyleTableRecord
2
STANDARD
70
0
0
ENDTAB
0
TABLE
2
VIEW
5
6
100
AcDbSymbolTable
70
0
0
ENDTAB
0
TABLE
2
UCS
5
7
100
AcDbSymbolTable
70
0
0
ENDTAB
0
TABLE
2
APPID
5
9
100
AcDbSymbolTable
70
2
0
APPID
5
12
100
AcDbSymbolTableRecord
100
AcDbRegAppTableRecord
2
ACAD
70
0
0
ENDTAB
0
TABLE
2
DIMSTYLE
5
A
100
AcDbSymbolTable
70
1
0
ENDTAB
0
TABLE
2
BLOCK_RECORD
5
1
100
AcDbSymbolTable
70
1
0
BLOCK_RECORD
5
1F
100
AcDbSymbolTableRecord
100
AcDbBlockTableRecord
2
*MODEL_SPACE
0
BLOCK_RECORD
5
1B
100
AcDbSymbolTableRecord
100
AcDbBlockTableRecord
2
*PAPER_SPACE
0
ENDTAB
0
ENDSEC
0
SECTION
2
BLOCKS
0
BLOCK
5
20
100
AcDbEntity
100
AcDbBlockBegin
2
*MODEL_SPACE
0
ENDBLK
5
21
100
AcDbEntity
100
AcDbBlockEnd
0
BLOCK
5
1C
100
AcDbEntity
100
AcDbBlockBegin
2
*PAPER_SPACE
0
ENDBLK
5
1D
100
AcDbEntity
100
AcDbBlockEnd
0
ENDSEC
0
SECTION
2
ENTITIES
0
LWPOLYLINE
5
100
100
AcDbEntity
8
0
100
AcDbPolyline
90
34
43
0.0
10
-22.57957198878751
20
-21.343181450695532
10
-22.1704874838919
20
-21.41818303308379
10
-21.732032131496783
20
-21.799068060587736
10
-21.063357767829345
20
-23.174960322752877
10
-20.99781684747244
20
-23.971436963783788
10
-21.179922417694094
20
-24.71255433546138
10
-21.6025860996202
20
-25.327047908457363
10
-22.213795423897754
20
-25.768580353493988
10
-22.935385079701394
20
-26.01181402084971
10
-23.680345396812214
20
-26.048910856959754
10
-24.370634869040693
20
-25.886358319104588
10
-24.95310127692204
20
-25.54138970949
10
-25.719049268624573
20
-24.408110812970747
10
-26.007951856188466
20
-22.884649354430852
10
-25.967524531115863
20
-21.18532664093232
10
-25.695008158440757
20
-19.4393633774625
10
-24.610130477906164
20
-15.943237705511807
10
-23.223477304672517
20
-12.269768709279687
10
-22.686550679738147
20
-10.26860391904679
10
-22.379678713699217
20
-8.136635379450631
10
-22.32793374377892
20
-5.902100666796755
10
-22.49302341386079
20
-3.6249144116885406
10
-23.11316227944128
20
0.7731363734947451
10
-23.34244977087619
20
2.7878808552441314
10
-23.37627040845345
20
4.660348645190702
10
-23.14564218363997
20
6.414181499802452
10
-22.636378127637528
20
8.095806862415415
10
-21.064930942375188
20
11.498630099218557
10
-20.25666333507623
20
13.357556389035082
10
-19.609664334171455
20
15.401392337992265
10
-19.217607479482574
20
17.66988655822012
10
-19.136426883744342
20
20.18629459439368
10
-19.393965255684982
20
22.961797042142447
10
-20.000000298023227
20
26.000000387430195
0
LINE
5
101
100
AcDbEntity
8
0
100
AcDbLine
10
-22.57957198878751
20
-21.343181450695532
30
0
11
-20.000000298023224
21
-15.000000223517418
31
0
0
LINE
5
102
100
AcDbEntity
8
0
100
AcDbLine
10
-20.000000298023224
20
-15.000000223517418
30
0
11
0
21
-15.000000223517418
31
0
0
LWPOLYLINE
5
103
100
AcDbEntity
8
0
100
AcDbPolyline
90
9
43
0.0
10
0.0
20
-3.0000000447034836
10
-2.2813083385533615
20
-2.878277135966086
10
-4.284667495465244
20
-2.5361603138077724
10
-6.017194232244541
20
-1.9933540988167546
10
-7.534565020497018
20
-1.3313217956677341
10
-8.959102098147737
20
-0.7100933400470628
10
-10.430093114768614
20
-0.3050577465798733
10
-12.036963035409906
20
-0.22232645843274368
10
-13.807469044949926
20
-0.4876519352141529
0
LWPOLYLINE
5
104
100
AcDbEntity
8
0
100
AcDbPolyline
90
15
43
0.0
10
-18.280660612337297
20
-0.5457453321932082
10
-19.16870593096826
20
0.39043853586008637
10
-19.751185397315698
20
1.4410557872175749
10
-20.02902413079838
20
2.607699666066925
10
-20.01332611752349
20
3.8912895517591126
10
-19.734390223283157
20
5.290333668072389
10
-19.247382599208017
20
6.7996910130303645
10
-17.959051309046146
20
10.11473975158308
10
-16.808291905133842
20
13.756531734523023
10
-16.45811088437916
20
15.675492857329669
10
-16.312382612230795
20
17.649344242194466
10
-16.389644283496818
20
19.672255129884487
10
-16.696936298614318
20
21.739978161733315
10
-17.23451565945302
20
23.84972773485753
10
-18.0000002682209
20
26.00000038743019
0
LINE
5
105
100
AcDbEntity
8
0
100
AcDbLine
10
-18.000000268220901
20
26.000000387430191
30
0
11
-20.000000298023224
21
26.000000387430191
31
0
0
ARC
5
106
100
AcDbEntity
8
0
100
AcDbCircle
10
-16.01652756610055
20
-2.6370678495197328
30
0
40
3.0821953738428487
210
0
220
-0
230
1
100
AcDbArc
50
44.215997152131798
51
137.27212125364559
0
LINE
5
107
100
AcDbEntity
8
0
100
AcDbLine
10
0
20
-36.000000536441803
30
0
11
0
21
33.000000491738319
31
0
0
LINE
5
108
100
AcDbEntity
8
0
100
AcDbLine
10
22.57957198878751
20
-21.343181450695532
30
0
11
20.000000298023224
21
-15.000000223517418
31
0
0
LINE
5
109
100
AcDbEntity
8
0
100
AcDbLine
10
20.000000298023224
20
-15.000000223517418
30
0
11
0
21
-15.000000223517418
31
0
0
LWPOLYLINE
5
110
100
AcDbEntity
8
0
100
AcDbPolyline
90
9
43
0.0
10
0.0
20
-3.0000000447034836
10
2.2813083385533615
20
-2.878277135966086
10
4.284667495465244
20
-2.5361603138077724
10
6.017194232244541
20
-1.9933540988167546
10
7.534565020497018
20
-1.3313217956677341
10
8.959102098147737
20
-0.7100933400470628
10
10.430093114768614
20
-0.3050577465798733
10
12.036963035409906
20
-0.22232645843274368
10
13.807469044949926
20
-0.4876519352141529
0
LINE
5
111
100
AcDbEntity
8
0
100
AcDbLine
10
18.000000268220901
20
26.000000387430191
30
0
11
20.000000298023224
21
26.000000387430191
31
0
0
ARC
5
112
100
AcDbEntity
8
0
100
AcDbCircle
10
16.01652756610055
20
-2.6370678495197319
30
0
40
3.082195373842846
210
0
220
-0
230
1
100
AcDbArc
50
42.727878746354392
51
135.78400284786821
0
LWPOLYLINE
5
113
100
AcDbEntity
8
0
100
AcDbPolyline
90
34
43
0.0
10
22.57957198878751
20
-21.343181450695532
10
22.1704874838919
20
-21.41818303308379
10
21.732032131496783
20
-21.799068060587736
10
21.063357767829345
20
-23.174960322752877
10
20.99781684747244
20
-23.971436963783788
10
21.179922417694094
20
-24.71255433546138
10
21.6025860996202
20
-25.327047908457363
10
22.213795423897754
20
-25.768580353493988
10
22.935385079701394
20
-26.01181402084971
10
23.680345396812214
20
-26.048910856959754
10
24.370634869040693
20
-25.886358319104588
10
24.95310127692204
20
-25.54138970949
10
25.719049268624573
20
-24.408110812970747
10
26.007951856188466
20
-22.884649354430852
10
25.967524531115863
20
-21.18532664093232
10
25.695008158440757
20
-19.4393633774625
10
24.610130477906164
20
-15.943237705511807
10
23.223477304672517
20
-12.269768709279687
10
22.686550679738147
20
-10.26860391904679
10
22.379678713699217
20
-8.136635379450631
10
22.32793374377892
20
-5.902100666796755
10
22.49302341386079
20
-3.6249144116885406
10
23.11316227944128
20
0.7731363734947451
10
23.34244977087619
20
2.7878808552441314
10
23.37627040845345
20
4.660348645190702
10
23.14564218363997
20
6.414181499802452
10
22.636378127637528
20
8.095806862415415
10
21.064930942375188
20
11.498630099218557
10
20.25666333507623
20
13.357556389035082
10
19.609664334171455
20
15.401392337992265
10
19.217607479482574
20
17.66988655822012
10
19.136426883744342
20
20.18629459439368
10
19.393965255684982
20
22.961797042142447
10
20.000000298023227
20
26.000000387430195
0
LWPOLYLINE
5
114
100
AcDbEntity
8
0
100
AcDbPolyline
90
15
43
0.0
10
18.280660612337297
20
-0.5457453321932082
10
19.16870593096826
20
0.39043853586008637
10
19.751185397315698
20
1.4410557872175749
10
20.02902413079838
20
2.607699666066925
10
20.01332611752349
20
3.8912895517591126
10
19.734390223283157
20
5.290333668072389
10
19.247382599208017
20
6.7996910130303645
10
17.959051309046146
20
10.11473975158308
10
16.808291905133842
20
13.756531734523023
10
16.45811088437916
20
15.675492857329669
10
16.312382612230795
20
17.649344242194466
10
16.389644283496818
20
19.672255129884487
10
16.696936298614318
20
21.739978161733315
10
17.23451565945302
20
23.84972773485753
10
18.0000002682209
20
26.00000038743019
0
LWPOLYLINE
5
115
100
AcDbEntity
8
0
100
AcDbPolyline
90
4
70
1
43
0.0
10
20
20
-12.000000223517418
10
17
20
-12.000000223517418
10
17
20
-2.0000002235174197
10
20
20
-2.0000002235174197
0
LWPOLYLINE
5
116
100
AcDbEntity
8
0
100
AcDbPolyline
90
4
70
1
43
0.0
10
-20.000000298023224
20
-12.000000178813934
10
-17.000000298023224
20
-12.000000178813934
10
-17.000000298023224
20
-2.0000002235174197
10
-20.000000298023224
20
-2.0000002235174197
0
ENDSEC
0
SECTION
2
OBJECTS
0
DICTIONARY
5
C
100
AcDbDictionary
3
ACAD_GROUP
350
D
3
ACAD_MLINESTYLE
350
17
0
DICTIONARY
5
D
100
AcDbDictionary
0
DICTIONARY
5
1A
330
C
100
AcDbDictionary
0
DICTIONARY
5
17
100
AcDbDictionary
0
ENDSEC
0
EOF
