  0
SECTION
  2
HEADER
  9
$ACADVER
  1
AC1009
  9
$EXTMIN
 10
13.11596922
 20
9.07299994
 30
0.0
  9
$EXTMAX
 10
178.86541500
 20
275.23119729
 30
0.0
  0
ENDSEC
  0
SECTION
  2
TABLES
  0
TABLE
  2
LAYER
 70
1
 0
LAYER
 2
Nível Padrão
 70
0
 62
1
 6
CONTINUOUS
 0
ENDTAB
 0
ENDSEC
  0
SECTION
  2
ENTITIES
  0
POLYLINE
  8
Nível Padrão
 66
   1
 39
0.000000
 70
    1
  0
VERTEX
  8
0
 10
53.87820131
 20
270.04320092
  0
VERTEX
  8
0
 10
53.96820875
 20
270.05901486
  0
VERTEX
  8
0
 10
54.06075608
 20
270.06004242
  0
VERTEX
  8
0
 10
54.24983231
 20
270.02095054
  0
VERTEX
  8
0
 10
54.43815382
 20
269.93234963
  0
VERTEX
  8
0
 10
54.61844445
 20
269.80066404
  0
VERTEX
  8
0
 10
54.78342805
 20
269.63231815
  0
VERTEX
  8
0
 10
54.92582846
 20
269.43373629
  0
VERTEX
  8
0
 10
55.03836951
 20
269.21134283
  0
VERTEX
  8
0
 10
55.11377505
 20
268.97156213
  0
VERTEX
  8
0
 10
55.14476890
 20
268.72081854
  0
VERTEX
  8
0
 10
55.12407492
 20
268.46553642
  0
VERTEX
  8
0
 10
55.09207119
 20
268.33820103
  0
VERTEX
  8
0
 10
55.04441695
 20
268.21214013
  0
VERTEX
  8
0
 10
54.98020266
 20
268.08815679
  0
VERTEX
  8
0
 10
54.89851881
 20
267.96705403
  0
VERTEX
  8
0
 10
54.79845588
 20
267.84963491
  0
VERTEX
  8
0
 10
54.67910435
 20
267.73670247
  0
VERTEX
  8
0
 10
54.53955471
 20
267.62905975
  0
VERTEX
  8
0
 10
54.37889742
 20
267.52750981
  0
VERTEX
  8
0
 10
54.19622297
 20
267.43285567
  0
VERTEX
  8
0
 10
53.99062185
 20
267.34590040
  0
VERTEX
  8
0
 10
53.76118452
 20
267.26744703
  0
VERTEX
  8
0
 10
53.50700147
 20
267.19829861
  0
VERTEX
  8
0
 10
52.30426277
 20
266.90530013
  0
VERTEX
  8
0
 10
51.07252059
 20
266.59262078
  0
VERTEX
  8
0
 10
49.81096679
 20
266.24669232
  0
VERTEX
  8
0
 10
48.51879320
 20
265.85394651
  0
VERTEX
  8
0
 10
47.19519169
 20
265.40081508
  0
VERTEX
  8
0
 10
46.52135291
 20
265.14736469
  0
VERTEX
  8
0
 10
45.83935409
 20
264.87372980
  0
VERTEX
  8
0
 10
45.14909421
 20
264.57821439
  0
VERTEX
  8
0
 10
44.45047225
 20
264.25912243
  0
VERTEX
  8
0
 10
43.74338719
 20
263.91475787
  0
VERTEX
  8
0
 10
43.02773802
 20
263.54342470
  0
VERTEX
  8
0
 10
42.30342372
 20
263.14342688
  0
VERTEX
  8
0
 10
41.57034326
 20
262.71306838
  0
VERTEX
  8
0
 10
40.82839563
 20
262.25065318
  0
VERTEX
  8
0
 10
40.07747980
 20
261.75448523
  0
VERTEX
  8
0
 10
39.31749476
 20
261.22286851
  0
VERTEX
  8
0
 10
38.54833950
 20
260.65410698
  0
VERTEX
  8
0
 10
37.76991298
 20
260.04650463
  0
VERTEX
  8
0
 10
36.98211419
 20
259.39836541
  0
VERTEX
  8
0
 10
36.18484212
 20
258.70799329
  0
VERTEX
  8
0
 10
35.37799574
 20
257.97369225
  0
VERTEX
  8
0
 10
34.56147404
 20
257.19376625
  0
VERTEX
  8
0
 10
33.73517599
 20
256.36651927
  0
VERTEX
  8
0
 10
32.89900058
 20
255.49025526
  0
VERTEX
  8
0
 10
32.05284679
 20
254.56327821
  0
VERTEX
  8
0
 10
31.19661359
 20
253.58389208
  0
VERTEX
  8
0
 10
30.33019997
 20
252.55040083
  0
VERTEX
  8
0
 10
30.16702558
 20
252.33739299
  0
VERTEX
  8
0
 10
30.01964992
 20
252.11555483
  0
VERTEX
  8
0
 10
29.88773210
 20
251.88538880
  0
VERTEX
  8
0
 10
29.77093120
 20
251.64739735
  0
VERTEX
  8
0
 10
29.66890632
 20
251.40208296
  0
VERTEX
  8
0
 10
29.58131656
 20
251.14994808
  0
VERTEX
  8
0
 10
29.44807875
 20
250.62722666
  0
VERTEX
  8
0
 10
29.36849053
 20
250.08325277
  0
VERTEX
  8
0
 10
29.33982464
 20
249.52204608
  0
VERTEX
  8
0
 10
29.35935384
 20
248.94762626
  0
VERTEX
  8
0
 10
29.42435086
 20
248.36401296
  0
VERTEX
  8
0
 10
29.53208848
 20
247.77522586
  0
VERTEX
  8
0
 10
29.67983943
 20
247.18528463
  0
VERTEX
  8
0
 10
29.86487646
 20
246.59820892
  0
VERTEX
  8
0
 10
30.08447234
 20
246.01801842
  0
VERTEX
  8
0
 10
30.33589979
 20
245.44873277
  0
VERTEX
  8
0
 10
30.61643159
 20
244.89437166
  0
VERTEX
  8
0
 10
30.92334047
 20
244.35895474
  0
VERTEX
  8
0
 10
31.25389919
 20
243.84650169
  0
VERTEX
  8
0
 10
27.10610036
 20
241.25969867
  0
VERTEX
  8
0
 10
28.42869953
 20
239.13899975
  0
VERTEX
  8
0
 10
32.77959958
 20
241.85249939
  0
VERTEX
  8
0
 10
33.18221032
 20
241.44674274
  0
VERTEX
  8
0
 10
33.57941878
 20
241.06816886
  0
VERTEX
  8
0
 10
33.97138678
 20
240.71625685
  0
VERTEX
  8
0
 10
34.35827614
 20
240.39048579
  0
VERTEX
  8
0
 10
34.74024865
 20
240.09033475
  0
VERTEX
  8
0
 10
35.11746613
 20
239.81528283
  0
VERTEX
  8
0
 10
35.49009040
 20
239.56480911
  0
VERTEX
  8
0
 10
35.85828326
 20
239.33839267
  0
VERTEX
  8
0
 10
36.22220652
 20
239.13551260
  0
VERTEX
  8
0
 10
36.58202201
 20
238.95564798
  0
VERTEX
  8
0
 10
36.93789152
 20
238.79827789
  0
VERTEX
  8
0
 10
37.28997686
 20
238.66288143
  0
VERTEX
  8
0
 10
37.63843986
 20
238.54893767
  0
VERTEX
  8
0
 10
37.98344232
 20
238.45592569
  0
VERTEX
  8
0
 10
38.32514606
 20
238.38332459
  0
VERTEX
  8
0
 10
38.66371287
 20
238.33061344
  0
VERTEX
  8
0
 10
38.99930458
 20
238.29727133
  0
VERTEX
  8
0
 10
39.33208300
 20
238.28277735
  0
VERTEX
  8
0
 10
39.66220993
 20
238.28661058
  0
VERTEX
  8
0
 10
39.98984720
 20
238.30825009
  0
VERTEX
  8
0
 10
40.31515660
 20
238.34717499
  0
VERTEX
  8
0
 10
40.63829995
 20
238.40286434
  0
VERTEX
  8
0
 10
40.95943906
 20
238.47479724
  0
VERTEX
  8
0
 10
41.27873575
 20
238.56245277
  0
VERTEX
  8
0
 10
41.91244909
 20
238.78284805
  0
VERTEX
  8
0
 10
42.54073446
 20
239.05988285
  0
VERTEX
  8
0
 10
43.16488634
 20
239.38938985
  0
VERTEX
  8
0
 10
43.78619922
 20
239.76720172
  0
VERTEX
  8
0
 10
45.07356555
 20
240.48883759
  0
VERTEX
  8
0
 10
46.34228461
 20
241.23620826
  0
VERTEX
  8
0
 10
47.59158017
 20
242.01122666
  0
VERTEX
  8
0
 10
48.82067601
 20
242.81580574
  0
VERTEX
  8
0
 10
50.02879588
 20
243.65185847
  0
VERTEX
  8
0
 10
51.21516356
 20
244.52129777
  0
VERTEX
  8
0
 10
52.37900283
 20
245.42603660
  0
VERTEX
  8
0
 10
53.51953743
 20
246.36798792
  0
VERTEX
  8
0
 10
54.63599115
 20
247.34906465
  0
VERTEX
  8
0
 10
55.72758775
 20
248.37117977
  0
VERTEX
  8
0
 10
56.79355100
 20
249.43624620
  0
VERTEX
  8
0
 10
57.83310467
 20
250.54617690
  0
VERTEX
  8
0
 10
58.84547252
 20
251.70288482
  0
VERTEX
  8
0
 10
59.82987833
 20
252.90828291
  0
VERTEX
  8
0
 10
60.78554586
 20
254.16428410
  0
VERTEX
  8
0
 10
61.71169889
 20
255.47280136
  0
VERTEX
  8
0
 10
61.84006474
 20
255.59517666
  0
VERTEX
  8
0
 10
61.97223874
 20
255.69928269
  0
VERTEX
  8
0
 10
62.10751092
 20
255.78580171
  0
VERTEX
  8
0
 10
62.24517128
 20
255.85541598
  0
VERTEX
  8
0
 10
62.38450983
 20
255.90880778
  0
VERTEX
  8
0
 10
62.52481658
 20
255.94665938
  0
VERTEX
  8
0
 10
62.80549471
 20
255.97847104
  0
VERTEX
  8
0
 10
63.08152575
 20
255.95630911
  0
VERTEX
  8
0
 10
63.34722976
 20
255.88563173
  0
VERTEX
  8
0
 10
63.59692681
 20
255.77189705
  0
VERTEX
  8
0
 10
63.82493700
 20
255.62056322
  0
VERTEX
  8
0
 10
64.02558037
 20
255.43708838
  0
VERTEX
  8
0
 10
64.19317702
 20
255.22693068
  0
VERTEX
  8
0
 10
64.32204700
 20
254.99554828
  0
VERTEX
  8
0
 10
64.40651040
 20
254.74839931
  0
VERTEX
  8
0
 10
64.44088729
 20
254.49094193
  0
VERTEX
  8
0
 10
64.41949773
 20
254.22863429
  0
VERTEX
  8
0
 10
64.38611556
 20
254.09736728
  0
VERTEX
  8
0
 10
64.33666180
 20
253.96693452
  0
VERTEX
  8
0
 10
64.27042648
 20
253.83801826
  0
VERTEX
  8
0
 10
64.18669958
 20
253.71130078
  0
VERTEX
  8
0
 10
63.44635750
 20
252.43213114
  0
VERTEX
  8
0
 10
62.69551951
 20
251.16588621
  0
VERTEX
  8
0
 10
61.93196487
 20
249.91417156
  0
VERTEX
  8
0
 10
61.15347288
 20
248.67859277
  0
VERTEX
  8
0
 10
60.35782280
 20
247.46075542
  0
VERTEX
  8
0
 10
59.54279392
 20
246.26226509
  0
VERTEX
  8
0
 10
58.70616551
 20
245.08472737
  0
VERTEX
  8
0
 10
57.84571686
 20
243.92974782
  0
VERTEX
  8
0
 10
56.95922724
 20
242.79893204
  0
VERTEX
  8
0
 10
56.04447593
 20
241.69388560
  0
VERTEX
  8
0
 10
55.09924220
 20
240.61621407
  0
VERTEX
  8
0
 10
54.12130534
 20
239.56752304
  0
VERTEX
  8
0
 10
53.10844463
 20
238.54941810
  0
VERTEX
  8
0
 10
52.05843934
 20
237.56350481
  0
VERTEX
  8
0
 10
50.96906875
 20
236.61138876
  0
VERTEX
  8
0
 10
49.83811214
 20
235.69467552
  0
VERTEX
  8
0
 10
48.66334879
 20
234.81497069
  0
VERTEX
  8
0
 10
47.44255798
 20
233.97387983
  0
VERTEX
  8
0
 10
46.81420829
 20
233.56831639
  0
VERTEX
  8
0
 10
46.17351898
 20
233.17300853
  0
VERTEX
  8
0
 10
45.52021243
 20
232.78815695
  0
VERTEX
  8
0
 10
44.85401107
 20
232.41396236
  0
VERTEX
  8
0
 10
44.17463730
 20
232.05062545
  0
VERTEX
  8
0
 10
43.48181353
 20
231.69834691
  0
VERTEX
  8
0
 10
42.77526218
 20
231.35732745
  0
VERTEX
  8
0
 10
42.05470564
 20
231.02776776
  0
VERTEX
  8
0
 10
41.31986634
 20
230.70986854
  0
VERTEX
  8
0
 10
40.57046668
 20
230.40383048
  0
VERTEX
  8
0
 10
39.80622908
 20
230.10985429
  0
VERTEX
  8
0
 10
39.02687593
 20
229.82814066
  0
VERTEX
  8
0
 10
38.23212966
 20
229.55889028
  0
VERTEX
  8
0
 10
37.42171266
 20
229.30230387
  0
VERTEX
  8
0
 10
36.59534736
 20
229.05858210
  0
VERTEX
  8
0
 10
35.75275616
 20
228.82792569
  0
VERTEX
  8
0
 10
34.89366146
 20
228.61053533
  0
VERTEX
  8
0
 10
34.01778569
 20
228.40661171
  0
VERTEX
  8
0
 10
33.12485125
 20
228.21635554
  0
VERTEX
  8
0
 10
32.21458055
 20
228.03996750
  0
VERTEX
  8
0
 10
31.28669599
 20
227.87764831
  0
VERTEX
  8
0
 10
30.34092000
 20
227.72959865
  0
VERTEX
  8
0
 10
29.37697497
 20
227.59601922
  0
VERTEX
  8
0
 10
28.39458333
 20
227.47711073
  0
VERTEX
  8
0
 10
27.39346747
 20
227.37307386
  0
VERTEX
  8
0
 10
26.37334981
 20
227.28410932
  0
VERTEX
  8
0
 10
25.33395276
 20
227.21041780
  0
VERTEX
  8
0
 10
24.27499872
 20
227.15220000
  0
VERTEX
  8
0
 10
23.51150698
 20
227.25826142
  0
VERTEX
  8
0
 10
22.77311099
 20
227.39700364
  0
VERTEX
  8
0
 10
22.06019226
 20
227.56732283
  0
VERTEX
  8
0
 10
21.37313228
 20
227.76811523
  0
VERTEX
  8
0
 10
20.71231256
 20
227.99827701
  0
VERTEX
  8
0
 10
20.07811459
 20
228.25670439
  0
VERTEX
  8
0
 10
19.47091989
 20
228.54229357
  0
VERTEX
  8
0
 10
18.89110994
 20
228.85394074
  0
VERTEX
  8
0
 10
18.33906625
 20
229.19054213
  0
VERTEX
  8
0
 10
17.81517031
 20
229.55099391
  0
VERTEX
  8
0
 10
17.31980364
 20
229.93419231
  0
VERTEX
  8
0
 10
16.85334773
 20
230.33903351
  0
VERTEX
  8
0
 10
16.41618408
 20
230.76441373
  0
VERTEX
  8
0
 10
16.00869419
 20
231.20922916
  0
VERTEX
  8
0
 10
15.63125957
 20
231.67237601
  0
VERTEX
  8
0
 10
15.28426170
 20
232.15275048
  0
VERTEX
  8
0
 10
14.96808211
 20
232.64924877
  0
VERTEX
  8
0
 10
14.68310227
 20
233.16076708
  0
VERTEX
  8
0
 10
14.42970370
 20
233.68620162
  0
VERTEX
  8
0
 10
14.20826790
 20
234.22444859
  0
VERTEX
  8
0
 10
14.01917636
 20
234.77440420
  0
VERTEX
  8
0
 10
13.86281058
 20
235.33496463
  0
VERTEX
  8
0
 10
13.73955208
 20
235.90502610
  0
VERTEX
  8
0
 10
13.64978234
 20
236.48348482
  0
VERTEX
  8
0
 10
13.59388287
 20
237.06923697
  0
VERTEX
  8
0
 10
13.57223518
 20
237.66117877
  0
VERTEX
  8
0
 10
13.58522075
 20
238.25820641
  0
VERTEX
  8
0
 10
13.63322109
 20
238.85921610
  0
VERTEX
  8
0
 10
13.71661770
 20
239.46310404
  0
VERTEX
  8
0
 10
13.83579208
 20
240.06876643
  0
VERTEX
  8
0
 10
13.99112574
 20
240.67509948
  0
VERTEX
  8
0
 10
14.18300017
 20
241.28099939
  0
VERTEX
  8
0
 10
14.58437235
 20
242.39986963
  0
VERTEX
  8
0
 10
15.00072977
 20
243.48973350
  0
VERTEX
  8
0
 10
15.43168354
 20
244.55096617
  0
VERTEX
  8
0
 10
15.87684474
 20
245.58394284
  0
VERTEX
  8
0
 10
16.33582450
 20
246.58903866
  0
VERTEX
  8
0
 10
16.80823392
 20
247.56662882
  0
VERTEX
  8
0
 10
17.29368411
 20
248.51708849
  0
VERTEX
  8
0
 10
17.79178617
 20
249.44079285
  0
VERTEX
  8
0
 10
18.30215121
 20
250.33811707
  0
VERTEX
  8
0
 10
18.82439033
 20
251.20943634
  0
VERTEX
  8
0
 10
19.35811466
 20
252.05512582
  0
VERTEX
  8
0
 10
19.90293528
 20
252.87556070
  0
VERTEX
  8
0
 10
20.45846330
 20
253.67111615
  0
VERTEX
  8
0
 10
21.02430985
 20
254.44216735
  0
VERTEX
  8
0
 10
21.60008601
 20
255.18908947
  0
VERTEX
  8
0
 10
22.18540290
 20
255.91225769
  0
VERTEX
  8
0
 10
22.77987162
 20
256.61204718
  0
VERTEX
  8
0
 10
23.38310329
 20
257.28883313
  0
VERTEX
  8
0
 10
23.99470900
 20
257.94299070
  0
VERTEX
  8
0
 10
24.61429987
 20
258.57489509
  0
VERTEX
  8
0
 10
25.24148700
 20
259.18492145
  0
VERTEX
  8
0
 10
25.87588149
 20
259.77344497
  0
VERTEX
  8
0
 10
26.51709446
 20
260.34084082
  0
VERTEX
  8
0
 10
27.16473702
 20
260.88748418
  0
VERTEX
  8
0
 10
27.81842026
 20
261.41375023
  0
VERTEX
  8
0
 10
28.47775529
 20
261.92001414
  0
VERTEX
  8
0
 10
29.14235323
 20
262.40665109
  0
VERTEX
  8
0
 10
29.81182517
 20
262.87403626
  0
VERTEX
  8
0
 10
30.48578223
 20
263.32254482
  0
VERTEX
  8
0
 10
31.16383552
 20
263.75255194
  0
VERTEX
  8
0
 10
31.84559613
 20
264.16443281
  0
VERTEX
  8
0
 10
32.53067517
 20
264.55856260
  0
VERTEX
  8
0
 10
33.21868376
 20
264.93531649
  0
VERTEX
  8
0
 10
33.90923300
 20
265.29506965
  0
VERTEX
  8
0
 10
34.60193399
 20
265.63819726
  0
VERTEX
  8
0
 10
35.29639785
 20
265.96507449
  0
VERTEX
  8
0
 10
36.68905857
 20
266.57157854
  0
VERTEX
  8
0
 10
38.08410403
 20
267.11758321
  0
VERTEX
  8
0
 10
39.47842307
 20
267.60608991
  0
VERTEX
  8
0
 10
40.86890454
 20
268.04010005
  0
VERTEX
  8
0
 10
42.25243731
 20
268.42261504
  0
VERTEX
  8
0
 10
43.62591023
 20
268.75663629
  0
VERTEX
  8
0
 10
44.98621215
 20
269.04516521
  0
VERTEX
  8
0
 10
46.33023192
 20
269.29120321
  0
VERTEX
  8
0
 10
47.65485840
 20
269.49775171
  0
VERTEX
  8
0
 10
48.95698044
 20
269.66781210
  0
VERTEX
  8
0
 10
50.23348690
 20
269.80438581
  0
VERTEX
  8
0
 10
51.48126662
 20
269.91047424
  0
VERTEX
  8
0
 10
52.69720848
 20
269.98907881
  0
VERTEX
  8
0
 10
53.87820131
 20
270.04320092
  0
SEQEND
  0
POLYLINE
  8
Nível Padrão
 66
   1
 39
0.000000
 70
    1
  0
VERTEX
  8
0
 10
44.12260106
 20
244.98139839
  0
VERTEX
  8
0
 10
43.72995747
 20
244.71306790
  0
VERTEX
  8
0
 10
43.35569007
 20
244.52349201
  0
VERTEX
  8
0
 10
43.17630913
 20
244.45655096
  0
VERTEX
  8
0
 10
43.00255627
 20
244.40727525
  0
VERTEX
  8
0
 10
42.83477616
 20
244.37499046
  0
VERTEX
  8
0
 10
42.67331349
 20
244.35902216
  0
VERTEX
  8
0
 10
42.51851293
 20
244.35869590
  0
VERTEX
  8
0
 10
42.37071916
 20
244.37333725
  0
VERTEX
  8
0
 10
42.23027685
 20
244.40227178
  0
VERTEX
  8
0
 10
42.09753068
 20
244.44482506
  0
VERTEX
  8
0
 10
41.85650548
 20
244.56809013
  0
VERTEX
  8
0
 10
41.65040098
 20
244.73773698
  0
VERTEX
  8
0
 10
41.48197459
 20
244.94837015
  0
VERTEX
  8
0
 10
41.35398373
 20
245.19459416
  0
VERTEX
  8
0
 10
41.26918582
 20
245.47101355
  0
VERTEX
  8
0
 10
41.23033828
 20
245.77223285
  0
VERTEX
  8
0
 10
41.24019852
 20
246.09285658
  0
VERTEX
  8
0
 10
41.30152398
 20
246.42748928
  0
VERTEX
  8
0
 10
41.41707205
 20
246.77073549
  0
VERTEX
  8
0
 10
41.58960017
 20
247.11719972
  0
VERTEX
  8
0
 10
42.40623663
 20
248.46867948
  0
VERTEX
  8
0
 10
43.23662891
 20
249.79785751
  0
VERTEX
  8
0
 10
44.08186658
 20
251.10354515
  0
VERTEX
  8
0
 10
44.94303924
 20
252.38455376
  0
VERTEX
  8
0
 10
45.82123647
 20
253.63969469
  0
VERTEX
  8
0
 10
46.71754785
 20
254.86777930
  0
VERTEX
  8
0
 10
47.63306298
 20
256.06761894
  0
VERTEX
  8
0
 10
48.56887144
 20
257.23802496
  0
VERTEX
  8
0
 10
49.52606282
 20
258.37780872
  0
VERTEX
  8
0
 10
50.50572670
 20
259.48578156
  0
VERTEX
  8
0
 10
51.50895267
 20
260.56075485
  0
VERTEX
  8
0
 10
52.53683032
 20
261.60153992
  0
VERTEX
  8
0
 10
53.59044923
 20
262.60694815
  0
VERTEX
  8
0
 10
54.67089899
 20
263.57579087
  0
VERTEX
  8
0
 10
55.77926919
 20
264.50687945
  0
VERTEX
  8
0
 10
56.91664941
 20
265.39902523
  0
VERTEX
  8
0
 10
58.08412924
 20
266.25103957
  0
VERTEX
  8
0
 10
59.28279826
 20
267.06173382
  0
VERTEX
  8
0
 10
60.51374607
 20
267.82991933
  0
VERTEX
  8
0
 10
61.77806225
 20
268.55440746
  0
VERTEX
  8
0
 10
63.07683639
 20
269.23400956
  0
VERTEX
  8
0
 10
64.41115807
 20
269.86753699
  0
VERTEX
  8
0
 10
65.78211687
 20
270.45380109
  0
VERTEX
  8
0
 10
67.19080240
 20
270.99161321
  0
VERTEX
  8
0
 10
67.90963317
 20
271.24197834
  0
VERTEX
  8
0
 10
68.63830422
 20
271.47978472
  0
VERTEX
  8
0
 10
69.37695175
 20
271.70488379
  0
VERTEX
  8
0
 10
70.12571194
 20
271.91712697
  0
VERTEX
  8
0
 10
70.88472100
 20
272.11636566
  0
VERTEX
  8
0
 10
71.65411513
 20
272.30245130
  0
VERTEX
  8
0
 10
72.43403052
 20
272.47523529
  0
VERTEX
  8
0
 10
73.22460338
 20
272.63456907
  0
VERTEX
  8
0
 10
74.02596990
 20
272.78030404
  0
VERTEX
  8
0
 10
74.83826628
 20
272.91229163
  0
VERTEX
  8
0
 10
75.66162872
 20
273.03038326
  0
VERTEX
  8
0
 10
76.49619342
 20
273.13443034
  0
VERTEX
  8
0
 10
77.34209657
 20
273.22428430
  0
VERTEX
  8
0
 10
78.19947438
 20
273.29979655
  0
VERTEX
  8
0
 10
79.06846304
 20
273.36081851
  0
VERTEX
  8
0
 10
79.94919875
 20
273.40720161
  0
VERTEX
  8
0
 10
80.51938179
 20
273.29932803
  0
VERTEX
  8
0
 10
81.07414292
 20
273.17603259
  0
VERTEX
  8
0
 10
81.61348216
 20
273.03731529
  0
VERTEX
  8
0
 10
82.13739950
 20
272.88317612
  0
VERTEX
  8
0
 10
82.64589495
 20
272.71361510
  0
VERTEX
  8
0
 10
83.13896850
 20
272.52863221
  0
VERTEX
  8
0
 10
83.61662016
 20
272.32822745
  0
VERTEX
  8
0
 10
84.07884992
 20
272.11240084
  0
VERTEX
  8
0
 10
84.52565780
 20
271.88115236
  0
VERTEX
  8
0
 10
84.95704378
 20
271.63448201
  0
VERTEX
  8
0
 10
85.37300788
 20
271.37238979
  0
VERTEX
  8
0
 10
85.77355009
 20
271.09487571
  0
VERTEX
  8
0
 10
86.15867042
 20
270.80193977
  0
VERTEX
  8
0
 10
86.52836886
 20
270.49358195
  0
VERTEX
  8
0
 10
86.88264541
 20
270.16980227
  0
VERTEX
  8
0
 10
87.22150009
 20
269.83060071
  0
VERTEX
  8
0
 10
87.54493289
 20
269.47597729
  0
VERTEX
  8
0
 10
87.85294380
 20
269.10593199
  0
VERTEX
  8
0
 10
88.14553284
 20
268.72046483
  0
VERTEX
  8
0
 10
88.42270000
 20
268.31957579
  0
VERTEX
  8
0
 10
88.68444529
 20
267.90326488
  0
VERTEX
  8
0
 10
88.93076870
 20
267.47153209
  0
VERTEX
  8
0
 10
89.16167024
 20
267.02437744
  0
VERTEX
  8
0
 10
89.37714991
 20
266.56180090
  0
VERTEX
  8
0
 10
89.57720771
 20
266.08380250
  0
VERTEX
  8
0
 10
89.76184364
 20
265.59038221
  0
VERTEX
  8
0
 10
89.93105771
 20
265.08154005
  0
VERTEX
  8
0
 10
90.08484990
 20
264.55727602
  0
VERTEX
  8
0
 10
90.22322024
 20
264.01759010
  0
VERTEX
  8
0
 10
90.34616870
 20
263.46248231
  0
VERTEX
  8
0
 10
90.45369531
 20
262.89195264
  0
VERTEX
  8
0
 10
90.54580006
 20
262.30600108
  0
VERTEX
  8
0
 10
90.50453540
 20
261.65684255
  0
VERTEX
  8
0
 10
90.43788850
 20
261.00465907
  0
VERTEX
  8
0
 10
90.34626277
 20
260.34982311
  0
VERTEX
  8
0
 10
90.23006161
 20
259.69270712
  0
VERTEX
  8
0
 10
90.08968844
 20
259.03368356
  0
VERTEX
  8
0
 10
89.92554665
 20
258.37312490
  0
VERTEX
  8
0
 10
89.73803965
 20
257.71140361
  0
VERTEX
  8
0
 10
89.52757086
 20
257.04889213
  0
VERTEX
  8
0
 10
89.29454367
 20
256.38596293
  0
VERTEX
  8
0
 10
89.03936150
 20
255.72298848
  0
VERTEX
  8
0
 10
88.76242774
 20
255.06034124
  0
VERTEX
  8
0
 10
88.46414582
 20
254.39839366
  0
VERTEX
  8
0
 10
88.14491912
 20
253.73751821
  0
VERTEX
  8
0
 10
87.80515107
 20
253.07808736
  0
VERTEX
  8
0
 10
87.44524506
 20
252.42047355
  0
VERTEX
  8
0
 10
87.06560450
 20
251.76504926
  0
VERTEX
  8
0
 10
86.66663281
 20
251.11218694
  0
VERTEX
  8
0
 10
86.24873338
 20
250.46225906
  0
VERTEX
  8
0
 10
85.81230962
 20
249.81563808
  0
VERTEX
  8
0
 10
85.35776494
 20
249.17269646
  0
VERTEX
  8
0
 10
84.88550275
 20
248.53380667
  0
VERTEX
  8
0
 10
84.39592645
 20
247.89934115
  0
VERTEX
  8
0
 10
83.88943945
 20
247.26967238
  0
VERTEX
  8
0
 10
83.36644516
 20
246.64517282
  0
VERTEX
  8
0
 10
82.82734698
 20
246.02621492
  0
VERTEX
  8
0
 10
82.27254831
 20
245.41317116
  0
VERTEX
  8
0
 10
81.70245257
 20
244.80641398
  0
VERTEX
  8
0
 10
81.11746317
 20
244.20631586
  0
VERTEX
  8
0
 10
80.51798350
 20
243.61324925
  0
VERTEX
  8
0
 10
79.90441698
 20
243.02758662
  0
VERTEX
  8
0
 10
78.63663699
 20
241.87996314
  0
VERTEX
  8
0
 10
77.31735047
 20
240.76642510
  0
VERTEX
  8
0
 10
75.94978465
 20
239.68995219
  0
VERTEX
  8
0
 10
74.53716681
 20
238.65352412
  0
VERTEX
  8
0
 10
73.08272417
 20
237.66012057
  0
VERTEX
  8
0
 10
72.34082708
 20
237.18048414
  0
VERTEX
  8
0
 10
71.58968401
 20
236.71272123
  0
VERTEX
  8
0
 10
70.82969837
 20
236.25720429
  0
VERTEX
  8
0
 10
70.06127357
 20
235.81430580
  0
VERTEX
  8
0
 10
69.28481301
 20
235.38439820
  0
VERTEX
  8
0
 10
68.50072011
 20
234.96785397
  0
VERTEX
  8
0
 10
67.70939826
 20
234.56504556
  0
VERTEX
  8
0
 10
66.91125087
 20
234.17634543
  0
VERTEX
  8
0
 10
66.10668135
 20
233.80212606
  0
VERTEX
  8
0
 10
65.29609311
 20
233.44275989
  0
VERTEX
  8
0
 10
64.47988955
 20
233.09861939
  0
VERTEX
  8
0
 10
63.65847409
 20
232.77007702
  0
VERTEX
  8
0
 10
62.83225011
 20
232.45750524
  0
VERTEX
  8
0
 10
62.00162105
 20
232.16127652
  0
VERTEX
  8
0
 10
61.16699029
 20
231.88176331
  0
VERTEX
  8
0
 10
60.32876125
 20
231.61933809
  0
VERTEX
  8
0
 10
59.48733733
 20
231.37437330
  0
VERTEX
  8
0
 10
58.64312193
 20
231.14724141
  0
VERTEX
  8
0
 10
57.79651848
 20
230.93831489
  0
VERTEX
  8
0
 10
56.94793037
 20
230.74796619
  0
VERTEX
  8
0
 10
56.09776100
 20
230.57656777
  0
VERTEX
  8
0
 10
55.24641380
 20
230.42449211
  0
VERTEX
  8
0
 10
54.39429215
 20
230.29211165
  0
VERTEX
  8
0
 10
53.54179947
 20
230.17979886
  0
VERTEX
  8
0
 10
53.22237567
 20
230.15405342
  0
VERTEX
  8
0
 10
52.90945530
 20
230.17699962
  0
VERTEX
  8
0
 10
52.60874028
 20
230.24444949
  0
VERTEX
  8
0
 10
52.32593251
 20
230.35221503
  0
VERTEX
  8
0
 10
52.06673390
 20
230.49610827
  0
VERTEX
  8
0
 10
51.83684636
 20
230.67194122
  0
VERTEX
  8
0
 10
51.64197181
 20
230.87552591
  0
VERTEX
  8
0
 10
51.48781216
 20
231.10267435
  0
VERTEX
  8
0
 10
51.38006931
 20
231.34919855
  0
VERTEX
  8
0
 10
51.32444517
 20
231.61091054
  0
VERTEX
  8
0
 10
51.31795947
 20
231.74615321
  0
VERTEX
  8
0
 10
51.32664166
 20
231.88362234
  0
VERTEX
  8
0
 10
51.35120449
 20
232.02279442
  0
VERTEX
  8
0
 10
51.39236069
 20
232.16314595
  0
VERTEX
  8
0
 10
51.45082300
 20
232.30415345
  0
VERTEX
  8
0
 10
51.52730416
 20
232.44529341
  0
VERTEX
  8
0
 10
51.62251691
 20
232.58604234
  0
VERTEX
  8
0
 10
51.73717399
 20
232.72587673
  0
VERTEX
  8
0
 10
51.87198814
 20
232.86427309
  0
VERTEX
  8
0
 10
52.02767209
 20
233.00070792
  0
VERTEX
  8
0
 10
52.20493858
 20
233.13465772
  0
VERTEX
  8
0
 10
52.40450036
 20
233.26559900
  0
VERTEX
  8
0
 10
54.32666613
 20
234.08975034
  0
VERTEX
  8
0
 10
55.33033249
 20
234.54473719
  0
VERTEX
  8
0
 10
56.35565821
 20
235.02711574
  0
VERTEX
  8
0
 10
57.39759608
 20
235.53597419
  0
VERTEX
  8
0
 10
58.45109889
 20
236.07040072
  0
VERTEX
  8
0
 10
59.51111943
 20
236.62948353
  0
VERTEX
  8
0
 10
60.57261048
 20
237.21231081
  0
VERTEX
  8
0
 10
61.63052483
 20
237.81797074
  0
VERTEX
  8
0
 10
62.67981528
 20
238.44555153
  0
VERTEX
  8
0
 10
63.71543461
 20
239.09414135
  0
VERTEX
  8
0
 10
64.73233560
 20
239.76282840
  0
VERTEX
  8
0
 10
65.72547106
 20
240.45070087
  0
VERTEX
  8
0
 10
66.68979375
 20
241.15684696
  0
VERTEX
  8
0
 10
67.62025648
 20
241.88035485
  0
VERTEX
  8
0
 10
68.51181202
 20
242.62031273
  0
VERTEX
  8
0
 10
69.35941318
 20
243.37580879
  0
VERTEX
  8
0
 10
70.15801273
 20
244.14593123
  0
VERTEX
  8
0
 10
70.90256346
 20
244.92976823
  0
VERTEX
  8
0
 10
71.58801817
 20
245.72640798
  0
VERTEX
  8
0
 10
71.90700726
 20
246.12924396
  0
VERTEX
  8
0
 10
72.20932964
 20
246.53493869
  0
VERTEX
  8
0
 10
72.49435440
 20
246.94337820
  0
VERTEX
  8
0
 10
72.76145065
 20
247.35444853
  0
VERTEX
  8
0
 10
73.00998749
 20
247.76803568
  0
VERTEX
  8
0
 10
73.23933401
 20
248.18402569
  0
VERTEX
  8
0
 10
73.44885930
 20
248.60230458
  0
VERTEX
  8
0
 10
73.63793248
 20
249.02275838
  0
VERTEX
  8
0
 10
73.80592264
 20
249.44527310
  0
VERTEX
  8
0
 10
73.95219887
 20
249.86973477
  0
VERTEX
  8
0
 10
74.07613028
 20
250.29602942
  0
VERTEX
  8
0
 10
74.17708596
 20
250.72404307
  0
VERTEX
  8
0
 10
74.25443501
 20
251.15366173
  0
VERTEX
  8
0
 10
74.30754654
 20
251.58477145
  0
VERTEX
  8
0
 10
74.33578963
 20
252.01725823
  0
VERTEX
  8
0
 10
74.33853339
 20
252.45100811
  0
VERTEX
  8
0
 10
74.31514692
 20
252.88590711
  0
VERTEX
  8
0
 10
74.26499931
 20
253.32184125
  0
VERTEX
  8
0
 10
74.18745966
 20
253.75869655
  0
VERTEX
  8
0
 10
74.08189708
 20
254.19635905
  0
VERTEX
  8
0
 10
73.94768066
 20
254.63471475
  0
VERTEX
  8
0
 10
73.78417949
 20
255.07364970
  0
VERTEX
  8
0
 10
73.59076269
 20
255.51304990
  0
VERTEX
  8
0
 10
73.36679933
 20
255.95280139
  0
VERTEX
  8
0
 10
77.87909875
 20
259.65679872
  0
VERTEX
  8
0
 10
76.29299928
 20
261.58880033
  0
VERTEX
  8
0
 10
72.04459881
 20
258.10140150
  0
VERTEX
  8
0
 10
71.59575028
 20
258.60300661
  0
VERTEX
  8
0
 10
71.10592809
 20
259.08044770
  0
VERTEX
  8
0
 10
70.57631084
 20
259.52817478
  0
VERTEX
  8
0
 10
70.00807713
 20
259.94063782
  0
VERTEX
  8
0
 10
69.40240556
 20
260.31228685
  0
VERTEX
  8
0
 10
69.08589890
 20
260.48107172
  0
VERTEX
  8
0
 10
68.76047474
 20
260.63757184
  0
VERTEX
  8
0
 10
68.42628041
 20
260.78109345
  0
VERTEX
  8
0
 10
68.08346325
 20
260.91094281
  0
VERTEX
  8
0
 10
67.73217057
 20
261.02642615
  0
VERTEX
  8
0
 10
67.37254970
 20
261.12684974
  0
VERTEX
  8
0
 10
67.00474797
 20
261.21151982
  0
VERTEX
  8
0
 10
66.62891270
 20
261.27974264
  0
VERTEX
  8
0
 10
66.24519121
 20
261.33082445
  0
VERTEX
  8
0
 10
65.85373083
 20
261.36407150
  0
VERTEX
  8
0
 10
65.45467889
 20
261.37879004
  0
VERTEX
  8
0
 10
65.04818271
 20
261.37428632
  0
VERTEX
  8
0
 10
64.63438961
 20
261.34986659
  0
VERTEX
  8
0
 10
64.21344692
 20
261.30483710
  0
VERTEX
  8
0
 10
63.78550197
 20
261.23850410
  0
VERTEX
  8
0
 10
63.35070207
 20
261.15017383
  0
VERTEX
  8
0
 10
62.90919456
 20
261.03915256
  0
VERTEX
  8
0
 10
62.46112676
 20
260.90474652
  0
VERTEX
  8
0
 10
62.00664600
 20
260.74626197
  0
VERTEX
  8
0
 10
61.54589960
 20
260.56300516
  0
VERTEX
  8
0
 10
61.07903488
 20
260.35428234
  0
VERTEX
  8
0
 10
60.60619917
 20
260.11939975
  0
VERTEX
  8
0
 10
59.40182072
 20
259.45793600
  0
VERTEX
  8
0
 10
58.22703726
 20
258.74756011
  0
VERTEX
  8
0
 10
57.08048283
 20
257.99062008
  0
VERTEX
  8
0
 10
55.96079146
 20
257.18946389
  0
VERTEX
  8
0
 10
54.86659718
 20
256.34643954
  0
VERTEX
  8
0
 10
53.79653401
 20
255.46389502
  0
VERTEX
  8
0
 10
52.74923601
 20
254.54417832
  0
VERTEX
  8
0
 10
51.72333718
 20
253.58963742
  0
VERTEX
  8
0
 10
50.71747158
 20
252.60262033
  0
VERTEX
  8
0
 10
49.73027322
 20
251.58547504
  0
VERTEX
  8
0
 10
48.76037614
 20
250.54054952
  0
VERTEX
  8
0
 10
47.80641437
 20
249.47019178
  0
VERTEX
  8
0
 10
46.86702195
 20
248.37674981
  0
VERTEX
  8
0
 10
45.94083290
 20
247.26257159
  0
VERTEX
  8
0
 10
45.02648126
 20
246.13000512
  0
VERTEX
  8
0
 10
44.12260106
 20
244.98139839
  0
SEQEND
  0
POLYLINE
  8
Nível Padrão
 66
   1
 39
0.000000
 70
    1
  0
VERTEX
  8
0
 10
105.17919867
 20
274.24819914
  0
VERTEX
  8
0
 10
104.52029104
 20
273.89697799
  0
VERTEX
  8
0
 10
103.89428690
 20
273.53551994
  0
VERTEX
  8
0
 10
103.30085828
 20
273.16392698
  0
VERTEX
  8
0
 10
102.73967721
 20
272.78230107
  0
VERTEX
  8
0
 10
102.21041575
 20
272.39074418
  0
VERTEX
  8
0
 10
101.71274592
 20
271.98935828
  0
VERTEX
  8
0
 10
101.24633978
 20
271.57824535
  0
VERTEX
  8
0
 10
100.81086935
 20
271.15750735
  0
VERTEX
  8
0
 10
100.40600668
 20
270.72724626
  0
VERTEX
  8
0
 10
100.03142382
 20
270.28756405
  0
VERTEX
  8
0
 10
99.68679279
 20
269.83856269
  0
VERTEX
  8
0
 10
99.37178564
 20
269.38034414
  0
VERTEX
  8
0
 10
99.08607441
 20
268.91301039
  0
VERTEX
  8
0
 10
98.82933115
 20
268.43666340
  0
VERTEX
  8
0
 10
98.60122788
 20
267.95140515
  0
VERTEX
  8
0
 10
98.40143665
 20
267.45733760
  0
VERTEX
  8
0
 10
98.22962950
 20
266.95456273
  0
VERTEX
  8
0
 10
98.08547847
 20
266.44318250
  0
VERTEX
  8
0
 10
97.96865561
 20
265.92329889
  0
VERTEX
  8
0
 10
97.87883294
 20
265.39501388
  0
VERTEX
  8
0
 10
97.81568251
 20
264.85842942
  0
VERTEX
  8
0
 10
97.77887636
 20
264.31364750
  0
VERTEX
  8
0
 10
97.76808654
 20
263.76077007
  0
VERTEX
  8
0
 10
97.78298507
 20
263.19989913
  0
VERTEX
  8
0
 10
97.82324400
 20
262.63113663
  0
VERTEX
  8
0
 10
97.88853538
 20
262.05458454
  0
VERTEX
  8
0
 10
97.97853123
 20
261.47034484
  0
VERTEX
  8
0
 10
98.09290361
 20
260.87851951
  0
VERTEX
  8
0
 10
98.23132454
 20
260.27921050
  0
VERTEX
  8
0
 10
98.39346608
 20
259.67251979
  0
VERTEX
  8
0
 10
98.57900025
 20
259.05854936
  0
VERTEX
  8
0
 10
98.78759911
 20
258.43740117
  0
VERTEX
  8
0
 10
99.22750473
 20
257.71579678
  0
VERTEX
  8
0
 10
99.70193163
 20
257.00615107
  0
VERTEX
  8
0
 10
100.21011712
 20
256.30893949
  0
VERTEX
  8
0
 10
100.75129852
 20
255.62463749
  0
VERTEX
  8
0
 10
101.32471312
 20
254.95372052
  0
VERTEX
  8
0
 10
101.92959825
 20
254.29666403
  0
VERTEX
  8
0
 10
102.56519122
 20
253.65394347
  0
VERTEX
  8
0
 10
103.23072933
 20
253.02603430
  0
VERTEX
  8
0
 10
103.92544991
 20
252.41341196
  0
VERTEX
  8
0
 10
104.64859026
 20
251.81655191
  0
VERTEX
  8
0
 10
105.39938770
 20
251.23592959
  0
VERTEX
  8
0
 10
106.17707954
 20
250.67202046
  0
VERTEX
  8
0
 10
106.98090308
 20
250.12529997
  0
VERTEX
  8
0
 10
107.81009565
 20
249.59624356
  0
VERTEX
  8
0
 10
108.66389455
 20
249.08532670
  0
VERTEX
  8
0
 10
109.54153710
 20
248.59302483
  0
VERTEX
  8
0
 10
110.44226061
 20
248.11981340
  0
VERTEX
  8
0
 10
111.36530238
 20
247.66616786
  0
VERTEX
  8
0
 10
112.30989974
 20
247.23256367
  0
VERTEX
  8
0
 10
113.27528999
 20
246.81947627
  0
VERTEX
  8
0
 10
114.26071045
 20
246.42738112
  0
VERTEX
  8
0
 10
115.26539843
 20
246.05675366
  0
VERTEX
  8
0
 10
116.28859124
 20
245.70806936
  0
VERTEX
  8
0
 10
117.32952619
 20
245.38180365
  0
VERTEX
  8
0
 10
118.38744059
 20
245.07843199
  0
VERTEX
  8
0
 10
119.46157176
 20
244.79842983
  0
VERTEX
  8
0
 10
120.55115701
 20
244.54227262
  0
VERTEX
  8
0
 10
121.65543365
 20
244.31043582
  0
VERTEX
  8
0
 10
122.77363899
 20
244.10339486
  0
VERTEX
  8
0
 10
123.90501035
 20
243.92162522
  0
VERTEX
  8
0
 10
125.04878504
 20
243.76560232
  0
VERTEX
  8
0
 10
126.20420036
 20
243.63580164
  0
VERTEX
  8
0
 10
126.76971660
 20
243.58849755
  0
VERTEX
  8
0
 10
127.33578934
 20
243.55880790
  0
VERTEX
  8
0
 10
128.46937407
 20
243.54498286
  0
VERTEX
  8
0
 10
129.60449396
 20
243.57974838
  0
VERTEX
  8
0
 10
130.74068843
 20
243.64852633
  0
VERTEX
  8
0
 10
133.01445878
 20
243.82980704
  0
VERTEX
  8
0
 10
134.15111350
 20
243.91315353
  0
VERTEX
  8
0
 10
135.28700047
 20
243.97219994
  0
VERTEX
  8
0
 10
135.49955537
 20
244.00615760
  0
VERTEX
  8
0
 10
135.69846937
 20
244.05345803
  0
VERTEX
  8
0
 10
135.88376916
 20
244.11315826
  0
VERTEX
  8
0
 10
136.05548142
 20
244.18431536
  0
VERTEX
  8
0
 10
136.21363282
 20
244.26598635
  0
VERTEX
  8
0
 10
136.35825005
 20
244.35722829
  0
VERTEX
  8
0
 10
136.60698870
 20
244.56465318
  0
VERTEX
  8
0
 10
136.80191078
 20
244.79904639
  0
VERTEX
  8
0
 10
136.94322973
 20
245.05286428
  0
VERTEX
  8
0
 10
137.03115898
 20
245.31856319
  0
VERTEX
  8
0
 10
137.06591196
 20
245.58859950
  0
VERTEX
  8
0
 10
137.04770209
 20
245.85542955
  0
VERTEX
  8
0
 10
136.97674281
 20
246.11150971
  0
VERTEX
  8
0
 10
136.85324754
 20
246.34929632
  0
VERTEX
  8
0
 10
136.67742971
 20
246.56124576
  0
VERTEX
  8
0
 10
136.56996653
 20
246.65517414
  0
VERTEX
  8
0
 10
136.44950275
 20
246.73981436
  0
VERTEX
  8
0
 10
136.31606505
 20
246.81422347
  0
VERTEX
  8
0
 10
136.16968009
 20
246.87745850
  0
VERTEX
  8
0
 10
136.01037457
 20
246.92857651
  0
VERTEX
  8
0
 10
135.83817516
 20
246.96663453
  0
VERTEX
  8
0
 10
135.65310854
 20
246.99068962
  0
VERTEX
  8
0
 10
135.45520139
 20
246.99979881
  0
VERTEX
  8
0
 10
134.46395293
 20
247.02963310
  0
VERTEX
  8
0
 10
133.46439021
 20
247.09065574
  0
VERTEX
  8
0
 10
132.45628016
 20
247.18374111
  0
VERTEX
  8
0
 10
131.43938973
 20
247.30976358
  0
VERTEX
  8
0
 10
130.41348586
 20
247.46959753
  0
VERTEX
  8
0
 10
129.37833548
 20
247.66411733
  0
VERTEX
  8
0
 10
128.33370553
 20
247.89419735
  0
VERTEX
  8
0
 10
127.27936296
 20
248.16071198
  0
VERTEX
  8
0
 10
126.21507470
 20
248.46453559
  0
VERTEX
  8
0
 10
125.14060769
 20
248.80654255
  0
VERTEX
  8
0
 10
124.05572887
 20
249.18760724
  0
VERTEX
  8
0
 10
122.96020519
 20
249.60860403
  0
VERTEX
  8
0
 10
121.85380357
 20
250.07040731
  0
VERTEX
  8
0
 10
120.73629096
 20
250.57389144
  0
VERTEX
  8
0
 10
119.60743430
 20
251.11993081
  0
VERTEX
  8
0
 10
118.46700053
 20
251.70939978
  0
VERTEX
  8
0
 10
117.99666113
 20
252.10735076
  0
VERTEX
  8
0
 10
117.57410636
 20
252.52457716
  0
VERTEX
  8
0
 10
117.19736760
 20
252.95972709
  0
VERTEX
  8
0
 10
116.86447622
 20
253.41144865
  0
VERTEX
  8
0
 10
116.57346361
 20
253.87838993
  0
VERTEX
  8
0
 10
116.32236114
 20
254.35919903
  0
VERTEX
  8
0
 10
116.10920020
 20
254.85252405
  0
VERTEX
  8
0
 10
115.93201218
 20
255.35701308
  0
VERTEX
  8
0
 10
115.78882844
 20
255.87131423
  0
VERTEX
  8
0
 10
115.67768038
 20
256.39407559
  0
VERTEX
  8
0
 10
115.59659937
 20
256.92394526
  0
VERTEX
  8
0
 10
115.54361680
 20
257.45957134
  0
VERTEX
  8
0
 10
115.51676404
 20
257.99960192
  0
VERTEX
  8
0
 10
115.51407248
 20
258.54268511
  0
VERTEX
  8
0
 10
115.53357350
 20
259.08746900
  0
VERTEX
  8
0
 10
115.57329847
 20
259.63260169
  0
VERTEX
  8
0
 10
110.64419917
 20
261.24659883
  0
VERTEX
  8
0
 10
111.42220117
 20
263.62239842
  0
VERTEX
  8
0
 10
116.32399900
 20
262.01729833
  0
VERTEX
  8
0
 10
116.97232871
 20
263.09835608
  0
VERTEX
  8
0
 10
117.31170646
 20
263.63010059
  0
VERTEX
  8
0
 10
117.66637908
 20
264.14730077
  0
VERTEX
  8
0
 10
118.04021125
 20
264.64344058
  0
VERTEX
  8
0
 10
118.43706766
 20
265.11200395
  0
VERTEX
  8
0
 10
118.86081302
 20
265.54647483
  0
VERTEX
  8
0
 10
119.31531202
 20
265.94033715
  0
VERTEX
  8
0
 10
119.55530185
 20
266.12000384
  0
VERTEX
  8
0
 10
119.80442935
 20
266.28707487
  0
VERTEX
  8
0
 10
120.06317760
 20
266.44073574
  0
VERTEX
  8
0
 10
120.33202970
 20
266.58017193
  0
VERTEX
  8
0
 10
120.61146873
 20
266.70456894
  0
VERTEX
  8
0
 10
120.90197778
 20
266.81311227
  0
VERTEX
  8
0
 10
121.20403993
 20
266.90498740
  0
VERTEX
  8
0
 10
121.51813827
 20
266.97937983
  0
VERTEX
  8
0
 10
121.84475588
 20
267.03547505
  0
VERTEX
  8
0
 10
122.18437586
 20
267.07245855
  0
VERTEX
  8
0
 10
122.53748129
 20
267.08951583
  0
VERTEX
  8
0
 10
122.90455526
 20
267.08583238
  0
VERTEX
  8
0
 10
123.28608086
 20
267.06059369
  0
VERTEX
  8
0
 10
123.68254116
 20
267.01298526
  0
VERTEX
  8
0
 10
124.09441926
 20
266.94219258
  0
VERTEX
  8
0
 10
124.52219825
 20
266.84740114
  0
VERTEX
  8
0
 10
125.58026109
 20
266.65550882
  0
VERTEX
  8
0
 10
126.62339887
 20
266.43874416
  0
VERTEX
  8
0
 10
127.65161160
 20
266.19710672
  0
VERTEX
  8
0
 10
128.66489928
 20
265.93059608
  0
VERTEX
  8
0
 10
129.66326192
 20
265.63921178
  0
VERTEX
  8
0
 10
130.64669952
 20
265.32295341
  0
VERTEX
  8
0
 10
131.61521209
 20
264.98182053
  0
VERTEX
  8
0
 10
132.56879963
 20
264.61581270
  0
VERTEX
  8
0
 10
133.50746215
 20
264.22492949
  0
VERTEX
  8
0
 10
134.43119965
 20
263.80917047
  0
VERTEX
  8
0
 10
135.34001214
 20
263.36853519
  0
VERTEX
  8
0
 10
136.23389963
 20
262.90302323
  0
VERTEX
  8
0
 10
137.11286211
 20
262.41263416
  0
VERTEX
  8
0
 10
137.97689960
 20
261.89736753
  0
VERTEX
  8
0
 10
138.82601210
 20
261.35722292
  0
VERTEX
  8
0
 10
139.66019961
 20
260.79219989
  0
VERTEX
  8
0
 10
139.82044715
 20
260.71660195
  0
VERTEX
  8
0
 10
139.98238161
 20
260.65800327
  0
VERTEX
  8
0
 10
140.14524128
 20
260.61576816
  0
VERTEX
  8
0
 10
140.30826447
 20
260.58926091
  0
VERTEX
  8
0
 10
140.63175460
 20
260.58088715
  0
VERTEX
  8
0
 10
140.94675839
 20
260.62779635
  0
VERTEX
  8
0
 10
141.24718227
 20
260.72490286
  0
VERTEX
  8
0
 10
141.52693261
 20
260.86712102
  0
VERTEX
  8
0
 10
141.77991584
 20
261.04936520
  0
VERTEX
  8
0
 10
142.00003835
 20
261.26654974
  0
VERTEX
  8
0
 10
142.18120655
 20
261.51358900
  0
VERTEX
  8
0
 10
142.31732683
 20
261.78539732
  0
VERTEX
  8
0
 10
142.40230560
 20
262.07688906
  0
VERTEX
  8
0
 10
142.42371268
 20
262.22842695
  0
VERTEX
  8
0
 10
142.43004927
 20
262.38297857
  0
VERTEX
  8
0
 10
142.42055369
 20
262.53990823
  0
VERTEX
  8
0
 10
142.39446424
 20
262.69858021
  0
VERTEX
  8
0
 10
142.35101921
 20
262.85835880
  0
VERTEX
  8
0
 10
142.28945690
 20
263.01860832
  0
VERTEX
  8
0
 10
142.20901562
 20
263.17869303
  0
VERTEX
  8
0
 10
142.10893367
 20
263.33797725
  0
VERTEX
  8
0
 10
141.98844934
 20
263.49582526
  0
VERTEX
  8
0
 10
141.84680094
 20
263.65160136
  0
VERTEX
  8
0
 10
140.86466679
 20
264.47075808
  0
VERTEX
  8
0
 10
139.85833623
 20
265.26633858
  0
VERTEX
  8
0
 10
138.82917258
 20
266.03755203
  0
VERTEX
  8
0
 10
137.77853918
 20
266.78360757
  0
VERTEX
  8
0
 10
136.70779935
 20
267.50371435
  0
VERTEX
  8
0
 10
135.61831643
 20
268.19708151
  0
VERTEX
  8
0
 10
134.51145373
 20
268.86291822
  0
VERTEX
  8
0
 10
133.38857460
 20
269.50043362
  0
VERTEX
  8
0
 10
132.25104235
 20
270.10883686
  0
VERTEX
  8
0
 10
131.10022032
 20
270.68733708
  0
VERTEX
  8
0
 10
129.93747184
 20
271.23514344
  0
VERTEX
  8
0
 10
128.76416024
 20
271.75146509
  0
VERTEX
  8
0
 10
127.58164884
 20
272.23551118
  0
VERTEX
  8
0
 10
126.39130097
 20
272.68649086
  0
VERTEX
  8
0
 10
125.19447997
 20
273.10361327
  0
VERTEX
  8
0
 10
123.99254916
 20
273.48608757
  0
VERTEX
  8
0
 10
122.78687187
 20
273.83312291
  0
VERTEX
  8
0
 10
121.57881143
 20
274.14392843
  0
VERTEX
  8
0
 10
120.36973117
 20
274.41771329
  0
VERTEX
  8
0
 10
119.16099441
 20
274.65368664
  0
VERTEX
  8
0
 10
117.95396449
 20
274.85105762
  0
VERTEX
  8
0
 10
116.75000474
 20
275.00903538
  0
VERTEX
  8
0
 10
115.55047848
 20
275.12682908
  0
VERTEX
  8
0
 10
114.35674905
 20
275.20364787
  0
VERTEX
  8
0
 10
113.17017976
 20
275.23870088
  0
VERTEX
  8
0
 10
111.99213396
 20
275.23119729
  0
VERTEX
  8
0
 10
110.82397497
 20
275.18034622
  0
VERTEX
  8
0
 10
109.66706611
 20
275.08535684
  0
VERTEX
  8
0
 10
108.52277073
 20
274.94543829
  0
VERTEX
  8
0
 10
107.39245214
 20
274.75979972
  0
VERTEX
  8
0
 10
106.27747368
 20
274.52765029
  0
VERTEX
  8
0
 10
105.17919867
 20
274.24819914
  0
SEQEND
  0
POLYLINE
  8
Nível Padrão
 66
   1
 39
0.000000
 70
    1
  0
VERTEX
  8
0
 10
155.13459928
 20
266.67920022
  0
VERTEX
  8
0
 10
155.40504732
 20
267.48934321
  0
VERTEX
  8
0
 10
155.55284313
 20
267.86663389
  0
VERTEX
  8
0
 10
155.70913400
 20
268.22515211
  0
VERTEX
  8
0
 10
155.87400533
 20
268.56470895
  0
VERTEX
  8
0
 10
156.04754252
 20
268.88511548
  0
VERTEX
  8
0
 10
156.22983098
 20
269.18618278
  0
VERTEX
  8
0
 10
156.42095610
 20
269.46772191
  0
VERTEX
  8
0
 10
156.62100328
 20
269.72954396
  0
VERTEX
  8
0
 10
156.83005793
 20
269.97145998
  0
VERTEX
  8
0
 10
157.04820545
 20
270.19328106
  0
VERTEX
  8
0
 10
157.27553123
 20
270.39481826
  0
VERTEX
  8
0
 10
157.51212069
 20
270.57588266
  0
VERTEX
  8
0
 10
157.75805922
 20
270.73628534
  0
VERTEX
  8
0
 10
158.01343221
 20
270.87583735
  0
VERTEX
  8
0
 10
158.27832509
 20
270.99434978
  0
VERTEX
  8
0
 10
158.55282323
 20
271.09163369
  0
VERTEX
  8
0
 10
158.83701205
 20
271.16750017
  0
VERTEX
  8
0
 10
159.13097695
 20
271.22176027
  0
VERTEX
  8
0
 10
159.43480333
 20
271.25422508
  0
VERTEX
  8
0
 10
159.74857658
 20
271.26470567
  0
VERTEX
  8
0
 10
160.07238211
 20
271.25301311
  0
VERTEX
  8
0
 10
160.40630533
 20
271.21895846
  0
VERTEX
  8
0
 10
160.75043163
 20
271.16235281
  0
VERTEX
  8
0
 10
161.10484641
 20
271.08300722
  0
VERTEX
  8
0
 10
161.46963507
 20
270.98073277
  0
VERTEX
  8
0
 10
161.84488302
 20
270.85534053
  0
VERTEX
  8
0
 10
162.23067565
 20
270.70664157
  0
VERTEX
  8
0
 10
162.62709838
 20
270.53444697
  0
VERTEX
  8
0
 10
163.03423659
 20
270.33856779
  0
VERTEX
  8
0
 10
163.45217569
 20
270.11881511
  0
VERTEX
  8
0
 10
163.88100108
 20
269.87500000
  0
VERTEX
  8
0
 10
165.20827544
 20
267.03615048
  0
VERTEX
  8
0
 10
166.57830117
 20
264.12320175
  0
VERTEX
  8
0
 10
159.42650078
 20
260.49280092
  0
VERTEX
  8
0
 10
159.33960103
 20
260.45580158
  0
VERTEX
  8
0
 10
159.34310058
 20
260.45049933
  0
VERTEX
  8
0
 10
159.27440064
 20
260.41559903
  0
VERTEX
  8
0
 10
160.40629872
 20
258.18679842
  0
VERTEX
  8
0
 10
167.82329981
 20
261.95169931
  0
VERTEX
  8
0
 10
167.99289514
 20
261.58882232
  0
VERTEX
  8
0
 10
168.13395161
 20
261.21031242
  0
VERTEX
  8
0
 10
168.24601321
 20
260.81991492
  0
VERTEX
  8
0
 10
168.32862393
 20
260.42137516
  0
VERTEX
  8
0
 10
168.38132779
 20
260.01843845
  0
VERTEX
  8
0
 10
168.40366878
 20
259.61485013
  0
VERTEX
  8
0
 10
168.39519091
 20
259.21435552
  0
VERTEX
  8
0
 10
168.35543818
 20
258.82069995
  0
VERTEX
  8
0
 10
168.28395459
 20
258.43762875
  0
VERTEX
  8
0
 10
168.18028415
 20
258.06888725
  0
VERTEX
  8
0
 10
168.04397085
 20
257.71822076
  0
VERTEX
  8
0
 10
167.87455869
 20
257.38937462
  0
VERTEX
  8
0
 10
167.67159169
 20
257.08609416
  0
VERTEX
  8
0
 10
167.43461383
 20
256.81212470
  0
VERTEX
  8
0
 10
167.16316913
 20
256.57121156
  0
VERTEX
  8
0
 10
166.85680158
 20
256.36710008
  0
VERTEX
  8
0
 10
165.98497917
 20
255.77773160
  0
VERTEX
  8
0
 10
165.11448584
 20
255.22551287
  0
VERTEX
  8
0
 10
164.24513190
 20
254.70513661
  0
VERTEX
  8
0
 10
163.37672763
 20
254.21129553
  0
VERTEX
  8
0
 10
162.50908334
 20
253.73868238
  0
VERTEX
  8
0
 10
161.64200931
 20
253.28198985
  0
VERTEX
  8
0
 10
159.90881326
 20
252.39513760
  0
VERTEX
  8
0
 10
158.17562184
 20
251.50828055
  0
VERTEX
  8
0
 10
157.30855361
 20
251.05158204
  0
VERTEX
  8
0
 10
156.44091742
 20
250.57896049
  0
VERTEX
  8
0
 10
155.57252357
 20
250.08510862
  0
VERTEX
  8
0
 10
154.70318236
 20
249.56471917
  0
VERTEX
  8
0
 10
153.83270408
 20
249.01248485
  0
VERTEX
  8
0
 10
152.96089903
 20
248.42309839
  0
VERTEX
  8
0
 10
152.39633376
 20
248.07394621
  0
VERTEX
  8
0
 10
151.87206204
 20
247.71733893
  0
VERTEX
  8
0
 10
151.38654623
 20
247.35179573
  0
VERTEX
  8
0
 10
150.93824869
 20
246.97583582
  0
VERTEX
  8
0
 10
150.52563175
 20
246.58797839
  0
VERTEX
  8
0
 10
150.14715778
 20
246.18674261
  0
VERTEX
  8
0
 10
149.80128913
 20
245.77064770
  0
VERTEX
  8
0
 10
149.48648815
 20
245.33821283
  0
VERTEX
  8
0
 10
149.20121719
 20
244.88795719
  0
VERTEX
  8
0
 10
148.94393860
 20
244.41839999
  0
VERTEX
  8
0
 10
148.71311474
 20
243.92806040
  0
VERTEX
  8
0
 10
148.50720796
 20
243.41545763
  0
VERTEX
  8
0
 10
148.32468061
 20
242.87911086
  0
VERTEX
  8
0
 10
148.16399504
 20
242.31753928
  0
VERTEX
  8
0
 10
148.02361361
 20
241.72926209
  0
VERTEX
  8
0
 10
147.90199867
 20
241.11279847
  0
VERTEX
  8
0
 10
143.69700044
 20
224.46099944
  0
VERTEX
  8
0
 10
143.56022241
 20
223.50616480
  0
VERTEX
  8
0
 10
143.38878498
 20
222.61551904
  0
VERTEX
  8
0
 10
143.18170846
 20
221.79087448
  0
VERTEX
  8
0
 10
142.93801317
 20
221.03404341
  0
VERTEX
  8
0
 10
142.80212733
 20
220.68162427
  0
VERTEX
  8
0
 10
142.65671943
 20
220.34683812
  0
VERTEX
  8
0
 10
142.50166699
 20
220.02991149
  0
VERTEX
  8
0
 10
142.33684756
 20
219.73107091
  0
VERTEX
  8
0
 10
142.16213868
 20
219.45054294
  0
VERTEX
  8
0
 10
141.97741788
 20
219.18855409
  0
VERTEX
  8
0
 10
141.78256271
 20
218.94533092
  0
VERTEX
  8
0
 10
141.57745070
 20
218.72109995
  0
VERTEX
  8
0
 10
141.36195940
 20
218.51608772
  0
VERTEX
  8
0
 10
141.13596635
 20
218.33052078
  0
VERTEX
  8
0
 10
140.89934908
 20
218.16462566
  0
VERTEX
  8
0
 10
140.65198514
 20
218.01862889
  0
VERTEX
  8
0
 10
140.39375206
 20
217.89275701
  0
VERTEX
  8
0
 10
140.12452739
 20
217.78723657
  0
VERTEX
  8
0
 10
139.84418866
 20
217.70229409
  0
VERTEX
  8
0
 10
139.55261341
 20
217.63815612
  0
VERTEX
  8
0
 10
139.24967919
 20
217.59504919
  0
VERTEX
  8
0
 10
138.93526354
 20
217.57319984
  0
VERTEX
  8
0
 10
138.60924398
 20
217.57283460
  0
VERTEX
  8
0
 10
138.27149807
 20
217.59418002
  0
VERTEX
  8
0
 10
137.92190335
 20
217.63746263
  0
VERTEX
  8
0
 10
137.56033735
 20
217.70290897
  0
VERTEX
  8
0
 10
137.18667760
 20
217.79074557
  0
VERTEX
  8
0
 10
136.80080167
 20
217.90119897
  0
VERTEX
  8
0
 10
127.73871821
 20
224.64156561
  0
VERTEX
  8
0
 10
123.24241512
 20
227.94973198
  0
VERTEX
  8
0
 10
118.73808820
 20
231.21785056
  0
VERTEX
  8
0
 10
114.20235028
 20
234.44689399
  0
VERTEX
  8
0
 10
111.91539371
 20
236.04706646
  0
VERTEX
  8
0
 10
109.61181418
 20
237.63783489
  0
VERTEX
  8
0
 10
107.28868832
 20
239.21932084
  0
VERTEX
  8
0
 10
104.94309271
 20
240.79164591
  0
VERTEX
  8
0
 10
102.57210397
 20
242.35493165
  0
VERTEX
  8
0
 10
100.17279869
 20
243.90929967
  0
VERTEX
  8
0
 10
99.85037394
 20
244.14189132
  0
VERTEX
  8
0
 10
99.50401642
 20
244.35044539
  0
VERTEX
  8
0
 10
99.13658244
 20
244.53508143
  0
VERTEX
  8
0
 10
98.75092830
 20
244.69591898
  0
VERTEX
  8
0
 10
98.34991031
 20
244.83307758
  0
VERTEX
  8
0
 10
97.93638475
 20
244.94667678
  0
VERTEX
  8
0
 10
97.51320794
 20
245.03683612
  0
VERTEX
  8
0
 10
97.08323618
 20
245.10367514
  0
VERTEX
  8
0
 10
96.64932576
 20
245.14731338
  0
VERTEX
  8
0
 10
96.21433299
 20
245.16787039
  0
VERTEX
  8
0
 10
95.78111417
 20
245.16546571
  0
VERTEX
  8
0
 10
95.35252560
 20
245.14021889
  0
VERTEX
  8
0
 10
94.93142358
 20
245.09224946
  0
VERTEX
  8
0
 10
94.52066441
 20
245.02167698
  0
VERTEX
  8
0
 10
94.12310440
 20
244.92862098
  0
VERTEX
  8
0
 10
93.74159983
 20
244.81320100
  0
VERTEX
  8
0
 10
92.98813198
 20
244.40745994
  0
VERTEX
  8
0
 10
92.30906756
 20
244.02584896
  0
VERTEX
  8
0
 10
91.07493806
 20
243.30283763
  0
VERTEX
  8
0
 10
89.84078938
 20
242.57980777
  0
VERTEX
  8
0
 10
89.16170098
 20
242.19817364
  0
VERTEX
  8
0
 10
88.40819956
 20
241.79240017
  0
VERTEX
  8
0
 10
88.00406186
 20
241.66229402
  0
VERTEX
  8
0
 10
87.81577277
 20
241.62382784
  0
VERTEX
  8
0
 10
87.63689393
 20
241.60190642
  0
VERTEX
  8
0
 10
87.46759311
 20
241.59564484
  0
VERTEX
  8
0
 10
87.30803813
 20
241.60415821
  0
VERTEX
  8
0
 10
87.15839679
 20
241.62656164
  0
VERTEX
  8
0
 10
87.01883686
 20
241.66197023
  0
VERTEX
  8
0
 10
86.77063249
 20
241.76826332
  0
VERTEX
  8
0
 10
86.56476739
 20
241.91595833
  0
VERTEX
  8
0
 10
86.40258395
 20
242.09797609
  0
VERTEX
  8
0
 10
86.28542454
 20
242.30723744
  0
VERTEX
  8
0
 10
86.21463154
 20
242.53666323
  0
VERTEX
  8
0
 10
86.19154733
 20
242.77917428
  0
VERTEX
  8
0
 10
86.21751428
 20
243.02769146
  0
VERTEX
  8
0
 10
86.29387478
 20
243.27513558
  0
VERTEX
  8
0
 10
86.42197120
 20
243.51442751
  0
VERTEX
  8
0
 10
86.60314592
 20
243.73848806
  0
VERTEX
  8
0
 10
86.83874132
 20
243.94023810
  0
VERTEX
  8
0
 10
87.13009978
 20
244.11259844
  0
VERTEX
  8
0
 10
94.41439997
 20
248.51360000
  0
VERTEX
  8
0
 10
94.80013282
 20
248.63035475
  0
VERTEX
  8
0
 10
95.18170032
 20
248.72838228
  0
VERTEX
  8
0
 10
95.55918625
 20
248.80805935
  0
VERTEX
  8
0
 10
95.93267439
 20
248.86976274
  0
VERTEX
  8
0
 10
96.30224851
 20
248.91386920
  0
VERTEX
  8
0
 10
96.66799240
 20
248.94075551
  0
VERTEX
  8
0
 10
97.02998983
 20
248.95079843
  0
VERTEX
  8
0
 10
97.38832458
 20
248.94437474
  0
VERTEX
  8
0
 10
97.74308042
 20
248.92186120
  0
VERTEX
  8
0
 10
98.09434114
 20
248.88363457
  0
VERTEX
  8
0
 10
98.44219051
 20
248.83007163
  0
VERTEX
  8
0
 10
98.78671232
 20
248.76154914
  0
VERTEX
  8
0
 10
99.46610832
 20
248.58113260
  0
VERTEX
  8
0
 10
100.13319939
 20
248.34539908
  0
VERTEX
  8
0
 10
135.45520139
 20
225.63839881
  0
VERTEX
  8
0
 10
137.81000011
 20
226.31119894
  0
VERTEX
  8
0
 10
142.18319925
 20
249.18640014
  0
VERTEX
  8
0
 10
142.26611923
 20
249.72154265
  0
VERTEX
  8
0
 10
142.36369754
 20
250.24657651
  0
VERTEX
  8
0
 10
142.47593416
 20
250.76150167
  0
VERTEX
  8
0
 10
142.60282904
 20
251.26631808
  0
VERTEX
  8
0
 10
142.74438215
 20
251.76102567
  0
VERTEX
  8
0
 10
142.90059346
 20
252.24562439
  0
VERTEX
  8
0
 10
143.07146293
 20
252.72011419
  0
VERTEX
  8
0
 10
143.25699053
 20
253.18449502
  0
VERTEX
  8
0
 10
143.45717623
 20
253.63876682
  0
VERTEX
  8
0
 10
143.67201998
 20
254.08292952
  0
VERTEX
  8
0
 10
143.90152175
 20
254.51698309
  0
VERTEX
  8
0
 10
144.14568151
 20
254.94092746
  0
VERTEX
  8
0
 10
144.40449922
 20
255.35476258
  0
VERTEX
  8
0
 10
144.67797485
 20
255.75848840
  0
VERTEX
  8
0
 10
144.96610837
 20
256.15210485
  0
VERTEX
  8
0
 10
145.26889973
 20
256.53561189
  0
VERTEX
  8
0
 10
145.58634890
 20
256.90900945
  0
VERTEX
  8
0
 10
145.91845586
 20
257.27229749
  0
VERTEX
  8
0
 10
146.26522056
 20
257.62547595
  0
VERTEX
  8
0
 10
146.62664296
 20
257.96854478
  0
VERTEX
  8
0
 10
147.00272304
 20
258.30150391
  0
VERTEX
  8
0
 10
147.39346076
 20
258.62435330
  0
VERTEX
  8
0
 10
147.79885608
 20
258.93709289
  0
VERTEX
  8
0
 10
148.21890898
 20
259.23972262
  0
VERTEX
  8
0
 10
148.65361940
 20
259.53224244
  0
VERTEX
  8
0
 10
149.10298733
 20
259.81465230
  0
VERTEX
  8
0
 10
149.56701272
 20
260.08695214
  0
VERTEX
  8
0
 10
150.04569554
 20
260.34914190
  0
VERTEX
  8
0
 10
150.53903575
 20
260.60122154
  0
VERTEX
  8
0
 10
151.04703333
 20
260.84319099
  0
VERTEX
  8
0
 10
151.56968823
 20
261.07505020
  0
VERTEX
  8
0
 10
152.10700042
 20
261.29679911
  0
VERTEX
  8
0
 10
152.92419478
 20
261.80799774
  0
VERTEX
  8
0
 10
153.30928071
 20
262.07225834
  0
VERTEX
  8
0
 10
153.67387256
 20
262.34406812
  0
VERTEX
  8
0
 10
154.01435539
 20
262.62475836
  0
VERTEX
  8
0
 10
154.32711427
 20
262.91566030
  0
VERTEX
  8
0
 10
154.60853425
 20
263.21810520
  0
VERTEX
  8
0
 10
154.85500040
 20
263.53342433
  0
VERTEX
  8
0
 10
155.06289778
 20
263.86294894
  0
VERTEX
  8
0
 10
155.22861146
 20
264.20801029
  0
VERTEX
  8
0
 10
155.34852650
 20
264.56993962
  0
VERTEX
  8
0
 10
155.41902796
 20
264.95006821
  0
VERTEX
  8
0
 10
155.43650090
 20
265.34972731
  0
VERTEX
  8
0
 10
155.39733040
 20
265.77024817
  0
VERTEX
  8
0
 10
155.29790150
 20
266.21296206
  0
VERTEX
  8
0
 10
155.13459928
 20
266.67920022
  0
SEQEND
  0
POLYLINE
  8
Nível Padrão
 66
   1
 39
0.000000
 70
    1
  0
VERTEX
  8
0
 10
156.14380125
 20
239.76720172
  0
VERTEX
  8
0
 10
157.48201301
 20
240.38091377
  0
VERTEX
  8
0
 10
158.81692128
 20
240.99640832
  0
VERTEX
  8
0
 10
159.46145582
 20
241.31656953
  0
VERTEX
  8
0
 10
160.07914752
 20
241.65127097
  0
VERTEX
  8
0
 10
160.66132408
 20
242.00521083
  0
VERTEX
  8
0
 10
161.19931318
 20
242.38308731
  0
VERTEX
  8
0
 10
161.44902733
 20
242.58246997
  0
VERTEX
  8
0
 10
161.68444250
 20
242.78959861
  0
VERTEX
  8
0
 10
161.90447464
 20
243.00506051
  0
VERTEX
  8
0
 10
162.10803971
 20
243.22944293
  0
VERTEX
  8
0
 10
162.29405369
 20
243.46333316
  0
VERTEX
  8
0
 10
162.46143251
 20
243.70731847
  0
VERTEX
  8
0
 10
162.60909216
 20
243.96198614
  0
VERTEX
  8
0
 10
162.73594858
 20
244.22792343
  0
VERTEX
  8
0
 10
162.84091773
 20
244.50571763
  0
VERTEX
  8
0
 10
162.92291559
 20
244.79595600
  0
VERTEX
  8
0
 10
162.98085810
 20
245.09922583
  0
VERTEX
  8
0
 10
163.01366123
 20
245.41611439
  0
VERTEX
  8
0
 10
163.02024093
 20
245.74720896
  0
VERTEX
  8
0
 10
162.99951317
 20
246.09309680
  0
VERTEX
  8
0
 10
162.95039391
 20
246.45436519
  0
VERTEX
  8
0
 10
162.87179911
 20
246.83160142
  0
VERTEX
  8
0
 10
162.90366610
 20
247.25757668
  0
VERTEX
  8
0
 10
162.96023503
 20
247.64827180
  0
VERTEX
  8
0
 10
163.04010786
 20
248.00568393
  0
VERTEX
  8
0
 10
163.14188655
 20
248.33181025
  0
VERTEX
  8
0
 10
163.26417305
 20
248.62864792
  0
VERTEX
  8
0
 10
163.40556932
 20
248.89819410
  0
VERTEX
  8
0
 10
163.56467732
 20
249.14244595
  0
VERTEX
  8
0
 10
163.74009899
 20
249.36340066
  0
VERTEX
  8
0
 10
163.93043631
 20
249.56305537
  0
VERTEX
  8
0
 10
164.13429121
 20
249.74340725
  0
VERTEX
  8
0
 10
164.35026567
 20
249.90645347
  0
VERTEX
  8
0
 10
164.57696163
 20
250.05419119
  0
VERTEX
  8
0
 10
165.05692590
 20
250.31172981
  0
VERTEX
  8
0
 10
165.56299967
 20
250.53200042
  0
VERTEX
  8
0
 10
165.89967118
 20
250.69652376
  0
VERTEX
  8
0
 10
166.23209879
 20
250.83770624
  0
VERTEX
  8
0
 10
166.56028306
 20
250.95554844
  0
VERTEX
  8
0
 10
166.88422460
 20
251.05005095
  0
VERTEX
  8
0
 10
167.20392397
 20
251.12121435
  0
VERTEX
  8
0
 10
167.51938177
 20
251.16903924
  0
VERTEX
  8
0
 10
167.83059858
 20
251.19352620
  0
VERTEX
  8
0
 10
168.13757498
 20
251.19467583
  0
VERTEX
  8
0
 10
168.44031155
 20
251.17248872
  0
VERTEX
  8
0
 10
168.73880889
 20
251.12696544
  0
VERTEX
  8
0
 10
169.03306756
 20
251.05810660
  0
VERTEX
  8
0
 10
169.32308817
 20
250.96591278
  0
VERTEX
  8
0
 10
169.60887129
 20
250.85038457
  0
VERTEX
  8
0
 10
169.89041750
 20
250.71152256
  0
VERTEX
  8
0
 10
170.16772740
 20
250.54932734
  0
VERTEX
  8
0
 10
170.44080156
 20
250.36379950
  0
VERTEX
  8
0
 10
173.81319836
 20
243.78319925
  0
VERTEX
  8
0
 10
167.25230075
 20
240.18900047
  0
VERTEX
  8
0
 10
168.45319864
 20
237.99700164
  0
VERTEX
  8
0
 10
174.83959825
 20
241.49560117
  0
VERTEX
  8
0
 10
175.04698089
 20
241.16456455
  0
VERTEX
  8
0
 10
175.23198103
 20
240.83012233
  0
VERTEX
  8
0
 10
175.39222257
 20
240.49336891
  0
VERTEX
  8
0
 10
175.52532940
 20
240.15539866
  0
VERTEX
  8
0
 10
175.62892541
 20
239.81730599
  0
VERTEX
  8
0
 10
175.70063450
 20
239.48018527
  0
VERTEX
  8
0
 10
175.73808055
 20
239.14513090
  0
VERTEX
  8
0
 10
175.73888745
 20
238.81323725
  0
VERTEX
  8
0
 10
175.70067911
 20
238.48559873
  0
VERTEX
  8
0
 10
175.62107940
 20
238.16330972
  0
VERTEX
  8
0
 10
175.49771223
 20
237.84746460
  0
VERTEX
  8
0
 10
175.32820148
 20
237.53915776
  0
VERTEX
  8
0
 10
175.11017105
 20
237.23948360
  0
VERTEX
  8
0
 10
174.84124482
 20
236.94953650
  0
VERTEX
  8
0
 10
174.51904669
 20
236.67041085
  0
VERTEX
  8
0
 10
174.14120056
 20
236.40320103
  0
VERTEX
  8
0
 10
159.50779842
 20
228.32959936
  0
VERTEX
  8
0
 10
158.87977887
 20
228.04138065
  0
VERTEX
  8
0
 10
158.29622239
 20
227.73833632
  0
VERTEX
  8
0
 10
157.75623352
 20
227.42076487
  0
VERTEX
  8
0
 10
157.25891681
 20
227.08896486
  0
VERTEX
  8
0
 10
156.80337682
 20
226.74323480
  0
VERTEX
  8
0
 10
156.38871810
 20
226.38387323
  0
VERTEX
  8
0
 10
156.01404520
 20
226.01117867
  0
VERTEX
  8
0
 10
155.67846267
 20
225.62544966
  0
VERTEX
  8
0
 10
155.38107505
 20
225.22698472
  0
VERTEX
  8
0
 10
155.12098691
 20
224.81608238
  0
VERTEX
  8
0
 10
154.89730278
 20
224.39304118
  0
VERTEX
  8
0
 10
154.70912723
 20
223.95815965
  0
VERTEX
  8
0
 10
154.55556480
 20
223.51173630
  0
VERTEX
  8
0
 10
154.43572004
 20
223.05406968
  0
VERTEX
  8
0
 10
154.34869751
 20
222.58545831
  0
VERTEX
  8
0
 10
154.29360175
 20
222.10620072
  0
VERTEX
  8
0
 10
147.22919853
 20
201.58579825
  0
VERTEX
  8
0
 10
146.98169606
 20
201.12899092
  0
VERTEX
  8
0
 10
146.71813834
 20
200.71346862
  0
VERTEX
  8
0
 10
146.43852478
 20
200.33923118
  0
VERTEX
  8
0
 10
146.14285480
 20
200.00627847
  0
VERTEX
  8
0
 10
145.83112782
 20
199.71461032
  0
VERTEX
  8
0
 10
145.50334325
 20
199.46422660
  0
VERTEX
  8
0
 10
145.15950051
 20
199.25512715
  0
VERTEX
  8
0
 10
144.79959901
 20
199.08731182
  0
VERTEX
  8
0
 10
144.42363817
 20
198.96078045
  0
VERTEX
  8
0
 10
144.03161741
 20
198.87553291
  0
VERTEX
  8
0
 10
143.62353614
 20
198.83156905
  0
VERTEX
  8
0
 10
143.19939377
 20
198.82888870
  0
VERTEX
  8
0
 10
142.75918973
 20
198.86749172
  0
VERTEX
  8
0
 10
142.30292344
 20
198.94737797
  0
VERTEX
  8
0
 10
141.83059429
 20
199.06854729
  0
VERTEX
  8
0
 10
141.34220172
 20
199.23099953
  0
VERTEX
  8
0
 10
139.25893032
 20
201.19155999
  0
VERTEX
  8
0
 10
137.15573098
 20
203.14016095
  0
VERTEX
  8
0
 10
135.03211959
 20
205.07651237
  0
VERTEX
  8
0
 10
132.88761202
 20
207.00032419
  0
VERTEX
  8
0
 10
130.72172415
 20
208.91130636
  0
VERTEX
  8
0
 10
128.53397186
 20
210.80916884
  0
VERTEX
  8
0
 10
126.32387104
 20
212.69362157
  0
VERTEX
  8
0
 10
124.09093756
 20
214.56437451
  0
VERTEX
  8
0
 10
121.83468730
 20
216.42113761
  0
VERTEX
  8
0
 10
119.55463614
 20
218.26362081
  0
VERTEX
  8
0
 10
117.25029996
 20
220.09153407
  0
VERTEX
  8
0
 10
114.92119465
 20
221.90458734
  0
VERTEX
  8
0
 10
112.56683607
 20
223.70249057
  0
VERTEX
  8
0
 10
110.18674012
 20
225.48495370
  0
VERTEX
  8
0
 10
107.78042266
 20
227.25168670
  0
VERTEX
  8
0
 10
105.34739958
 20
229.00239950
  0
VERTEX
  8
0
 10
104.83347467
 20
229.31979549
  0
VERTEX
  8
0
 10
104.56988805
 20
229.45945439
  0
VERTEX
  8
0
 10
104.30113864
 20
229.58427447
  0
VERTEX
  8
0
 10
104.02666641
 20
229.69264615
  0
VERTEX
  8
0
 10
103.74591135
 20
229.78295986
  0
VERTEX
  8
0
 10
103.45831345
 20
229.85360600
  0
VERTEX
  8
0
 10
103.16331267
 20
229.90297502
  0
VERTEX
  8
0
 10
102.86034902
 20
229.92945733
  0
VERTEX
  8
0
 10
102.54886246
 20
229.93144336
  0
VERTEX
  8
0
 10
102.22829299
 20
229.90732353
  0
VERTEX
  8
0
 10
101.89808058
 20
229.85548827
  0
VERTEX
  8
0
 10
101.55766521
 20
229.77432799
  0
VERTEX
  8
0
 10
101.20648688
 20
229.66223313
  0
VERTEX
  8
0
 10
100.84398555
 20
229.51759410
  0
VERTEX
  8
0
 10
100.46960122
 20
229.33880133
  0
VERTEX
  8
0
 10
98.89921304
 20
228.66603361
  0
VERTEX
  8
0
 10
97.41230024
 20
227.99323810
  0
VERTEX
  8
0
 10
95.92538743
 20
227.32042407
  0
VERTEX
  8
0
 10
94.35499925
 20
226.64760078
  0
VERTEX
  8
0
 10
93.91977832
 20
226.56626115
  0
VERTEX
  8
0
 10
93.53765923
 20
226.54245826
  0
VERTEX
  8
0
 10
93.20778827
 20
226.57047804
  0
VERTEX
  8
0
 10
92.92931169
 20
226.64460641
  0
VERTEX
  8
0
 10
92.70137578
 20
226.75912932
  0
VERTEX
  8
0
 10
92.52312682
 20
226.90833271
  0
VERTEX
  8
0
 10
92.39371107
 20
227.08650250
  0
VERTEX
  8
0
 10
92.31227481
 20
227.28792464
  0
VERTEX
  8
0
 10
92.27796431
 20
227.50688505
  0
VERTEX
  8
0
 10
92.28992585
 20
227.73766968
  0
VERTEX
  8
0
 10
92.34730571
 20
227.97456445
  0
VERTEX
  8
0
 10
92.44925015
 20
228.21185531
  0
VERTEX
  8
0
 10
92.59490545
 20
228.44382819
  0
VERTEX
  8
0
 10
92.78341789
 20
228.66476903
  0
VERTEX
  8
0
 10
93.01393374
 20
228.86896375
  0
VERTEX
  8
0
 10
93.28559928
 20
229.05069831
  0
VERTEX
  8
0
 10
100.97420044
 20
233.37559864
  0
VERTEX
  8
0
 10
101.35968144
 20
233.52182719
  0
VERTEX
  8
0
 10
101.73451067
 20
233.63793021
  0
VERTEX
  8
0
 10
102.09896763
 20
233.72558449
  0
VERTEX
  8
0
 10
102.45333180
 20
233.78646685
  0
VERTEX
  8
0
 10
102.79788267
 20
233.82225407
  0
VERTEX
  8
0
 10
103.13289975
 20
233.83462296
  0
VERTEX
  8
0
 10
103.45866252
 20
233.82525033
  0
VERTEX
  8
0
 10
103.77545047
 20
233.79581298
  0
VERTEX
  8
0
 10
104.08354310
 20
233.74798770
  0
VERTEX
  8
0
 10
104.38321989
 20
233.68345130
  0
VERTEX
  8
0
 10
104.67476034
 20
233.60388059
  0
VERTEX
  8
0
 10
104.95844395
 20
233.51095236
  0
VERTEX
  8
0
 10
105.50335858
 20
233.29173057
  0
VERTEX
  8
0
 10
106.02019972
 20
233.03920033
  0
VERTEX
  8
0
 10
108.38465804
 20
231.46956147
  0
VERTEX
  8
0
 10
110.71756438
 20
229.89749186
  0
VERTEX
  8
0
 10
113.01909642
 20
228.32300529
  0
VERTEX
  8
0
 10
115.28943186
 20
226.74611552
  0
VERTEX
  8
0
 10
117.52874838
 20
225.16683631
  0
VERTEX
  8
0
 10
119.73722366
 20
223.58518143
  0
VERTEX
  8
0
 10
121.91503538
 20
222.00116465
  0
VERTEX
  8
0
 10
124.06236124
 20
220.41479973
  0
VERTEX
  8
0
 10
126.17937890
 20
218.82610044
  0
VERTEX
  8
0
 10
128.26626607
 20
217.23508055
  0
VERTEX
  8
0
 10
130.32320041
 20
215.64175383
  0
VERTEX
  8
0
 10
132.35035963
 20
214.04613404
  0
VERTEX
  8
0
 10
134.34792139
 20
212.44823494
  0
VERTEX
  8
0
 10
136.31606339
 20
210.84807031
  0
VERTEX
  8
0
 10
138.25496331
 20
209.24565391
  0
VERTEX
  8
0
 10
140.16479883
 20
207.64099950
  0
VERTEX
  8
0
 10
140.32010982
 20
207.46809762
  0
VERTEX
  8
0
 10
140.49428803
 20
207.32610764
  0
VERTEX
  8
0
 10
140.68383892
 20
207.21411563
  0
VERTEX
  8
0
 10
140.88526796
 20
207.13120766
  0
VERTEX
  8
0
 10
141.09508061
 20
207.07646983
  0
VERTEX
  8
0
 10
141.30978234
 20
207.04898819
  0
VERTEX
  8
0
 10
141.52587861
 20
207.04784884
  0
VERTEX
  8
0
 10
141.73987488
 20
207.07213784
  0
VERTEX
  8
0
 10
141.94827662
 20
207.12094127
  0
VERTEX
  8
0
 10
142.14758930
 20
207.19334521
  0
VERTEX
  8
0
 10
142.33431837
 20
207.28843573
  0
VERTEX
  8
0
 10
142.50496929
 20
207.40529891
  0
VERTEX
  8
0
 10
142.65604755
 20
207.54302083
  0
VERTEX
  8
0
 10
142.78405859
 20
207.70068756
  0
VERTEX
  8
0
 10
142.88550788
 20
207.87738519
  0
VERTEX
  8
0
 10
142.95690089
 20
208.07219978
  0
VERTEX
  8
0
 10
143.73114743
 20
211.18706643
  0
VERTEX
  8
0
 10
144.53377897
 20
214.30709274
  0
VERTEX
  8
0
 10
146.18635037
 20
220.55573842
  0
VERTEX
  8
0
 10
147.83892178
 20
226.80436491
  0
VERTEX
  8
0
 10
148.64155332
 20
229.92436725
  0
VERTEX
  8
0
 10
149.41579986
 20
233.03920033
  0
VERTEX
  8
0
 10
149.67561335
 20
233.60581924
  0
VERTEX
  8
0
 10
149.95302567
 20
234.15644062
  0
VERTEX
  8
0
 10
150.24885669
 20
234.69031768
  0
VERTEX
  8
0
 10
150.56392627
 20
235.20670366
  0
VERTEX
  8
0
 10
150.89905429
 20
235.70485176
  0
VERTEX
  8
0
 10
151.25506062
 20
236.18401520
  0
VERTEX
  8
0
 10
151.63276511
 20
236.64344721
  0
VERTEX
  8
0
 10
152.03298764
 20
237.08240100
  0
VERTEX
  8
0
 10
152.45654807
 20
237.50012979
  0
VERTEX
  8
0
 10
152.90426627
 20
237.89588680
  0
VERTEX
  8
0
 10
153.37696212
 20
238.26892525
  0
VERTEX
  8
0
 10
153.87545546
 20
238.61849835
  0
VERTEX
  8
0
 10
154.40056618
 20
238.94385933
  0
VERTEX
  8
0
 10
154.95311414
 20
239.24426141
  0
VERTEX
  8
0
 10
155.53391921
 20
239.51895780
  0
VERTEX
  8
0
 10
156.14380125
 20
239.76720172
  0
SEQEND
  0
POLYLINE
  8
Nível Padrão
 66
   1
 39
0.000000
 70
    1
  0
VERTEX
  8
0
 10
156.48019956
 20
210.50040097
  0
VERTEX
  8
0
 10
156.87959349
 20
210.92192337
  0
VERTEX
  8
0
 10
157.29405787
 20
211.32411166
  0
VERTEX
  8
0
 10
157.72279831
 20
211.70624759
  0
VERTEX
  8
0
 10
158.16502043
 20
212.06761288
  0
VERTEX
  8
0
 10
158.61992984
 20
212.40748927
  0
VERTEX
  8
0
 10
159.08673216
 20
212.72515849
  0
VERTEX
  8
0
 10
159.56463301
 20
213.01990227
  0
VERTEX
  8
0
 10
160.05283799
 20
213.29100234
  0
VERTEX
  8
0
 10
160.55055273
 20
213.53774045
  0
VERTEX
  8
0
 10
161.05698284
 20
213.75939832
  0
VERTEX
  8
0
 10
161.57133394
 20
213.95525769
  0
VERTEX
  8
0
 10
162.09281163
 20
214.12460028
  0
VERTEX
  8
0
 10
162.62062155
 20
214.26670784
  0
VERTEX
  8
0
 10
163.15396930
 20
214.38086209
  0
VERTEX
  8
0
 10
163.69206050
 20
214.46634477
  0
VERTEX
  8
0
 10
164.23410077
 20
214.52243761
  0
VERTEX
  8
0
 10
164.77929572
 20
214.54842235
  0
VERTEX
  8
0
 10
165.32685096
 20
214.54358072
  0
VERTEX
  8
0
 10
165.87597212
 20
214.50719444
  0
VERTEX
  8
0
 10
166.42586480
 20
214.43854526
  0
VERTEX
  8
0
 10
166.97573463
 20
214.33691491
  0
VERTEX
  8
0
 10
167.52478721
 20
214.20158511
  0
VERTEX
  8
0
 10
168.07222817
 20
214.03183761
  0
VERTEX
  8
0
 10
168.61726313
 20
213.82695414
  0
VERTEX
  8
0
 10
169.15909768
 20
213.58621643
  0
VERTEX
  8
0
 10
169.69693746
 20
213.30890620
  0
VERTEX
  8
0
 10
170.22998808
 20
212.99430521
  0
VERTEX
  8
0
 10
170.75745515
 20
212.64169517
  0
VERTEX
  8
0
 10
171.27854429
 20
212.25035783
  0
VERTEX
  8
0
 10
171.79246111
 20
211.81957491
  0
VERTEX
  8
0
 10
172.29841124
 20
211.34862815
  0
VERTEX
  8
0
 10
172.79560028
 20
210.83679928
  0
VERTEX
  8
0
 10
173.19619946
 20
210.24845691
  0
VERTEX
  8
0
 10
173.57857453
 20
209.65689846
  0
VERTEX
  8
0
 10
173.94296368
 20
209.06216597
  0
VERTEX
  8
0
 10
174.28960511
 20
208.46430146
  0
VERTEX
  8
0
 10
174.61873700
 20
207.86334696
  0
VERTEX
  8
0
 10
174.93059755
 20
207.25934451
  0
VERTEX
  8
0
 10
175.22542495
 20
206.65233612
  0
VERTEX
  8
0
 10
175.50345739
 20
206.04236384
  0
VERTEX
  8
0
 10
175.76493308
 20
205.42946969
  0
VERTEX
  8
0
 10
176.01009019
 20
204.81369570
  0
VERTEX
  8
0
 10
176.23916693
 20
204.19508390
  0
VERTEX
  8
0
 10
176.45240148
 20
203.57367632
  0
VERTEX
  8
0
 10
176.65003204
 20
202.94951499
  0
VERTEX
  8
0
 10
176.83229680
 20
202.32264194
  0
VERTEX
  8
0
 10
176.99943396
 20
201.69309920
  0
VERTEX
  8
0
 10
177.15168170
 20
201.06092880
  0
VERTEX
  8
0
 10
177.41246172
 20
199.78887313
  0
VERTEX
  8
0
 10
177.61654239
 20
198.50681118
  0
VERTEX
  8
0
 10
177.76582927
 20
197.21507917
  0
VERTEX
  8
0
 10
177.86222788
 20
195.91401334
  0
VERTEX
  8
0
 10
177.90764379
 20
194.60394994
  0
VERTEX
  8
0
 10
177.90398252
 20
193.28522520
  0
VERTEX
  8
0
 10
177.85314962
 20
191.95817535
  0
VERTEX
  8
0
 10
177.75705063
 20
190.62313664
  0
VERTEX
  8
0
 10
177.61759109
 20
189.28044530
  0
VERTEX
  8
0
 10
177.43667655
 20
187.93043757
  0
VERTEX
  8
0
 10
177.21621254
 20
186.57344969
  0
VERTEX
  8
0
 10
176.95810462
 20
185.20981789
  0
VERTEX
  8
0
 10
176.66425831
 20
183.83987841
  0
VERTEX
  8
0
 10
176.33657917
 20
182.46396748
  0
VERTEX
  8
0
 10
175.97697273
 20
181.08242135
  0
VERTEX
  8
0
 10
175.58734454
 20
179.69557626
  0
VERTEX
  8
0
 10
175.16960014
 20
178.30376843
  0
VERTEX
  8
0
 10
174.72564506
 20
176.90733411
  0
VERTEX
  8
0
 10
174.25738486
 20
175.50660953
  0
VERTEX
  8
0
 10
173.76672508
 20
174.10193094
  0
VERTEX
  8
0
 10
173.25557125
 20
172.69363456
  0
VERTEX
  8
0
 10
172.72582892
 20
171.28205664
  0
VERTEX
  8
0
 10
171.61820092
 20
168.45040111
  0
VERTEX
  8
0
 10
171.45094236
 20
168.15339845
  0
VERTEX
  8
0
 10
171.27999099
 20
167.88275384
  0
VERTEX
  8
0
 10
171.10604915
 20
167.63784938
  0
VERTEX
  8
0
 10
170.92981913
 20
167.41806711
  0
VERTEX
  8
0
 10
170.75200328
 20
167.22278914
  0
VERTEX
  8
0
 10
170.57330389
 20
167.05139751
  0
VERTEX
  8
0
 10
170.39442330
 20
166.90327432
  0
VERTEX
  8
0
 10
170.21606381
 20
166.77780163
  0
VERTEX
  8
0
 10
170.03892776
 20
166.67436152
  0
VERTEX
  8
0
 10
169.86371745
 20
166.59233606
  0
VERTEX
  8
0
 10
169.69113521
 20
166.53110732
  0
VERTEX
  8
0
 10
169.52188335
 20
166.49005739
  0
VERTEX
  8
0
 10
169.35666420
 20
166.46856833
  0
VERTEX
  8
0
 10
169.19618008
 20
166.46602221
  0
VERTEX
  8
0
 10
169.04113330
 20
166.48180112
  0
VERTEX
  8
0
 10
168.89222617
 20
166.51528712
  0
VERTEX
  8
0
 10
168.75016103
 20
166.56586229
  0
VERTEX
  8
0
 10
168.61564019
 20
166.63290870
  0
VERTEX
  8
0
 10
168.48936597
 20
166.71580843
  0
VERTEX
  8
0
 10
168.37204068
 20
166.81394355
  0
VERTEX
  8
0
 10
168.26436665
 20
166.92669613
  0
VERTEX
  8
0
 10
168.16704619
 20
167.05344825
  0
VERTEX
  8
0
 10
168.08078163
 20
167.19358199
  0
VERTEX
  8
0
 10
168.00627528
 20
167.34647941
  0
VERTEX
  8
0
 10
167.94422946
 20
167.51152259
  0
VERTEX
  8
0
 10
167.89534649
 20
167.68809360
  0
VERTEX
  8
0
 10
167.86032869
 20
167.87557452
  0
VERTEX
  8
0
 10
167.83987838
 20
168.07334743
  0
VERTEX
  8
0
 10
167.83469787
 20
168.28079439
  0
VERTEX
  8
0
 10
167.84548949
 20
168.49729747
  0
VERTEX
  8
0
 10
167.87295556
 20
168.72223876
  0
VERTEX
  8
0
 10
167.91779839
 20
168.95500033
  0
VERTEX
  8
0
 10
168.64681957
 20
171.14677181
  0
VERTEX
  8
0
 10
169.35880080
 20
173.32784815
  0
VERTEX
  8
0
 10
170.03126932
 20
175.48412876
  0
VERTEX
  8
0
 10
170.34566358
 20
176.54856423
  0
VERTEX
  8
0
 10
170.64175238
 20
177.60151306
  0
VERTEX
  8
0
 10
170.91672662
 20
178.64121266
  0
VERTEX
  8
0
 10
171.16777721
 20
179.66590047
  0
VERTEX
  8
0
 10
171.39209505
 20
180.67381391
  0
VERTEX
  8
0
 10
171.58687105
 20
181.66319041
  0
VERTEX
  8
0
 10
171.74929612
 20
182.63226739
  0
VERTEX
  8
0
 10
171.87656116
 20
183.57928230
  0
VERTEX
  8
0
 10
171.96585708
 20
184.50247254
  0
VERTEX
  8
0
 10
172.01437477
 20
185.40007555
  0
VERTEX
  8
0
 10
172.01930515
 20
186.27032876
  0
VERTEX
  8
0
 10
171.97783913
 20
187.11146959
  0
VERTEX
  8
0
 10
171.88716760
 20
187.92173548
  0
VERTEX
  8
0
 10
171.74448147
 20
188.69936384
  0
VERTEX
  8
0
 10
171.65275509
 20
189.07538815
  0
VERTEX
  8
0
 10
171.54697165
 20
189.44259211
  0
VERTEX
  8
0
 10
171.42678001
 20
189.80075541
  0
VERTEX
  8
0
 10
171.29182904
 20
190.14965771
  0
VERTEX
  8
0
 10
171.14176760
 20
190.48907871
  0
VERTEX
  8
0
 10
170.97624456
 20
190.81879808
  0
VERTEX
  8
0
 10
170.79490876
 20
191.13859549
  0
VERTEX
  8
0
 10
170.59740909
 20
191.44825063
  0
VERTEX
  8
0
 10
170.38339440
 20
191.74754317
  0
VERTEX
  8
0
 10
170.15251356
 20
192.03625279
  0
VERTEX
  8
0
 10
169.90441542
 20
192.31415918
  0
VERTEX
  8
0
 10
169.63874885
 20
192.58104200
  0
VERTEX
  8
0
 10
169.35516272
 20
192.83668094
  0
VERTEX
  8
0
 10
169.05330589
 20
193.08085568
  0
VERTEX
  8
0
 10
168.73282722
 20
193.31334589
  0
VERTEX
  8
0
 10
168.39337558
 20
193.53393126
  0
VERTEX
  8
0
 10
168.03459982
 20
193.74239145
  0
VERTEX
  8
0
 10
167.65614881
 20
193.93850616
  0
VERTEX
  8
0
 10
167.25767141
 20
194.12205505
  0
VERTEX
  8
0
 10
166.83881650
 20
194.29281781
  0
VERTEX
  8
0
 10
166.39923292
 20
194.45057412
  0
VERTEX
  8
0
 10
165.93856955
 20
194.59510364
  0
VERTEX
  8
0
 10
165.45647524
 20
194.72618607
  0
VERTEX
  8
0
 10
164.95259886
 20
194.84360108
  0
VERTEX
  8
0
 10
165.25019867
 20
200.18140050
  0
VERTEX
  8
0
 10
162.74339858
 20
200.35740133
  0
VERTEX
  8
0
 10
162.46219942
 20
195.19959972
  0
VERTEX
  8
0
 10
162.01482340
 20
195.22523767
  0
VERTEX
  8
0
 10
161.57839375
 20
195.23263514
  0
VERTEX
  8
0
 10
161.15285178
 20
195.22188977
  0
VERTEX
  8
0
 10
160.73813877
 20
195.19309919
  0
VERTEX
  8
0
 10
160.33419602
 20
195.14636104
  0
VERTEX
  8
0
 10
159.94096483
 20
195.08177295
  0
VERTEX
  8
0
 10
159.55838650
 20
194.99943256
  0
VERTEX
  8
0
 10
159.18640232
 20
194.89943748
  0
VERTEX
  8
0
 10
158.82495359
 20
194.78188537
  0
VERTEX
  8
0
 10
158.47398160
 20
194.64687384
  0
VERTEX
  8
0
 10
158.13342766
 20
194.49450054
  0
VERTEX
  8
0
 10
157.80323307
 20
194.32486310
  0
VERTEX
  8
0
 10
157.48333910
 20
194.13805915
  0
VERTEX
  8
0
 10
157.17368708
 20
193.93418631
  0
VERTEX
  8
0
 10
156.87421828
 20
193.71334224
  0
VERTEX
  8
0
 10
156.58487401
 20
193.47562455
  0
VERTEX
  8
0
 10
156.30559557
 20
193.22113089
  0
VERTEX
  8
0
 10
156.03632425
 20
192.94995887
  0
VERTEX
  8
0
 10
155.77700135
 20
192.66220615
  0
VERTEX
  8
0
 10
155.52756816
 20
192.35797035
  0
VERTEX
  8
0
 10
155.28796598
 20
192.03734910
  0
VERTEX
  8
0
 10
155.05813612
 20
191.70044003
  0
VERTEX
  8
0
 10
154.83801986
 20
191.34734079
  0
VERTEX
  8
0
 10
154.62755850
 20
190.97814899
  0
VERTEX
  8
0
 10
154.42669335
 20
190.59296228
  0
VERTEX
  8
0
 10
154.23536569
 20
190.19187829
  0
VERTEX
  8
0
 10
153.88108804
 20
189.34240899
  0
VERTEX
  8
0
 10
153.56425595
 20
188.43052216
  0
VERTEX
  8
0
 10
153.28439978
 20
187.45699886
  0
VERTEX
  8
0
 10
153.15728227
 20
186.22605251
  0
VERTEX
  8
0
 10
153.05548428
 20
185.02042988
  0
VERTEX
  8
0
 10
152.97781286
 20
183.83893757
  0
VERTEX
  8
0
 10
152.92307502
 20
182.68038218
  0
VERTEX
  8
0
 10
152.89007781
 20
181.54357031
  0
VERTEX
  8
0
 10
152.87762827
 20
180.42730857
  0
VERTEX
  8
0
 10
152.88453341
 20
179.33040354
  0
VERTEX
  8
0
 10
152.90960029
 20
178.25166183
  0
VERTEX
  8
0
 10
152.95163593
 20
177.18989004
  0
VERTEX
  8
0
 10
153.00944736
 20
176.14389478
  0
VERTEX
  8
0
 10
153.16762576
 20
174.09446020
  0
VERTEX
  8
0
 10
153.37459175
 20
172.09381091
  0
VERTEX
  8
0
 10
153.62080161
 20
170.13239969
  0
VERTEX
  8
0
 10
153.61720299
 20
169.75624500
  0
VERTEX
  8
0
 10
153.56468535
 20
169.42061825
  0
VERTEX
  8
0
 10
153.46872808
 20
169.12728181
  0
VERTEX
  8
0
 10
153.33481056
 20
168.87799804
  0
VERTEX
  8
0
 10
153.16841220
 20
168.67452929
  0
VERTEX
  8
0
 10
152.97501238
 20
168.51863792
  0
VERTEX
  8
0
 10
152.76009049
 20
168.41208628
  0
VERTEX
  8
0
 10
152.52912593
 20
168.35663675
  0
VERTEX
  8
0
 10
152.28759808
 20
168.35405166
  0
VERTEX
  8
0
 10
152.04098634
 20
168.40609339
  0
VERTEX
  8
0
 10
151.79477011
 20
168.51452428
  0
VERTEX
  8
0
 10
151.55442876
 20
168.68110670
  0
VERTEX
  8
0
 10
151.32544170
 20
168.90760300
  0
VERTEX
  8
0
 10
151.11328832
 20
169.19577554
  0
VERTEX
  8
0
 10
150.92344800
 20
169.54738668
  0
VERTEX
  8
0
 10
150.76140014
 20
169.96419878
  0
VERTEX
  8
0
 10
150.41061880
 20
171.25302871
  0
VERTEX
  8
0
 10
150.08087481
 20
172.54098185
  0
VERTEX
  8
0
 10
149.77348053
 20
173.82800345
  0
VERTEX
  8
0
 10
149.48974831
 20
175.11403880
  0
VERTEX
  8
0
 10
149.23099050
 20
176.39903316
  0
VERTEX
  8
0
 10
148.99851946
 20
177.68293179
  0
VERTEX
  8
0
 10
148.79364755
 20
178.96567997
  0
VERTEX
  8
0
 10
148.61768710
 20
180.24722297
  0
VERTEX
  8
0
 10
148.47195049
 20
181.52750606
  0
VERTEX
  8
0
 10
148.35775006
 20
182.80647450
  0
VERTEX
  8
0
 10
148.27639817
 20
184.08407357
  0
VERTEX
  8
0
 10
148.22920717
 20
185.36024854
  0
VERTEX
  8
0
 10
148.21748941
 20
186.63494467
  0
VERTEX
  8
0
 10
148.24255726
 20
187.90810724
  0
VERTEX
  8
0
 10
148.30572305
 20
189.17968151
  0
VERTEX
  8
0
 10
148.40829916
 20
190.44961275
  0
VERTEX
  8
0
 10
148.55159793
 20
191.71784624
  0
VERTEX
  8
0
 10
148.73693171
 20
192.98432724
  0
VERTEX
  8
0
 10
148.96561286
 20
194.24900102
  0
VERTEX
  8
0
 10
149.23895374
 20
195.51181285
  0
VERTEX
  8
0
 10
149.55826669
 20
196.77270801
  0
VERTEX
  8
0
 10
149.92486408
 20
198.03163175
  0
VERTEX
  8
0
 10
150.34005825
 20
199.28852936
  0
VERTEX
  8
0
 10
150.80516156
 20
200.54334609
  0
VERTEX
  8
0
 10
151.32148637
 20
201.79602722
  0
VERTEX
  8
0
 10
151.89034502
 20
203.04651803
  0
VERTEX
  8
0
 10
152.51304987
 20
204.29476377
  0
VERTEX
  8
0
 10
153.19091328
 20
205.54070971
  0
VERTEX
  8
0
 10
153.92524760
 20
206.78430114
  0
VERTEX
  8
0
 10
154.71736518
 20
208.02548331
  0
VERTEX
  8
0
 10
155.56857838
 20
209.26420150
  0
VERTEX
  8
0
 10
156.48019956
 20
210.50040097
  0
SEQEND
  0
POLYLINE
  8
Nível Padrão
 66
   1
 39
0.000000
 70
    1
  0
VERTEX
  8
0
 10
142.35140017
 20
193.51220011
  0
VERTEX
  8
0
 10
142.65286271
 20
193.88035844
  0
VERTEX
  8
0
 10
142.96641087
 20
194.17900013
  0
VERTEX
  8
0
 10
143.28564736
 20
194.41009992
  0
VERTEX
  8
0
 10
143.60417491
 20
194.57563257
  0
VERTEX
  8
0
 10
143.91559625
 20
194.67757285
  0
VERTEX
  8
0
 10
144.21351410
 20
194.71789551
  0
VERTEX
  8
0
 10
144.35541007
 20
194.71556734
  0
VERTEX
  8
0
 10
144.49153120
 20
194.69857531
  0
VERTEX
  8
0
 10
144.62107781
 20
194.66716625
  0
VERTEX
  8
0
 10
144.74325026
 20
194.62158700
  0
VERTEX
  8
0
 10
144.85724888
 20
194.56208442
  0
VERTEX
  8
0
 10
144.96227401
 20
194.48890535
  0
VERTEX
  8
0
 10
145.05752600
 20
194.40229664
  0
VERTEX
  8
0
 10
145.14220519
 20
194.30250512
  0
VERTEX
  8
0
 10
145.21551191
 20
194.18977764
  0
VERTEX
  8
0
 10
145.27664651
 20
194.06436105
  0
VERTEX
  8
0
 10
145.32480932
 20
193.92650220
  0
VERTEX
  8
0
 10
145.35920070
 20
193.77644792
  0
VERTEX
  8
0
 10
145.37902097
 20
193.61444506
  0
VERTEX
  8
0
 10
145.38347049
 20
193.44074047
  0
VERTEX
  8
0
 10
145.37174959
 20
193.25558099
  0
VERTEX
  8
0
 10
145.34305861
 20
193.05921347
  0
VERTEX
  8
0
 10
145.29659789
 20
192.85188475
  0
VERTEX
  8
0
 10
145.23156778
 20
192.63384167
  0
VERTEX
  8
0
 10
145.14716861
 20
192.40533108
  0
VERTEX
  8
0
 10
145.04260072
 20
192.16659983
  0
VERTEX
  8
0
 10
144.63841861
 20
191.25088605
  0
VERTEX
  8
0
 10
144.24533289
 20
190.31983737
  0
VERTEX
  8
0
 10
143.86423114
 20
189.37557104
  0
VERTEX
  8
0
 10
143.49600095
 20
188.42020432
  0
VERTEX
  8
0
 10
143.14152990
 20
187.45585444
  0
VERTEX
  8
0
 10
142.80170557
 20
186.48463865
  0
VERTEX
  8
0
 10
142.47741554
 20
185.50867421
  0
VERTEX
  8
0
 10
142.16954741
 20
184.53007837
  0
VERTEX
  8
0
 10
141.87898876
 20
183.55096836
  0
VERTEX
  8
0
 10
141.60662716
 20
182.57346144
  0
VERTEX
  8
0
 10
141.35335021
 20
181.59967486
  0
VERTEX
  8
0
 10
141.12004548
 20
180.63172586
  0
VERTEX
  8
0
 10
140.90760057
 20
179.67173170
  0
VERTEX
  8
0
 10
140.71690306
 20
178.72180961
  0
VERTEX
  8
0
 10
140.54884052
 20
177.78407685
  0
VERTEX
  8
0
 10
140.40430055
 20
176.86065067
  0
VERTEX
  8
0
 10
140.28417073
 20
175.95364832
  0
VERTEX
  8
0
 10
140.18933863
 20
175.06518703
  0
VERTEX
  8
0
 10
140.12069186
 20
174.19738407
  0
VERTEX
  8
0
 10
140.07911799
 20
173.35235667
  0
VERTEX
  8
0
 10
140.06550460
 20
172.53222210
  0
VERTEX
  8
0
 10
140.08073928
 20
171.73909758
  0
VERTEX
  8
0
 10
140.12570961
 20
170.97510038
  0
VERTEX
  8
0
 10
140.20130318
 20
170.24234774
  0
VERTEX
  8
0
 10
140.30840756
 20
169.54295691
  0
VERTEX
  8
0
 10
140.44791036
 20
168.87904513
  0
VERTEX
  8
0
 10
140.62069914
 20
168.25272966
  0
VERTEX
  8
0
 10
140.82766150
 20
167.66612774
  0
VERTEX
  8
0
 10
141.06968501
 20
167.12135662
  0
VERTEX
  8
0
 10
141.34765727
 20
166.62053356
  0
VERTEX
  8
0
 10
141.66246584
 20
166.16577578
  0
VERTEX
  8
0
 10
141.83396113
 20
165.95633302
  0
VERTEX
  8
0
 10
142.01499833
 20
165.75920056
  0
VERTEX
  8
0
 10
142.45409376
 20
165.30781045
  0
VERTEX
  8
0
 10
142.92956866
 20
164.89086892
  0
VERTEX
  8
0
 10
143.43510898
 20
164.51348062
  0
VERTEX
  8
0
 10
143.96440071
 20
164.18075019
  0
VERTEX
  8
0
 10
144.51112980
 20
163.89778225
  0
VERTEX
  8
0
 10
145.06898222
 20
163.66968146
  0
VERTEX
  8
0
 10
145.35010654
 20
163.57780144
  0
VERTEX
  8
0
 10
145.63164393
 20
163.50155245
  0
VERTEX
  8
0
 10
145.91280514
 20
163.44157256
  0
VERTEX
  8
0
 10
146.19280092
 20
163.39849986
  0
VERTEX
  8
0
 10
145.30000150
 20
157.99480156
  0
VERTEX
  8
0
 10
147.76610161
 20
157.58760075
  0
VERTEX
  8
0
 10
148.65340122
 20
162.95760172
  0
VERTEX
  8
0
 10
149.14584616
 20
162.92846795
  0
VERTEX
  8
0
 10
149.61917378
 20
162.91680500
  0
VERTEX
  8
0
 10
150.07383235
 20
162.92222899
  0
VERTEX
  8
0
 10
150.51027020
 20
162.94435605
  0
VERTEX
  8
0
 10
150.92893561
 20
162.98280228
  0
VERTEX
  8
0
 10
151.33027688
 20
163.03718381
  0
VERTEX
  8
0
 10
151.71474230
 20
163.10711676
  0
VERTEX
  8
0
 10
152.08278018
 20
163.19221724
  0
VERTEX
  8
0
 10
152.43483882
 20
163.29210139
  0
VERTEX
  8
0
 10
152.77136650
 20
163.40638530
  0
VERTEX
  8
0
 10
153.09281154
 20
163.53468511
  0
VERTEX
  8
0
 10
153.39962222
 20
163.67661694
  0
VERTEX
  8
0
 10
153.69224684
 20
163.83179689
  0
VERTEX
  8
0
 10
153.97113370
 20
163.99984110
  0
VERTEX
  8
0
 10
154.23673111
 20
164.18036567
  0
VERTEX
  8
0
 10
154.48948734
 20
164.37298674
  0
VERTEX
  8
0
 10
154.72985072
 20
164.57732041
  0
VERTEX
  8
0
 10
154.95826952
 20
164.79298281
  0
VERTEX
  8
0
 10
155.17519205
 20
165.01959005
  0
VERTEX
  8
0
 10
155.38106661
 20
165.25675827
  0
VERTEX
  8
0
 10
155.76146500
 20
165.76124206
  0
VERTEX
  8
0
 10
156.10305106
 20
166.30336314
  0
VERTEX
  8
0
 10
156.40941118
 20
166.88005047
  0
VERTEX
  8
0
 10
156.68413174
 20
167.48823299
  0
VERTEX
  8
0
 10
156.93079912
 20
168.12483965
  0
VERTEX
  8
0
 10
157.15299969
 20
168.78679942
  0
VERTEX
  8
0
 10
157.54115040
 20
170.13270652
  0
VERTEX
  8
0
 10
157.90912583
 20
171.46296677
  0
VERTEX
  8
0
 10
158.25409211
 20
172.77938252
  0
VERTEX
  8
0
 10
158.57321534
 20
174.08375610
  0
VERTEX
  8
0
 10
158.86366162
 20
175.37788984
  0
VERTEX
  8
0
 10
159.12259705
 20
176.66358610
  0
VERTEX
  8
0
 10
159.34718776
 20
177.94264721
  0
VERTEX
  8
0
 10
159.53459983
 20
179.21687550
  0
VERTEX
  8
0
 10
159.68199937
 20
180.48807332
  0
VERTEX
  8
0
 10
159.78655250
 20
181.75804302
  0
VERTEX
  8
0
 10
159.84542532
 20
183.02858691
  0
VERTEX
  8
0
 10
159.85578393
 20
184.30150736
  0
VERTEX
  8
0
 10
159.81479444
 20
185.57860670
  0
VERTEX
  8
0
 10
159.71962295
 20
186.86168726
  0
VERTEX
  8
0
 10
159.56743558
 20
188.15255138
  0
VERTEX
  8
0
 10
159.35539842
 20
189.45300142
  0
VERTEX
  8
0
 10
159.32392813
 20
189.62408516
  0
VERTEX
  8
0
 10
159.31022423
 20
189.79227971
  0
VERTEX
  8
0
 10
159.31334179
 20
189.95682458
  0
VERTEX
  8
0
 10
159.33233590
 20
190.11695928
  0
VERTEX
  8
0
 10
159.36626165
 20
190.27192331
  0
VERTEX
  8
0
 10
159.41417412
 20
190.42095618
  0
VERTEX
  8
0
 10
159.54817957
 20
190.69818648
  0
VERTEX
  8
0
 10
159.72679294
 20
190.94256623
  0
VERTEX
  8
0
 10
159.94245492
 20
191.14801151
  0
VERTEX
  8
0
 10
160.18760621
 20
191.30843836
  0
VERTEX
  8
0
 10
160.45468749
 20
191.41776285
  0
VERTEX
  8
0
 10
160.59408959
 20
191.45136049
  0
VERTEX
  8
0
 10
160.73613944
 20
191.46990105
  0
VERTEX
  8
0
 10
160.87989214
 20
191.47262406
  0
VERTEX
  8
0
 10
161.02440276
 20
191.45876901
  0
VERTEX
  8
0
 10
161.16872640
 20
191.42757542
  0
VERTEX
  8
0
 10
161.31191814
 20
191.37828280
  0
VERTEX
  8
0
 10
161.45303306
 20
191.31013065
  0
VERTEX
  8
0
 10
161.59112626
 20
191.22235847
  0
VERTEX
  8
0
 10
161.72525282
 20
191.11420578
  0
VERTEX
  8
0
 10
161.85446782
 20
190.98491209
  0
VERTEX
  8
0
 10
161.97782635
 20
190.83371690
  0
VERTEX
  8
0
 10
162.09438349
 20
190.65985972
  0
VERTEX
  8
0
 10
162.20319434
 20
190.46258006
  0
VERTEX
  8
0
 10
162.30331398
 20
190.24111742
  0
VERTEX
  8
0
 10
162.39379750
 20
189.99471131
  0
VERTEX
  8
0
 10
162.47369997
 20
189.72260125
  0
VERTEX
  8
0
 10
162.73990668
 20
188.47066787
  0
VERTEX
  8
0
 10
162.99013919
 20
187.21744766
  0
VERTEX
  8
0
 10
163.22239087
 20
185.96251691
  0
VERTEX
  8
0
 10
163.43465508
 20
184.70545189
  0
VERTEX
  8
0
 10
163.62492518
 20
183.44582888
  0
VERTEX
  8
0
 10
163.79119455
 20
182.18322414
  0
VERTEX
  8
0
 10
163.93145653
 20
180.91721397
  0
VERTEX
  8
0
 10
164.04370451
 20
179.64737463
  0
VERTEX
  8
0
 10
164.12593184
 20
178.37328241
  0
VERTEX
  8
0
 10
164.17613188
 20
177.09451357
  0
VERTEX
  8
0
 10
164.19229800
 20
175.81064440
  0
VERTEX
  8
0
 10
164.17242357
 20
174.52125117
  0
VERTEX
  8
0
 10
164.11450195
 20
173.22591016
  0
VERTEX
  8
0
 10
164.01652649
 20
171.92419764
  0
VERTEX
  8
0
 10
163.87649058
 20
170.61568990
  0
VERTEX
  8
0
 10
163.69238756
 20
169.29996320
  0
VERTEX
  8
0
 10
163.46221081
 20
167.97659383
  0
VERTEX
  8
0
 10
163.18395369
 20
166.64515806
  0
VERTEX
  8
0
 10
162.85560956
 20
165.30523216
  0
VERTEX
  8
0
 10
162.47517179
 20
163.95639242
  0
VERTEX
  8
0
 10
162.04063373
 20
162.59821511
  0
VERTEX
  8
0
 10
161.54998877
 20
161.23027651
  0
VERTEX
  8
0
 10
161.00123025
 20
159.85215289
  0
VERTEX
  8
0
 10
160.39235154
 20
158.46342053
  0
VERTEX
  8
0
 10
159.72134601
 20
157.06365571
  0
VERTEX
  8
0
 10
158.98620703
 20
155.65243470
  0
VERTEX
  8
0
 10
158.18492795
 20
154.22933378
  0
VERTEX
  8
0
 10
157.31550213
 20
152.79392922
  0
VERTEX
  8
0
 10
156.37592296
 20
151.34579731
  0
VERTEX
  8
0
 10
155.36418377
 20
149.88451432
  0
VERTEX
  8
0
 10
154.27827795
 20
148.40965652
  0
VERTEX
  8
0
 10
153.11619886
 20
146.92080019
  0
VERTEX
  8
0
 10
152.50151208
 20
146.51892316
  0
VERTEX
  8
0
 10
151.89433875
 20
146.14923426
  0
VERTEX
  8
0
 10
151.29460383
 20
145.81141262
  0
VERTEX
  8
0
 10
150.70223232
 20
145.50513740
  0
VERTEX
  8
0
 10
150.11714919
 20
145.23008774
  0
VERTEX
  8
0
 10
149.53927944
 20
144.98594278
  0
VERTEX
  8
0
 10
148.96854804
 20
144.77238167
  0
VERTEX
  8
0
 10
148.40487997
 20
144.58908356
  0
VERTEX
  8
0
 10
147.84820022
 20
144.43572758
  0
VERTEX
  8
0
 10
147.29843377
 20
144.31199287
  0
VERTEX
  8
0
 10
146.75550561
 20
144.21755860
  0
VERTEX
  8
0
 10
146.21934071
 20
144.15210389
  0
VERTEX
  8
0
 10
145.68986405
 20
144.11530790
  0
VERTEX
  8
0
 10
145.16700063
 20
144.10684976
  0
VERTEX
  8
0
 10
144.65067542
 20
144.12640862
  0
VERTEX
  8
0
 10
144.14081341
 20
144.17366364
  0
VERTEX
  8
0
 10
143.63733958
 20
144.24829394
  0
VERTEX
  8
0
 10
143.14017890
 20
144.34997867
  0
VERTEX
  8
0
 10
142.64925637
 20
144.47839699
  0
VERTEX
  8
0
 10
142.16449697
 20
144.63322803
  0
VERTEX
  8
0
 10
141.68582568
 20
144.81415093
  0
VERTEX
  8
0
 10
141.21316747
 20
145.02084485
  0
VERTEX
  8
0
 10
140.74644735
 20
145.25298892
  0
VERTEX
  8
0
 10
140.28559028
 20
145.51026229
  0
VERTEX
  8
0
 10
139.83052124
 20
145.79234411
  0
VERTEX
  8
0
 10
139.38116523
 20
146.09891351
  0
VERTEX
  8
0
 10
138.93744723
 20
146.42964965
  0
VERTEX
  8
0
 10
138.49929221
 20
146.78423167
  0
VERTEX
  8
0
 10
138.06662516
 20
147.16233871
  0
VERTEX
  8
0
 10
137.63937107
 20
147.56364991
  0
VERTEX
  8
0
 10
137.21745491
 20
147.98784442
  0
VERTEX
  8
0
 10
136.80080167
 20
148.43460139
  0
VERTEX
  8
0
 10
136.46624809
 20
149.01536701
  0
VERTEX
  8
0
 10
136.14506883
 20
149.60368145
  0
VERTEX
  8
0
 10
135.83726385
 20
150.19936927
  0
VERTEX
  8
0
 10
135.54283316
 20
150.80225502
  0
VERTEX
  8
0
 10
135.26177673
 20
151.41216326
  0
VERTEX
  8
0
 10
134.99409455
 20
152.02891853
  0
VERTEX
  8
0
 10
134.49885289
 20
153.28226840
  0
VERTEX
  8
0
 10
134.05710808
 20
154.56090105
  0
VERTEX
  8
0
 10
133.66885999
 20
155.86341290
  0
VERTEX
  8
0
 10
133.33410853
 20
157.18840037
  0
VERTEX
  8
0
 10
133.05285357
 20
158.53445989
  0
VERTEX
  8
0
 10
132.82509501
 20
159.90018788
  0
VERTEX
  8
0
 10
132.65083274
 20
161.28418076
  0
VERTEX
  8
0
 10
132.53006665
 20
162.68503495
  0
VERTEX
  8
0
 10
132.46279662
 20
164.10134688
  0
VERTEX
  8
0
 10
132.44902256
 20
165.53171296
  0
VERTEX
  8
0
 10
132.48874433
 20
166.97472963
  0
VERTEX
  8
0
 10
132.58196185
 20
168.42899329
  0
VERTEX
  8
0
 10
132.72867499
 20
169.89310039
  0
VERTEX
  8
0
 10
132.92888364
 20
171.36564732
  0
VERTEX
  8
0
 10
133.18258770
 20
172.84523053
  0
VERTEX
  8
0
 10
133.48978706
 20
174.33044643
  0
VERTEX
  8
0
 10
133.85048160
 20
175.81989144
  0
VERTEX
  8
0
 10
134.26467121
 20
177.31216199
  0
VERTEX
  8
0
 10
134.73235578
 20
178.80585449
  0
VERTEX
  8
0
 10
135.25353521
 20
180.29956538
  0
VERTEX
  8
0
 10
135.82820937
 20
181.79189106
  0
VERTEX
  8
0
 10
136.45637817
 20
183.28142798
  0
VERTEX
  8
0
 10
137.13804149
 20
184.76677253
  0
VERTEX
  8
0
 10
137.87319922
 20
186.24652116
  0
VERTEX
  8
0
 10
138.66185125
 20
187.71927028
  0
VERTEX
  8
0
 10
139.50399747
 20
189.18361631
  0
VERTEX
  8
0
 10
140.39963777
 20
190.63815568
  0
VERTEX
  8
0
 10
141.34877204
 20
192.08148481
  0
VERTEX
  8
0
 10
142.35140017
 20
193.51220011
  0
SEQEND
  0
POLYLINE
  8
Nível Padrão
 66
   1
 39
0.000000
 70
    1
  0
VERTEX
  8
0
 10
66.88820125
 20
220.51359956
  0
VERTEX
  8
0
 10
67.59868495
 20
220.84094906
  0
VERTEX
  8
0
 10
68.28518383
 20
221.11472875
  0
VERTEX
  8
0
 10
68.62270740
 20
221.22528639
  0
VERTEX
  8
0
 10
68.95815689
 20
221.31495932
  0
VERTEX
  8
0
 10
69.29283966
 20
221.38125015
  0
VERTEX
  8
0
 10
69.62806309
 20
221.42166146
  0
VERTEX
  8
0
 10
69.96513455
 20
221.43369584
  0
VERTEX
  8
0
 10
70.30536142
 20
221.41485586
  0
VERTEX
  8
0
 10
70.65005107
 20
221.36264413
  0
VERTEX
  8
0
 10
71.00051086
 20
221.27456322
  0
VERTEX
  8
0
 10
71.35804817
 20
221.14811572
  0
VERTEX
  8
0
 10
71.72397038
 20
220.98080422
  0
VERTEX
  8
0
 10
72.09958486
 20
220.77013130
  0
VERTEX
  8
0
 10
72.48619897
 20
220.51359956
  0
VERTEX
  8
0
 10
72.84211918
 20
220.23543018
  0
VERTEX
  8
0
 10
73.12514771
 20
219.98597855
  0
VERTEX
  8
0
 10
73.33819900
 20
219.75846890
  0
VERTEX
  8
0
 10
73.48418746
 20
219.54612546
  0
VERTEX
  8
0
 10
73.56602753
 20
219.34217245
  0
VERTEX
  8
0
 10
73.58380268
 20
219.24122493
  0
VERTEX
  8
0
 10
73.58663363
 20
219.13983411
  0
VERTEX
  8
0
 10
73.54892019
 20
218.93233465
  0
VERTEX
  8
0
 10
73.45580164
 20
218.71289831
  0
VERTEX
  8
0
 10
68.48019917
 20
215.98710083
  0
VERTEX
  8
0
 10
69.52539858
 20
214.07929978
  0
VERTEX
  8
0
 10
69.59420083
 20
213.90479825
  0
VERTEX
  8
0
 10
69.61449967
 20
213.91659867
  0
VERTEX
  8
0
 10
69.68110058
 20
213.79509847
  0
VERTEX
  8
0
 10
74.51200067
 20
216.44159856
  0
VERTEX
  8
0
 10
74.89722546
 20
215.74611769
  0
VERTEX
  8
0
 10
75.26726019
 20
215.02811424
  0
VERTEX
  8
0
 10
75.98327538
 20
213.55643813
  0
VERTEX
  8
0
 10
76.70307809
 20
212.09036722
  0
VERTEX
  8
0
 10
77.07784721
 20
211.37937027
  0
VERTEX
  8
0
 10
77.46970014
 20
210.69369850
  0
VERTEX
  8
0
 10
77.52821051
 20
209.98196216
  0
VERTEX
  8
0
 10
77.53235549
 20
209.31042557
  0
VERTEX
  8
0
 10
77.48088146
 20
208.68135501
  0
VERTEX
  8
0
 10
77.43389557
 20
208.38345271
  0
VERTEX
  8
0
 10
77.37253483
 20
208.09701676
  0
VERTEX
  8
0
 10
77.29664254
 20
207.82233045
  0
VERTEX
  8
0
 10
77.20606199
 20
207.55967708
  0
VERTEX
  8
0
 10
77.10063649
 20
207.30933992
  0
VERTEX
  8
0
 10
76.98020933
 20
207.07160226
  0
VERTEX
  8
0
 10
76.84462383
 20
206.84674737
  0
VERTEX
  8
0
 10
76.69372327
 20
206.63505856
  0
VERTEX
  8
0
 10
76.52735095
 20
206.43681910
  0
VERTEX
  8
0
 10
76.34535018
 20
206.25231227
  0
VERTEX
  8
0
 10
76.14756425
 20
206.08182136
  0
VERTEX
  8
0
 10
75.93383647
 20
205.92562965
  0
VERTEX
  8
0
 10
75.70401013
 20
205.78402044
  0
VERTEX
  8
0
 10
75.45792853
 20
205.65727699
  0
VERTEX
  8
0
 10
75.19543498
 20
205.54568261
  0
VERTEX
  8
0
 10
74.91637277
 20
205.44952056
  0
VERTEX
  8
0
 10
74.62058521
 20
205.36907414
  0
VERTEX
  8
0
 10
74.30791558
 20
205.30462664
  0
VERTEX
  8
0
 10
73.97820720
 20
205.25646132
  0
VERTEX
  8
0
 10
73.63130335
 20
205.22486149
  0
VERTEX
  8
0
 10
73.26704735
 20
205.21011042
  0
VERTEX
  8
0
 10
72.88528249
 20
205.21249140
  0
VERTEX
  8
0
 10
72.48585207
 20
205.23228771
  0
VERTEX
  8
0
 10
72.06859939
 20
205.26978263
  0
VERTEX
  8
0
 10
71.63336775
 20
205.32525946
  0
VERTEX
  8
0
 10
71.18000044
 20
205.39900147
  0
VERTEX
  8
0
 10
70.96071998
 20
205.60304352
  0
VERTEX
  8
0
 10
70.73949792
 20
205.78764501
  0
VERTEX
  8
0
 10
70.51640069
 20
205.95347123
  0
VERTEX
  8
0
 10
70.29149469
 20
206.10118744
  0
VERTEX
  8
0
 10
70.06484634
 20
206.23145891
  0
VERTEX
  8
0
 10
69.83652205
 20
206.34495094
  0
VERTEX
  8
0
 10
69.60658822
 20
206.44232879
  0
VERTEX
  8
0
 10
69.37511128
 20
206.52425774
  0
VERTEX
  8
0
 10
68.90779369
 20
206.64443004
  0
VERTEX
  8
0
 10
68.43510058
 20
206.71079005
  0
VERTEX
  8
0
 10
67.95756323
 20
206.72865998
  0
VERTEX
  8
0
 10
67.47571295
 20
206.70336203
  0
VERTEX
  8
0
 10
66.99008103
 20
206.64021841
  0
VERTEX
  8
0
 10
66.50119876
 20
206.54455133
  0
VERTEX
  8
0
 10
66.00959745
 20
206.42168299
  0
VERTEX
  8
0
 10
65.51580838
 20
206.27693561
  0
VERTEX
  8
0
 10
64.52379217
 20
205.94309253
  0
VERTEX
  8
0
 10
63.52940050
 20
205.58559975
  0
VERTEX
  8
0
 10
63.04896414
 20
205.19481600
  0
VERTEX
  8
0
 10
62.56743763
 20
204.82911058
  0
VERTEX
  8
0
 10
62.08483182
 20
204.48823348
  0
VERTEX
  8
0
 10
61.60115751
 20
204.17193471
  0
VERTEX
  8
0
 10
61.11642552
 20
203.87996429
  0
VERTEX
  8
0
 10
60.63064668
 20
203.61207222
  0
VERTEX
  8
0
 10
60.14383181
 20
203.36800850
  0
VERTEX
  8
0
 10
59.65599173
 20
203.14752315
  0
VERTEX
  8
0
 10
59.16713725
 20
202.95036616
  0
VERTEX
  8
0
 10
58.67727920
 20
202.77628755
  0
VERTEX
  8
0
 10
58.18642839
 20
202.62503733
  0
VERTEX
  8
0
 10
57.69459566
 20
202.49636549
  0
VERTEX
  8
0
 10
57.20179181
 20
202.39002205
  0
VERTEX
  8
0
 10
56.70802767
 20
202.30575702
  0
VERTEX
  8
0
 10
56.21331407
 20
202.24332039
  0
VERTEX
  8
0
 10
55.71766181
 20
202.20246218
  0
VERTEX
  8
0
 10
55.22108172
 20
202.18293240
  0
VERTEX
  8
0
 10
54.72358463
 20
202.18448105
  0
VERTEX
  8
0
 10
54.22518134
 20
202.20685813
  0
VERTEX
  8
0
 10
53.72588269
 20
202.24981366
  0
VERTEX
  8
0
 10
53.22569948
 20
202.31309765
  0
VERTEX
  8
0
 10
52.72464255
 20
202.39646009
  0
VERTEX
  8
0
 10
52.22272272
 20
202.49965099
  0
VERTEX
  8
0
 10
51.71995079
 20
202.62242037
  0
VERTEX
  8
0
 10
51.21633760
 20
202.76451823
  0
VERTEX
  8
0
 10
50.71189397
 20
202.92569457
  0
VERTEX
  8
0
 10
50.20663070
 20
203.10569941
  0
VERTEX
  8
0
 10
49.70055864
 20
203.30428274
  0
VERTEX
  8
0
 10
49.19368858
 20
203.52119459
  0
VERTEX
  8
0
 10
48.68603137
 20
203.75618494
  0
VERTEX
  8
0
 10
48.17759781
 20
204.00900382
  0
VERTEX
  8
0
 10
47.66839872
 20
204.27940122
  0
VERTEX
  8
0
 10
31.24759858
 20
210.25059903
  0
VERTEX
  8
0
 10
30.80077724
 20
210.58894435
  0
VERTEX
  8
0
 10
30.37621207
 20
210.87906696
  0
VERTEX
  8
0
 10
29.97390308
 20
211.12096686
  0
VERTEX
  8
0
 10
29.59385028
 20
211.31464405
  0
VERTEX
  8
0
 10
29.23605367
 20
211.46009853
  0
VERTEX
  8
0
 10
28.90051326
 20
211.55733031
  0
VERTEX
  8
0
 10
28.58722905
 20
211.60633937
  0
VERTEX
  8
0
 10
28.29620105
 20
211.60712572
  0
VERTEX
  8
0
 10
28.02742926
 20
211.55968935
  0
VERTEX
  8
0
 10
27.78091368
 20
211.46403028
  0
VERTEX
  8
0
 10
27.55665433
 20
211.32014850
  0
VERTEX
  8
0
 10
27.35465121
 20
211.12804401
  0
VERTEX
  8
0
 10
27.17490432
 20
210.88771681
  0
VERTEX
  8
0
 10
27.01741367
 20
210.59916690
  0
VERTEX
  8
0
 10
26.88217927
 20
210.26239428
  0
VERTEX
  8
0
 10
26.76920111
 20
209.87739894
  0
VERTEX
  8
0
 10
26.76920111
 20
170.87799906
  0
VERTEX
  8
0
 10
26.83613466
 20
170.30391380
  0
VERTEX
  8
0
 10
26.88442616
 20
169.73759999
  0
VERTEX
  8
0
 10
26.91149295
 20
169.18013296
  0
VERTEX
  8
0
 10
26.91475237
 20
168.63258807
  0
VERTEX
  8
0
 10
26.89162175
 20
168.09604064
  0
VERTEX
  8
0
 10
26.83951843
 20
167.57156602
  0
VERTEX
  8
0
 10
26.75585974
 20
167.06023955
  0
VERTEX
  8
0
 10
26.63806303
 20
166.56313657
  0
VERTEX
  8
0
 10
26.48354562
 20
166.08133242
  0
VERTEX
  8
0
 10
26.28972485
 20
165.61590244
  0
VERTEX
  8
0
 10
26.05401806
 20
165.16792196
  0
VERTEX
  8
0
 10
25.77384258
 20
164.73846633
  0
VERTEX
  8
0
 10
25.44661575
 20
164.32861089
  0
VERTEX
  8
0
 10
25.06975491
 20
163.93943098
  0
VERTEX
  8
0
 10
24.64067739
 20
163.57200194
  0
VERTEX
  8
0
 10
24.15680053
 20
163.22739911
  0
VERTEX
  8
0
 10
16.31959878
 20
158.93559992
  0
VERTEX
  8
0
 10
15.96679553
 20
158.87564642
  0
VERTEX
  8
0
 10
15.65170100
 20
158.87084734
  0
VERTEX
  8
0
 10
15.37463877
 20
158.91537042
  0
VERTEX
  8
0
 10
15.13593243
 20
159.00338336
  0
VERTEX
  8
0
 10
14.93590557
 20
159.12905388
  0
VERTEX
  8
0
 10
14.77488178
 20
159.28654972
  0
VERTEX
  8
0
 10
14.65318464
 20
159.47003858
  0
VERTEX
  8
0
 10
14.57113774
 20
159.67368820
  0
VERTEX
  8
0
 10
14.52906467
 20
159.89166628
  0
VERTEX
  8
0
 10
14.52728902
 20
160.11814055
  0
VERTEX
  8
0
 10
14.56613437
 20
160.34727873
  0
VERTEX
  8
0
 10
14.64592432
 20
160.57324855
  0
VERTEX
  8
0
 10
14.76698244
 20
160.79021771
  0
VERTEX
  8
0
 10
14.92963233
 20
160.99235394
  0
VERTEX
  8
0
 10
15.13419757
 20
161.17382496
  0
VERTEX
  8
0
 10
15.38100175
 20
161.32879850
  0
VERTEX
  8
0
 10
17.12727260
 20
162.28025752
  0
VERTEX
  8
0
 10
17.96951065
 20
162.76054883
  0
VERTEX
  8
0
 10
18.78065494
 20
163.24673056
  0
VERTEX
  8
0
 10
19.55283383
 20
163.74093963
  0
VERTEX
  8
0
 10
20.27817570
 20
164.24531294
  0
VERTEX
  8
0
 10
20.94880891
 20
164.76198742
  0
VERTEX
  8
0
 10
21.55686182
 20
165.29309997
  0
VERTEX
  8
0
 10
21.83496078
 20
165.56473831
  0
VERTEX
  8
0
 10
22.09446281
 20
165.84078751
  0
VERTEX
  8
0
 10
22.33438394
 20
166.12151469
  0
VERTEX
  8
0
 10
22.55374023
 20
166.40718695
  0
VERTEX
  8
0
 10
22.75154772
 20
166.69807142
  0
VERTEX
  8
0
 10
22.92682246
 20
166.99443521
  0
VERTEX
  8
0
 10
23.07858050
 20
167.29654543
  0
VERTEX
  8
0
 10
23.20583787
 20
167.60466920
  0
VERTEX
  8
0
 10
23.30761062
 20
167.91907362
  0
VERTEX
  8
0
 10
23.38291481
 20
168.24002582
  0
VERTEX
  8
0
 10
23.43076648
 20
168.56779291
  0
VERTEX
  8
0
 10
23.45018166
 20
168.90264201
  0
VERTEX
  8
0
 10
23.44017642
 20
169.24484022
  0
VERTEX
  8
0
 10
23.39976679
 20
169.59465466
  0
VERTEX
  8
0
 10
23.32796882
 20
169.95235245
  0
VERTEX
  8
0
 10
23.22379856
 20
170.31820069
  0
VERTEX
  8
0
 10
23.32916303
 20
173.06363451
  0
VERTEX
  8
0
 10
23.39350869
 20
175.80086603
  0
VERTEX
  8
0
 10
23.41828307
 20
178.53018442
  0
VERTEX
  8
0
 10
23.40493374
 20
181.25187885
  0
VERTEX
  8
0
 10
23.35490824
 20
183.96623849
  0
VERTEX
  8
0
 10
23.26965411
 20
186.67355252
  0
VERTEX
  8
0
 10
23.15061892
 20
189.37411010
  0
VERTEX
  8
0
 10
22.99925021
 20
192.06820041
  0
VERTEX
  8
0
 10
22.81699553
 20
194.75611261
  0
VERTEX
  8
0
 10
22.60530242
 20
197.43813588
  0
VERTEX
  8
0
 10
22.36561845
 20
200.11455939
  0
VERTEX
  8
0
 10
22.09939116
 20
202.78567231
  0
VERTEX
  8
0
 10
21.80806809
 20
205.45176381
  0
VERTEX
  8
0
 10
21.49309681
 20
208.11312306
  0
VERTEX
  8
0
 10
21.15592485
 20
210.77003923
  0
VERTEX
  8
0
 10
20.79799978
 20
213.42280150
  0
VERTEX
  8
0
 10
20.77176532
 20
214.23336868
  0
VERTEX
  8
0
 10
20.79039904
 20
214.99407719
  0
VERTEX
  8
0
 10
20.85703162
 20
215.70144877
  0
VERTEX
  8
0
 10
20.90932580
 20
216.03404624
  0
VERTEX
  8
0
 10
20.97479370
 20
216.35200513
  0
VERTEX
  8
0
 10
21.05382664
 20
216.65489064
  0
VERTEX
  8
0
 10
21.14681595
 20
216.94226798
  0
VERTEX
  8
0
 10
21.25415298
 20
217.21370239
  0
VERTEX
  8
0
 10
21.37622904
 20
217.46875907
  0
VERTEX
  8
0
 10
21.51343548
 20
217.70700323
  0
VERTEX
  8
0
 10
21.66616362
 20
217.92800009
  0
VERTEX
  8
0
 10
21.83480481
 20
218.13131487
  0
VERTEX
  8
0
 10
22.01975036
 20
218.31651278
  0
VERTEX
  8
0
 10
22.22139162
 20
218.48315904
  0
VERTEX
  8
0
 10
22.44011992
 20
218.63081886
  0
VERTEX
  8
0
 10
22.67632658
 20
218.75905746
  0
VERTEX
  8
0
 10
22.93040295
 20
218.86744005
  0
VERTEX
  8
0
 10
23.20274036
 20
218.95553185
  0
VERTEX
  8
0
 10
23.49373013
 20
219.02289807
  0
VERTEX
  8
0
 10
23.80376360
 20
219.06910393
  0
VERTEX
  8
0
 10
24.13323211
 20
219.09371464
  0
VERTEX
  8
0
 10
24.48252698
 20
219.09629542
  0
VERTEX
  8
0
 10
24.85203955
 20
219.07641148
  0
VERTEX
  8
0
 10
25.24216115
 20
219.03362804
  0
VERTEX
  8
0
 10
25.65328312
 20
218.96751032
  0
VERTEX
  8
0
 10
26.08579678
 20
218.87762352
  0
VERTEX
  8
0
 10
26.54009347
 20
218.76353287
  0
VERTEX
  8
0
 10
27.01656453
 20
218.62480358
  0
VERTEX
  8
0
 10
27.51560128
 20
218.46100086
  0
VERTEX
  8
0
 10
46.17559839
 20
212.48979953
  0
VERTEX
  8
0
 10
47.46462172
 20
212.31420792
  0
VERTEX
  8
0
 10
48.10006162
 20
212.24456658
  0
VERTEX
  8
0
 10
48.72759096
 20
212.19075185
  0
VERTEX
  8
0
 10
49.34581271
 20
212.15555644
  0
VERTEX
  8
0
 10
49.95332985
 20
212.14177308
  0
VERTEX
  8
0
 10
50.54874533
 20
212.15219450
  0
VERTEX
  8
0
 10
51.13066214
 20
212.18961342
  0
VERTEX
  8
0
 10
51.69768323
 20
212.25682256
  0
VERTEX
  8
0
 10
52.24841159
 20
212.35661465
  0
VERTEX
  8
0
 10
52.78145017
 20
212.49178241
  0
VERTEX
  8
0
 10
53.29540194
 20
212.66511856
  0
VERTEX
  8
0
 10
53.78886988
 20
212.87941583
  0
VERTEX
  8
0
 10
54.26045696
 20
213.13746694
  0
VERTEX
  8
0
 10
54.70876614
 20
213.44206462
  0
VERTEX
  8
0
 10
55.13240039
 20
213.79600158
  0
VERTEX
  8
0
 10
66.88820125
 20
220.51359956
  0
SEQEND
  0
POLYLINE
  8
Nível Padrão
 66
   1
 39
0.000000
 70
    1
  0
VERTEX
  8
0
 10
72.67280078
 20
199.42780014
  0
VERTEX
  8
0
 10
79.39039875
 20
202.22679900
  0
VERTEX
  8
0
 10
79.83332276
 20
202.35544673
  0
VERTEX
  8
0
 10
80.25837175
 20
202.42728962
  0
VERTEX
  8
0
 10
80.66564256
 20
202.44581592
  0
VERTEX
  8
0
 10
81.05523199
 20
202.41451387
  0
VERTEX
  8
0
 10
81.42723687
 20
202.33687173
  0
VERTEX
  8
0
 10
81.78175399
 20
202.21637774
  0
VERTEX
  8
0
 10
82.11888019
 20
202.05652015
  0
VERTEX
  8
0
 10
82.43871228
 20
201.86078720
  0
VERTEX
  8
0
 10
82.74134707
 20
201.63266715
  0
VERTEX
  8
0
 10
83.02688138
 20
201.37564823
  0
VERTEX
  8
0
 10
83.29541203
 20
201.09321870
  0
VERTEX
  8
0
 10
83.54703582
 20
200.78886680
  0
VERTEX
  8
0
 10
83.78184959
 20
200.46608078
  0
VERTEX
  8
0
 10
83.99995013
 20
200.12834889
  0
VERTEX
  8
0
 10
84.20143428
 20
199.77915937
  0
VERTEX
  8
0
 10
84.38639883
 20
199.42200047
  0
VERTEX
  8
0
 10
78.15899969
 20
196.84360061
  0
VERTEX
  8
0
 10
79.11520033
 20
194.53439842
  0
VERTEX
  8
0
 10
85.11399947
 20
197.01820092
  0
VERTEX
  8
0
 10
85.40750397
 20
196.43744489
  0
VERTEX
  8
0
 10
85.68358036
 20
195.83685756
  0
VERTEX
  8
0
 10
86.20812387
 20
194.60426209
  0
VERTEX
  8
0
 10
86.73698010
 20
193.37656075
  0
VERTEX
  8
0
 10
87.01844737
 20
192.78209108
  0
VERTEX
  8
0
 10
87.31949911
 20
192.20989978
  0
VERTEX
  8
0
 10
87.44383271
 20
191.73793779
  0
VERTEX
  8
0
 10
87.54192280
 20
191.28346228
  0
VERTEX
  8
0
 10
87.61441924
 20
190.84653573
  0
VERTEX
  8
0
 10
87.66197189
 20
190.42722057
  0
VERTEX
  8
0
 10
87.68523062
 20
190.02557928
  0
VERTEX
  8
0
 10
87.68484528
 20
189.64167430
  0
VERTEX
  8
0
 10
87.66146572
 20
189.27556809
  0
VERTEX
  8
0
 10
87.61574182
 20
188.92732312
  0
VERTEX
  8
0
 10
87.54832343
 20
188.59700183
  0
VERTEX
  8
0
 10
87.45986041
 20
188.28466668
  0
VERTEX
  8
0
 10
87.35100262
 20
187.99038013
  0
VERTEX
  8
0
 10
87.22239992
 20
187.71420464
  0
VERTEX
  8
0
 10
87.07470217
 20
187.45620266
  0
VERTEX
  8
0
 10
86.90855922
 20
187.21643666
  0
VERTEX
  8
0
 10
86.72462095
 20
186.99496907
  0
VERTEX
  8
0
 10
86.52353719
 20
186.79186238
  0
VERTEX
  8
0
 10
86.30595783
 20
186.60717902
  0
VERTEX
  8
0
 10
86.07253271
 20
186.44098146
  0
VERTEX
  8
0
 10
85.82391170
 20
186.29333216
  0
VERTEX
  8
0
 10
85.56074465
 20
186.16429357
  0
VERTEX
  8
0
 10
85.28368143
 20
186.05392814
  0
VERTEX
  8
0
 10
84.99337190
 20
185.96229834
  0
VERTEX
  8
0
 10
84.69046590
 20
185.88946662
  0
VERTEX
  8
0
 10
84.37561331
 20
185.83549544
  0
VERTEX
  8
0
 10
84.04946399
 20
185.80044725
  0
VERTEX
  8
0
 10
83.71266778
 20
185.78438452
  0
VERTEX
  8
0
 10
83.36587456
 20
185.78736969
  0
VERTEX
  8
0
 10
83.00973418
 20
185.80946523
  0
VERTEX
  8
0
 10
82.64489651
 20
185.85073359
  0
VERTEX
  8
0
 10
82.27201139
 20
185.91123723
  0
VERTEX
  8
0
 10
81.89172869
 20
185.99103860
  0
VERTEX
  8
0
 10
81.50469828
 20
186.09020017
  0
VERTEX
  8
0
 10
81.27506956
 20
186.35450153
  0
VERTEX
  8
0
 10
81.03794519
 20
186.59894850
  0
VERTEX
  8
0
 10
80.79354987
 20
186.82387690
  0
VERTEX
  8
0
 10
80.54210829
 20
187.02962258
  0
VERTEX
  8
0
 10
80.28384513
 20
187.21652136
  0
VERTEX
  8
0
 10
80.01898508
 20
187.38490908
  0
VERTEX
  8
0
 10
79.74775284
 20
187.53512158
  0
VERTEX
  8
0
 10
79.47037309
 20
187.66749469
  0
VERTEX
  8
0
 10
79.18707052
 20
187.78236424
  0
VERTEX
  8
0
 10
78.89806983
 20
187.88006607
  0
VERTEX
  8
0
 10
78.60359569
 20
187.96093601
  0
VERTEX
  8
0
 10
78.30387282
 20
188.02530989
  0
VERTEX
  8
0
 10
77.99912588
 20
188.07352356
  0
VERTEX
  8
0
 10
77.68957957
 20
188.10591284
  0
VERTEX
  8
0
 10
77.37545859
 20
188.12281356
  0
VERTEX
  8
0
 10
77.05698762
 20
188.12456157
  0
VERTEX
  8
0
 10
76.40789447
 20
188.08394277
  0
VERTEX
  8
0
 10
75.74409765
 20
187.98674311
  0
VERTEX
  8
0
 10
75.06739467
 20
187.83564926
  0
VERTEX
  8
0
 10
74.37958305
 20
187.63334790
  0
VERTEX
  8
0
 10
73.68246030
 20
187.38252569
  0
VERTEX
  8
0
 10
72.97782396
 20
187.08586931
  0
VERTEX
  8
0
 10
72.26747153
 20
186.74606544
  0
VERTEX
  8
0
 10
71.55320053
 20
186.36580075
  0
VERTEX
  8
0
 10
70.74066096
 20
185.92516619
  0
VERTEX
  8
0
 10
69.94573424
 20
185.54701890
  0
VERTEX
  8
0
 10
69.16820196
 20
185.23022508
  0
VERTEX
  8
0
 10
68.40784571
 20
184.97365095
  0
VERTEX
  8
0
 10
67.66444709
 20
184.77616272
  0
VERTEX
  8
0
 10
66.93778767
 20
184.63662661
  0
VERTEX
  8
0
 10
66.22764906
 20
184.55390882
  0
VERTEX
  8
0
 10
65.53381284
 20
184.52687559
  0
VERTEX
  8
0
 10
64.85606059
 20
184.55439311
  0
VERTEX
  8
0
 10
64.19417392
 20
184.63532760
  0
VERTEX
  8
0
 10
63.54793440
 20
184.76854528
  0
VERTEX
  8
0
 10
62.91712363
 20
184.95291236
  0
VERTEX
  8
0
 10
62.30152320
 20
185.18729505
  0
VERTEX
  8
0
 10
61.70091470
 20
185.47055957
  0
VERTEX
  8
0
 10
61.11507971
 20
185.80157213
  0
VERTEX
  8
0
 10
60.54379983
 20
186.17919894
  0
VERTEX
  8
0
 10
40.95080075
 20
195.50920103
  0
VERTEX
  8
0
 10
40.54284362
 20
195.72464984
  0
VERTEX
  8
0
 10
40.15140211
 20
195.90970785
  0
VERTEX
  8
0
 10
39.77749486
 20
196.06330454
  0
VERTEX
  8
0
 10
39.42214050
 20
196.18436941
  0
VERTEX
  8
0
 10
39.08635768
 20
196.27183195
  0
VERTEX
  8
0
 10
38.77116505
 20
196.32462164
  0
VERTEX
  8
0
 10
38.47758123
 20
196.34166799
  0
VERTEX
  8
0
 10
38.20662488
 20
196.32190049
  0
VERTEX
  8
0
 10
37.95931463
 20
196.26424861
  0
VERTEX
  8
0
 10
37.73666912
 20
196.16764187
  0
VERTEX
  8
0
 10
37.53970699
 20
196.03100975
  0
VERTEX
  8
0
 10
37.36944689
 20
195.85328173
  0
VERTEX
  8
0
 10
37.22690745
 20
195.63338732
  0
VERTEX
  8
0
 10
37.11310732
 20
195.37025600
  0
VERTEX
  8
0
 10
37.02906513
 20
195.06281727
  0
VERTEX
  8
0
 10
36.97579953
 20
194.71000061
  0
VERTEX
  8
0
 10
36.58898703
 20
189.60409390
  0
VERTEX
  8
0
 10
36.17989968
 20
184.50189975
  0
VERTEX
  8
0
 10
35.32460021
 20
174.30369926
  0
VERTEX
  8
0
 10
34.46930074
 20
164.10549944
  0
VERTEX
  8
0
 10
34.06021339
 20
159.00330611
  0
VERTEX
  8
0
 10
33.67340089
 20
153.89740056
  0
VERTEX
  8
0
 10
33.62536343
 20
153.43086878
  0
VERTEX
  8
0
 10
33.55107592
 20
152.97833628
  0
VERTEX
  8
0
 10
33.45053836
 20
152.53980303
  0
VERTEX
  8
0
 10
33.32375076
 20
152.11526903
  0
VERTEX
  8
0
 10
33.17071313
 20
151.70473429
  0
VERTEX
  8
0
 10
32.99142546
 20
151.30819878
  0
VERTEX
  8
0
 10
32.78588777
 20
150.92566252
  0
VERTEX
  8
0
 10
32.55410006
 20
150.55712549
  0
VERTEX
  8
0
 10
32.29606233
 20
150.20258769
  0
VERTEX
  8
0
 10
32.01177460
 20
149.86204911
  0
VERTEX
  8
0
 10
31.70123685
 20
149.53550975
  0
VERTEX
  8
0
 10
31.36444911
 20
149.22296960
  0
VERTEX
  8
0
 10
31.00141138
 20
148.92442866
  0
VERTEX
  8
0
 10
30.61212365
 20
148.63988692
  0
VERTEX
  8
0
 10
30.19658594
 20
148.36934438
  0
VERTEX
  8
0
 10
29.75479825
 20
148.11280103
  0
VERTEX
  8
0
 10
22.29080011
 20
145.31379864
  0
VERTEX
  8
0
 10
21.92516516
 20
145.24900291
  0
VERTEX
  8
0
 10
21.60367435
 20
145.23003193
  0
VERTEX
  8
0
 10
21.32586082
 20
145.25282386
  0
VERTEX
  8
0
 10
21.09125772
 20
145.31331682
  0
VERTEX
  8
0
 10
20.89939820
 20
145.40744897
  0
VERTEX
  8
0
 10
20.74981541
 20
145.53115846
  0
VERTEX
  8
0
 10
20.64204251
 20
145.68038342
  0
VERTEX
  8
0
 10
20.57561264
 20
145.85106200
  0
VERTEX
  8
0
 10
20.55005895
 20
146.03913234
  0
VERTEX
  8
0
 10
20.56491459
 20
146.24053260
  0
VERTEX
  8
0
 10
20.61971271
 20
146.45120091
  0
VERTEX
  8
0
 10
20.71398647
 20
146.66707542
  0
VERTEX
  8
0
 10
20.84726900
 20
146.88409427
  0
VERTEX
  8
0
 10
21.01909347
 20
147.09819561
  0
VERTEX
  8
0
 10
21.22899302
 20
147.30531758
  0
VERTEX
  8
0
 10
21.47650081
 20
147.50139833
  0
VERTEX
  8
0
 10
23.19409963
 20
148.30584716
  0
VERTEX
  8
0
 10
24.83314636
 20
149.08733387
  0
VERTEX
  8
0
 10
25.60792009
 20
149.48204875
  0
VERTEX
  8
0
 10
26.34470468
 20
149.88612186
  0
VERTEX
  8
0
 10
27.03738309
 20
150.30458613
  0
VERTEX
  8
0
 10
27.67983830
 20
150.74247449
  0
VERTEX
  8
0
 10
28.26595325
 20
151.20481986
  0
VERTEX
  8
0
 10
28.53597155
 20
151.44673671
  0
VERTEX
  8
0
 10
28.78961091
 20
151.69665516
  0
VERTEX
  8
0
 10
29.02610668
 20
151.95520432
  0
VERTEX
  8
0
 10
29.24469424
 20
152.22301332
  0
VERTEX
  8
0
 10
29.44460896
 20
152.50071125
  0
VERTEX
  8
0
 10
29.62508622
 20
152.78892725
  0
VERTEX
  8
0
 10
29.78536137
 20
153.08829042
  0
VERTEX
  8
0
 10
29.92466979
 20
153.39942988
  0
VERTEX
  8
0
 10
30.04224685
 20
153.72297474
  0
VERTEX
  8
0
 10
30.13732792
 20
154.05955413
  0
VERTEX
  8
0
 10
30.20914837
 20
154.40979715
  0
VERTEX
  8
0
 10
30.25694358
 20
154.77433293
  0
VERTEX
  8
0
 10
30.27994890
 20
155.15379057
  0
VERTEX
  8
0
 10
30.27739972
 20
155.54879919
  0
VERTEX
  8
0
 10
30.49621229
 20
160.70482766
  0
VERTEX
  8
0
 10
30.69139988
 20
165.86282462
  0
VERTEX
  8
0
 10
31.04240010
 20
176.18209938
  0
VERTEX
  8
0
 10
31.39340032
 20
186.50137413
  0
VERTEX
  8
0
 10
31.58858791
 20
191.65937109
  0
VERTEX
  8
0
 10
31.80740047
 20
196.81539956
  0
VERTEX
  8
0
 10
31.77076279
 20
197.43696537
  0
VERTEX
  8
0
 10
31.75341882
 20
198.03046887
  0
VERTEX
  8
0
 10
31.75536851
 20
198.59591007
  0
VERTEX
  8
0
 10
31.77661181
 20
199.13328896
  0
VERTEX
  8
0
 10
31.81714864
 20
199.64260554
  0
VERTEX
  8
0
 10
31.87697897
 20
200.12385981
  0
VERTEX
  8
0
 10
31.95610273
 20
200.57705178
  0
VERTEX
  8
0
 10
32.05451987
 20
201.00218144
  0
VERTEX
  8
0
 10
32.17223034
 20
201.39924879
  0
VERTEX
  8
0
 10
32.30923407
 20
201.76825383
  0
VERTEX
  8
0
 10
32.46553102
 20
202.10919656
  0
VERTEX
  8
0
 10
32.64112112
 20
202.42207699
  0
VERTEX
  8
0
 10
32.83600432
 20
202.70689511
  0
VERTEX
  8
0
 10
33.05018057
 20
202.96365092
  0
VERTEX
  8
0
 10
33.28364981
 20
203.19234442
  0
VERTEX
  8
0
 10
33.53641199
 20
203.39297562
  0
VERTEX
  8
0
 10
33.80846704
 20
203.56554451
  0
VERTEX
  8
0
 10
34.09981492
 20
203.71005109
  0
VERTEX
  8
0
 10
34.41045556
 20
203.82649536
  0
VERTEX
  8
0
 10
34.74038892
 20
203.91487732
  0
VERTEX
  8
0
 10
35.08961494
 20
203.97519698
  0
VERTEX
  8
0
 10
35.45813355
 20
204.00745433
  0
VERTEX
  8
0
 10
35.84594472
 20
204.01164937
  0
VERTEX
  8
0
 10
36.25304837
 20
203.98778210
  0
VERTEX
  8
0
 10
36.67944446
 20
203.93585253
  0
VERTEX
  8
0
 10
37.12513293
 20
203.85586065
  0
VERTEX
  8
0
 10
37.59011372
 20
203.74780646
  0
VERTEX
  8
0
 10
38.07438678
 20
203.61168996
  0
VERTEX
  8
0
 10
38.57795205
 20
203.44751115
  0
VERTEX
  8
0
 10
39.10080948
 20
203.25527004
  0
VERTEX
  8
0
 10
39.64295901
 20
203.03496662
  0
VERTEX
  8
0
 10
40.20440058
 20
202.78660089
  0
VERTEX
  8
0
 10
58.11800106
 20
195.32259922
  0
VERTEX
  8
0
 10
58.70784391
 20
195.16505433
  0
VERTEX
  8
0
 10
59.28657149
 20
195.04639713
  0
VERTEX
  8
0
 10
59.85470764
 20
194.96479511
  0
VERTEX
  8
0
 10
60.41277618
 20
194.91841577
  0
VERTEX
  8
0
 10
60.96130096
 20
194.90542660
  0
VERTEX
  8
0
 10
61.50080580
 20
194.92399509
  0
VERTEX
  8
0
 10
62.03181454
 20
194.97228873
  0
VERTEX
  8
0
 10
62.55485101
 20
195.04847501
  0
VERTEX
  8
0
 10
63.07043904
 20
195.15072143
  0
VERTEX
  8
0
 10
63.57910248
 20
195.27719548
  0
VERTEX
  8
0
 10
64.08136515
 20
195.42606465
  0
VERTEX
  8
0
 10
64.57775088
 20
195.59549643
  0
VERTEX
  8
0
 10
65.06878352
 20
195.78365830
  0
VERTEX
  8
0
 10
65.55498689
 20
195.98871778
  0
VERTEX
  8
0
 10
66.51500117
 20
196.44219947
  0
VERTEX
  8
0
 10
72.67280078
 20
199.42780014
  0
SEQEND
  0
POLYLINE
  8
Nível Padrão
 66
   1
 39
0.000000
 70
    1
  0
VERTEX
  8
0
 10
44.49619978
 20
173.86359972
  0
VERTEX
  8
0
 10
45.10444738
 20
173.79154793
  0
VERTEX
  8
0
 10
45.68346189
 20
173.76420468
  0
VERTEX
  8
0
 10
46.23445796
 20
173.77971283
  0
VERTEX
  8
0
 10
46.75865026
 20
173.83621524
  0
VERTEX
  8
0
 10
47.25725345
 20
173.93185477
  0
VERTEX
  8
0
 10
47.73148218
 20
174.06477430
  0
VERTEX
  8
0
 10
48.18255111
 20
174.23311667
  0
VERTEX
  8
0
 10
48.61167491
 20
174.43502476
  0
VERTEX
  8
0
 10
49.02006823
 20
174.66864142
  0
VERTEX
  8
0
 10
49.40894573
 20
174.93210952
  0
VERTEX
  8
0
 10
49.77952208
 20
175.22357193
  0
VERTEX
  8
0
 10
50.13301193
 20
175.54117150
  0
VERTEX
  8
0
 10
50.47062994
 20
175.88305109
  0
VERTEX
  8
0
 10
50.79359078
 20
176.24735358
  0
VERTEX
  8
0
 10
51.10310910
 20
176.63222181
  0
VERTEX
  8
0
 10
51.40039956
 20
177.03579867
  0
VERTEX
  8
0
 10
52.39858367
 20
177.87700688
  0
VERTEX
  8
0
 10
53.40278012
 20
178.65361201
  0
VERTEX
  8
0
 10
53.90771030
 20
179.01585742
  0
VERTEX
  8
0
 10
54.41483636
 20
179.35975485
  0
VERTEX
  8
0
 10
54.92438923
 20
179.68457191
  0
VERTEX
  8
0
 10
55.43659984
 20
179.98957619
  0
VERTEX
  8
0
 10
55.95169913
 20
180.27403528
  0
VERTEX
  8
0
 10
56.46991803
 20
180.53721680
  0
VERTEX
  8
0
 10
56.99148747
 20
180.77838833
  0
VERTEX
  8
0
 10
57.51663838
 20
180.99681748
  0
VERTEX
  8
0
 10
58.04560170
 20
181.19177184
  0
VERTEX
  8
0
 10
58.57860836
 20
181.36251901
  0
VERTEX
  8
0
 10
59.11588928
 20
181.50832659
  0
VERTEX
  8
0
 10
59.65767541
 20
181.62846218
  0
VERTEX
  8
0
 10
60.20419768
 20
181.72219338
  0
VERTEX
  8
0
 10
60.75568701
 20
181.78878778
  0
VERTEX
  8
0
 10
61.31237434
 20
181.82751299
  0
VERTEX
  8
0
 10
61.87449060
 20
181.83763659
  0
VERTEX
  8
0
 10
62.44226672
 20
181.81842620
  0
VERTEX
  8
0
 10
63.01593365
 20
181.76914940
  0
VERTEX
  8
0
 10
63.59572230
 20
181.68907380
  0
VERTEX
  8
0
 10
64.18186361
 20
181.57746700
  0
VERTEX
  8
0
 10
64.77458851
 20
181.43359659
  0
VERTEX
  8
0
 10
65.37412794
 20
181.25673017
  0
VERTEX
  8
0
 10
65.98071283
 20
181.04613534
  0
VERTEX
  8
0
 10
66.59457410
 20
180.80107969
  0
VERTEX
  8
0
 10
67.21594270
 20
180.52083084
  0
VERTEX
  8
0
 10
67.84504955
 20
180.20465637
  0
VERTEX
  8
0
 10
68.48212559
 20
179.85182388
  0
VERTEX
  8
0
 10
69.12740175
 20
179.46160097
  0
VERTEX
  8
0
 10
70.72765361
 20
178.61035732
  0
VERTEX
  8
0
 10
72.34056061
 20
177.76966594
  0
VERTEX
  8
0
 10
73.96700515
 20
176.94026116
  0
VERTEX
  8
0
 10
75.60786967
 20
176.12287730
  0
VERTEX
  8
0
 10
77.26403656
 20
175.31824870
  0
VERTEX
  8
0
 10
78.93638826
 20
174.52710967
  0
VERTEX
  8
0
 10
80.62580717
 20
173.75019455
  0
VERTEX
  8
0
 10
82.33317572
 20
172.98823767
  0
VERTEX
  8
0
 10
84.05937632
 20
172.24197335
  0
VERTEX
  8
0
 10
85.80529138
 20
171.51213591
  0
VERTEX
  8
0
 10
87.57180333
 20
170.79945970
  0
VERTEX
  8
0
 10
89.35979457
 20
170.10467902
  0
VERTEX
  8
0
 10
91.17014753
 20
169.42852822
  0
VERTEX
  8
0
 10
93.00374462
 20
168.77174161
  0
VERTEX
  8
0
 10
94.86146826
 20
168.13505353
  0
VERTEX
  8
0
 10
96.74420086
 20
167.51919831
  0
VERTEX
  8
0
 10
97.44684763
 20
167.08688001
  0
VERTEX
  8
0
 10
98.08846313
 20
166.74174913
  0
VERTEX
  8
0
 10
98.66904736
 20
166.48380568
  0
VERTEX
  8
0
 10
98.93645276
 20
166.38752923
  0
VERTEX
  8
0
 10
99.18860034
 20
166.31304965
  0
VERTEX
  8
0
 10
99.42549011
 20
166.26036693
  0
VERTEX
  8
0
 10
99.64712207
 20
166.22948107
  0
VERTEX
  8
0
 10
99.85349622
 20
166.22039207
  0
VERTEX
  8
0
 10
100.04461255
 20
166.23309994
  0
VERTEX
  8
0
 10
100.22047108
 20
166.26760467
  0
VERTEX
  8
0
 10
100.38107180
 20
166.32390627
  0
VERTEX
  8
0
 10
100.52641470
 20
166.40200474
  0
VERTEX
  8
0
 10
100.65649980
 20
166.50190008
  0
VERTEX
  8
0
 10
100.77132709
 20
166.62359229
  0
VERTEX
  8
0
 10
100.87089658
 20
166.76708138
  0
VERTEX
  8
0
 10
100.95520825
 20
166.93236733
  0
VERTEX
  8
0
 10
101.02426213
 20
167.11945016
  0
VERTEX
  8
0
 10
101.07805819
 20
167.32832987
  0
VERTEX
  8
0
 10
101.11659645
 20
167.55900646
  0
VERTEX
  8
0
 10
101.13987691
 20
167.81147992
  0
VERTEX
  8
0
 10
101.14789957
 20
168.08575027
  0
VERTEX
  8
0
 10
101.11817147
 20
168.69968160
  0
VERTEX
  8
0
 10
101.02741217
 20
169.40080047
  0
VERTEX
  8
0
 10
100.87562167
 20
170.18910689
  0
VERTEX
  8
0
 10
100.66279997
 20
171.06460086
  0
VERTEX
  8
0
 10
100.04510773
 20
172.38479002
  0
VERTEX
  8
0
 10
99.43215777
 20
173.73106405
  0
VERTEX
  8
0
 10
98.22038276
 20
176.50130470
  0
VERTEX
  8
0
 10
97.02727101
 20
179.37419870
  0
VERTEX
  8
0
 10
95.85261864
 20
182.34862191
  0
VERTEX
  8
0
 10
94.69622173
 20
185.42345022
  0
VERTEX
  8
0
 10
93.55787638
 20
188.59755951
  0
VERTEX
  8
0
 10
92.43737868
 20
191.86982564
  0
VERTEX
  8
0
 10
91.33452474
 20
195.23912450
  0
VERTEX
  8
0
 10
90.24911064
 20
198.70433197
  0
VERTEX
  8
0
 10
89.18093247
 20
202.26432392
  0
VERTEX
  8
0
 10
88.12978635
 20
205.91797624
  0
VERTEX
  8
0
 10
87.09546836
 20
209.66416479
  0
VERTEX
  8
0
 10
86.07777459
 20
213.50176545
  0
VERTEX
  8
0
 10
85.07650114
 20
217.42965411
  0
VERTEX
  8
0
 10
84.09144410
 20
221.44670664
  0
VERTEX
  8
0
 10
83.12239958
 20
225.55179892
  0
VERTEX
  8
0
 10
82.94193412
 20
225.98029762
  0
VERTEX
  8
0
 10
82.80258236
 20
226.41938491
  0
VERTEX
  8
0
 10
82.70435574
 20
226.86721111
  0
VERTEX
  8
0
 10
82.64726568
 20
227.32192657
  0
VERTEX
  8
0
 10
82.63132363
 20
227.78168164
  0
VERTEX
  8
0
 10
82.65654101
 20
228.24462667
  0
VERTEX
  8
0
 10
82.72292925
 20
228.70891200
  0
VERTEX
  8
0
 10
82.83049978
 20
229.17268798
  0
VERTEX
  8
0
 10
82.97926404
 20
229.63410495
  0
VERTEX
  8
0
 10
83.16923345
 20
230.09131325
  0
VERTEX
  8
0
 10
83.40041945
 20
230.54246324
  0
VERTEX
  8
0
 10
83.67283346
 20
230.98570525
  0
VERTEX
  8
0
 10
83.98648692
 20
231.41918964
  0
VERTEX
  8
0
 10
84.34139125
 20
231.84106675
  0
VERTEX
  8
0
 10
84.73755790
 20
232.24948692
  0
VERTEX
  8
0
 10
85.17499828
 20
232.64260050
  0
VERTEX
  8
0
 10
92.63899994
 20
238.98699839
  0
VERTEX
  8
0
 10
93.05421121
 20
239.29387700
  0
VERTEX
  8
0
 10
93.43862799
 20
239.51715686
  0
VERTEX
  8
0
 10
93.78973074
 20
239.66239781
  0
VERTEX
  8
0
 10
93.95200199
 20
239.70749112
  0
VERTEX
  8
0
 10
94.10499992
 20
239.73515963
  0
VERTEX
  8
0
 10
94.24840956
 20
239.74609832
  0
VERTEX
  8
0
 10
94.38191598
 20
239.74100215
  0
VERTEX
  8
0
 10
94.50520424
 20
239.72056612
  0
VERTEX
  8
0
 10
94.61795940
 20
239.68548518
  0
VERTEX
  8
0
 10
94.71986651
 20
239.63645432
  0
VERTEX
  8
0
 10
94.81061062
 20
239.57416852
  0
VERTEX
  8
0
 10
94.88987680
 20
239.49932275
  0
VERTEX
  8
0
 10
94.95735011
 20
239.41261199
  0
VERTEX
  8
0
 10
95.01271559
 20
239.31473121
  0
VERTEX
  8
0
 10
95.05565832
 20
239.20637539
  0
VERTEX
  8
0
 10
95.10301571
 20
238.96101854
  0
VERTEX
  8
0
 10
95.09690274
 20
238.68210125
  0
VERTEX
  8
0
 10
95.03479988
 20
238.37518333
  0
VERTEX
  8
0
 10
94.91418757
 20
238.04582459
  0
VERTEX
  8
0
 10
94.73254628
 20
237.69958483
  0
VERTEX
  8
0
 10
94.48735646
 20
237.34202387
  0
VERTEX
  8
0
 10
94.17609858
 20
236.97870153
  0
VERTEX
  8
0
 10
88.90699911
 20
231.70959853
  0
VERTEX
  8
0
 10
88.58946487
 20
231.44669812
  0
VERTEX
  8
0
 10
88.29836889
 20
231.16528900
  0
VERTEX
  8
0
 10
88.03445253
 20
230.86485305
  0
VERTEX
  8
0
 10
87.79845712
 20
230.54487216
  0
VERTEX
  8
0
 10
87.59112403
 20
230.20482820
  0
VERTEX
  8
0
 10
87.41319460
 20
229.84420306
  0
VERTEX
  8
0
 10
87.26541019
 20
229.46247861
  0
VERTEX
  8
0
 10
87.14851213
 20
229.05913675
  0
VERTEX
  8
0
 10
87.06324179
 20
228.63365935
  0
VERTEX
  8
0
 10
87.01034051
 20
228.18552829
  0
VERTEX
  8
0
 10
86.99054965
 20
227.71422546
  0
VERTEX
  8
0
 10
87.00461055
 20
227.21923274
  0
VERTEX
  8
0
 10
87.05326456
 20
226.70003200
  0
VERTEX
  8
0
 10
87.13725304
 20
226.15610514
  0
VERTEX
  8
0
 10
87.25731733
 20
225.58693403
  0
VERTEX
  8
0
 10
87.41419878
 20
224.99200056
  0
VERTEX
  8
0
 10
88.09807864
 20
222.14227162
  0
VERTEX
  8
0
 10
88.80575674
 20
219.27935568
  0
VERTEX
  8
0
 10
89.54291653
 20
216.39486578
  0
VERTEX
  8
0
 10
90.31524148
 20
213.48041496
  0
VERTEX
  8
0
 10
91.12841503
 20
210.52761626
  0
VERTEX
  8
0
 10
91.98812064
 20
207.52808272
  0
VERTEX
  8
0
 10
92.90004178
 20
204.47342737
  0
VERTEX
  8
0
 10
93.86986190
 20
201.35526326
  0
VERTEX
  8
0
 10
94.90326444
 20
198.16520343
  0
VERTEX
  8
0
 10
96.00593288
 20
194.89486091
  0
VERTEX
  8
0
 10
97.18355067
 20
191.53584874
  0
VERTEX
  8
0
 10
98.44180126
 20
188.07977996
  0
VERTEX
  8
0
 10
99.78636811
 20
184.51826762
  0
VERTEX
  8
0
 10
101.22293468
 20
180.84292474
  0
VERTEX
  8
0
 10
102.75718443
 20
177.04536437
  0
VERTEX
  8
0
 10
104.39480081
 20
173.11719956
  0
VERTEX
  8
0
 10
108.31339992
 20
165.09339953
  0
VERTEX
  8
0
 10
108.39511113
 20
164.68093922
  0
VERTEX
  8
0
 10
108.45355472
 20
164.28306324
  0
VERTEX
  8
0
 10
108.48955214
 20
163.89973269
  0
VERTEX
  8
0
 10
108.50392482
 20
163.53090868
  0
VERTEX
  8
0
 10
108.49749423
 20
163.17655232
  0
VERTEX
  8
0
 10
108.47108180
 20
162.83662473
  0
VERTEX
  8
0
 10
108.42550899
 20
162.51108701
  0
VERTEX
  8
0
 10
108.36159724
 20
162.19990026
  0
VERTEX
  8
0
 10
108.28016801
 20
161.90302562
  0
VERTEX
  8
0
 10
108.18204273
 20
161.62042417
  0
VERTEX
  8
0
 10
108.06804286
 20
161.35205704
  0
VERTEX
  8
0
 10
107.93898984
 20
161.09788533
  0
VERTEX
  8
0
 10
107.79570513
 20
160.85787016
  0
VERTEX
  8
0
 10
107.63901016
 20
160.63197263
  0
VERTEX
  8
0
 10
107.46972640
 20
160.42015385
  0
VERTEX
  8
0
 10
107.28867528
 20
160.22237494
  0
VERTEX
  8
0
 10
107.09667826
 20
160.03859700
  0
VERTEX
  8
0
 10
106.89455678
 20
159.86878115
  0
VERTEX
  8
0
 10
106.68313229
 20
159.71288850
  0
VERTEX
  8
0
 10
106.46322623
 20
159.57088015
  0
VERTEX
  8
0
 10
106.23566007
 20
159.44271721
  0
VERTEX
  8
0
 10
106.00125524
 20
159.32836081
  0
VERTEX
  8
0
 10
105.51521537
 20
159.14091201
  0
VERTEX
  8
0
 10
105.01167821
 20
159.00822264
  0
VERTEX
  8
0
 10
104.49721534
 20
158.92998158
  0
VERTEX
  8
0
 10
103.97839836
 20
158.90587771
  0
VERTEX
  8
0
 10
103.46179883
 20
158.93559992
  0
VERTEX
  8
0
 10
101.22002021
 20
159.41507315
  0
VERTEX
  8
0
 10
98.99356061
 20
159.93414959
  0
VERTEX
  8
0
 10
96.78112892
 20
160.49075824
  0
VERTEX
  8
0
 10
94.58143402
 20
161.08282811
  0
VERTEX
  8
0
 10
92.39318482
 20
161.70828821
  0
VERTEX
  8
0
 10
90.21509019
 20
162.36506755
  0
VERTEX
  8
0
 10
88.04585903
 20
163.05109514
  0
VERTEX
  8
0
 10
85.88420023
 20
163.76429999
  0
VERTEX
  8
0
 10
83.72882268
 20
164.50261111
  0
VERTEX
  8
0
 10
81.57843528
 20
165.26395752
  0
VERTEX
  8
0
 10
79.43174690
 20
166.04626821
  0
VERTEX
  8
0
 10
77.28746644
 20
166.84747221
  0
VERTEX
  8
0
 10
73.00096484
 20
168.49827615
  0
VERTEX
  8
0
 10
68.70860161
 20
170.19980142
  0
VERTEX
  8
0
 10
68.26656271
 20
170.38683834
  0
VERTEX
  8
0
 10
67.81566744
 20
170.56293353
  0
VERTEX
  8
0
 10
67.35519683
 20
170.72329987
  0
VERTEX
  8
0
 10
66.88443193
 20
170.86315025
  0
VERTEX
  8
0
 10
66.40265379
 20
170.97769756
  0
VERTEX
  8
0
 10
65.90914346
 20
171.06215467
  0
VERTEX
  8
0
 10
65.40318199
 20
171.11173448
  0
VERTEX
  8
0
 10
64.88405041
 20
171.12164988
  0
VERTEX
  8
0
 10
64.35102978
 20
171.08711374
  0
VERTEX
  8
0
 10
63.80340114
 20
171.00333897
  0
VERTEX
  8
0
 10
63.24044554
 20
170.86553843
  0
VERTEX
  8
0
 10
62.66144403
 20
170.66892503
  0
VERTEX
  8
0
 10
62.06567764
 20
170.40871164
  0
VERTEX
  8
0
 10
61.45242744
 20
170.08011116
  0
VERTEX
  8
0
 10
60.82097446
 20
169.67833646
  0
VERTEX
  8
0
 10
60.17059975
 20
169.19860044
  0
VERTEX
  8
0
 10
50.28079931
 20
159.86859836
  0
VERTEX
  8
0
 10
49.85675912
 20
159.64440749
  0
VERTEX
  8
0
 10
49.44754317
 20
159.46766857
  0
VERTEX
  8
0
 10
49.05285849
 20
159.33743986
  0
VERTEX
  8
0
 10
48.67241211
 20
159.25277961
  0
VERTEX
  8
0
 10
48.30591104
 20
159.21274606
  0
VERTEX
  8
0
 10
47.95306232
 20
159.21639749
  0
VERTEX
  8
0
 10
47.61357297
 20
159.26279213
  0
VERTEX
  8
0
 10
47.28715001
 20
159.35098825
  0
VERTEX
  8
0
 10
46.97350048
 20
159.48004410
  0
VERTEX
  8
0
 10
46.67233140
 20
159.64901793
  0
VERTEX
  8
0
 10
46.38334979
 20
159.85696800
  0
VERTEX
  8
0
 10
46.10626267
 20
160.10295255
  0
VERTEX
  8
0
 10
45.84077708
 20
160.38602985
  0
VERTEX
  8
0
 10
45.58660005
 20
160.70525815
  0
VERTEX
  8
0
 10
45.34343858
 20
161.05969570
  0
VERTEX
  8
0
 10
45.11099972
 20
161.44840075
  0
VERTEX
  8
0
 10
51.59299858
 20
167.35949933
  0
VERTEX
  8
0
 10
49.90890097
 20
169.20649914
  0
VERTEX
  8
0
 10
43.26770056
 20
163.14999967
  0
VERTEX
  8
0
 10
39.08480033
 20
167.33260003
  0
VERTEX
  8
0
 10
38.97816302
 20
167.67215694
  0
VERTEX
  8
0
 10
38.88994074
 20
168.02029810
  0
VERTEX
  8
0
 10
38.82007098
 20
168.37529111
  0
VERTEX
  8
0
 10
38.76849123
 20
168.73540361
  0
VERTEX
  8
0
 10
38.73513898
 20
169.09890321
  0
VERTEX
  8
0
 10
38.71995172
 20
169.46405752
  0
VERTEX
  8
0
 10
38.72286693
 20
169.82913418
  0
VERTEX
  8
0
 10
38.74382209
 20
170.19240080
  0
VERTEX
  8
0
 10
38.78275470
 20
170.55212500
  0
VERTEX
  8
0
 10
38.83960224
 20
170.90657440
  0
VERTEX
  8
0
 10
38.91430220
 20
171.25401662
  0
VERTEX
  8
0
 10
39.00679207
 20
171.59271928
  0
VERTEX
  8
0
 10
39.11700933
 20
171.92095000
  0
VERTEX
  8
0
 10
39.24489147
 20
172.23697640
  0
VERTEX
  8
0
 10
39.39037598
 20
172.53906611
  0
VERTEX
  8
0
 10
39.55340035
 20
172.82548673
  0
VERTEX
  8
0
 10
39.73390205
 20
173.09450589
  0
VERTEX
  8
0
 10
39.93181859
 20
173.34439121
  0
VERTEX
  8
0
 10
40.14708743
 20
173.57341032
  0
VERTEX
  8
0
 10
40.37964609
 20
173.77983082
  0
VERTEX
  8
0
 10
40.62943203
 20
173.96192034
  0
VERTEX
  8
0
 10
40.89638275
 20
174.11794651
  0
VERTEX
  8
0
 10
41.18043573
 20
174.24617693
  0
VERTEX
  8
0
 10
41.48152846
 20
174.34487923
  0
VERTEX
  8
0
 10
41.79959843
 20
174.41232103
  0
VERTEX
  8
0
 10
42.13458312
 20
174.44676996
  0
VERTEX
  8
0
 10
42.48642003
 20
174.44649362
  0
VERTEX
  8
0
 10
42.85504663
 20
174.40975964
  0
VERTEX
  8
0
 10
43.24040042
 20
174.33483564
  0
VERTEX
  8
0
 10
43.64241889
 20
174.21998924
  0
VERTEX
  8
0
 10
44.06103951
 20
174.06348806
  0
VERTEX
  8
0
 10
44.49619978
 20
173.86359972
  0
SEQEND
  0
POLYLINE
  8
Nível Padrão
 66
   1
 39
0.000000
 70
    1
  0
VERTEX
  8
0
 10
121.08449875
 20
208.31110089
  0
VERTEX
  8
0
 10
122.68160136
 20
206.89179828
  0
VERTEX
  8
0
 10
122.86395032
 20
206.56978919
  0
VERTEX
  8
0
 10
123.00974493
 20
206.25822730
  0
VERTEX
  8
0
 10
123.12027544
 20
205.95674348
  0
VERTEX
  8
0
 10
123.19683209
 20
205.66496858
  0
VERTEX
  8
0
 10
123.24070514
 20
205.38253347
  0
VERTEX
  8
0
 10
123.25318483
 20
205.10906902
  0
VERTEX
  8
0
 10
123.23556140
 20
204.84420609
  0
VERTEX
  8
0
 10
123.18912511
 20
204.58757554
  0
VERTEX
  8
0
 10
123.11516620
 20
204.33880825
  0
VERTEX
  8
0
 10
123.01497491
 20
204.09753507
  0
VERTEX
  8
0
 10
122.88984150
 20
203.86338688
  0
VERTEX
  8
0
 10
122.74105621
 20
203.63599453
  0
VERTEX
  8
0
 10
122.56990929
 20
203.41498889
  0
VERTEX
  8
0
 10
122.37769098
 20
203.20000083
  0
VERTEX
  8
0
 10
122.16569153
 20
202.99066121
  0
VERTEX
  8
0
 10
121.93520119
 20
202.78660089
  0
VERTEX
  8
0
 10
115.59079978
 20
193.27000053
  0
VERTEX
  8
0
 10
115.18248782
 20
192.80453336
  0
VERTEX
  8
0
 10
114.81122785
 20
192.31979522
  0
VERTEX
  8
0
 10
114.47874693
 20
191.81488787
  0
VERTEX
  8
0
 10
114.18677211
 20
191.28891309
  0
VERTEX
  8
0
 10
113.93703046
 20
190.74097263
  0
VERTEX
  8
0
 10
113.73124903
 20
190.17016828
  0
VERTEX
  8
0
 10
113.57115488
 20
189.57560180
  0
VERTEX
  8
0
 10
113.45847507
 20
188.95637497
  0
VERTEX
  8
0
 10
113.39493665
 20
188.31158956
  0
VERTEX
  8
0
 10
113.38226668
 20
187.64034733
  0
VERTEX
  8
0
 10
113.42219221
 20
186.94175005
  0
VERTEX
  8
0
 10
113.51644032
 20
186.21489950
  0
VERTEX
  8
0
 10
113.66673804
 20
185.45889746
  0
VERTEX
  8
0
 10
113.87481245
 20
184.67284567
  0
VERTEX
  8
0
 10
114.14239059
 20
183.85584593
  0
VERTEX
  8
0
 10
114.47119953
 20
183.00700000
  0
VERTEX
  8
0
 10
127.71980072
 20
155.39020089
  0
VERTEX
  8
0
 10
128.07173008
 20
154.66174046
  0
VERTEX
  8
0
 10
128.39351200
 20
153.95649070
  0
VERTEX
  8
0
 10
128.68483732
 20
153.27468588
  0
VERTEX
  8
0
 10
128.94539690
 20
152.61656028
  0
VERTEX
  8
0
 10
129.17488157
 20
151.98234819
  0
VERTEX
  8
0
 10
129.37298219
 20
151.37228390
  0
VERTEX
  8
0
 10
129.53938958
 20
150.78660168
  0
VERTEX
  8
0
 10
129.67379461
 20
150.22553582
  0
VERTEX
  8
0
 10
129.77588811
 20
149.68932061
  0
VERTEX
  8
0
 10
129.84536093
 20
149.17819032
  0
VERTEX
  8
0
 10
129.88190391
 20
148.69237924
  0
VERTEX
  8
0
 10
129.88520790
 20
148.23212166
  0
VERTEX
  8
0
 10
129.85496374
 20
147.79765185
  0
VERTEX
  8
0
 10
129.79086227
 20
147.38920410
  0
VERTEX
  8
0
 10
129.69259435
 20
147.00701270
  0
VERTEX
  8
0
 10
129.55985081
 20
146.65131193
  0
VERTEX
  8
0
 10
129.39232249
 20
146.32233606
  0
VERTEX
  8
0
 10
129.18970026
 20
146.02031940
  0
VERTEX
  8
0
 10
128.95167494
 20
145.74549621
  0
VERTEX
  8
0
 10
128.67793738
 20
145.49810078
  0
VERTEX
  8
0
 10
128.36817843
 20
145.27836740
  0
VERTEX
  8
0
 10
128.02208893
 20
145.08653035
  0
VERTEX
  8
0
 10
127.63935973
 20
144.92282391
  0
VERTEX
  8
0
 10
127.21968167
 20
144.78748236
  0
VERTEX
  8
0
 10
126.76274559
 20
144.68074000
  0
VERTEX
  8
0
 10
126.26824234
 20
144.60283109
  0
VERTEX
  8
0
 10
125.73586277
 20
144.55398994
  0
VERTEX
  8
0
 10
125.16529771
 20
144.53445081
  0
VERTEX
  8
0
 10
124.55623802
 20
144.54444800
  0
VERTEX
  8
0
 10
123.90837453
 20
144.58421578
  0
VERTEX
  8
0
 10
123.22139809
 20
144.65398845
  0
VERTEX
  8
0
 10
122.49499956
 20
144.75400028
  0
VERTEX
  8
0
 10
118.91272356
 20
145.87282304
  0
VERTEX
  8
0
 10
115.32072694
 20
146.95761229
  0
VERTEX
  8
0
 10
111.71881414
 20
148.00768598
  0
VERTEX
  8
0
 10
108.10678960
 20
149.02236207
  0
VERTEX
  8
0
 10
104.48445779
 20
150.00095853
  0
VERTEX
  8
0
 10
100.85162315
 20
150.94279331
  0
VERTEX
  8
0
 10
97.20809014
 20
151.84718437
  0
VERTEX
  8
0
 10
93.55366320
 20
152.71344967
  0
VERTEX
  8
0
 10
89.88814679
 20
153.54090717
  0
VERTEX
  8
0
 10
86.21134536
 20
154.32887482
  0
VERTEX
  8
0
 10
82.52306336
 20
155.07667059
  0
VERTEX
  8
0
 10
78.82310524
 20
155.78361244
  0
VERTEX
  8
0
 10
75.11127545
 20
156.44901832
  0
VERTEX
  8
0
 10
71.38737844
 20
157.07220619
  0
VERTEX
  8
0
 10
67.65121867
 20
157.65249401
  0
VERTEX
  8
0
 10
63.90260058
 20
158.18919975
  0
VERTEX
  8
0
 10
63.49809906
 20
158.36304580
  0
VERTEX
  8
0
 10
63.09591253
 20
158.50677106
  0
VERTEX
  8
0
 10
62.69610605
 20
158.61953044
  0
VERTEX
  8
0
 10
62.29874465
 20
158.70047887
  0
VERTEX
  8
0
 10
61.90389338
 20
158.74877130
  0
VERTEX
  8
0
 10
61.51161729
 20
158.76356265
  0
VERTEX
  8
0
 10
61.12198141
 20
158.74400784
  0
VERTEX
  8
0
 10
60.73505081
 20
158.68926181
  0
VERTEX
  8
0
 10
60.35089052
 20
158.59847949
  0
VERTEX
  8
0
 10
59.96956558
 20
158.47081581
  0
VERTEX
  8
0
 10
59.59114104
 20
158.30542570
  0
VERTEX
  8
0
 10
59.21568195
 20
158.10146408
  0
VERTEX
  8
0
 10
58.84325336
 20
157.85808590
  0
VERTEX
  8
0
 10
58.47392030
 20
157.57444607
  0
VERTEX
  8
0
 10
58.10774782
 20
157.24969954
  0
VERTEX
  8
0
 10
57.74480097
 20
156.88300122
  0
VERTEX
  8
0
 10
57.16228106
 20
155.99170542
  0
VERTEX
  8
0
 10
56.54039895
 20
155.13098297
  0
VERTEX
  8
0
 10
55.88827076
 20
154.29155370
  0
VERTEX
  8
0
 10
55.21501257
 20
153.46413741
  0
VERTEX
  8
0
 10
53.84157057
 20
151.80822311
  0
VERTEX
  8
0
 10
53.15961896
 20
150.96116473
  0
VERTEX
  8
0
 10
52.49300172
 20
150.08899864
  0
VERTEX
  8
0
 10
52.05003912
 20
149.73297044
  0
VERTEX
  8
0
 10
51.65539759
 20
149.48079343
  0
VERTEX
  8
0
 10
51.47584926
 20
149.39086359
  0
VERTEX
  8
0
 10
51.30796367
 20
149.32355389
  0
VERTEX
  8
0
 10
51.15160162
 20
149.27775012
  0
VERTEX
  8
0
 10
51.00662393
 20
149.25233807
  0
VERTEX
  8
0
 10
50.87289143
 20
149.24620352
  0
VERTEX
  8
0
 10
50.75026493
 20
149.25823226
  0
VERTEX
  8
0
 10
50.63860525
 20
149.28731006
  0
VERTEX
  8
0
 10
50.53777322
 20
149.33232272
  0
VERTEX
  8
0
 10
50.44762966
 20
149.39215601
  0
VERTEX
  8
0
 10
50.36803537
 20
149.46569572
  0
VERTEX
  8
0
 10
50.29885119
 20
149.55182763
  0
VERTEX
  8
0
 10
50.23993794
 20
149.64943753
  0
VERTEX
  8
0
 10
50.15236748
 20
149.87463442
  0
VERTEX
  8
0
 10
50.10421055
 20
150.13237267
  0
VERTEX
  8
0
 10
50.09435371
 20
150.41373853
  0
VERTEX
  8
0
 10
50.12168352
 20
150.70981830
  0
VERTEX
  8
0
 10
50.18508654
 20
151.01169822
  0
VERTEX
  8
0
 10
50.28344933
 20
151.31046457
  0
VERTEX
  8
0
 10
50.41565844
 20
151.59720363
  0
VERTEX
  8
0
 10
50.58060044
 20
151.86300167
  0
VERTEX
  8
0
 10
51.27600526
 20
152.79488569
  0
VERTEX
  8
0
 10
51.88796314
 20
153.68677613
  0
VERTEX
  8
0
 10
52.44428973
 20
154.55200417
  0
VERTEX
  8
0
 10
52.97280067
 20
155.40390101
  0
VERTEX
  8
0
 10
53.50131161
 20
156.25579786
  0
VERTEX
  8
0
 10
54.05763819
 20
157.12102590
  0
VERTEX
  8
0
 10
54.66959607
 20
158.01291634
  0
VERTEX
  8
0
 10
55.36500089
 20
158.94480036
  0
VERTEX
  8
0
 10
55.65564404
 20
159.46790459
  0
VERTEX
  8
0
 10
55.98520562
 20
159.94659845
  0
VERTEX
  8
0
 10
56.35362047
 20
160.38143405
  0
VERTEX
  8
0
 10
56.76082338
 20
160.77296349
  0
VERTEX
  8
0
 10
57.20674919
 20
161.12173886
  0
VERTEX
  8
0
 10
57.69133269
 20
161.42831227
  0
VERTEX
  8
0
 10
58.21450871
 20
161.69323583
  0
VERTEX
  8
0
 10
58.77621207
 20
161.91706162
  0
VERTEX
  8
0
 10
59.37637757
 20
162.10034175
  0
VERTEX
  8
0
 10
60.01494004
 20
162.24362832
  0
VERTEX
  8
0
 10
60.69183429
 20
162.34747344
  0
VERTEX
  8
0
 10
61.40699513
 20
162.41242920
  0
VERTEX
  8
0
 10
62.16035738
 20
162.43904770
  0
VERTEX
  8
0
 10
62.95185586
 20
162.42788104
  0
VERTEX
  8
0
 10
63.78142538
 20
162.37948133
  0
VERTEX
  8
0
 10
64.64900075
 20
162.29440067
  0
VERTEX
  8
0
 10
68.31966349
 20
161.79687274
  0
VERTEX
  8
0
 10
71.94961769
 20
161.27389738
  0
VERTEX
  8
0
 10
75.53834302
 20
160.72514984
  0
VERTEX
  8
0
 10
79.08531917
 20
160.15030536
  0
VERTEX
  8
0
 10
82.59002582
 20
159.54903920
  0
VERTEX
  8
0
 10
86.05194265
 20
158.92102660
  0
VERTEX
  8
0
 10
89.47054933
 20
158.26594282
  0
VERTEX
  8
0
 10
92.84532556
 20
157.58346311
  0
VERTEX
  8
0
 10
96.17575100
 20
156.87326271
  0
VERTEX
  8
0
 10
99.46130534
 20
156.13501687
  0
VERTEX
  8
0
 10
102.70146826
 20
155.36840085
  0
VERTEX
  8
0
 10
105.89571944
 20
154.57308989
  0
VERTEX
  8
0
 10
109.04353856
 20
153.74875925
  0
VERTEX
  8
0
 10
112.14440530
 20
152.89508416
  0
VERTEX
  8
0
 10
115.19779934
 20
152.01173990
  0
VERTEX
  8
0
 10
118.20320036
 20
151.09840169
  0
VERTEX
  8
0
 10
118.77592028
 20
150.96788126
  0
VERTEX
  8
0
 10
119.31214570
 20
150.87043401
  0
VERTEX
  8
0
 10
119.80933129
 20
150.80836663
  0
VERTEX
  8
0
 10
120.26493176
 20
150.78398580
  0
VERTEX
  8
0
 10
120.67640176
 20
150.79959821
  0
VERTEX
  8
0
 10
121.04119600
 20
150.85751054
  0
VERTEX
  8
0
 10
121.35676915
 20
150.96002948
  0
VERTEX
  8
0
 10
121.49530240
 20
151.02873727
  0
VERTEX
  8
0
 10
121.62057589
 20
151.10946172
  0
VERTEX
  8
0
 10
121.73227145
 20
151.20249116
  0
VERTEX
  8
0
 10
121.83007091
 20
151.30811394
  0
VERTEX
  8
0
 10
121.91365611
 20
151.42661838
  0
VERTEX
  8
0
 10
121.98270889
 20
151.55829283
  0
VERTEX
  8
0
 10
122.03691108
 20
151.70342562
  0
VERTEX
  8
0
 10
122.07594451
 20
151.86230508
  0
VERTEX
  8
0
 10
122.09949102
 20
152.03521955
  0
VERTEX
  8
0
 10
122.10723245
 20
152.22245736
  0
VERTEX
  8
0
 10
122.09885063
 20
152.42430686
  0
VERTEX
  8
0
 10
122.07402740
 20
152.64105638
  0
VERTEX
  8
0
 10
121.97378404
 20
153.12040880
  0
VERTEX
  8
0
 10
121.80395705
 20
153.66282133
  0
VERTEX
  8
0
 10
121.56200111
 20
154.27060064
  0
VERTEX
  8
0
 10
105.14120097
 20
183.56679836
  0
VERTEX
  8
0
 10
104.81666666
 20
183.98833043
  0
VERTEX
  8
0
 10
104.50935332
 20
184.41323538
  0
VERTEX
  8
0
 10
104.21975102
 20
184.84158322
  0
VERTEX
  8
0
 10
103.94834985
 20
185.27344392
  0
VERTEX
  8
0
 10
103.69563988
 20
185.70888746
  0
VERTEX
  8
0
 10
103.46211120
 20
186.14798383
  0
VERTEX
  8
0
 10
103.24825388
 20
186.59080302
  0
VERTEX
  8
0
 10
103.05455801
 20
187.03741500
  0
VERTEX
  8
0
 10
102.88151366
 20
187.48788977
  0
VERTEX
  8
0
 10
102.72961092
 20
187.94229731
  0
VERTEX
  8
0
 10
102.59933986
 20
188.40070759
  0
VERTEX
  8
0
 10
102.49119057
 20
188.86319061
  0
VERTEX
  8
0
 10
102.40565312
 20
189.32981635
  0
VERTEX
  8
0
 10
102.34321760
 20
189.80065479
  0
VERTEX
  8
0
 10
102.30437408
 20
190.27577592
  0
VERTEX
  8
0
 10
102.28961265
 20
190.75524972
  0
VERTEX
  8
0
 10
102.29942338
 20
191.23914617
  0
VERTEX
  8
0
 10
102.33429635
 20
191.72753526
  0
VERTEX
  8
0
 10
102.39472165
 20
192.22048698
  0
VERTEX
  8
0
 10
102.48118935
 20
192.71807130
  0
VERTEX
  8
0
 10
102.59418953
 20
193.22035822
  0
VERTEX
  8
0
 10
102.73421228
 20
193.72741771
  0
VERTEX
  8
0
 10
102.90174768
 20
194.23931976
  0
VERTEX
  8
0
 10
103.09728579
 20
194.75613435
  0
VERTEX
  8
0
 10
103.32131671
 20
195.27793148
  0
VERTEX
  8
0
 10
103.57433052
 20
195.80478111
  0
VERTEX
  8
0
 10
103.85681728
 20
196.33675324
  0
VERTEX
  8
0
 10
104.16926709
 20
196.87391785
  0
VERTEX
  8
0
 10
104.51217002
 20
197.41634493
  0
VERTEX
  8
0
 10
104.88601616
 20
197.96410445
  0
VERTEX
  8
0
 10
105.29129558
 20
198.51726641
  0
VERTEX
  8
0
 10
105.72849836
 20
199.07590078
  0
VERTEX
  8
0
 10
106.24591540
 20
199.72738916
  0
VERTEX
  8
0
 10
106.72018084
 20
200.36966978
  0
VERTEX
  8
0
 10
107.14902991
 20
201.00349572
  0
VERTEX
  8
0
 10
107.53019781
 20
201.62962003
  0
VERTEX
  8
0
 10
107.86141975
 20
202.24879579
  0
VERTEX
  8
0
 10
108.14043095
 20
202.86177605
  0
VERTEX
  8
0
 10
108.36496663
 20
203.46931388
  0
VERTEX
  8
0
 10
108.53276199
 20
204.07216236
  0
VERTEX
  8
0
 10
108.64155225
 20
204.67107453
  0
VERTEX
  8
0
 10
108.67311272
 20
204.96928984
  0
VERTEX
  8
0
 10
108.68907262
 20
205.26680348
  0
VERTEX
  8
0
 10
108.68914885
 20
205.56370957
  0
VERTEX
  8
0
 10
108.67305832
 20
205.86010225
  0
VERTEX
  8
0
 10
108.64051792
 20
206.15607566
  0
VERTEX
  8
0
 10
108.59124455
 20
206.45172393
  0
VERTEX
  8
0
 10
108.52495513
 20
206.74714119
  0
VERTEX
  8
0
 10
108.44136654
 20
207.04242157
  0
VERTEX
  8
0
 10
108.34019569
 20
207.33765921
  0
VERTEX
  8
0
 10
108.22115949
 20
207.63294824
  0
VERTEX
  8
0
 10
108.08397483
 20
207.92838279
  0
VERTEX
  8
0
 10
107.92835862
 20
208.22405700
  0
VERTEX
  8
0
 10
107.75402775
 20
208.52006500
  0
VERTEX
  8
0
 10
107.56069914
 20
208.81650092
  0
VERTEX
  8
0
 10
107.54513654
 20
209.27495037
  0
VERTEX
  8
0
 10
107.54995465
 20
209.70988302
  0
VERTEX
  8
0
 10
107.57464667
 20
210.12162149
  0
VERTEX
  8
0
 10
107.61870580
 20
210.51048843
  0
VERTEX
  8
0
 10
107.68162524
 20
210.87680646
  0
VERTEX
  8
0
 10
107.76289819
 20
211.22089822
  0
VERTEX
  8
0
 10
107.86201786
 20
211.54308633
  0
VERTEX
  8
0
 10
107.97847743
 20
211.84369342
  0
VERTEX
  8
0
 10
108.11177012
 20
212.12304214
  0
VERTEX
  8
0
 10
108.26138913
 20
212.38145510
  0
VERTEX
  8
0
 10
108.42682764
 20
212.61925494
  0
VERTEX
  8
0
 10
108.60757887
 20
212.83676430
  0
VERTEX
  8
0
 10
108.80313601
 20
213.03430580
  0
VERTEX
  8
0
 10
109.01299226
 20
213.21220208
  0
VERTEX
  8
0
 10
109.23664082
 20
213.37077576
  0
VERTEX
  8
0
 10
109.47357490
 20
213.51034948
  0
VERTEX
  8
0
 10
109.72328770
 20
213.63124587
  0
VERTEX
  8
0
 10
109.98527240
 20
213.73378756
  0
VERTEX
  8
0
 10
110.25902222
 20
213.81829719
  0
VERTEX
  8
0
 10
110.54403036
 20
213.88509737
  0
VERTEX
  8
0
 10
110.83979000
 20
213.93451076
  0
VERTEX
  8
0
 10
111.14579437
 20
213.96685997
  0
VERTEX
  8
0
 10
111.46153664
 20
213.98246764
  0
VERTEX
  8
0
 10
111.78651004
 20
213.98165640
  0
VERTEX
  8
0
 10
112.12020774
 20
213.96474888
  0
VERTEX
  8
0
 10
112.46212297
 20
213.93206772
  0
VERTEX
  8
0
 10
113.16857876
 20
213.82067497
  0
VERTEX
  8
0
 10
113.90182301
 20
213.65005922
  0
VERTEX
  8
0
 10
114.65780133
 20
213.42280150
  0
VERTEX
  8
0
 10
118.98439853
 20
209.67539839
  0
VERTEX
  8
0
 10
114.49960167
 20
203.64850050
  0
VERTEX
  8
0
 10
116.50480114
 20
202.15669853
  0
VERTEX
  8
0
 10
121.08449875
 20
208.31110089
  0
SEQEND
  0
POLYLINE
  8
Nível Padrão
 66
   1
 39
0.000000
 70
    1
  0
VERTEX
  8
0
 10
24.65169836
 20
139.87619839
  0
VERTEX
  8
0
 10
27.25267043
 20
139.82500218
  0
VERTEX
  8
0
 10
29.89352414
 20
139.75619926
  0
VERTEX
  8
0
 10
32.53539054
 20
139.68694656
  0
VERTEX
  8
0
 10
35.13940069
 20
139.63440097
  0
VERTEX
  8
0
 10
34.23220089
 20
128.84589914
  0
VERTEX
  8
0
 10
36.72280142
 20
128.63639853
  0
VERTEX
  8
0
 10
37.62140050
 20
139.32300050
  0
VERTEX
  8
0
 10
38.42418147
 20
139.30442017
  0
VERTEX
  8
0
 10
39.22242131
 20
139.25723330
  0
VERTEX
  8
0
 10
40.01611653
 20
139.18650818
  0
VERTEX
  8
0
 10
40.80526360
 20
139.09731312
  0
VERTEX
  8
0
 10
42.36989925
 20
138.88378638
  0
VERTEX
  8
0
 10
43.91630014
 20
138.65719947
  0
VERTEX
  8
0
 10
44.44570926
 20
138.36012575
  0
VERTEX
  8
0
 10
44.89935119
 20
138.05432276
  0
VERTEX
  8
0
 10
45.09769534
 20
137.89686714
  0
VERTEX
  8
0
 10
45.27702074
 20
137.73569243
  0
VERTEX
  8
0
 10
45.43730176
 20
137.57028638
  0
VERTEX
  8
0
 10
45.57851274
 20
137.40013672
  0
VERTEX
  8
0
 10
45.70062804
 20
137.22473119
  0
VERTEX
  8
0
 10
45.80362201
 20
137.04355754
  0
VERTEX
  8
0
 10
45.88746901
 20
136.85610350
  0
VERTEX
  8
0
 10
45.95214338
 20
136.66185683
  0
VERTEX
  8
0
 10
45.99761948
 20
136.46030526
  0
VERTEX
  8
0
 10
46.02387166
 20
136.25093654
  0
VERTEX
  8
0
 10
46.03087428
 20
136.03323840
  0
VERTEX
  8
0
 10
46.01860169
 20
135.80669858
  0
VERTEX
  8
0
 10
45.96661726
 20
135.37077607
  0
VERTEX
  8
0
 10
45.95982042
 20
134.98103131
  0
VERTEX
  8
0
 10
45.99660822
 20
134.63609203
  0
VERTEX
  8
0
 10
46.07537769
 20
134.33458597
  0
VERTEX
  8
0
 10
46.19452587
 20
134.07514086
  0
VERTEX
  8
0
 10
46.35244978
 20
133.85638445
  0
VERTEX
  8
0
 10
46.54754646
 20
133.67694447
  0
VERTEX
  8
0
 10
46.77821295
 20
133.53544866
  0
VERTEX
  8
0
 10
47.04284627
 20
133.43052476
  0
VERTEX
  8
0
 10
47.33984346
 20
133.36080051
  0
VERTEX
  8
0
 10
47.66760155
 20
133.32490363
  0
VERTEX
  8
0
 10
48.02451758
 20
133.32146188
  0
VERTEX
  8
0
 10
48.40898858
 20
133.34910298
  0
VERTEX
  8
0
 10
48.81941158
 20
133.40645468
  0
VERTEX
  8
0
 10
49.25418362
 20
133.49214471
  0
VERTEX
  8
0
 10
49.71170172
 20
133.60480081
  0
VERTEX
  8
0
 10
50.41721767
 20
133.72959128
  0
VERTEX
  8
0
 10
50.78703109
 20
133.77308263
  0
VERTEX
  8
0
 10
51.16880602
 20
133.79979933
  0
VERTEX
  8
0
 10
51.56298585
 20
133.80661231
  0
VERTEX
  8
0
 10
51.97001399
 20
133.79039252
  0
VERTEX
  8
0
 10
52.39033384
 20
133.74801090
  0
VERTEX
  8
0
 10
52.82438882
 20
133.67633841
  0
VERTEX
  8
0
 10
53.27262232
 20
133.57224598
  0
VERTEX
  8
0
 10
53.73547775
 20
133.43260456
  0
VERTEX
  8
0
 10
54.21339852
 20
133.25428511
  0
VERTEX
  8
0
 10
54.70682802
 20
133.03415855
  0
VERTEX
  8
0
 10
55.21620966
 20
132.76909585
  0
VERTEX
  8
0
 10
55.74198686
 20
132.45596794
  0
VERTEX
  8
0
 10
56.28460300
 20
132.09164576
  0
VERTEX
  8
0
 10
56.84450150
 20
131.67300028
  0
VERTEX
  8
0
 10
57.30128176
 20
131.18940213
  0
VERTEX
  8
0
 10
57.72808207
 20
130.70671914
  0
VERTEX
  8
0
 10
58.12492540
 20
130.22541821
  0
VERTEX
  8
0
 10
58.49183471
 20
129.74596625
  0
VERTEX
  8
0
 10
58.82883295
 20
129.26883014
  0
VERTEX
  8
0
 10
59.13594309
 20
128.79447679
  0
VERTEX
  8
0
 10
59.41318809
 20
128.32337309
  0
VERTEX
  8
0
 10
59.66059090
 20
127.85598595
  0
VERTEX
  8
0
 10
59.87817449
 20
127.39278227
  0
VERTEX
  8
0
 10
60.06596182
 20
126.93422894
  0
VERTEX
  8
0
 10
60.22397584
 20
126.48079287
  0
VERTEX
  8
0
 10
60.35223952
 20
126.03294094
  0
VERTEX
  8
0
 10
60.45077581
 20
125.59114007
  0
VERTEX
  8
0
 10
60.51960768
 20
125.15585715
  0
VERTEX
  8
0
 10
60.55875808
 20
124.72755908
  0
VERTEX
  8
0
 10
60.56824998
 20
124.30671276
  0
VERTEX
  8
0
 10
60.54810633
 20
123.89378509
  0
VERTEX
  8
0
 10
60.49835010
 20
123.48924297
  0
VERTEX
  8
0
 10
60.41900424
 20
123.09355329
  0
VERTEX
  8
0
 10
60.31009172
 20
122.70718296
  0
VERTEX
  8
0
 10
60.17163549
 20
122.33059887
  0
VERTEX
  8
0
 10
60.00365852
 20
121.96426793
  0
VERTEX
  8
0
 10
59.80618376
 20
121.60865703
  0
VERTEX
  8
0
 10
59.57923417
 20
121.26423307
  0
VERTEX
  8
0
 10
59.32283272
 20
120.93146296
  0
VERTEX
  8
0
 10
59.03700236
 20
120.61081359
  0
VERTEX
  8
0
 10
58.72176605
 20
120.30275185
  0
VERTEX
  8
0
 10
58.37714676
 20
120.00774466
  0
VERTEX
  8
0
 10
58.00316744
 20
119.72625890
  0
VERTEX
  8
0
 10
57.59985105
 20
119.45876148
  0
VERTEX
  8
0
 10
57.16722056
 20
119.20571930
  0
VERTEX
  8
0
 10
56.70529892
 20
118.96759925
  0
VERTEX
  8
0
 10
55.55863699
 20
119.01232838
  0
VERTEX
  8
0
 10
54.47530368
 20
118.99978772
  0
VERTEX
  8
0
 10
53.95773847
 20
118.97186975
  0
VERTEX
  8
0
 10
53.45642926
 20
118.92942855
  0
VERTEX
  8
0
 10
52.97151736
 20
118.87239554
  0
VERTEX
  8
0
 10
52.50314403
 20
118.80070212
  0
VERTEX
  8
0
 10
52.05145057
 20
118.71427971
  0
VERTEX
  8
0
 10
51.61657826
 20
118.61305971
  0
VERTEX
  8
0
 10
51.19866838
 20
118.49697352
  0
VERTEX
  8
0
 10
50.79786223
 20
118.36595256
  0
VERTEX
  8
0
 10
50.41430108
 20
118.21992824
  0
VERTEX
  8
0
 10
50.04812623
 20
118.05883196
  0
VERTEX
  8
0
 10
49.69947895
 20
117.88259512
  0
VERTEX
  8
0
 10
49.36850054
 20
117.69114915
  0
VERTEX
  8
0
 10
49.05533227
 20
117.48442544
  0
VERTEX
  8
0
 10
48.76011544
 20
117.26235541
  0
VERTEX
  8
0
 10
48.48299133
 20
117.02487045
  0
VERTEX
  8
0
 10
48.22410122
 20
116.77190199
  0
VERTEX
  8
0
 10
47.98358640
 20
116.50338142
  0
VERTEX
  8
0
 10
47.76158815
 20
116.21924016
  0
VERTEX
  8
0
 10
47.55824776
 20
115.91940962
  0
VERTEX
  8
0
 10
47.37370652
 20
115.60382119
  0
VERTEX
  8
0
 10
47.20810571
 20
115.27240630
  0
VERTEX
  8
0
 10
47.06158662
 20
114.92509634
  0
VERTEX
  8
0
 10
46.93429052
 20
114.56182272
  0
VERTEX
  8
0
 10
46.82635872
 20
114.18251686
  0
VERTEX
  8
0
 10
46.73793248
 20
113.78711016
  0
VERTEX
  8
0
 10
46.66915310
 20
113.37553403
  0
VERTEX
  8
0
 10
46.62016186
 20
112.94771988
  0
VERTEX
  8
0
 10
46.59110006
 20
112.50359911
  0
VERTEX
  8
0
 10
20.88330144
 20
115.02979844
  0
VERTEX
  8
0
 10
20.92248430
 20
115.52372539
  0
VERTEX
  8
0
 10
20.92920426
 20
116.01190602
  0
VERTEX
  8
0
 10
20.90292957
 20
116.49366592
  0
VERTEX
  8
0
 10
20.84312849
 20
116.96833069
  0
VERTEX
  8
0
 10
20.74926927
 20
117.43522590
  0
VERTEX
  8
0
 10
20.62082016
 20
117.89367716
  0
VERTEX
  8
0
 10
20.45724943
 20
118.34301003
  0
VERTEX
  8
0
 10
20.25802532
 20
118.78255011
  0
VERTEX
  8
0
 10
20.02261610
 20
119.21162298
  0
VERTEX
  8
0
 10
19.75049000
 20
119.62955424
  0
VERTEX
  8
0
 10
19.44111530
 20
120.03566946
  0
VERTEX
  8
0
 10
19.09396025
 20
120.42929423
  0
VERTEX
  8
0
 10
18.70849309
 20
120.80975414
  0
VERTEX
  8
0
 10
18.28418208
 20
121.17637478
  0
VERTEX
  8
0
 10
17.82049549
 20
121.52848173
  0
VERTEX
  8
0
 10
17.31690156
 20
121.86540058
  0
VERTEX
  8
0
 10
16.97056470
 20
122.27660869
  0
VERTEX
  8
0
 10
16.64856998
 20
122.68552290
  0
VERTEX
  8
0
 10
16.35068765
 20
123.09229619
  0
VERTEX
  8
0
 10
16.07668798
 20
123.49708152
  0
VERTEX
  8
0
 10
15.82634120
 20
123.90003186
  0
VERTEX
  8
0
 10
15.59941760
 20
124.30130016
  0
VERTEX
  8
0
 10
15.39568742
 20
124.70103941
  0
VERTEX
  8
0
 10
15.21492092
 20
125.09940256
  0
VERTEX
  8
0
 10
15.05688836
 20
125.49654258
  0
VERTEX
  8
0
 10
14.92136000
 20
125.89261243
  0
VERTEX
  8
0
 10
14.80810610
 20
126.28776509
  0
VERTEX
  8
0
 10
14.71689691
 20
126.68215352
  0
VERTEX
  8
0
 10
14.64750269
 20
127.07593068
  0
VERTEX
  8
0
 10
14.59969371
 20
127.46924955
  0
VERTEX
  8
0
 10
14.57324022
 20
127.86226308
  0
VERTEX
  8
0
 10
14.56791247
 20
128.25512424
  0
VERTEX
  8
0
 10
14.58348073
 20
128.64798601
  0
VERTEX
  8
0
 10
14.61971526
 20
129.04100134
  0
VERTEX
  8
0
 10
14.67638631
 20
129.43432320
  0
VERTEX
  8
0
 10
14.75326414
 20
129.82810456
  0
VERTEX
  8
0
 10
14.85011900
 20
130.22249838
  0
VERTEX
  8
0
 10
14.96672117
 20
130.61765763
  0
VERTEX
  8
0
 10
15.10284089
 20
131.01373528
  0
VERTEX
  8
0
 10
15.25824842
 20
131.41088429
  0
VERTEX
  8
0
 10
15.43271403
 20
131.80925763
  0
VERTEX
  8
0
 10
15.62600796
 20
132.20900827
  0
VERTEX
  8
0
 10
15.83790049
 20
132.61028916
  0
VERTEX
  8
0
 10
16.06816186
 20
133.01325329
  0
VERTEX
  8
0
 10
16.58287217
 20
133.82484307
  0
VERTEX
  8
0
 10
17.16830097
 20
134.64500136
  0
VERTEX
  8
0
 10
17.52836146
 20
135.04120371
  0
VERTEX
  8
0
 10
17.90311869
 20
135.42472849
  0
VERTEX
  8
0
 10
18.29249913
 20
135.79631370
  0
VERTEX
  8
0
 10
18.69642924
 20
136.15669730
  0
VERTEX
  8
0
 10
19.11483550
 20
136.50661727
  0
VERTEX
  8
0
 10
19.54764436
 20
136.84681159
  0
VERTEX
  8
0
 10
19.99478229
 20
137.17801822
  0
VERTEX
  8
0
 10
20.45617575
 20
137.50097516
  0
VERTEX
  8
0
 10
21.42143513
 20
138.12509182
  0
VERTEX
  8
0
 10
22.44283421
 20
138.72506537
  0
VERTEX
  8
0
 10
23.51978472
 20
139.30679963
  0
VERTEX
  8
0
 10
24.65169836
 20
139.87619839
  0
SEQEND
  0
POLYLINE
  8
Nível Padrão
 66
   1
 39
0.000000
 70
    1
  0
VERTEX
  8
0
 10
68.58390172
 20
124.54020050
  0
VERTEX
  8
0
 10
68.05814952
 20
124.76471952
  0
VERTEX
  8
0
 10
67.56405667
 20
125.00119447
  0
VERTEX
  8
0
 10
67.10109518
 20
125.24901905
  0
VERTEX
  8
0
 10
66.66873711
 20
125.50758698
  0
VERTEX
  8
0
 10
66.26645447
 20
125.77629196
  0
VERTEX
  8
0
 10
65.89371931
 20
126.05452771
  0
VERTEX
  8
0
 10
65.55000366
 20
126.34168793
  0
VERTEX
  8
0
 10
65.23477955
 20
126.63716634
  0
VERTEX
  8
0
 10
64.94751901
 20
126.94035664
  0
VERTEX
  8
0
 10
64.68769409
 20
127.25065255
  0
VERTEX
  8
0
 10
64.45477680
 20
127.56744778
  0
VERTEX
  8
0
 10
64.24823920
 20
127.89013603
  0
VERTEX
  8
0
 10
64.06755330
 20
128.21811102
  0
VERTEX
  8
0
 10
63.91219114
 20
128.55076645
  0
VERTEX
  8
0
 10
63.78162477
 20
128.88749604
  0
VERTEX
  8
0
 10
63.67532620
 20
129.22769350
  0
VERTEX
  8
0
 10
63.59276748
 20
129.57075253
  0
VERTEX
  8
0
 10
63.53342063
 20
129.91606684
  0
VERTEX
  8
0
 10
63.49675770
 20
130.26303016
  0
VERTEX
  8
0
 10
63.48225071
 20
130.61103617
  0
VERTEX
  8
0
 10
63.48937170
 20
130.95947861
  0
VERTEX
  8
0
 10
63.51759271
 20
131.30775117
  0
VERTEX
  8
0
 10
63.56638576
 20
131.65524757
  0
VERTEX
  8
0
 10
63.63522288
 20
132.00136151
  0
VERTEX
  8
0
 10
63.72357613
 20
132.34548671
  0
VERTEX
  8
0
 10
63.83091751
 20
132.68701688
  0
VERTEX
  8
0
 10
63.95671908
 20
133.02534572
  0
VERTEX
  8
0
 10
64.10045286
 20
133.35986695
  0
VERTEX
  8
0
 10
64.26159089
 20
133.68997428
  0
VERTEX
  8
0
 10
64.43960520
 20
134.01506141
  0
VERTEX
  8
0
 10
64.63396783
 20
134.33452206
  0
VERTEX
  8
0
 10
64.84415080
 20
134.64774994
  0
VERTEX
  8
0
 10
65.06962616
 20
134.95413875
  0
VERTEX
  8
0
 10
65.30986593
 20
135.25308222
  0
VERTEX
  8
0
 10
65.56434215
 20
135.54397403
  0
VERTEX
  8
0
 10
65.83252685
 20
135.82620792
  0
VERTEX
  8
0
 10
66.11389207
 20
136.09917758
  0
VERTEX
  8
0
 10
66.40790984
 20
136.36227673
  0
VERTEX
  8
0
 10
66.71405219
 20
136.61489907
  0
VERTEX
  8
0
 10
67.03179116
 20
136.85643833
  0
VERTEX
  8
0
 10
67.36059877
 20
137.08628820
  0
VERTEX
  8
0
 10
67.69994708
 20
137.30384239
  0
VERTEX
  8
0
 10
68.04930810
 20
137.50849463
  0
VERTEX
  8
0
 10
68.40815387
 20
137.69963861
  0
VERTEX
  8
0
 10
68.77595643
 20
137.87666805
  0
VERTEX
  8
0
 10
69.15218781
 20
138.03897666
  0
VERTEX
  8
0
 10
69.53632003
 20
138.18595814
  0
VERTEX
  8
0
 10
69.92782515
 20
138.31700621
  0
VERTEX
  8
0
 10
70.32617518
 20
138.43151458
  0
VERTEX
  8
0
 10
70.73084217
 20
138.52887696
  0
VERTEX
  8
0
 10
71.14129814
 20
138.60848706
  0
VERTEX
  8
0
 10
71.55701513
 20
138.66973858
  0
VERTEX
  8
0
 10
71.97746518
 20
138.71202524
  0
VERTEX
  8
0
 10
72.40212032
 20
138.73474075
  0
VERTEX
  8
0
 10
72.83045257
 20
138.73727882
  0
VERTEX
  8
0
 10
73.26193398
 20
138.71903316
  0
VERTEX
  8
0
 10
73.69603658
 20
138.67939747
  0
VERTEX
  8
0
 10
74.13223240
 20
138.61776547
  0
VERTEX
  8
0
 10
74.56999348
 20
138.53353087
  0
VERTEX
  8
0
 10
75.00879184
 20
138.42608738
  0
VERTEX
  8
0
 10
75.44809953
 20
138.29482870
  0
VERTEX
  8
0
 10
75.88738857
 20
138.13914856
  0
VERTEX
  8
0
 10
76.32613100
 20
137.95844065
  0
VERTEX
  8
0
 10
76.76379886
 20
137.75209869
  0
VERTEX
  8
0
 10
77.03055929
 20
137.63312476
  0
VERTEX
  8
0
 10
77.28465555
 20
137.54927986
  0
VERTEX
  8
0
 10
77.52671017
 20
137.49857038
  0
VERTEX
  8
0
 10
77.75734570
 20
137.47900271
  0
VERTEX
  8
0
 10
77.97718467
 20
137.48858323
  0
VERTEX
  8
0
 10
78.18684963
 20
137.52531832
  0
VERTEX
  8
0
 10
78.38696311
 20
137.58721437
  0
VERTEX
  8
0
 10
78.57814765
 20
137.67227776
  0
VERTEX
  8
0
 10
78.76102580
 20
137.77851488
  0
VERTEX
  8
0
 10
78.93622008
 20
137.90393211
  0
VERTEX
  8
0
 10
79.10435305
 20
138.04653583
  0
VERTEX
  8
0
 10
79.26604724
 20
138.20433242
  0
VERTEX
  8
0
 10
79.57260945
 20
138.55752979
  0
VERTEX
  8
0
 10
79.86088701
 20
138.94757527
  0
VERTEX
  8
0
 10
80.40250947
 20
139.77441488
  0
VERTEX
  8
0
 10
80.66581501
 20
140.17931114
  0
VERTEX
  8
0
 10
80.93075717
 20
140.55725981
  0
VERTEX
  8
0
 10
81.20231626
 20
140.89231196
  0
VERTEX
  8
0
 10
81.34213352
 20
141.03876779
  0
VERTEX
  8
0
 10
81.48547262
 20
141.16851865
  0
VERTEX
  8
0
 10
81.63295612
 20
141.27957092
  0
VERTEX
  8
0
 10
81.78520655
 20
141.36993097
  0
VERTEX
  8
0
 10
81.94284645
 20
141.43760519
  0
VERTEX
  8
0
 10
82.10649836
 20
141.48059997
  0
VERTEX
  8
0
 10
89.03779853
 20
141.19149858
  0
VERTEX
  8
0
 10
87.79070086
 20
130.19220144
  0
VERTEX
  8
0
 10
90.27419997
 20
129.91080119
  0
VERTEX
  8
0
 10
91.53189861
 20
141.07019947
  0
VERTEX
  8
0
 10
92.36998848
 20
141.08360488
  0
VERTEX
  8
0
 10
93.20463511
 20
141.06642706
  0
VERTEX
  8
0
 10
94.03348057
 20
141.01920083
  0
VERTEX
  8
0
 10
94.85416691
 20
140.94246101
  0
VERTEX
  8
0
 10
95.66433618
 20
140.83674243
  0
VERTEX
  8
0
 10
96.46163045
 20
140.70257993
  0
VERTEX
  8
0
 10
97.24369177
 20
140.54050831
  0
VERTEX
  8
0
 10
98.00816219
 20
140.35106241
  0
VERTEX
  8
0
 10
98.75268377
 20
140.13477706
  0
VERTEX
  8
0
 10
99.47489857
 20
139.89218707
  0
VERTEX
  8
0
 10
100.17244864
 20
139.62382728
  0
VERTEX
  8
0
 10
100.84297604
 20
139.33023250
  0
VERTEX
  8
0
 10
101.48412283
 20
139.01193757
  0
VERTEX
  8
0
 10
102.09353105
 20
138.66947730
  0
VERTEX
  8
0
 10
102.66884278
 20
138.30338653
  0
VERTEX
  8
0
 10
103.20770006
 20
137.91420008
  0
VERTEX
  8
0
 10
104.08666565
 20
137.16893260
  0
VERTEX
  8
0
 10
104.90579423
 20
136.41298071
  0
VERTEX
  8
0
 10
105.66340899
 20
135.64604513
  0
VERTEX
  8
0
 10
106.35783314
 20
134.86782661
  0
VERTEX
  8
0
 10
106.98738986
 20
134.07802587
  0
VERTEX
  8
0
 10
107.27731894
 20
133.67868864
  0
VERTEX
  8
0
 10
107.55040236
 20
133.27634364
  0
VERTEX
  8
0
 10
107.80643053
 20
132.87095344
  0
VERTEX
  8
0
 10
108.04519384
 20
132.46248065
  0
VERTEX
  8
0
 10
108.26648269
 20
132.05088786
  0
VERTEX
  8
0
 10
108.47008749
 20
131.63613765
  0
VERTEX
  8
0
 10
108.65579863
 20
131.21819261
  0
VERTEX
  8
0
 10
108.82340651
 20
130.79701535
  0
VERTEX
  8
0
 10
108.97270154
 20
130.37256844
  0
VERTEX
  8
0
 10
109.10347410
 20
129.94481448
  0
VERTEX
  8
0
 10
109.21551461
 20
129.51371607
  0
VERTEX
  8
0
 10
109.30861346
 20
129.07923579
  0
VERTEX
  8
0
 10
109.38256105
 20
128.64133624
  0
VERTEX
  8
0
 10
109.43714779
 20
128.19998001
  0
VERTEX
  8
0
 10
109.47216406
 20
127.75512968
  0
VERTEX
  8
0
 10
109.48740027
 20
127.30674785
  0
VERTEX
  8
0
 10
109.48264683
 20
126.85479711
  0
VERTEX
  8
0
 10
109.45769412
 20
126.39924006
  0
VERTEX
  8
0
 10
109.41233256
 20
125.94003928
  0
VERTEX
  8
0
 10
109.34635253
 20
125.47715737
  0
VERTEX
  8
0
 10
109.25954444
 20
125.01055691
  0
VERTEX
  8
0
 10
109.15169869
 20
124.54020050
  0
VERTEX
  8
0
 10
109.12121042
 20
124.09193236
  0
VERTEX
  8
0
 10
109.05029445
 20
123.66807975
  0
VERTEX
  8
0
 10
108.94238174
 20
123.26772702
  0
VERTEX
  8
0
 10
108.80090325
 20
122.88995848
  0
VERTEX
  8
0
 10
108.62928994
 20
122.53385846
  0
VERTEX
  8
0
 10
108.43097276
 20
122.19851131
  0
VERTEX
  8
0
 10
108.20938268
 20
121.88300134
  0
VERTEX
  8
0
 10
107.96795066
 20
121.58641289
  0
VERTEX
  8
0
 10
107.71010764
 20
121.30783029
  0
VERTEX
  8
0
 10
107.43928460
 20
121.04633786
  0
VERTEX
  8
0
 10
107.15891248
 20
120.80101994
  0
VERTEX
  8
0
 10
106.87242225
 20
120.57096086
  0
VERTEX
  8
0
 10
106.29481129
 20
120.15295651
  0
VERTEX
  8
0
 10
105.73389939
 20
119.78499947
  0
VERTEX
  8
0
 10
104.88746782
 20
119.63565820
  0
VERTEX
  8
0
 10
104.13776814
 20
119.45236863
  0
VERTEX
  8
0
 10
103.47768780
 20
119.23662710
  0
VERTEX
  8
0
 10
102.90011427
 20
118.98992997
  0
VERTEX
  8
0
 10
102.64004489
 20
118.85544067
  0
VERTEX
  8
0
 10
102.39793502
 20
118.71377360
  0
VERTEX
  8
0
 10
102.17289559
 20
118.56511581
  0
VERTEX
  8
0
 10
101.96403753
 20
118.40965434
  0
VERTEX
  8
0
 10
101.59130925
 20
118.07906853
  0
VERTEX
  8
0
 10
101.27263766
 20
117.72351254
  0
VERTEX
  8
0
 10
101.00091022
 20
117.34448272
  0
VERTEX
  8
0
 10
100.76901440
 20
116.94347541
  0
VERTEX
  8
0
 10
100.56983766
 20
116.52198698
  0
VERTEX
  8
0
 10
100.39626749
 20
116.08151378
  0
VERTEX
  8
0
 10
100.24119133
 20
115.62355215
  0
VERTEX
  8
0
 10
100.09749667
 20
115.14959846
  0
VERTEX
  8
0
 10
99.81580169
 20
114.15970028
  0
VERTEX
  8
0
 10
96.82097591
 20
114.43295065
  0
VERTEX
  8
0
 10
93.77273286
 20
114.69113205
  0
VERTEX
  8
0
 10
87.57033690
 20
115.19396138
  0
VERTEX
  8
0
 10
84.44335496
 20
115.45444602
  0
VERTEX
  8
0
 10
81.31729771
 20
115.73153513
  0
VERTEX
  8
0
 10
78.20575061
 20
116.03314705
  0
VERTEX
  8
0
 10
75.12229917
 20
116.36720017
  0
VERTEX
  8
0
 10
75.18801254
 20
116.95405243
  0
VERTEX
  8
0
 10
75.22968739
 20
117.51140093
  0
VERTEX
  8
0
 10
75.24798538
 20
118.04005766
  0
VERTEX
  8
0
 10
75.24356818
 20
118.54083464
  0
VERTEX
  8
0
 10
75.21709747
 20
119.01454390
  0
VERTEX
  8
0
 10
75.16923491
 20
119.46199745
  0
VERTEX
  8
0
 10
75.10064217
 20
119.88400730
  0
VERTEX
  8
0
 10
75.01198093
 20
120.28138548
  0
VERTEX
  8
0
 10
74.90391285
 20
120.65494399
  0
VERTEX
  8
0
 10
74.77709960
 20
121.00549485
  0
VERTEX
  8
0
 10
74.63220286
 20
121.33385009
  0
VERTEX
  8
0
 10
74.46988429
 20
121.64082171
  0
VERTEX
  8
0
 10
74.29080557
 20
121.92722174
  0
VERTEX
  8
0
 10
74.09562836
 20
122.19386218
  0
VERTEX
  8
0
 10
73.88501434
 20
122.44155506
  0
VERTEX
  8
0
 10
73.65962517
 20
122.67111240
  0
VERTEX
  8
0
 10
73.42012253
 20
122.88334620
  0
VERTEX
  8
0
 10
73.16716809
 20
123.07906848
  0
VERTEX
  8
0
 10
72.90142351
 20
123.25909127
  0
VERTEX
  8
0
 10
72.62355046
 20
123.42422657
  0
VERTEX
  8
0
 10
72.33421063
 20
123.57528641
  0
VERTEX
  8
0
 10
72.03406567
 20
123.71308280
  0
VERTEX
  8
0
 10
71.40400706
 20
123.95213328
  0
VERTEX
  8
0
 10
70.73866800
 20
124.14787417
  0
VERTEX
  8
0
 10
70.04334185
 20
124.30680158
  0
VERTEX
  8
0
 10
69.32332197
 20
124.43541165
  0
VERTEX
  8
0
 10
68.58390172
 20
124.54020050
  0
SEQEND
  0
POLYLINE
  8
Nível Padrão
 66
   1
 39
0.000000
 70
    1
  0
VERTEX
  8
0
 10
38.97459961
 20
107.45440014
  0
VERTEX
  8
0
 10
38.13067021
 20
107.88292151
  0
VERTEX
  8
0
 10
37.29616219
 20
108.25343520
  0
VERTEX
  8
0
 10
36.47106451
 20
108.56727138
  0
VERTEX
  8
0
 10
35.65536611
 20
108.82576025
  0
VERTEX
  8
0
 10
34.84905598
 20
109.03023199
  0
VERTEX
  8
0
 10
34.05212305
 20
109.18201680
  0
VERTEX
  8
0
 10
33.26455630
 20
109.28244485
  0
VERTEX
  8
0
 10
32.48634468
 20
109.33284634
  0
VERTEX
  8
0
 10
31.71747715
 20
109.33455145
  0
VERTEX
  8
0
 10
30.95794267
 20
109.28889037
  0
VERTEX
  8
0
 10
30.20773020
 20
109.19719329
  0
VERTEX
  8
0
 10
29.46682870
 20
109.06079040
  0
VERTEX
  8
0
 10
28.73522713
 20
108.88101188
  0
VERTEX
  8
0
 10
28.01291444
 20
108.65918792
  0
VERTEX
  8
0
 10
27.29987961
 20
108.39664871
  0
VERTEX
  8
0
 10
26.59611158
 20
108.09472444
  0
VERTEX
  8
0
 10
25.90159931
 20
107.75474529
  0
VERTEX
  8
0
 10
25.21633177
 20
107.37804145
  0
VERTEX
  8
0
 10
24.54029792
 20
106.96594311
  0
VERTEX
  8
0
 10
23.87348671
 20
106.51978046
  0
VERTEX
  8
0
 10
23.21588710
 20
106.04088368
  0
VERTEX
  8
0
 10
22.56748805
 20
105.53058297
  0
VERTEX
  8
0
 10
21.92827853
 20
104.99020850
  0
VERTEX
  8
0
 10
21.29824749
 20
104.42109047
  0
VERTEX
  8
0
 10
20.67738388
 20
103.82455906
  0
VERTEX
  8
0
 10
20.06567668
 20
103.20194447
  0
VERTEX
  8
0
 10
19.46311484
 20
102.55457687
  0
VERTEX
  8
0
 10
18.86968731
 20
101.88378646
  0
VERTEX
  8
0
 10
18.28538307
 20
101.19090343
  0
VERTEX
  8
0
 10
17.71019106
 20
100.47725795
  0
VERTEX
  8
0
 10
17.14410024
 20
99.74418023
  0
VERTEX
  8
0
 10
16.58709958
 20
98.99300044
  0
VERTEX
  8
0
 10
16.12169472
 20
98.13323642
  0
VERTEX
  8
0
 10
15.70426152
 20
97.27347001
  0
VERTEX
  8
0
 10
15.33383403
 20
96.41370104
  0
VERTEX
  8
0
 10
15.00944633
 20
95.55392936
  0
VERTEX
  8
0
 10
14.73013249
 20
94.69415480
  0
VERTEX
  8
0
 10
14.49492657
 20
93.83437721
  0
VERTEX
  8
0
 10
14.30286266
 20
92.97459643
  0
VERTEX
  8
0
 10
14.15297481
 20
92.11481230
  0
VERTEX
  8
0
 10
14.04429710
 20
91.25502465
  0
VERTEX
  8
0
 10
13.97586359
 20
90.39523332
  0
VERTEX
  8
0
 10
13.94670835
 20
89.53543816
  0
VERTEX
  8
0
 10
13.95586546
 20
88.67563901
  0
VERTEX
  8
0
 10
14.00236898
 20
87.81583570
  0
VERTEX
  8
0
 10
14.08525299
 20
86.95602808
  0
VERTEX
  8
0
 10
14.20355155
 20
86.09621598
  0
VERTEX
  8
0
 10
14.35629872
 20
85.23639925
  0
VERTEX
  8
0
 10
14.35629872
 20
75.19780067
  0
VERTEX
  8
0
 10
14.01922384
 20
74.75175280
  0
VERTEX
  8
0
 10
13.74352992
 20
74.29792686
  0
VERTEX
  8
0
 10
13.52728565
 20
73.83875884
  0
VERTEX
  8
0
 10
13.36855970
 20
73.37668475
  0
VERTEX
  8
0
 10
13.26542075
 20
72.91414058
  0
VERTEX
  8
0
 10
13.21593747
 20
72.45356233
  0
VERTEX
  8
0
 10
13.21817854
 20
71.99738601
  0
VERTEX
  8
0
 10
13.27021264
 20
71.54804760
  0
VERTEX
  8
0
 10
13.37010844
 20
71.10798312
  0
VERTEX
  8
0
 10
13.51593462
 20
70.67962855
  0
VERTEX
  8
0
 10
13.70575986
 20
70.26541990
  0
VERTEX
  8
0
 10
13.93765283
 20
69.86779317
  0
VERTEX
  8
0
 10
14.20968222
 20
69.48918435
  0
VERTEX
  8
0
 10
14.51991669
 20
69.13202945
  0
VERTEX
  8
0
 10
14.86642492
 20
68.79876447
  0
VERTEX
  8
0
 10
15.24727560
 20
68.49182540
  0
VERTEX
  8
0
 10
15.66053739
 20
68.21364824
  0
VERTEX
  8
0
 10
16.10427898
 20
67.96666900
  0
VERTEX
  8
0
 10
16.57656904
 20
67.75332367
  0
VERTEX
  8
0
 10
17.07547624
 20
67.57604825
  0
VERTEX
  8
0
 10
17.59906927
 20
67.43727874
  0
VERTEX
  8
0
 10
18.14541680
 20
67.33945114
  0
VERTEX
  8
0
 10
18.71258751
 20
67.28500145
  0
VERTEX
  8
0
 10
19.29865007
 20
67.27636567
  0
VERTEX
  8
0
 10
19.90167316
 20
67.31597980
  0
VERTEX
  8
0
 10
20.51972546
 20
67.40627983
  0
VERTEX
  8
0
 10
21.15087564
 20
67.54970177
  0
VERTEX
  8
0
 10
21.79319239
 20
67.74868161
  0
VERTEX
  8
0
 10
22.44474437
 20
68.00565536
  0
VERTEX
  8
0
 10
23.10360026
 20
68.32305901
  0
VERTEX
  8
0
 10
23.76782875
 20
68.70332857
  0
VERTEX
  8
0
 10
24.43549850
 20
69.14890003
  0
VERTEX
  8
0
 10
24.62864595
 20
69.82450761
  0
VERTEX
  8
0
 10
24.86743778
 20
70.45659529
  0
VERTEX
  8
0
 10
25.15243634
 20
71.04797909
  0
VERTEX
  8
0
 10
25.48420398
 20
71.60147502
  0
VERTEX
  8
0
 10
25.86330305
 20
72.11989909
  0
VERTEX
  8
0
 10
26.29029592
 20
72.60606730
  0
VERTEX
  8
0
 10
26.76574493
 20
73.06279566
  0
VERTEX
  8
0
 10
27.29021244
 20
73.49290019
  0
VERTEX
  8
0
 10
27.86426079
 20
73.89919689
  0
VERTEX
  8
0
 10
28.48845235
 20
74.28450177
  0
VERTEX
  8
0
 10
29.16334947
 20
74.65163084
  0
VERTEX
  8
0
 10
29.88951449
 20
75.00340010
  0
VERTEX
  8
0
 10
30.66750978
 20
75.34262558
  0
VERTEX
  8
0
 10
31.49789768
 20
75.67212327
  0
VERTEX
  8
0
 10
32.38124056
 20
75.99470918
  0
VERTEX
  8
0
 10
33.31810075
 20
76.31319933
  0
VERTEX
  8
0
 10
34.37799785
 20
77.04349038
  0
VERTEX
  8
0
 10
35.41344591
 20
77.82139009
  0
VERTEX
  8
0
 10
36.42468055
 20
78.64491332
  0
VERTEX
  8
0
 10
37.41193737
 20
79.51207489
  0
VERTEX
  8
0
 10
38.37545197
 20
80.42088966
  0
VERTEX
  8
0
 10
39.31545995
 20
81.36937245
  0
VERTEX
  8
0
 10
40.23219692
 20
82.35553811
  0
VERTEX
  8
0
 10
41.12589847
 20
83.37740147
  0
VERTEX
  8
0
 10
41.72285033
 20
83.65069389
  0
VERTEX
  8
0
 10
42.30611540
 20
83.86923507
  0
VERTEX
  8
0
 10
42.87617722
 20
84.03495727
  0
VERTEX
  8
0
 10
43.43351934
 20
84.14979276
  0
VERTEX
  8
0
 10
43.97862531
 20
84.21567380
  0
VERTEX
  8
0
 10
44.51197867
 20
84.23453266
  0
VERTEX
  8
0
 10
45.03406298
 20
84.20830159
  0
VERTEX
  8
0
 10
45.54536177
 20
84.13891287
  0
VERTEX
  8
0
 10
46.04635860
 20
84.02829877
  0
VERTEX
  8
0
 10
46.53753701
 20
83.87839153
  0
VERTEX
  8
0
 10
47.01938054
 20
83.69112343
  0
VERTEX
  8
0
 10
47.49237275
 20
83.46842674
  0
VERTEX
  8
0
 10
47.95699719
 20
83.21223371
  0
VERTEX
  8
0
 10
48.41373739
 20
82.92447662
  0
VERTEX
  8
0
 10
48.86307690
 20
82.60708772
  0
VERTEX
  8
0
 10
49.30549928
 20
82.26199928
  0
VERTEX
  8
0
 10
49.53085661
 20
81.56803395
  0
VERTEX
  8
0
 10
49.77161760
 20
80.90250991
  0
VERTEX
  8
0
 10
50.03198518
 20
80.27318484
  0
VERTEX
  8
0
 10
50.31616230
 20
79.68781638
  0
VERTEX
  8
0
 10
50.62835189
 20
79.15416220
  0
VERTEX
  8
0
 10
50.79626478
 20
78.90915224
  0
VERTEX
  8
0
 10
50.97275689
 20
78.67997997
  0
VERTEX
  8
0
 10
51.15835359
 20
78.46761510
  0
VERTEX
  8
0
 10
51.35358023
 20
78.27302733
  0
VERTEX
  8
0
 10
51.55896220
 20
78.09718639
  0
VERTEX
  8
0
 10
51.77502486
 20
77.94106196
  0
VERTEX
  8
0
 10
52.00229357
 20
77.80562377
  0
VERTEX
  8
0
 10
52.24129371
 20
77.69184151
  0
VERTEX
  8
0
 10
52.49255063
 20
77.60068491
  0
VERTEX
  8
0
 10
52.75658971
 20
77.53312365
  0
VERTEX
  8
0
 10
53.03393632
 20
77.49012746
  0
VERTEX
  8
0
 10
53.32511581
 20
77.47266603
  0
VERTEX
  8
0
 10
53.63065356
 20
77.48170908
  0
VERTEX
  8
0
 10
53.95107494
 20
77.51822632
  0
VERTEX
  8
0
 10
54.28690531
 20
77.58318745
  0
VERTEX
  8
0
 10
54.63867004
 20
77.67756218
  0
VERTEX
  8
0
 10
55.00689450
 20
77.80232021
  0
VERTEX
  8
0
 10
55.39210405
 20
77.95843126
  0
VERTEX
  8
0
 10
55.79482406
 20
78.14686503
  0
VERTEX
  8
0
 10
56.21557990
 20
78.36859123
  0
VERTEX
  8
0
 10
56.65489693
 20
78.62457957
  0
VERTEX
  8
0
 10
57.11330053
 20
78.91579975
  0
VERTEX
  8
0
 10
57.66879266
 20
78.93640427
  0
VERTEX
  8
0
 10
58.20067419
 20
78.91761902
  0
VERTEX
  8
0
 10
58.70957119
 20
78.86178936
  0
VERTEX
  8
0
 10
59.19610973
 20
78.77126063
  0
VERTEX
  8
0
 10
59.66091587
 20
78.64837820
  0
VERTEX
  8
0
 10
60.10461568
 20
78.49548742
  0
VERTEX
  8
0
 10
60.52783521
 20
78.31493365
  0
VERTEX
  8
0
 10
60.93120055
 20
78.10906224
  0
VERTEX
  8
0
 10
61.31533774
 20
77.88021854
  0
VERTEX
  8
0
 10
61.68087286
 20
77.63074792
  0
VERTEX
  8
0
 10
62.02843197
 20
77.36299573
  0
VERTEX
  8
0
 10
62.35864113
 20
77.07930732
  0
VERTEX
  8
0
 10
62.67212642
 20
76.78202805
  0
VERTEX
  8
0
 10
62.96951390
 20
76.47350328
  0
VERTEX
  8
0
 10
63.25142962
 20
76.15607836
  0
VERTEX
  8
0
 10
63.51849967
 20
75.83209864
  0
VERTEX
  8
0
 10
75.46790144
 20
80.93489867
  0
VERTEX
  8
0
 10
76.44930100
 20
78.63649853
  0
VERTEX
  8
0
 10
64.19769919
 20
73.40459947
  0
VERTEX
  8
0
 10
64.36984965
 20
72.86153127
  0
VERTEX
  8
0
 10
64.58327904
 20
72.34499864
  0
VERTEX
  8
0
 10
64.83846170
 20
71.85940270
  0
VERTEX
  8
0
 10
65.13587195
 20
71.40914455
  0
VERTEX
  8
0
 10
65.30056065
 20
71.19864250
  0
VERTEX
  8
0
 10
65.47598411
 20
70.99862531
  0
VERTEX
  8
0
 10
65.66220163
 20
70.80964313
  0
VERTEX
  8
0
 10
65.85927250
 20
70.63224609
  0
VERTEX
  8
0
 10
66.06725601
 20
70.46698433
  0
VERTEX
  8
0
 10
66.28621145
 20
70.31440800
  0
VERTEX
  8
0
 10
66.51619811
 20
70.17506722
  0
VERTEX
  8
0
 10
66.75727527
 20
70.04951215
  0
VERTEX
  8
0
 10
67.00950224
 20
69.93829291
  0
VERTEX
  8
0
 10
67.27293830
 20
69.84195965
  0
VERTEX
  8
0
 10
67.54764274
 20
69.76106251
  0
VERTEX
  8
0
 10
67.83367485
 20
69.69615162
  0
VERTEX
  8
0
 10
68.13109392
 20
69.64777712
  0
VERTEX
  8
0
 10
68.43995924
 20
69.61648916
  0
VERTEX
  8
0
 10
68.76033010
 20
69.60283787
  0
VERTEX
  8
0
 10
69.09226580
 20
69.60737339
  0
VERTEX
  8
0
 10
69.43582562
 20
69.63064586
  0
VERTEX
  8
0
 10
69.79106885
 20
69.67320542
  0
VERTEX
  8
0
 10
70.15805479
 20
69.73560220
  0
VERTEX
  8
0
 10
70.53684271
 20
69.81838635
  0
VERTEX
  8
0
 10
70.92749193
 20
69.92210801
  0
VERTEX
  8
0
 10
71.33006171
 20
70.04731730
  0
VERTEX
  8
0
 10
71.74461136
 20
70.19456439
  0
VERTEX
  8
0
 10
72.17120017
 20
70.36439939
  0
VERTEX
  8
0
 10
78.05007147
 20
73.17574194
  0
VERTEX
  8
0
 10
83.90074058
 20
75.93069512
  0
VERTEX
  8
0
 10
86.81265383
 20
77.28133074
  0
VERTEX
  8
0
 10
89.71410196
 20
78.61103506
  0
VERTEX
  8
0
 10
92.60394676
 20
79.91753010
  0
VERTEX
  8
0
 10
95.48105004
 20
81.19853788
  0
VERTEX
  8
0
 10
98.34427361
 20
82.45178040
  0
VERTEX
  8
0
 10
101.19247928
 20
83.67497969
  0
VERTEX
  8
0
 10
104.02452885
 20
84.86585776
  0
VERTEX
  8
0
 10
106.83928413
 20
86.02213662
  0
VERTEX
  8
0
 10
109.63560692
 20
87.14153829
  0
VERTEX
  8
0
 10
112.41235902
 20
88.22178478
  0
VERTEX
  8
0
 10
115.16840225
 20
89.26059812
  0
VERTEX
  8
0
 10
117.90259842
 20
90.25570031
  0
VERTEX
  8
0
 10
125.71039967
 20
90.81339964
  0
VERTEX
  8
0
 10
126.29103549
 20
91.13122872
  0
VERTEX
  8
0
 10
126.81281484
 20
91.46451608
  0
VERTEX
  8
0
 10
127.27923895
 20
91.81350680
  0
VERTEX
  8
0
 10
127.69380910
 20
92.17844596
  0
VERTEX
  8
0
 10
128.06002655
 20
92.55957864
  0
VERTEX
  8
0
 10
128.38139254
 20
92.95714990
  0
VERTEX
  8
0
 10
128.66140834
 20
93.37140483
  0
VERTEX
  8
0
 10
128.90357522
 20
93.80258850
  0
VERTEX
  8
0
 10
129.11139442
 20
94.25094598
  0
VERTEX
  8
0
 10
129.28836721
 20
94.71672235
  0
VERTEX
  8
0
 10
129.43799485
 20
95.20016269
  0
VERTEX
  8
0
 10
129.56377860
 20
95.70151206
  0
VERTEX
  8
0
 10
129.66921971
 20
96.22101556
  0
VERTEX
  8
0
 10
129.75781945
 20
96.75891825
  0
VERTEX
  8
0
 10
129.89849983
 20
97.89090150
  0
VERTEX
  8
0
 10
129.57968655
 20
98.56896866
  0
VERTEX
  8
0
 10
129.28230227
 20
99.24049230
  0
VERTEX
  8
0
 10
129.00606964
 20
99.90532720
  0
VERTEX
  8
0
 10
128.75071134
 20
100.56332812
  0
VERTEX
  8
0
 10
128.51595000
 20
101.21434983
  0
VERTEX
  8
0
 10
128.30150829
 20
101.85824711
  0
VERTEX
  8
0
 10
128.10710887
 20
102.49487471
  0
VERTEX
  8
0
 10
127.93247440
 20
103.12408742
  0
VERTEX
  8
0
 10
127.77732752
 20
103.74574001
  0
VERTEX
  8
0
 10
127.64139090
 20
104.35968723
  0
VERTEX
  8
0
 10
127.52438720
 20
104.96578387
  0
VERTEX
  8
0
 10
127.42603907
 20
105.56388468
  0
VERTEX
  8
0
 10
127.34606916
 20
106.15384445
  0
VERTEX
  8
0
 10
127.28420015
 20
106.73551795
  0
VERTEX
  8
0
 10
127.24015467
 20
107.30875993
  0
VERTEX
  8
0
 10
127.21365540
 20
107.87342517
  0
VERTEX
  8
0
 10
127.20442498
 20
108.42936845
  0
VERTEX
  8
0
 10
127.21218607
 20
108.97644453
  0
VERTEX
  8
0
 10
127.23666134
 20
109.51450817
  0
VERTEX
  8
0
 10
127.27757343
 20
110.04341416
  0
VERTEX
  8
0
 10
127.33464501
 20
110.56301726
  0
VERTEX
  8
0
 10
127.40759873
 20
111.07317224
  0
VERTEX
  8
0
 10
127.49615725
 20
111.57373387
  0
VERTEX
  8
0
 10
127.60004323
 20
112.06455691
  0
VERTEX
  8
0
 10
127.71897932
 20
112.54549615
  0
VERTEX
  8
0
 10
127.85268818
 20
113.01640635
  0
VERTEX
  8
0
 10
128.00089246
 20
113.47714228
  0
VERTEX
  8
0
 10
128.16331483
 20
113.92755871
  0
VERTEX
  8
0
 10
128.33967794
 20
114.36751040
  0
VERTEX
  8
0
 10
128.52970445
 20
114.79685214
  0
VERTEX
  8
0
 10
128.73311702
 20
115.21543868
  0
VERTEX
  8
0
 10
128.94963830
 20
115.62312481
  0
VERTEX
  8
0
 10
129.17899094
 20
116.01976528
  0
VERTEX
  8
0
 10
129.42089761
 20
116.40521487
  0
VERTEX
  8
0
 10
129.67508097
 20
116.77932835
  0
VERTEX
  8
0
 10
129.94126366
 20
117.14196048
  0
VERTEX
  8
0
 10
130.21916836
 20
117.49296605
  0
VERTEX
  8
0
 10
130.50851771
 20
117.83219981
  0
VERTEX
  8
0
 10
130.80903436
 20
118.15951654
  0
VERTEX
  8
0
 10
131.12044099
 20
118.47477101
  0
VERTEX
  8
0
 10
131.44246025
 20
118.77781798
  0
VERTEX
  8
0
 10
131.77481478
 20
119.06851224
  0
VERTEX
  8
0
 10
132.11722726
 20
119.34670854
  0
VERTEX
  8
0
 10
132.46942033
 20
119.61226165
  0
VERTEX
  8
0
 10
132.83111665
 20
119.86502636
  0
VERTEX
  8
0
 10
133.20203889
 20
120.10485742
  0
VERTEX
  8
0
 10
133.58190969
 20
120.33160960
  0
VERTEX
  8
0
 10
133.97045172
 20
120.54513769
  0
VERTEX
  8
0
 10
134.36738763
 20
120.74529644
  0
VERTEX
  8
0
 10
134.77244008
 20
120.93194062
  0
VERTEX
  8
0
 10
135.18533172
 20
121.10492501
  0
VERTEX
  8
0
 10
135.60578522
 20
121.26410438
  0
VERTEX
  8
0
 10
136.03352323
 20
121.40933349
  0
VERTEX
  8
0
 10
136.46826840
 20
121.54046712
  0
VERTEX
  8
0
 10
136.90974340
 20
121.65736003
  0
VERTEX
  8
0
 10
137.35767088
 20
121.75986700
  0
VERTEX
  8
0
 10
137.81177349
 20
121.84784279
  0
VERTEX
  8
0
 10
138.27177390
 20
121.92114218
  0
VERTEX
  8
0
 10
138.73739477
 20
121.97961993
  0
VERTEX
  8
0
 10
139.20835874
 20
122.02313082
  0
VERTEX
  8
0
 10
139.68438848
 20
122.05152961
  0
VERTEX
  8
0
 10
140.16520664
 20
122.06467108
  0
VERTEX
  8
0
 10
140.65053588
 20
122.06240999
  0
VERTEX
  8
0
 10
141.14009886
 20
122.04460111
  0
VERTEX
  8
0
 10
142.58831250
 20
122.00793500
  0
VERTEX
  8
0
 10
144.01587462
 20
121.94959168
  0
VERTEX
  8
0
 10
145.42285481
 20
121.86914706
  0
VERTEX
  8
0
 10
146.80932264
 20
121.76617709
  0
VERTEX
  8
0
 10
148.17534768
 20
121.64025770
  0
VERTEX
  8
0
 10
149.52099952
 20
121.49096483
  0
VERTEX
  8
0
 10
150.84634773
 20
121.31787439
  0
VERTEX
  8
0
 10
152.15146188
 20
121.12056234
  0
VERTEX
  8
0
 10
153.43641156
 20
120.89860460
  0
VERTEX
  8
0
 10
154.70126635
 20
120.65157710
  0
VERTEX
  8
0
 10
155.94609581
 20
120.37905577
  0
VERTEX
  8
0
 10
157.17096953
 20
120.08061656
  0
VERTEX
  8
0
 10
158.37595709
 20
119.75583538
  0
VERTEX
  8
0
 10
159.56112805
 20
119.40428819
  0
VERTEX
  8
0
 10
160.72655201
 20
119.02555089
  0
VERTEX
  8
0
 10
161.87229853
 20
118.61919944
  0
VERTEX
  8
0
 10
162.27729266
 20
118.48026158
  0
VERTEX
  8
0
 10
162.66760626
 20
118.32898672
  0
VERTEX
  8
0
 10
163.03895569
 20
118.16549028
  0
VERTEX
  8
0
 10
163.38705729
 20
117.98988771
  0
VERTEX
  8
0
 10
163.70762743
 20
117.80229445
  0
VERTEX
  8
0
 10
163.99638246
 20
117.60282595
  0
VERTEX
  8
0
 10
164.24903873
 20
117.39159763
  0
VERTEX
  8
0
 10
164.46131259
 20
117.16872495
  0
VERTEX
  8
0
 10
164.62892041
 20
116.93432333
  0
VERTEX
  8
0
 10
164.74757853
 20
116.68850823
  0
VERTEX
  8
0
 10
164.81300331
 20
116.43139508
  0
VERTEX
  8
0
 10
164.82441456
 20
116.29863781
  0
VERTEX
  8
0
 10
164.82091111
 20
116.16309932
  0
VERTEX
  8
0
 10
164.80195750
 20
116.02479403
  0
VERTEX
  8
0
 10
164.76701827
 20
115.88373638
  0
VERTEX
  8
0
 10
164.64704116
 20
115.59342172
  0
VERTEX
  8
0
 10
164.45669613
 20
115.29227077
  0
VERTEX
  8
0
 10
164.19169953
 20
114.98039897
  0
VERTEX
  8
0
 10
163.32454455
 20
113.74684518
  0
VERTEX
  8
0
 10
162.44995298
 20
112.53832984
  0
VERTEX
  8
0
 10
161.56162262
 20
111.35351731
  0
VERTEX
  8
0
 10
160.65325127
 20
110.19107199
  0
VERTEX
  8
0
 10
159.71853675
 20
109.04965822
  0
VERTEX
  8
0
 10
158.75117685
 20
107.92794039
  0
VERTEX
  8
0
 10
157.74486939
 20
106.82458287
  0
VERTEX
  8
0
 10
156.69331217
 20
105.73825002
  0
VERTEX
  8
0
 10
155.59020300
 20
104.66760622
  0
VERTEX
  8
0
 10
154.42923967
 20
103.61131584
  0
VERTEX
  8
0
 10
153.20412001
 20
102.56804325
  0
VERTEX
  8
0
 10
151.90854181
 20
101.53645282
  0
VERTEX
  8
0
 10
150.53620287
 20
100.51520892
  0
VERTEX
  8
0
 10
149.08080102
 20
99.50297592
  0
VERTEX
  8
0
 10
147.53603404
 20
98.49841819
  0
VERTEX
  8
0
 10
145.89559975
 20
97.50020011
  0
VERTEX
  8
0
 10
145.60529691
 20
97.28023314
  0
VERTEX
  8
0
 10
145.34905176
 20
97.05706785
  0
VERTEX
  8
0
 10
145.12602179
 20
96.83161979
  0
VERTEX
  8
0
 10
144.93536451
 20
96.60480452
  0
VERTEX
  8
0
 10
144.77623740
 20
96.37753757
  0
VERTEX
  8
0
 10
144.64779797
 20
96.15073449
  0
VERTEX
  8
0
 10
144.54920370
 20
95.92531082
  0
VERTEX
  8
0
 10
144.47961209
 20
95.70218212
  0
VERTEX
  8
0
 10
144.43818064
 20
95.48226393
  0
VERTEX
  8
0
 10
144.42406684
 20
95.26647178
  0
VERTEX
  8
0
 10
144.43642819
 20
95.05572124
  0
VERTEX
  8
0
 10
144.47442219
 20
94.85092784
  0
VERTEX
  8
0
 10
144.53720632
 20
94.65300712
  0
VERTEX
  8
0
 10
144.62393808
 20
94.46287464
  0
VERTEX
  8
0
 10
144.73377497
 20
94.28144595
  0
VERTEX
  8
0
 10
144.86587449
 20
94.10963657
  0
VERTEX
  8
0
 10
145.01939412
 20
93.94836207
  0
VERTEX
  8
0
 10
145.19349137
 20
93.79853799
  0
VERTEX
  8
0
 10
145.38732373
 20
93.66107986
  0
VERTEX
  8
0
 10
145.60004869
 20
93.53690325
  0
VERTEX
  8
0
 10
145.83082376
 20
93.42692369
  0
VERTEX
  8
0
 10
146.07880641
 20
93.33205673
  0
VERTEX
  8
0
 10
146.34315416
 20
93.25321791
  0
VERTEX
  8
0
 10
146.62302450
 20
93.19132278
  0
VERTEX
  8
0
 10
146.91757491
 20
93.14728689
  0
VERTEX
  8
0
 10
147.22596290
 20
93.12202577
  0
VERTEX
  8
0
 10
147.54734596
 20
93.11645499
  0
VERTEX
  8
0
 10
147.88088159
 20
93.13149008
  0
VERTEX
  8
0
 10
148.22572728
 20
93.16804658
  0
VERTEX
  8
0
 10
148.58104052
 20
93.22704005
  0
VERTEX
  8
0
 10
148.94597882
 20
93.30938602
  0
VERTEX
  8
0
 10
149.31969967
 20
93.41600006
  0
VERTEX
  8
0
 10
150.51122525
 20
94.06342954
  0
VERTEX
  8
0
 10
151.67970494
 20
94.72600298
  0
VERTEX
  8
0
 10
152.82541553
 20
95.40353856
  0
VERTEX
  8
0
 10
153.94863380
 20
96.09585444
  0
VERTEX
  8
0
 10
155.04963653
 20
96.80276882
  0
VERTEX
  8
0
 10
156.12870050
 20
97.52409985
  0
VERTEX
  8
0
 10
157.18610251
 20
98.25966573
  0
VERTEX
  8
0
 10
158.22211932
 20
99.00928461
  0
VERTEX
  8
0
 10
159.23702773
 20
99.77277469
  0
VERTEX
  8
0
 10
160.23110451
 20
100.54995413
  0
VERTEX
  8
0
 10
161.20462645
 20
101.34064111
  0
VERTEX
  8
0
 10
162.15787033
 20
102.14465381
  0
VERTEX
  8
0
 10
163.09111294
 20
102.96181040
  0
VERTEX
  8
0
 10
164.00463106
 20
103.79192906
  0
VERTEX
  8
0
 10
164.89870146
 20
104.63482797
  0
VERTEX
  8
0
 10
165.77360094
 20
105.49032530
  0
VERTEX
  8
0
 10
166.62960628
 20
106.35823922
  0
VERTEX
  8
0
 10
167.46699426
 20
107.23838791
  0
VERTEX
  8
0
 10
168.28604165
 20
108.13058955
  0
VERTEX
  8
0
 10
169.08702525
 20
109.03466232
  0
VERTEX
  8
0
 10
169.87022184
 20
109.95042438
  0
VERTEX
  8
0
 10
170.63590820
 20
110.87769392
  0
VERTEX
  8
0
 10
171.38436111
 20
111.81628911
  0
VERTEX
  8
0
 10
172.11585736
 20
112.76602813
  0
VERTEX
  8
0
 10
172.83067373
 20
113.72672915
  0
VERTEX
  8
0
 10
173.52908700
 20
114.69821035
  0
VERTEX
  8
0
 10
174.21137395
 20
115.68028990
  0
VERTEX
  8
0
 10
174.87781137
 20
116.67278599
  0
VERTEX
  8
0
 10
175.52867604
 20
117.67551678
  0
VERTEX
  8
0
 10
176.16424475
 20
118.68830045
  0
VERTEX
  8
0
 10
176.78479427
 20
119.71095518
  0
VERTEX
  8
0
 10
177.39060139
 20
120.74329914
  0
VERTEX
  8
0
 10
177.62822495
 20
121.06239002
  0
VERTEX
  8
0
 10
177.84541164
 20
121.37913336
  0
VERTEX
  8
0
 10
178.04203493
 20
121.69354176
  0
VERTEX
  8
0
 10
178.21796829
 20
122.00562784
  0
VERTEX
  8
0
 10
178.37308521
 20
122.31540422
  0
VERTEX
  8
0
 10
178.50725916
 20
122.62288352
  0
VERTEX
  8
0
 10
178.62036361
 20
122.92807835
  0
VERTEX
  8
0
 10
178.71227203
 20
123.23100132
  0
VERTEX
  8
0
 10
178.78285791
 20
123.53166506
  0
VERTEX
  8
0
 10
178.83199471
 20
123.83008218
  0
VERTEX
  8
0
 10
178.85955592
 20
124.12626529
  0
VERTEX
  8
0
 10
178.86541500
 20
124.42022701
  0
VERTEX
  8
0
 10
178.84944543
 20
124.71197997
  0
VERTEX
  8
0
 10
178.81152068
 20
125.00153676
  0
VERTEX
  8
0
 10
178.75151424
 20
125.28891002
  0
VERTEX
  8
0
 10
178.66929957
 20
125.57411235
  0
VERTEX
  8
0
 10
178.56475015
 20
125.85715638
  0
VERTEX
  8
0
 10
178.43773945
 20
126.13805471
  0
VERTEX
  8
0
 10
178.28814095
 20
126.41681997
  0
VERTEX
  8
0
 10
178.11582813
 20
126.69346477
  0
VERTEX
  8
0
 10
177.92067446
 20
126.96800172
  0
VERTEX
  8
0
 10
177.70255340
 20
127.24044345
  0
VERTEX
  8
0
 10
177.46133845
 20
127.51080257
  0
VERTEX
  8
0
 10
177.19690307
 20
127.77909170
  0
VERTEX
  8
0
 10
176.90912074
 20
128.04532344
  0
VERTEX
  8
0
 10
176.59786493
 20
128.30951043
  0
VERTEX
  8
0
 10
176.26300912
 20
128.57166527
  0
VERTEX
  8
0
 10
175.90442678
 20
128.83180057
  0
VERTEX
  8
0
 10
175.11557642
 20
129.34606307
  0
VERTEX
  8
0
 10
174.23030164
 20
129.85239883
  0
VERTEX
  8
0
 10
173.48368572
 20
130.37443513
  0
VERTEX
  8
0
 10
172.73144469
 20
130.87396804
  0
VERTEX
  8
0
 10
171.97377528
 20
131.35178405
  0
VERTEX
  8
0
 10
171.21087421
 20
131.80866963
  0
VERTEX
  8
0
 10
170.44293821
 20
132.24541125
  0
VERTEX
  8
0
 10
169.67016398
 20
132.66279541
  0
VERTEX
  8
0
 10
168.89274827
 20
133.06160858
  0
VERTEX
  8
0
 10
168.11088778
 20
133.44263724
  0
VERTEX
  8
0
 10
167.32477924
 20
133.80666786
  0
VERTEX
  8
0
 10
166.53461937
 20
134.15448694
  0
VERTEX
  8
0
 10
165.74060489
 20
134.48688093
  0
VERTEX
  8
0
 10
164.94293253
 20
134.80463634
  0
VERTEX
  8
0
 10
163.33740104
 20
135.39937728
  0
VERTEX
  8
0
 10
161.71959867
 20
135.94500158
  0
VERTEX
  8
0
 10
162.76630092
 20
128.80190069
  0
VERTEX
  8
0
 10
160.29350156
 20
128.43850078
  0
VERTEX
  8
0
 10
159.05150153
 20
136.91409978
  0
VERTEX
  8
0
 10
158.11726676
 20
137.26773496
  0
VERTEX
  8
0
 10
157.12380469
 20
137.60147967
  0
VERTEX
  8
0
 10
156.08396248
 20
137.90808128
  0
VERTEX
  8
0
 10
155.01058731
 20
138.18028713
  0
VERTEX
  8
0
 10
153.91652635
 20
138.41084459
  0
VERTEX
  8
0
 10
152.81462678
 20
138.59250102
  0
VERTEX
  8
0
 10
151.71773577
 20
138.71800377
  0
VERTEX
  8
0
 10
151.17518322
 20
138.75743106
  0
VERTEX
  8
0
 10
150.63870050
 20
138.78010019
  0
VERTEX
  8
0
 10
153.34049850
 20
131.99699844
  0
VERTEX
  8
0
 10
151.01929833
 20
131.06940103
  0
VERTEX
  8
0
 10
147.87100008
 20
138.94970164
  0
VERTEX
  8
0
 10
145.99837323
 20
139.13727270
  0
VERTEX
  8
0
 10
144.01916196
 20
139.27720024
  0
VERTEX
  8
0
 10
143.02029920
 20
139.32560055
  0
VERTEX
  8
0
 10
142.03164476
 20
139.35765342
  0
VERTEX
  8
0
 10
141.06548346
 20
139.37187998
  0
VERTEX
  8
0
 10
140.13410011
 20
139.36680139
  0
VERTEX
  8
0
 10
143.37940167
 20
132.77449950
  0
VERTEX
  8
0
 10
141.13740011
 20
131.67019922
  0
VERTEX
  8
0
 10
137.42050169
 20
139.16910119
  0
VERTEX
  8
0
 10
136.37483716
 20
139.21304595
  0
VERTEX
  8
0
 10
135.30389098
 20
139.21919762
  0
VERTEX
  8
0
 10
134.21343103
 20
139.18251954
  0
VERTEX
  8
0
 10
133.10922520
 20
139.09797502
  0
VERTEX
  8
0
 10
131.99704135
 20
138.96052740
  0
VERTEX
  8
0
 10
131.43976013
 20
138.87039096
  0
VERTEX
  8
0
 10
130.88264736
 20
138.76513999
  0
VERTEX
  8
0
 10
130.32642403
 20
138.64414491
  0
VERTEX
  8
0
 10
129.77181111
 20
138.50677613
  0
VERTEX
  8
0
 10
129.21952960
 20
138.35240407
  0
VERTEX
  8
0
 10
128.67030047
 20
138.18039914
  0
VERTEX
  8
0
 10
133.56889861
 20
131.85420106
  0
VERTEX
  8
0
 10
131.59330072
 20
130.32410153
  0
VERTEX
  8
0
 10
126.25649967
 20
137.21629981
  0
VERTEX
  8
0
 10
125.80077780
 20
137.00477069
  0
VERTEX
  8
0
 10
125.35375245
 20
136.77977604
  0
VERTEX
  8
0
 10
124.48535535
 20
136.29242535
  0
VERTEX
  8
0
 10
123.65043647
 20
135.76031817
  0
VERTEX
  8
0
 10
122.84812394
 20
135.18952489
  0
VERTEX
  8
0
 10
122.07754586
 20
134.58611592
  0
VERTEX
  8
0
 10
121.33783035
 20
133.95616168
  0
VERTEX
  8
0
 10
120.62810552
 20
133.30573258
  0
VERTEX
  8
0
 10
119.94749950
 20
132.64089903
  0
VERTEX
  8
0
 10
125.13629969
 20
127.62499875
  0
VERTEX
  8
0
 10
123.29369903
 20
125.76260019
  0
VERTEX
  8
0
 10
118.08850172
 20
130.96780103
  0
VERTEX
  8
0
 10
116.90328911
 20
129.57382086
  0
VERTEX
  8
0
 10
116.25610492
 20
128.79830660
  0
VERTEX
  8
0
 10
115.59876197
 20
127.97146313
  0
VERTEX
  8
0
 10
114.95093014
 20
127.09405563
  0
VERTEX
  8
0
 10
114.63672772
 20
126.63662950
  0
VERTEX
  8
0
 10
114.33227928
 20
126.16684930
  0
VERTEX
  8
0
 10
114.04004355
 20
125.68481068
  0
VERTEX
  8
0
 10
113.76247927
 20
125.19060930
  0
VERTEX
  8
0
 10
113.50204516
 20
124.68434080
  0
VERTEX
  8
0
 10
113.26119997
 20
124.16610083
  0
VERTEX
  8
0
 10
119.90870100
 20
119.55170047
  0
VERTEX
  8
0
 10
118.48340117
 20
117.49909825
  0
VERTEX
  8
0
 10
112.22110172
 20
121.84610011
  0
VERTEX
  8
0
 10
111.77847948
 20
120.91019402
  0
VERTEX
  8
0
 10
111.39561727
 20
119.96701528
  0
VERTEX
  8
0
 10
111.07128105
 20
119.02022249
  0
VERTEX
  8
0
 10
110.80423681
 20
118.07347427
  0
VERTEX
  8
0
 10
110.59325049
 20
117.13042923
  0
VERTEX
  8
0
 10
110.43708807
 20
116.19474596
  0
VERTEX
  8
0
 10
110.33451552
 20
115.27008309
  0
VERTEX
  8
0
 10
110.28429881
 20
114.36009922
  0
VERTEX
  8
0
 10
117.97940167
 20
110.40050028
  0
VERTEX
  8
0
 10
116.83609828
 20
108.17820136
  0
VERTEX
  8
0
 10
110.29140022
 20
111.54589917
  0
VERTEX
  8
0
 10
110.20408574
 20
110.69896758
  0
VERTEX
  8
0
 10
110.14514583
 20
109.84138250
  0
VERTEX
  8
0
 10
110.11511132
 20
108.97615915
  0
VERTEX
  8
0
 10
110.11451303
 20
108.10631275
  0
VERTEX
  8
0
 10
110.14388178
 20
107.23485850
  0
VERTEX
  8
0
 10
110.20374839
 20
106.36481163
  0
VERTEX
  8
0
 10
110.29464368
 20
105.49918736
  0
VERTEX
  8
0
 10
110.41709847
 20
104.64100089
  0
VERTEX
  8
0
 10
110.43869884
 20
104.40261656
  0
VERTEX
  8
0
 10
110.44236801
 20
104.18343497
  0
VERTEX
  8
0
 10
110.42913689
 20
103.98305628
  0
VERTEX
  8
0
 10
110.40003640
 20
103.80108066
  0
VERTEX
  8
0
 10
110.35609746
 20
103.63710829
  0
VERTEX
  8
0
 10
110.29835100
 20
103.49073934
  0
VERTEX
  8
0
 10
110.22782794
 20
103.36157397
  0
VERTEX
  8
0
 10
110.14555919
 20
103.24921235
  0
VERTEX
  8
0
 10
110.05257568
 20
103.15325466
  0
VERTEX
  8
0
 10
109.94990833
 20
103.07330106
  0
VERTEX
  8
0
 10
109.83858806
 20
103.00895173
  0
VERTEX
  8
0
 10
109.71964579
 20
102.95980682
  0
VERTEX
  8
0
 10
109.59411244
 20
102.92546653
  0
VERTEX
  8
0
 10
109.46301893
 20
102.90553100
  0
VERTEX
  8
0
 10
109.18827514
 20
102.90727494
  0
VERTEX
  8
0
 10
108.90366176
 20
102.96184001
  0
VERTEX
  8
0
 10
108.61742617
 20
103.06602757
  0
VERTEX
  8
0
 10
108.33781574
 20
103.21663896
  0
VERTEX
  8
0
 10
108.07307783
 20
103.41047556
  0
VERTEX
  8
0
 10
107.83145981
 20
103.64433872
  0
VERTEX
  8
0
 10
107.62120905
 20
103.91502980
  0
VERTEX
  8
0
 10
107.45057292
 20
104.21935015
  0
VERTEX
  8
0
 10
107.32779878
 20
104.55410114
  0
VERTEX
  8
0
 10
107.19742585
 20
105.03286077
  0
VERTEX
  8
0
 10
107.03709935
 20
105.47400932
  0
VERTEX
  8
0
 10
106.84948952
 20
105.87769763
  0
VERTEX
  8
0
 10
106.63726664
 20
106.24407652
  0
VERTEX
  8
0
 10
106.40310096
 20
106.57329681
  0
VERTEX
  8
0
 10
106.14966277
 20
106.86550932
  0
VERTEX
  8
0
 10
105.87962231
 20
107.12086488
  0
VERTEX
  8
0
 10
105.59564986
 20
107.33951431
  0
VERTEX
  8
0
 10
105.30041567
 20
107.52160842
  0
VERTEX
  8
0
 10
104.99659002
 20
107.66729806
  0
VERTEX
  8
0
 10
104.68684317
 20
107.77673402
  0
VERTEX
  8
0
 10
104.37384538
 20
107.85006715
  0
VERTEX
  8
0
 10
104.06026692
 20
107.88744826
  0
VERTEX
  8
0
 10
103.74877805
 20
107.88902818
  0
VERTEX
  8
0
 10
103.44204903
 20
107.85495772
  0
VERTEX
  8
0
 10
103.14275014
 20
107.78538772
  0
VERTEX
  8
0
 10
102.85355163
 20
107.68046898
  0
VERTEX
  8
0
 10
102.57712378
 20
107.54035235
  0
VERTEX
  8
0
 10
102.31613684
 20
107.36518864
  0
VERTEX
  8
0
 10
102.07326108
 20
107.15512866
  0
VERTEX
  8
0
 10
101.85116676
 20
106.91032326
  0
VERTEX
  8
0
 10
101.65252415
 20
106.63092324
  0
VERTEX
  8
0
 10
101.48000352
 20
106.31707943
  0
VERTEX
  8
0
 10
101.33627513
 20
105.96894265
  0
VERTEX
  8
0
 10
101.22400924
 20
105.58666374
  0
VERTEX
  8
0
 10
101.14587612
 20
105.17039350
  0
VERTEX
  8
0
 10
101.10454603
 20
104.72028276
  0
VERTEX
  8
0
 10
101.10268924
 20
104.23648235
  0
VERTEX
  8
0
 10
101.14297601
 20
103.71914309
  0
VERTEX
  8
0
 10
101.22807660
 20
103.16841580
  0
VERTEX
  8
0
 10
101.36066129
 20
102.58445130
  0
VERTEX
  8
0
 10
101.54340033
 20
101.96740042
  0
VERTEX
  8
0
 10
101.59853682
 20
101.57682649
  0
VERTEX
  8
0
 10
101.63083804
 20
101.21201125
  0
VERTEX
  8
0
 10
101.64148220
 20
100.87278622
  0
VERTEX
  8
0
 10
101.63164752
 20
100.55898292
  0
VERTEX
  8
0
 10
101.60251219
 20
100.27043288
  0
VERTEX
  8
0
 10
101.55525445
 20
100.00696762
  0
VERTEX
  8
0
 10
101.49105249
 20
99.76841867
  0
VERTEX
  8
0
 10
101.41108452
 20
99.55461754
  0
VERTEX
  8
0
 10
101.31652877
 20
99.36539577
  0
VERTEX
  8
0
 10
101.20856343
 20
99.20058487
  0
VERTEX
  8
0
 10
101.08836673
 20
99.06001637
  0
VERTEX
  8
0
 10
100.95711686
 20
98.94352180
  0
VERTEX
  8
0
 10
100.81599205
 20
98.85093267
  0
VERTEX
  8
0
 10
100.66617050
 20
98.78208052
  0
VERTEX
  8
0
 10
100.50883043
 20
98.73679686
  0
VERTEX
  8
0
 10
100.34515004
 20
98.71491322
  0
VERTEX
  8
0
 10
100.17630755
 20
98.71626112
  0
VERTEX
  8
0
 10
100.00348117
 20
98.74067209
  0
VERTEX
  8
0
 10
99.82784910
 20
98.78797766
  0
VERTEX
  8
0
 10
99.65058956
 20
98.85800933
  0
VERTEX
  8
0
 10
99.47288077
 20
98.95059865
  0
VERTEX
  8
0
 10
99.29590092
 20
99.06557712
  0
VERTEX
  8
0
 10
99.12082824
 20
99.20277629
  0
VERTEX
  8
0
 10
98.94884093
 20
99.36202766
  0
VERTEX
  8
0
 10
98.78111721
 20
99.54316277
  0
VERTEX
  8
0
 10
98.61883528
 20
99.74601314
  0
VERTEX
  8
0
 10
98.46317336
 20
99.97041028
  0
VERTEX
  8
0
 10
98.31530966
 20
100.21618574
  0
VERTEX
  8
0
 10
98.17642239
 20
100.48317102
  0
VERTEX
  8
0
 10
98.04768975
 20
100.77119766
  0
VERTEX
  8
0
 10
97.93028997
 20
101.08009717
  0
VERTEX
  8
0
 10
97.82540125
 20
101.40970108
  0
VERTEX
  8
0
 10
97.57078375
 20
102.17078964
  0
VERTEX
  8
0
 10
97.29618513
 20
102.90342814
  0
VERTEX
  8
0
 10
97.00176058
 20
103.60783762
  0
VERTEX
  8
0
 10
96.68766526
 20
104.28423911
  0
VERTEX
  8
0
 10
96.35405436
 20
104.93285362
  0
VERTEX
  8
0
 10
96.00108307
 20
105.55390219
  0
VERTEX
  8
0
 10
95.62890656
 20
106.14760584
  0
VERTEX
  8
0
 10
95.23768001
 20
106.71418560
  0
VERTEX
  8
0
 10
94.82755860
 20
107.25386250
  0
VERTEX
  8
0
 10
94.39869752
 20
107.76685755
  0
VERTEX
  8
0
 10
93.95125194
 20
108.25339180
  0
VERTEX
  8
0
 10
93.48537704
 20
108.71368626
  0
VERTEX
  8
0
 10
93.00122801
 20
109.14796197
  0
VERTEX
  8
0
 10
92.49896003
 20
109.55643994
  0
VERTEX
  8
0
 10
91.97872827
 20
109.93934121
  0
VERTEX
  8
0
 10
91.44068792
 20
110.29688680
  0
VERTEX
  8
0
 10
90.88499415
 20
110.62929774
  0
VERTEX
  8
0
 10
90.31180215
 20
110.93679505
  0
VERTEX
  8
0
 10
89.72126710
 20
111.21959976
  0
VERTEX
  8
0
 10
89.11354417
 20
111.47793290
  0
VERTEX
  8
0
 10
88.48878856
 20
111.71201550
  0
VERTEX
  8
0
 10
87.84715543
 20
111.92206858
  0
VERTEX
  8
0
 10
87.18879997
 20
112.10831316
  0
VERTEX
  8
0
 10
86.51387737
 20
112.27097028
  0
VERTEX
  8
0
 10
85.82254279
 20
112.41026096
  0
VERTEX
  8
0
 10
85.11495142
 20
112.52640622
  0
VERTEX
  8
0
 10
84.39125845
 20
112.61962710
  0
VERTEX
  8
0
 10
83.65161904
 20
112.69014462
  0
VERTEX
  8
0
 10
82.89618839
 20
112.73817981
  0
VERTEX
  8
0
 10
82.12512167
 20
112.76395369
  0
VERTEX
  8
0
 10
81.33857406
 20
112.76768729
  0
VERTEX
  8
0
 10
80.53670075
 20
112.74960164
  0
VERTEX
  8
0
 10
79.90255550
 20
112.71431413
  0
VERTEX
  8
0
 10
79.26532409
 20
112.65988767
  0
VERTEX
  8
0
 10
78.62561163
 20
112.58635755
  0
VERTEX
  8
0
 10
77.98402324
 20
112.49375909
  0
VERTEX
  8
0
 10
77.34116402
 20
112.38212760
  0
VERTEX
  8
0
 10
76.69763908
 20
112.25149840
  0
VERTEX
  8
0
 10
76.05405354
 20
112.10190679
  0
VERTEX
  8
0
 10
75.41101250
 20
111.93338807
  0
VERTEX
  8
0
 10
74.76912108
 20
111.74597757
  0
VERTEX
  8
0
 10
74.12898438
 20
111.53971060
  0
VERTEX
  8
0
 10
73.49120751
 20
111.31462245
  0
VERTEX
  8
0
 10
72.85639559
 20
111.07074846
  0
VERTEX
  8
0
 10
72.22515373
 20
110.80812391
  0
VERTEX
  8
0
 10
71.59808704
 20
110.52678413
  0
VERTEX
  8
0
 10
70.97580062
 20
110.22676443
  0
VERTEX
  8
0
 10
70.35889958
 20
109.90810011
  0
VERTEX
  8
0
 10
75.04179881
 20
98.24400031
  0
VERTEX
  8
0
 10
72.72229903
 20
97.31310089
  0
VERTEX
  8
0
 10
68.16129864
 20
108.67350136
  0
VERTEX
  8
0
 10
67.95734749
 20
108.68129095
  0
VERTEX
  8
0
 10
67.72880702
 20
108.66236765
  0
VERTEX
  8
0
 10
67.47779729
 20
108.61800880
  0
VERTEX
  8
0
 10
67.20643836
 20
108.54949176
  0
VERTEX
  8
0
 10
66.91685032
 20
108.45809386
  0
VERTEX
  8
0
 10
66.61115323
 20
108.34509245
  0
VERTEX
  8
0
 10
65.95991217
 20
108.05938845
  0
VERTEX
  8
0
 10
65.26967574
 20
107.70259852
  0
VERTEX
  8
0
 10
64.55740451
 20
107.28494140
  0
VERTEX
  8
0
 10
63.84005902
 20
106.81663584
  0
VERTEX
  8
0
 10
63.13459983
 20
106.30790058
  0
VERTEX
  8
0
 10
62.45798751
 20
105.76895437
  0
VERTEX
  8
0
 10
61.82718260
 20
105.21001596
  0
VERTEX
  8
0
 10
61.25914566
 20
104.64130408
  0
VERTEX
  8
0
 10
61.00396535
 20
104.35647645
  0
VERTEX
  8
0
 10
60.77083725
 20
104.07303749
  0
VERTEX
  8
0
 10
60.56188142
 20
103.79226453
  0
VERTEX
  8
0
 10
60.37921792
 20
103.51543493
  0
VERTEX
  8
0
 10
60.22496684
 20
103.24382601
  0
VERTEX
  8
0
 10
60.10124824
 20
102.97871514
  0
VERTEX
  8
0
 10
60.01018219
 20
102.72137965
  0
VERTEX
  8
0
 10
59.95388876
 20
102.47309688
  0
VERTEX
  8
0
 10
59.93448801
 20
102.23514418
  0
VERTEX
  8
0
 10
59.95410003
 20
102.00879889
  0
VERTEX
  8
0
 10
60.00015245
 20
101.63312581
  0
VERTEX
  8
0
 10
59.99959597
 20
101.28341600
  0
VERTEX
  8
0
 10
59.95535455
 20
100.95929137
  0
VERTEX
  8
0
 10
59.87035218
 20
100.66037385
  0
VERTEX
  8
0
 10
59.74751285
 20
100.38628538
  0
VERTEX
  8
0
 10
59.58976053
 20
100.13664786
  0
VERTEX
  8
0
 10
59.40001921
 20
99.91108323
  0
VERTEX
  8
0
 10
59.18121286
 20
99.70921342
  0
VERTEX
  8
0
 10
58.93626548
 20
99.53066034
  0
VERTEX
  8
0
 10
58.66810104
 20
99.37504592
  0
VERTEX
  8
0
 10
58.37964352
 20
99.24199209
  0
VERTEX
  8
0
 10
58.07381691
 20
99.13112077
  0
VERTEX
  8
0
 10
57.75354518
 20
99.04205389
  0
VERTEX
  8
0
 10
57.42175232
 20
98.97441337
  0
VERTEX
  8
0
 10
57.08136231
 20
98.92782113
  0
VERTEX
  8
0
 10
56.73529914
 20
98.90189911
  0
VERTEX
  8
0
 10
56.57885869
 20
98.88596761
  0
VERTEX
  8
0
 10
56.41250347
 20
98.85249822
  0
VERTEX
  8
0
 10
56.05355922
 20
98.73699742
  0
VERTEX
  8
0
 10
55.66548739
 20
98.56349991
  0
VERTEX
  8
0
 10
55.25530899
 20
98.34010893
  0
VERTEX
  8
0
 10
54.83004502
 20
98.07492770
  0
VERTEX
  8
0
 10
54.39671649
 20
97.77605943
  0
VERTEX
  8
0
 10
53.96234439
 20
97.45160735
  0
VERTEX
  8
0
 10
53.53394973
 20
97.10967467
  0
VERTEX
  8
0
 10
52.72317673
 20
96.40578043
  0
VERTEX
  8
0
 10
52.02056553
 20
95.72920247
  0
VERTEX
  8
0
 10
51.48228414
 20
95.14476657
  0
VERTEX
  8
0
 10
51.29231963
 20
94.90735995
  0
VERTEX
  8
0
 10
51.16450058
 20
94.71729850
  0
VERTEX
  8
0
 10
50.79385714
 20
94.22265383
  0
VERTEX
  8
0
 10
50.40824751
 20
93.77260260
  0
VERTEX
  8
0
 10
50.01175319
 20
93.37058911
  0
VERTEX
  8
0
 10
49.60845568
 20
93.02005766
  0
VERTEX
  8
0
 10
49.20243648
 20
92.72445252
  0
VERTEX
  8
0
 10
48.79777708
 20
92.48721800
  0
VERTEX
  8
0
 10
48.39855898
 20
92.31179838
  0
VERTEX
  8
0
 10
48.20226588
 20
92.24834551
  0
VERTEX
  8
0
 10
48.00886367
 20
92.20163796
  0
VERTEX
  8
0
 10
47.81886254
 20
92.17210629
  0
VERTEX
  8
0
 10
47.63277267
 20
92.16018103
  0
VERTEX
  8
0
 10
47.45110424
 20
92.16629271
  0
VERTEX
  8
0
 10
47.27436746
 20
92.19087187
  0
VERTEX
  8
0
 10
47.10307249
 20
92.23434904
  0
VERTEX
  8
0
 10
46.93772954
 20
92.29715477
  0
VERTEX
  8
0
 10
46.77884878
 20
92.37971960
  0
VERTEX
  8
0
 10
46.62694040
 20
92.48247404
  0
VERTEX
  8
0
 10
46.48251460
 20
92.60584865
  0
VERTEX
  8
0
 10
46.34608156
 20
92.75027396
  0
VERTEX
  8
0
 10
46.21815146
 20
92.91618051
  0
VERTEX
  8
0
 10
46.09923450
 20
93.10399882
  0
VERTEX
  8
0
 10
45.98984086
 20
93.31415944
  0
VERTEX
  8
0
 10
45.89048072
 20
93.54709291
  0
VERTEX
  8
0
 10
45.80166428
 20
93.80322976
  0
VERTEX
  8
0
 10
45.72390172
 20
94.08300053
  0
VERTEX
  8
0
 10
45.82349647
 20
95.09918501
  0
VERTEX
  8
0
 10
45.87406928
 20
96.07916338
  0
VERTEX
  8
0
 10
45.87573251
 20
97.02271077
  0
VERTEX
  8
0
 10
45.82859850
 20
97.92960232
  0
VERTEX
  8
0
 10
45.73277962
 20
98.79961320
  0
VERTEX
  8
0
 10
45.58838820
 20
99.63251854
  0
VERTEX
  8
0
 10
45.39553659
 20
100.42809348
  0
VERTEX
  8
0
 10
45.15433715
 20
101.18611317
  0
VERTEX
  8
0
 10
44.86490222
 20
101.90635277
  0
VERTEX
  8
0
 10
44.52734416
 20
102.58858740
  0
VERTEX
  8
0
 10
44.34055407
 20
102.91538260
  0
VERTEX
  8
0
 10
44.14177532
 20
103.23259223
  0
VERTEX
  8
0
 10
43.93102196
 20
103.54018819
  0
VERTEX
  8
0
 10
43.70830804
 20
103.83814239
  0
VERTEX
  8
0
 10
43.47364759
 20
104.12642670
  0
VERTEX
  8
0
 10
43.22705467
 20
104.40501303
  0
VERTEX
  8
0
 10
42.96854332
 20
104.67387326
  0
VERTEX
  8
0
 10
42.69812757
 20
104.93297929
  0
VERTEX
  8
0
 10
42.41582148
 20
105.18230302
  0
VERTEX
  8
0
 10
42.12163908
 20
105.42181633
  0
VERTEX
  8
0
 10
41.49770156
 20
105.87129928
  0
VERTEX
  8
0
 10
32.57450164
 20
92.11470161
  0
VERTEX
  8
0
 10
30.23720069
 20
93.64920028
  0
VERTEX
  8
0
 10
38.97459961
 20
107.45440014
  0
SEQEND
  0
POLYLINE
  8
Nível Padrão
 66
   1
 39
0.000000
 70
    1
  0
VERTEX
  8
0
 10
41.20330144
 20
70.87800150
  0
VERTEX
  8
0
 10
41.44623838
 20
71.06750317
  0
VERTEX
  8
0
 10
41.69641459
 20
71.23771706
  0
VERTEX
  8
0
 10
41.95368418
 20
71.38903121
  0
VERTEX
  8
0
 10
42.21790125
 20
71.52183368
  0
VERTEX
  8
0
 10
42.48891988
 20
71.63651249
  0
VERTEX
  8
0
 10
42.76659418
 20
71.73345570
  0
VERTEX
  8
0
 10
43.05077824
 20
71.81305135
  0
VERTEX
  8
0
 10
43.34132616
 20
71.87568748
  0
VERTEX
  8
0
 10
43.63809204
 20
71.92175214
  0
VERTEX
  8
0
 10
43.94092997
 20
71.95163337
  0
VERTEX
  8
0
 10
44.24969405
 20
71.96571920
  0
VERTEX
  8
0
 10
44.56423837
 20
71.96439770
  0
VERTEX
  8
0
 10
45.21008415
 20
71.91708483
  0
VERTEX
  8
0
 10
45.87730008
 20
71.81279911
  0
VERTEX
  8
0
 10
46.13790003
 20
71.61745518
  0
VERTEX
  8
0
 10
46.36690619
 20
71.41502133
  0
VERTEX
  8
0
 10
46.56121549
 20
71.20478277
  0
VERTEX
  8
0
 10
46.71772479
 20
70.98602470
  0
VERTEX
  8
0
 10
46.83333100
 20
70.75803235
  0
VERTEX
  8
0
 10
46.90493100
 20
70.52009092
  0
VERTEX
  8
0
 10
46.92942170
 20
70.27148562
  0
VERTEX
  8
0
 10
46.90369997
 20
70.01150167
  0
VERTEX
  8
0
 10
42.32459856
 20
65.11469917
  0
VERTEX
  8
0
 10
44.15010008
 20
63.40850003
  0
VERTEX
  8
0
 10
48.70470108
 20
68.27899942
  0
VERTEX
  8
0
 10
48.88133261
 20
68.33436108
  0
VERTEX
  8
0
 10
49.05347543
 20
68.36683607
  0
VERTEX
  8
0
 10
49.22062051
 20
68.37659801
  0
VERTEX
  8
0
 10
49.38225882
 20
68.36382048
  0
VERTEX
  8
0
 10
49.53788130
 20
68.32867708
  0
VERTEX
  8
0
 10
49.68697892
 20
68.27134140
  0
VERTEX
  8
0
 10
49.82904265
 20
68.19198705
  0
VERTEX
  8
0
 10
49.96356345
 20
68.09078762
  0
VERTEX
  8
0
 10
50.09003227
 20
67.96791671
  0
VERTEX
  8
0
 10
50.20794008
 20
67.82354791
  0
VERTEX
  8
0
 10
50.31677783
 20
67.65785481
  0
VERTEX
  8
0
 10
50.41603650
 20
67.47101103
  0
VERTEX
  8
0
 10
50.50520704
 20
67.26319015
  0
VERTEX
  8
0
 10
50.58378041
 20
67.03456577
  0
VERTEX
  8
0
 10
50.65124758
 20
66.78531148
  0
VERTEX
  8
0
 10
50.70709950
 20
66.51560089
  0
VERTEX
  8
0
 10
50.59588384
 20
65.97596423
  0
VERTEX
  8
0
 10
50.52676197
 20
65.47841673
  0
VERTEX
  8
0
 10
50.49973390
 20
65.02295856
  0
VERTEX
  8
0
 10
50.51479962
 20
64.60958985
  0
VERTEX
  8
0
 10
50.57195911
 20
64.23831077
  0
VERTEX
  8
0
 10
50.67121239
 20
63.90912147
  0
VERTEX
  8
0
 10
50.81255943
 20
63.62202211
  0
VERTEX
  8
0
 10
50.99600025
 20
63.37701285
  0
VERTEX
  8
0
 10
51.22153482
 20
63.17409383
  0
VERTEX
  8
0
 10
51.48916315
 20
63.01326521
  0
VERTEX
  8
0
 10
51.79888523
 20
62.89452715
  0
VERTEX
  8
0
 10
52.15070106
 20
62.81787980
  0
VERTEX
  8
0
 10
52.54461063
 20
62.78332332
  0
VERTEX
  8
0
 10
52.98061393
 20
62.79085787
  0
VERTEX
  8
0
 10
53.45871096
 20
62.84048359
  0
VERTEX
  8
0
 10
53.97890172
 20
62.93220064
  0
VERTEX
  8
0
 10
54.46044847
 20
63.09948345
  0
VERTEX
  8
0
 10
54.91673900
 20
63.22888189
  0
VERTEX
  8
0
 10
55.34777331
 20
63.32039596
  0
VERTEX
  8
0
 10
55.75355138
 20
63.37402565
  0
VERTEX
  8
0
 10
56.13407322
 20
63.38977095
  0
VERTEX
  8
0
 10
56.48933881
 20
63.36763186
  0
VERTEX
  8
0
 10
56.81934816
 20
63.30760837
  0
VERTEX
  8
0
 10
57.12410126
 20
63.20970049
  0
VERTEX
  8
0
 10
57.40359810
 20
63.07390820
  0
VERTEX
  8
0
 10
57.65783868
 20
62.90023150
  0
VERTEX
  8
0
 10
57.88682299
 20
62.68867038
  0
VERTEX
  8
0
 10
58.09055103
 20
62.43922484
  0
VERTEX
  8
0
 10
58.26902279
 20
62.15189487
  0
VERTEX
  8
0
 10
58.42223827
 20
61.82668047
  0
VERTEX
  8
0
 10
58.55019746
 20
61.46358164
  0
VERTEX
  8
0
 10
58.65290036
 20
61.06259836
  0
VERTEX
  8
0
 10
58.65290036
 20
59.00010072
  0
VERTEX
  8
0
 10
50.81180042
 20
57.90060175
  0
VERTEX
  8
0
 10
51.15879969
 20
55.42560106
  0
VERTEX
  8
0
 10
59.62939983
 20
56.61340031
  0
VERTEX
  8
0
 10
59.77906981
 20
56.28280352
  0
VERTEX
  8
0
 10
59.90924868
 20
55.95370204
  0
VERTEX
  8
0
 10
60.01503271
 20
55.62647319
  0
VERTEX
  8
0
 10
60.09151816
 20
55.30149433
  0
VERTEX
  8
0
 10
60.13380132
 20
54.97914280
  0
VERTEX
  8
0
 10
60.13697846
 20
54.65979595
  0
VERTEX
  8
0
 10
60.09614586
 20
54.34383113
  0
VERTEX
  8
0
 10
60.00639977
 20
54.03162568
  0
VERTEX
  8
0
 10
59.86283649
 20
53.72355695
  0
VERTEX
  8
0
 10
59.66055228
 20
53.42000229
  0
VERTEX
  8
0
 10
59.39464342
 20
53.12133904
  0
VERTEX
  8
0
 10
59.06020617
 20
52.82794454
  0
VERTEX
  8
0
 10
58.65233682
 20
52.54019616
  0
VERTEX
  8
0
 10
58.16613164
 20
52.25847122
  0
VERTEX
  8
0
 10
57.59668689
 20
51.98314708
  0
VERTEX
  8
0
 10
56.93909886
 20
51.71460108
  0
VERTEX
  8
0
 10
56.37019689
 20
51.66768262
  0
VERTEX
  8
0
 10
55.84339118
 20
51.58287726
  0
VERTEX
  8
0
 10
55.35868187
 20
51.46018485
  0
VERTEX
  8
0
 10
54.91606912
 20
51.29960527
  0
VERTEX
  8
0
 10
54.51555306
 20
51.10113836
  0
VERTEX
  8
0
 10
54.15713385
 20
50.86478399
  0
VERTEX
  8
0
 10
53.84081162
 20
50.59054203
  0
VERTEX
  8
0
 10
53.56658652
 20
50.27841232
  0
VERTEX
  8
0
 10
53.33445870
 20
49.92839474
  0
VERTEX
  8
0
 10
53.14442830
 20
49.54048914
  0
VERTEX
  8
0
 10
52.99649546
 20
49.11469538
  0
VERTEX
  8
0
 10
52.89066033
 20
48.65101332
  0
VERTEX
  8
0
 10
52.82692306
 20
48.14944283
  0
VERTEX
  8
0
 10
52.80528378
 20
47.60998376
  0
VERTEX
  8
0
 10
52.82574265
 20
47.03263597
  0
VERTEX
  8
0
 10
52.88829981
 20
46.41739933
  0
VERTEX
  8
0
 10
52.81861810
 20
45.76327574
  0
VERTEX
  8
0
 10
52.72196911
 20
45.08242290
  0
VERTEX
  8
0
 10
52.48405043
 20
43.67153718
  0
VERTEX
  8
0
 10
52.24710608
 20
42.24675753
  0
VERTEX
  8
0
 10
52.15167499
 20
41.54853728
  0
VERTEX
  8
0
 10
52.08369836
 20
40.87009931
  0
VERTEX
  8
0
 10
37.42170006
 20
42.46419978
  0
VERTEX
  8
0
 10
37.15170158
 20
39.97939892
  0
VERTEX
  8
0
 10
51.60260119
 20
38.40829956
  0
VERTEX
  8
0
 10
51.36736430
 20
37.38455852
  0
VERTEX
  8
0
 10
51.18681258
 20
36.37657545
  0
VERTEX
  8
0
 10
51.06213972
 20
35.38585358
  0
VERTEX
  8
0
 10
50.99453942
 20
34.41389611
  0
VERTEX
  8
0
 10
50.98520537
 20
33.46220626
  0
VERTEX
  8
0
 10
51.00276121
 20
32.99443145
  0
VERTEX
  8
0
 10
51.03533126
 20
32.53228724
  0
VERTEX
  8
0
 10
51.08306472
 20
32.07596156
  0
VERTEX
  8
0
 10
51.14611080
 20
31.62564228
  0
VERTEX
  8
0
 10
51.22461871
 20
31.18151733
  0
VERTEX
  8
0
 10
51.31873767
 20
30.74377459
  0
VERTEX
  8
0
 10
51.42861689
 20
30.31260197
  0
VERTEX
  8
0
 10
51.55440558
 20
29.88818738
  0
VERTEX
  8
0
 10
51.69625295
 20
29.47071871
  0
VERTEX
  8
0
 10
51.85430821
 20
29.06038387
  0
VERTEX
  8
0
 10
52.02872057
 20
28.65737076
  0
VERTEX
  8
0
 10
52.21963926
 20
28.26186728
  0
VERTEX
  8
0
 10
52.42721347
 20
27.87406133
  0
VERTEX
  8
0
 10
52.65159242
 20
27.49414081
  0
VERTEX
  8
0
 10
52.89292533
 20
27.12229364
  0
VERTEX
  8
0
 10
53.15136139
 20
26.75870770
  0
VERTEX
  8
0
 10
53.42704984
 20
26.40357090
  0
VERTEX
  8
0
 10
53.72013987
 20
26.05707114
  0
VERTEX
  8
0
 10
54.03078070
 20
25.71939633
  0
VERTEX
  8
0
 10
54.35912154
 20
25.39073437
  0
VERTEX
  8
0
 10
54.70531161
 20
25.07127315
  0
VERTEX
  8
0
 10
55.06950011
 20
24.76120058
  0
VERTEX
  8
0
 10
55.20128568
 20
24.46485381
  0
VERTEX
  8
0
 10
55.31495641
 20
24.17360383
  0
VERTEX
  8
0
 10
55.40929587
 20
23.88779194
  0
VERTEX
  8
0
 10
55.48308768
 20
23.60775946
  0
VERTEX
  8
0
 10
55.53511542
 20
23.33384771
  0
VERTEX
  8
0
 10
55.56416269
 20
23.06639799
  0
VERTEX
  8
0
 10
55.56901308
 20
22.80575161
  0
VERTEX
  8
0
 10
55.54845018
 20
22.55224990
  0
VERTEX
  8
0
 10
55.50125759
 20
22.30623415
  0
VERTEX
  8
0
 10
55.42621891
 20
22.06804569
  0
VERTEX
  8
0
 10
55.32211771
 20
21.83802583
  0
VERTEX
  8
0
 10
55.18773761
 20
21.61651588
  0
VERTEX
  8
0
 10
55.02186218
 20
21.40385715
  0
VERTEX
  8
0
 10
54.82327504
 20
21.20039095
  0
VERTEX
  8
0
 10
54.59075976
 20
21.00645861
  0
VERTEX
  8
0
 10
54.32309994
 20
20.82240142
  0
VERTEX
  8
0
 10
46.99579967
 20
24.12949906
  0
VERTEX
  8
0
 10
45.96769939
 20
21.85159883
  0
VERTEX
  8
0
 10
53.28400006
 20
18.54940128
  0
VERTEX
  8
0
 10
53.34774773
 20
18.27018806
  0
VERTEX
  8
0
 10
53.39025209
 20
18.00159969
  0
VERTEX
  8
0
 10
53.41019874
 20
17.74429301
  0
VERTEX
  8
0
 10
53.40627327
 20
17.49892486
  0
VERTEX
  8
0
 10
53.37716129
 20
17.26615207
  0
VERTEX
  8
0
 10
53.32154840
 20
17.04663149
  0
VERTEX
  8
0
 10
53.23812019
 20
16.84101994
  0
VERTEX
  8
0
 10
53.12556226
 20
16.64997428
  0
VERTEX
  8
0
 10
52.98256022
 20
16.47415134
  0
VERTEX
  8
0
 10
52.80779966
 20
16.31420796
  0
VERTEX
  8
0
 10
52.59996619
 20
16.17080097
  0
VERTEX
  8
0
 10
52.35774540
 20
16.04458722
  0
VERTEX
  8
0
 10
52.07982289
 20
15.93622354
  0
VERTEX
  8
0
 10
51.76488426
 20
15.84636678
  0
VERTEX
  8
0
 10
51.41161512
 20
15.77567376
  0
VERTEX
  8
0
 10
51.01870106
 20
15.72480133
  0
VERTEX
  8
0
 10
46.96789847
 20
16.50380169
  0
VERTEX
  8
0
 10
46.51872521
 20
16.60395520
  0
VERTEX
  8
0
 10
46.06057762
 20
16.72430831
  0
VERTEX
  8
0
 10
45.83655178
 20
16.77312992
  0
VERTEX
  8
0
 10
45.62037837
 20
16.80428568
  0
VERTEX
  8
0
 10
45.41542270
 20
16.81020366
  0
VERTEX
  8
0
 10
45.22505013
 20
16.78331194
  0
VERTEX
  8
0
 10
45.05262598
 20
16.71603860
  0
VERTEX
  8
0
 10
44.90151559
 20
16.60081172
  0
VERTEX
  8
0
 10
44.77508430
 20
16.43005939
  0
VERTEX
  8
0
 10
44.67669743
 20
16.19620968
  0
VERTEX
  8
0
 10
44.60972032
 20
15.89169067
  0
VERTEX
  8
0
 10
44.57751831
 20
15.50893044
  0
VERTEX
  8
0
 10
44.58345673
 20
15.04035707
  0
VERTEX
  8
0
 10
44.63090092
 20
14.47839864
  0
VERTEX
  8
0
 10
44.33536592
 20
13.86435255
  0
VERTEX
  8
0
 10
44.03621118
 20
13.29716624
  0
VERTEX
  8
0
 10
43.73216049
 20
12.79353069
  0
VERTEX
  8
0
 10
43.42193765
 20
12.37013690
  0
VERTEX
  8
0
 10
43.26411286
 20
12.19374660
  0
VERTEX
  8
0
 10
43.10426645
 20
12.04367586
  0
VERTEX
  8
0
 10
42.94223891
 20
11.92201106
  0
VERTEX
  8
0
 10
42.77787071
 20
11.83083857
  0
VERTEX
  8
0
 10
42.61100231
 20
11.77224476
  0
VERTEX
  8
0
 10
42.44147421
 20
11.74831601
  0
VERTEX
  8
0
 10
42.26912686
 20
11.76113868
  0
VERTEX
  8
0
 10
42.09380075
 20
11.81279917
  0
VERTEX
  8
0
 10
38.33580019
 20
18.13659836
  0
VERTEX
  8
0
 10
36.18690022
 20
16.86079869
  0
VERTEX
  8
0
 10
39.69410047
 20
10.95899933
  0
VERTEX
  8
0
 10
39.50510523
 20
10.65468124
  0
VERTEX
  8
0
 10
39.29791295
 20
10.39004123
  0
VERTEX
  8
0
 10
39.07283284
 20
10.16515738
  0
VERTEX
  8
0
 10
38.83017415
 20
9.98010775
  0
VERTEX
  8
0
 10
38.57024611
 20
9.83497042
  0
VERTEX
  8
0
 10
38.29335794
 20
9.72982345
  0
VERTEX
  8
0
 10
37.99981888
 20
9.66474490
  0
VERTEX
  8
0
 10
37.68993817
 20
9.63981285
  0
VERTEX
  8
0
 10
37.36402502
 20
9.65510536
  0
VERTEX
  8
0
 10
37.02238868
 20
9.71070051
  0
VERTEX
  8
0
 10
36.66533838
 20
9.80667635
  0
VERTEX
  8
0
 10
36.29318335
 20
9.94311095
  0
VERTEX
  8
0
 10
35.90623281
 20
10.12008239
  0
VERTEX
  8
0
 10
35.50479601
 20
10.33766873
  0
VERTEX
  8
0
 10
35.08918217
 20
10.59594804
  0
VERTEX
  8
0
 10
34.65970053
 20
10.89499839
  0
VERTEX
  8
0
 10
34.08312494
 20
12.14043520
  0
VERTEX
  8
0
 10
33.49638805
 20
13.35393820
  0
VERTEX
  8
0
 10
32.89671837
 20
14.52679787
  0
VERTEX
  8
0
 10
32.28134441
 20
15.65030470
  0
VERTEX
  8
0
 10
31.64749467
 20
16.71574917
  0
VERTEX
  8
0
 10
30.99239768
 20
17.71442177
  0
VERTEX
  8
0
 10
30.65601537
 20
18.18599689
  0
VERTEX
  8
0
 10
30.31328193
 20
18.63761298
  0
VERTEX
  8
0
 10
29.96385094
 20
19.06818134
  0
VERTEX
  8
0
 10
29.60737594
 20
19.47661328
  0
VERTEX
  8
0
 10
29.24351052
 20
19.86182013
  0
VERTEX
  8
0
 10
28.87190823
 20
20.22271318
  0
VERTEX
  8
0
 10
28.49222263
 20
20.55820374
  0
VERTEX
  8
0
 10
28.10410729
 20
20.86720313
  0
VERTEX
  8
0
 10
27.70721577
 20
21.14862266
  0
VERTEX
  8
0
 10
27.30120164
 20
21.40137364
  0
VERTEX
  8
0
 10
26.88571846
 20
21.62436738
  0
VERTEX
  8
0
 10
26.46041979
 20
21.81651519
  0
VERTEX
  8
0
 10
26.02495920
 20
21.97672838
  0
VERTEX
  8
0
 10
25.57899026
 20
22.10391827
  0
VERTEX
  8
0
 10
25.12216651
 20
22.19699615
  0
VERTEX
  8
0
 10
24.65414154
 20
22.25487335
  0
VERTEX
  8
0
 10
24.17456890
 20
22.27646117
  0
VERTEX
  8
0
 10
23.68310215
 20
22.26067092
  0
VERTEX
  8
0
 10
23.17939487
 20
22.20641392
  0
VERTEX
  8
0
 10
22.66310061
 20
22.11260147
  0
VERTEX
  8
0
 10
21.37785103
 20
21.88155281
  0
VERTEX
  8
0
 10
20.74319581
 20
21.78921582
  0
VERTEX
  8
0
 10
20.11992104
 20
21.71565481
  0
VERTEX
  8
0
 10
19.51257726
 20
21.66335813
  0
VERTEX
  8
0
 10
18.92571503
 20
21.63481408
  0
VERTEX
  8
0
 10
18.36388490
 20
21.63251099
  0
VERTEX
  8
0
 10
17.83163741
 20
21.65893719
  0
VERTEX
  8
0
 10
17.33352311
 20
21.71658099
  0
VERTEX
  8
0
 10
16.87409255
 20
21.80793073
  0
VERTEX
  8
0
 10
16.45789629
 20
21.93547473
  0
VERTEX
  8
0
 10
16.08948487
 20
22.10170130
  0
VERTEX
  8
0
 10
15.92462051
 20
22.20009816
  0
VERTEX
  8
0
 10
15.77340883
 20
22.30909878
  0
VERTEX
  8
0
 10
15.63641863
 20
22.42901421
  0
VERTEX
  8
0
 10
15.51421873
 20
22.56015548
  0
VERTEX
  8
0
 10
15.40737796
 20
22.70283364
  0
VERTEX
  8
0
 10
15.31646513
 20
22.85735973
  0
VERTEX
  8
0
 10
15.24204905
 20
23.02404479
  0
VERTEX
  8
0
 10
15.18469856
 20
23.20319986
  0
VERTEX
  8
0
 10
14.73330175
 20
25.76210169
  0
VERTEX
  8
0
 10
22.60719944
 20
26.51529989
  0
VERTEX
  8
0
 10
22.36950131
 20
29.00350153
  0
VERTEX
  8
0
 10
14.29660167
 20
28.23129919
  0
VERTEX
  8
0
 10
14.31092998
 20
28.77957833
  0
VERTEX
  8
0
 10
14.36069542
 20
29.29983689
  0
VERTEX
  8
0
 10
14.44532331
 20
29.79096292
  0
VERTEX
  8
0
 10
14.56423901
 20
30.25184444
  0
VERTEX
  8
0
 10
14.71686785
 20
30.68136952
  0
VERTEX
  8
0
 10
14.90263519
 20
31.07842618
  0
VERTEX
  8
0
 10
15.12096635
 20
31.44190248
  0
VERTEX
  8
0
 10
15.37128669
 20
31.77068645
  0
VERTEX
  8
0
 10
15.65302155
 20
32.06366613
  0
VERTEX
  8
0
 10
15.96559626
 20
32.31972957
  0
VERTEX
  8
0
 10
16.30843618
 20
32.53776481
  0
VERTEX
  8
0
 10
16.68096664
 20
32.71665989
  0
VERTEX
  8
0
 10
17.08261299
 20
32.85530286
  0
VERTEX
  8
0
 10
17.51280056
 20
32.95258175
  0
VERTEX
  8
0
 10
17.97095471
 20
33.00738461
  0
VERTEX
  8
0
 10
18.45650078
 20
33.01859947
  0
VERTEX
  8
0
 10
18.70743267
 20
33.24259481
  0
VERTEX
  8
0
 10
18.92475114
 20
33.45865924
  0
VERTEX
  8
0
 10
19.10848959
 20
33.66904774
  0
VERTEX
  8
0
 10
19.25868139
 20
33.87601528
  0
VERTEX
  8
0
 10
19.37535996
 20
34.08181683
  0
VERTEX
  8
0
 10
19.45855868
 20
34.28870737
  0
VERTEX
  8
0
 10
19.50831095
 20
34.49894188
  0
VERTEX
  8
0
 10
19.52465015
 20
34.71477531
  0
VERTEX
  8
0
 10
19.50760969
 20
34.93846266
  0
VERTEX
  8
0
 10
19.45722295
 20
35.17225889
  0
VERTEX
  8
0
 10
19.37352333
 20
35.41841897
  0
VERTEX
  8
0
 10
19.25654422
 20
35.67919788
  0
VERTEX
  8
0
 10
19.10631902
 20
35.95685059
  0
VERTEX
  8
0
 10
18.92288112
 20
36.25363208
  0
VERTEX
  8
0
 10
18.45650078
 20
36.91360128
  0
VERTEX
  8
0
 10
17.72824591
 20
37.29378400
  0
VERTEX
  8
0
 10
17.05765858
 20
37.69205002
  0
VERTEX
  8
0
 10
16.44370187
 20
38.10658832
  0
VERTEX
  8
0
 10
15.88533886
 20
38.53558783
  0
VERTEX
  8
0
 10
15.38153262
 20
38.97723753
  0
VERTEX
  8
0
 10
14.93124623
 20
39.42972637
  0
VERTEX
  8
0
 10
14.53344275
 20
39.89124330
  0
VERTEX
  8
0
 10
14.18708528
 20
40.35997729
  0
VERTEX
  8
0
 10
13.89113688
 20
40.83411729
  0
VERTEX
  8
0
 10
13.64456062
 20
41.31185226
  0
VERTEX
  8
0
 10
13.44631959
 20
41.79137115
  0
VERTEX
  8
0
 10
13.29537686
 20
42.27086293
  0
VERTEX
  8
0
 10
13.19069551
 20
42.74851655
  0
VERTEX
  8
0
 10
13.13123860
 20
43.22252096
  0
VERTEX
  8
0
 10
13.11596922
 20
43.69106513
  0
VERTEX
  8
0
 10
13.14385045
 20
44.15233802
  0
VERTEX
  8
0
 10
13.21384535
 20
44.60452857
  0
VERTEX
  8
0
 10
13.32491700
 20
45.04582576
  0
VERTEX
  8
0
 10
13.47602849
 20
45.47441853
  0
VERTEX
  8
0
 10
13.66614287
 20
45.88849584
  0
VERTEX
  8
0
 10
13.89422324
 20
46.28624665
  0
VERTEX
  8
0
 10
14.15923266
 20
46.66585992
  0
VERTEX
  8
0
 10
14.46013422
 20
47.02552461
  0
VERTEX
  8
0
 10
14.79589098
 20
47.36342966
  0
VERTEX
  8
0
 10
15.16546602
 20
47.67776405
  0
VERTEX
  8
0
 10
15.56782242
 20
47.96671673
  0
VERTEX
  8
0
 10
16.00192325
 20
48.22847665
  0
VERTEX
  8
0
 10
16.46673159
 20
48.46123277
  0
VERTEX
  8
0
 10
16.96121052
 20
48.66317406
  0
VERTEX
  8
0
 10
17.48432310
 20
48.83248946
  0
VERTEX
  8
0
 10
18.03503242
 20
48.96736794
  0
VERTEX
  8
0
 10
18.61230156
 20
49.06599844
  0
VERTEX
  8
0
 10
19.41349130
 20
49.27156465
  0
VERTEX
  8
0
 10
19.76113660
 20
49.38228846
  0
VERTEX
  8
0
 10
20.07480178
 20
49.49810819
  0
VERTEX
  8
0
 10
20.35547655
 20
49.61887540
  0
VERTEX
  8
0
 10
20.60415061
 20
49.74444167
  0
VERTEX
  8
0
 10
20.82181367
 20
49.87465858
  0
VERTEX
  8
0
 10
21.00945544
 20
50.00937771
  0
VERTEX
  8
0
 10
21.16806561
 20
50.14845062
  0
VERTEX
  8
0
 10
21.29863390
 20
50.29172891
  0
VERTEX
  8
0
 10
21.40215000
 20
50.43906414
  0
VERTEX
  8
0
 10
21.47960362
 20
50.59030788
  0
VERTEX
  8
0
 10
21.53198447
 20
50.74531173
  0
VERTEX
  8
0
 10
21.56028225
 20
50.90392724
  0
VERTEX
  8
0
 10
21.56548666
 20
51.06600601
  0
VERTEX
  8
0
 10
21.54858742
 20
51.23139960
  0
VERTEX
  8
0
 10
21.51057421
 20
51.39995959
  0
VERTEX
  8
0
 10
21.45243676
 20
51.57153756
  0
VERTEX
  8
0
 10
21.37516475
 20
51.74598508
  0
VERTEX
  8
0
 10
21.27974790
 20
51.92315373
  0
VERTEX
  8
0
 10
21.03843849
 20
52.28506072
  0
VERTEX
  8
0
 10
20.73642616
 20
52.65607116
  0
VERTEX
  8
0
 10
20.38162855
 20
53.03499763
  0
VERTEX
  8
0
 10
19.98196329
 20
53.42065276
  0
VERTEX
  8
0
 10
19.54534801
 20
53.81184915
  0
VERTEX
  8
0
 10
19.07970036
 20
54.20739942
  0
VERTEX
  8
0
 10
18.71480714
 20
54.78610688
  0
VERTEX
  8
0
 10
18.40694462
 20
55.32507672
  0
VERTEX
  8
0
 10
18.15402015
 20
55.82509231
  0
VERTEX
  8
0
 10
17.95394105
 20
56.28693705
  0
VERTEX
  8
0
 10
17.80461466
 20
56.71139432
  0
VERTEX
  8
0
 10
17.70394830
 20
57.09924752
  0
VERTEX
  8
0
 10
17.64984932
 20
57.45128003
  0
VERTEX
  8
0
 10
17.64022503
 20
57.76827525
  0
VERTEX
  8
0
 10
17.67298278
 20
58.05101655
  0
VERTEX
  8
0
 10
17.74602990
 20
58.30028733
  0
VERTEX
  8
0
 10
17.85727371
 20
58.51687099
  0
VERTEX
  8
0
 10
18.00462155
 20
58.70155090
  0
VERTEX
  8
0
 10
18.18598075
 20
58.85511045
  0
VERTEX
  8
0
 10
18.39925864
 20
58.97833304
  0
VERTEX
  8
0
 10
18.64236256
 20
59.07200206
  0
VERTEX
  8
0
 10
18.91319983
 20
59.13690089
  0
VERTEX
  8
0
 10
25.20130144
 20
56.57790028
  0
VERTEX
  8
0
 10
26.14290061
 20
58.89309969
  0
VERTEX
  8
0
 10
19.22940161
 20
61.70660125
  0
VERTEX
  8
0
 10
19.24680834
 20
62.16263863
  0
VERTEX
  8
0
 10
19.31646817
 20
62.57847509
  0
VERTEX
  8
0
 10
19.37089346
 20
62.77131771
  0
VERTEX
  8
0
 10
19.43838258
 20
62.95410976
  0
VERTEX
  8
0
 10
19.51893570
 20
63.12685115
  0
VERTEX
  8
0
 10
19.61255300
 20
63.28954176
  0
VERTEX
  8
0
 10
19.71923468
 20
63.44218149
  0
VERTEX
  8
0
 10
19.83898091
 20
63.58477022
  0
VERTEX
  8
0
 10
19.97179188
 20
63.71730785
  0
VERTEX
  8
0
 10
20.11766776
 20
63.83979427
  0
VERTEX
  8
0
 10
20.27660875
 20
63.95222936
  0
VERTEX
  8
0
 10
20.44861501
 20
64.05461302
  0
VERTEX
  8
0
 10
20.83182411
 20
64.22922562
  0
VERTEX
  8
0
 10
21.26729652
 20
64.36363118
  0
VERTEX
  8
0
 10
21.75503370
 20
64.45782884
  0
VERTEX
  8
0
 10
22.29503711
 20
64.51181771
  0
VERTEX
  8
0
 10
22.88730820
 20
64.52559693
  0
VERTEX
  8
0
 10
23.53184843
 20
64.49916563
  0
VERTEX
  8
0
 10
24.22865925
 20
64.43252292
  0
VERTEX
  8
0
 10
24.97774213
 20
64.32566794
  0
VERTEX
  8
0
 10
25.77909853
 20
64.17859981
  0
VERTEX
  8
0
 10
26.37201122
 20
63.83165775
  0
VERTEX
  8
0
 10
26.96209233
 20
63.51863349
  0
VERTEX
  8
0
 10
27.54914470
 20
63.24189334
  0
VERTEX
  8
0
 10
28.13297115
 20
63.00380361
  0
VERTEX
  8
0
 10
28.71337454
 20
62.80673063
  0
VERTEX
  8
0
 10
29.29015771
 20
62.65304071
  0
VERTEX
  8
0
 10
29.86312348
 20
62.54510016
  0
VERTEX
  8
0
 10
30.43207470
 20
62.48527529
  0
VERTEX
  8
0
 10
30.99681421
 20
62.47593243
  0
VERTEX
  8
0
 10
31.55714484
 20
62.51943789
  0
VERTEX
  8
0
 10
32.11286945
 20
62.61815799
  0
VERTEX
  8
0
 10
32.66379085
 20
62.77445903
  0
VERTEX
  8
0
 10
33.20971190
 20
62.99070734
  0
VERTEX
  8
0
 10
33.75043544
 20
63.26926924
  0
VERTEX
  8
0
 10
34.28576429
 20
63.61251103
  0
VERTEX
  8
0
 10
34.81550131
 20
64.02279903
  0
VERTEX
  8
0
 10
41.20330144
 20
70.87800150
  0
SEQEND
  0
POLYLINE
  8
Nível Padrão
 66
   1
 39
0.000000
 70
    1
  0
VERTEX
  8
0
 10
92.54119936
 20
57.48829978
  0
VERTEX
  8
0
 10
92.48667377
 20
56.91326246
  0
VERTEX
  8
0
 10
92.47248814
 20
56.35255013
  0
VERTEX
  8
0
 10
92.50200517
 20
55.80850654
  0
VERTEX
  8
0
 10
92.57858758
 20
55.28347543
  0
VERTEX
  8
0
 10
92.70559806
 20
54.77980057
  0
VERTEX
  8
0
 10
92.78906467
 20
54.53670414
  0
VERTEX
  8
0
 10
92.88639931
 20
54.29982569
  0
VERTEX
  8
0
 10
92.99802233
 20
54.06945816
  0
VERTEX
  8
0
 10
93.12435405
 20
53.84589454
  0
VERTEX
  8
0
 10
93.26581483
 20
53.62942779
  0
VERTEX
  8
0
 10
93.42282498
 20
53.42035087
  0
VERTEX
  8
0
 10
93.59580486
 20
53.21895677
  0
VERTEX
  8
0
 10
93.78517480
 20
53.02553844
  0
VERTEX
  8
0
 10
93.99135514
 20
52.84038885
  0
VERTEX
  8
0
 10
94.21476622
 20
52.66380098
  0
VERTEX
  8
0
 10
94.45582837
 20
52.49606779
  0
VERTEX
  8
0
 10
94.71496193
 20
52.33748225
  0
VERTEX
  8
0
 10
94.99258725
 20
52.18833733
  0
VERTEX
  8
0
 10
95.28912465
 20
52.04892599
  0
VERTEX
  8
0
 10
95.60499449
 20
51.91954121
  0
VERTEX
  8
0
 10
95.94061708
 20
51.80047596
  0
VERTEX
  8
0
 10
96.29641278
 20
51.69202320
  0
VERTEX
  8
0
 10
96.67280193
 20
51.59447590
  0
VERTEX
  8
0
 10
97.07020485
 20
51.50812703
  0
VERTEX
  8
0
 10
97.48904189
 20
51.43326956
  0
VERTEX
  8
0
 10
98.39269967
 20
51.31920069
  0
VERTEX
  8
0
 10
104.48789886
 20
50.91820172
  0
VERTEX
  8
0
 10
104.74170860
 20
50.70318548
  0
VERTEX
  8
0
 10
104.96167494
 20
50.49077517
  0
VERTEX
  8
0
 10
105.14779834
 20
50.28097035
  0
VERTEX
  8
0
 10
105.30007924
 20
50.07377056
  0
VERTEX
  8
0
 10
105.41851809
 20
49.86917535
  0
VERTEX
  8
0
 10
105.50311534
 20
49.66718425
  0
VERTEX
  8
0
 10
105.55387145
 20
49.46779682
  0
VERTEX
  8
0
 10
105.57078685
 20
49.27101260
  0
VERTEX
  8
0
 10
105.55386201
 20
49.07683114
  0
VERTEX
  8
0
 10
105.50309736
 20
48.88525198
  0
VERTEX
  8
0
 10
105.41849336
 20
48.69627466
  0
VERTEX
  8
0
 10
105.30005047
 20
48.50989874
  0
VERTEX
  8
0
 10
105.14776912
 20
48.32612375
  0
VERTEX
  8
0
 10
104.96164977
 20
48.14494924
  0
VERTEX
  8
0
 10
104.74169287
 20
47.96637477
  0
VERTEX
  8
0
 10
104.48789886
 20
47.79039986
  0
VERTEX
  8
0
 10
103.31963855
 20
47.62288408
  0
VERTEX
  8
0
 10
102.16575521
 20
47.47310014
  0
VERTEX
  8
0
 10
101.02659201
 20
47.34147129
  0
VERTEX
  8
0
 10
99.90249213
 20
47.22842076
  0
VERTEX
  8
0
 10
98.79379875
 20
47.13437182
  0
VERTEX
  8
0
 10
97.70085504
 20
47.05974771
  0
VERTEX
  8
0
 10
96.62400418
 20
47.00497167
  0
VERTEX
  8
0
 10
95.56358935
 20
46.97046697
  0
VERTEX
  8
0
 10
94.51995372
 20
46.95665684
  0
VERTEX
  8
0
 10
93.49344047
 20
46.96396454
  0
VERTEX
  8
0
 10
92.48439277
 20
46.99281331
  0
VERTEX
  8
0
 10
91.49315381
 20
47.04362640
  0
VERTEX
  8
0
 10
90.52006676
 20
47.11682707
  0
VERTEX
  8
0
 10
89.56547480
 20
47.21283856
  0
VERTEX
  8
0
 10
88.62972110
 20
47.33208411
  0
VERTEX
  8
0
 10
87.71314884
 20
47.47498698
  0
VERTEX
  8
0
 10
86.81610120
 20
47.64197042
  0
VERTEX
  8
0
 10
85.93892135
 20
47.83345767
  0
VERTEX
  8
0
 10
85.08195247
 20
48.04987199
  0
VERTEX
  8
0
 10
84.24553774
 20
48.29163662
  0
VERTEX
  8
0
 10
83.43002033
 20
48.55917481
  0
VERTEX
  8
0
 10
82.63574343
 20
48.85290981
  0
VERTEX
  8
0
 10
81.86305020
 20
49.17326487
  0
VERTEX
  8
0
 10
81.11228382
 20
49.52066324
  0
VERTEX
  8
0
 10
80.38378748
 20
49.89552816
  0
VERTEX
  8
0
 10
79.67790434
 20
50.29828289
  0
VERTEX
  8
0
 10
78.99497759
 20
50.72935067
  0
VERTEX
  8
0
 10
78.33535040
 20
51.18915475
  0
VERTEX
  8
0
 10
77.69936594
 20
51.67811839
  0
VERTEX
  8
0
 10
77.08736741
 20
52.19666482
  0
VERTEX
  8
0
 10
76.49969796
 20
52.74521730
  0
VERTEX
  8
0
 10
75.93670078
 20
53.32419908
  0
VERTEX
  8
0
 10
75.60019413
 20
53.81461483
  0
VERTEX
  8
0
 10
75.28386455
 20
54.30714049
  0
VERTEX
  8
0
 10
74.98836270
 20
54.80167879
  0
VERTEX
  8
0
 10
74.71433928
 20
55.29813245
  0
VERTEX
  8
0
 10
74.46244497
 20
55.79640418
  0
VERTEX
  8
0
 10
74.23333046
 20
56.29639669
  0
VERTEX
  8
0
 10
74.02764641
 20
56.79801272
  0
VERTEX
  8
0
 10
73.84604353
 20
57.30115497
  0
VERTEX
  8
0
 10
73.68917250
 20
57.80572616
  0
VERTEX
  8
0
 10
73.55768399
 20
58.31162901
  0
VERTEX
  8
0
 10
73.45222870
 20
58.81876624
  0
VERTEX
  8
0
 10
73.37345730
 20
59.32704055
  0
VERTEX
  8
0
 10
73.32202048
 20
59.83635468
  0
VERTEX
  8
0
 10
73.29856892
 20
60.34661133
  0
VERTEX
  8
0
 10
73.30375331
 20
60.85771323
  0
VERTEX
  8
0
 10
73.33822433
 20
61.36956309
  0
VERTEX
  8
0
 10
73.40263267
 20
61.88206363
  0
VERTEX
  8
0
 10
73.49762900
 20
62.39511757
  0
VERTEX
  8
0
 10
73.62386402
 20
62.90862762
  0
VERTEX
  8
0
 10
73.78198841
 20
63.42249649
  0
VERTEX
  8
0
 10
73.97265284
 20
63.93662692
  0
VERTEX
  8
0
 10
74.19650801
 20
64.45092161
  0
VERTEX
  8
0
 10
74.45420459
 20
64.96528328
  0
VERTEX
  8
0
 10
74.74639328
 20
65.47961465
  0
VERTEX
  8
0
 10
75.07372475
 20
65.99381844
  0
VERTEX
  8
0
 10
75.43684969
 20
66.50779736
  0
VERTEX
  8
0
 10
75.83641878
 20
67.02145413
  0
VERTEX
  8
0
 10
76.27308271
 20
67.53469146
  0
VERTEX
  8
0
 10
76.74749216
 20
68.04741209
  0
VERTEX
  8
0
 10
77.26029782
 20
68.55951871
  0
VERTEX
  8
0
 10
77.81215036
 20
69.07091405
  0
VERTEX
  8
0
 10
78.40370047
 20
69.58150083
  0
VERTEX
  8
0
 10
78.93990009
 20
69.88271504
  0
VERTEX
  8
0
 10
79.48218219
 20
70.15595735
  0
VERTEX
  8
0
 10
80.03031517
 20
70.40200548
  0
VERTEX
  8
0
 10
80.58406746
 20
70.62163715
  0
VERTEX
  8
0
 10
81.14320745
 20
70.81563009
  0
VERTEX
  8
0
 10
81.70750355
 20
70.98476202
  0
VERTEX
  8
0
 10
82.27672417
 20
71.12981067
  0
VERTEX
  8
0
 10
82.85063772
 20
71.25155375
  0
VERTEX
  8
0
 10
83.42901260
 20
71.35076900
  0
VERTEX
  8
0
 10
84.01161723
 20
71.42823413
  0
VERTEX
  8
0
 10
84.59822000
 20
71.48472686
  0
VERTEX
  8
0
 10
85.18858934
 20
71.52102493
  0
VERTEX
  8
0
 10
85.78249364
 20
71.53790605
  0
VERTEX
  8
0
 10
86.37970131
 20
71.53614794
  0
VERTEX
  8
0
 10
86.97998076
 20
71.51652834
  0
VERTEX
  8
0
 10
87.58310040
 20
71.47982495
  0
VERTEX
  8
0
 10
88.18882863
 20
71.42681552
  0
VERTEX
  8
0
 10
88.79693387
 20
71.35827775
  0
VERTEX
  8
0
 10
90.01934899
 20
71.17772812
  0
VERTEX
  8
0
 10
91.24849300
 20
70.94439785
  0
VERTEX
  8
0
 10
92.48251318
 20
70.66450871
  0
VERTEX
  8
0
 10
93.71955678
 20
70.34428251
  0
VERTEX
  8
0
 10
94.95777106
 20
69.98994101
  0
VERTEX
  8
0
 10
96.19530329
 20
69.60770602
  0
VERTEX
  8
0
 10
97.43030072
 20
69.20379931
  0
VERTEX
  8
0
 10
107.14580072
 20
64.77469900
  0
VERTEX
  8
0
 10
107.47959657
 20
64.52582672
  0
VERTEX
  8
0
 10
107.75314872
 20
64.25971165
  0
VERTEX
  8
0
 10
107.96809076
 20
63.98160627
  0
VERTEX
  8
0
 10
108.12605629
 20
63.69676307
  0
VERTEX
  8
0
 10
108.22867887
 20
63.41043455
  0
VERTEX
  8
0
 10
108.27759210
 20
63.12787319
  0
VERTEX
  8
0
 10
108.27442957
 20
62.85433149
  0
VERTEX
  8
0
 10
108.22082485
 20
62.59506194
  0
VERTEX
  8
0
 10
108.11841154
 20
62.35531703
  0
VERTEX
  8
0
 10
107.96882322
 20
62.14034924
  0
VERTEX
  8
0
 10
107.77369346
 20
61.95541107
  0
VERTEX
  8
0
 10
107.53465587
 20
61.80575501
  0
VERTEX
  8
0
 10
107.25334402
 20
61.69663355
  0
VERTEX
  8
0
 10
106.93139150
 20
61.63329919
  0
VERTEX
  8
0
 10
106.57043189
 20
61.62100440
  0
VERTEX
  8
0
 10
106.17209878
 20
61.66500169
  0
VERTEX
  8
0
 10
104.95734823
 20
62.19478245
  0
VERTEX
  8
0
 10
103.76673722
 20
62.67154509
  0
VERTEX
  8
0
 10
102.60597176
 20
63.08849491
  0
VERTEX
  8
0
 10
101.48075786
 20
63.43883726
  0
VERTEX
  8
0
 10
100.93326587
 20
63.58690730
  0
VERTEX
  8
0
 10
100.39680153
 20
63.71577746
  0
VERTEX
  8
0
 10
99.87207809
 20
63.82459841
  0
VERTEX
  8
0
 10
99.35980879
 20
63.91252082
  0
VERTEX
  8
0
 10
98.86070690
 20
63.97869535
  0
VERTEX
  8
0
 10
98.37548566
 20
64.02227267
  0
VERTEX
  8
0
 10
97.90485832
 20
64.04240345
  0
VERTEX
  8
0
 10
97.44953814
 20
64.03823835
  0
VERTEX
  8
0
 10
97.01023836
 20
64.00892803
  0
VERTEX
  8
0
 10
96.58767224
 20
63.95362316
  0
VERTEX
  8
0
 10
96.18255304
 20
63.87147441
  0
VERTEX
  8
0
 10
95.79559399
 20
63.76163244
  0
VERTEX
  8
0
 10
95.42750836
 20
63.62324792
  0
VERTEX
  8
0
 10
95.07900940
 20
63.45547152
  0
VERTEX
  8
0
 10
94.75081035
 20
63.25745389
  0
VERTEX
  8
0
 10
94.44362447
 20
63.02834570
  0
VERTEX
  8
0
 10
94.15816501
 20
62.76729763
  0
VERTEX
  8
0
 10
93.89514523
 20
62.47346033
  0
VERTEX
  8
0
 10
93.65527836
 20
62.14598447
  0
VERTEX
  8
0
 10
93.43927768
 20
61.78402072
  0
VERTEX
  8
0
 10
93.24785642
 20
61.38671974
  0
VERTEX
  8
0
 10
93.08172784
 20
60.95323219
  0
VERTEX
  8
0
 10
92.94160519
 20
60.48270875
  0
VERTEX
  8
0
 10
92.82820172
 20
59.97430008
  0
VERTEX
  8
0
 10
86.62230086
 20
60.99890081
  0
VERTEX
  8
0
 10
86.21500128
 20
58.53280069
  0
VERTEX
  8
0
 10
92.54119936
 20
57.48829978
  0
SEQEND
  0
POLYLINE
  8
Nível Padrão
 66
   1
 39
0.000000
 70
    1
  0
VERTEX
  8
0
 10
101.76109950
 20
71.28900172
  0
VERTEX
  8
0
 10
101.02567776
 20
71.23580019
  0
VERTEX
  8
0
 10
100.37828728
 20
71.24220780
  0
VERTEX
  8
0
 10
100.08760375
 20
71.26621755
  0
VERTEX
  8
0
 10
99.81892804
 20
71.30327263
  0
VERTEX
  8
0
 10
99.57226014
 20
71.35275402
  0
VERTEX
  8
0
 10
99.34760004
 20
71.41404276
  0
VERTEX
  8
0
 10
99.14494776
 20
71.48651984
  0
VERTEX
  8
0
 10
98.96430328
 20
71.56956627
  0
VERTEX
  8
0
 10
98.80566662
 20
71.66256307
  0
VERTEX
  8
0
 10
98.66903776
 20
71.76489125
  0
VERTEX
  8
0
 10
98.55441670
 20
71.87593181
  0
VERTEX
  8
0
 10
98.46180345
 20
71.99506577
  0
VERTEX
  8
0
 10
98.39119801
 20
72.12167413
  0
VERTEX
  8
0
 10
98.34260037
 20
72.25513791
  0
VERTEX
  8
0
 10
98.31601054
 20
72.39483811
  0
VERTEX
  8
0
 10
98.31142851
 20
72.54015575
  0
VERTEX
  8
0
 10
98.32885428
 20
72.69047183
  0
VERTEX
  8
0
 10
98.36828785
 20
72.84516737
  0
VERTEX
  8
0
 10
98.42972923
 20
73.00362338
  0
VERTEX
  8
0
 10
98.51317840
 20
73.16522086
  0
VERTEX
  8
0
 10
98.61863538
 20
73.32934083
  0
VERTEX
  8
0
 10
98.74610015
 20
73.49536429
  0
VERTEX
  8
0
 10
98.89557273
 20
73.66267226
  0
VERTEX
  8
0
 10
99.06705310
 20
73.83064574
  0
VERTEX
  8
0
 10
99.47603723
 20
74.16611329
  0
VERTEX
  8
0
 10
99.97305256
 20
74.49681503
  0
VERTEX
  8
0
 10
100.55809906
 20
74.81779903
  0
VERTEX
  8
0
 10
101.50092466
 20
75.16192815
  0
VERTEX
  8
0
 10
102.44508840
 20
75.48732284
  0
VERTEX
  8
0
 10
103.39059892
 20
75.79386273
  0
VERTEX
  8
0
 10
104.33746485
 20
76.08142743
  0
VERTEX
  8
0
 10
105.28569485
 20
76.34989659
  0
VERTEX
  8
0
 10
106.23529755
 20
76.59914982
  0
VERTEX
  8
0
 10
107.18628160
 20
76.82906674
  0
VERTEX
  8
0
 10
108.13865563
 20
77.03952700
  0
VERTEX
  8
0
 10
109.09242830
 20
77.23041020
  0
VERTEX
  8
0
 10
110.04760825
 20
77.40159598
  0
VERTEX
  8
0
 10
111.00420412
 20
77.55296397
  0
VERTEX
  8
0
 10
111.96222454
 20
77.68439379
  0
VERTEX
  8
0
 10
112.92167817
 20
77.79576507
  0
VERTEX
  8
0
 10
113.88257365
 20
77.88695742
  0
VERTEX
  8
0
 10
114.84491962
 20
77.95785049
  0
VERTEX
  8
0
 10
115.80872472
 20
78.00832390
  0
VERTEX
  8
0
 10
116.77399760
 20
78.03825726
  0
VERTEX
  8
0
 10
117.74074690
 20
78.04753021
  0
VERTEX
  8
0
 10
118.70898126
 20
78.03602238
  0
VERTEX
  8
0
 10
119.67870932
 20
78.00361339
  0
VERTEX
  8
0
 10
120.64993973
 20
77.95018286
  0
VERTEX
  8
0
 10
121.62268113
 20
77.87561043
  0
VERTEX
  8
0
 10
122.59694217
 20
77.77977572
  0
VERTEX
  8
0
 10
123.57273148
 20
77.66255835
  0
VERTEX
  8
0
 10
124.55005771
 20
77.52383795
  0
VERTEX
  8
0
 10
125.52892950
 20
77.36349415
  0
VERTEX
  8
0
 10
126.50935550
 20
77.18140658
  0
VERTEX
  8
0
 10
127.49134434
 20
76.97745485
  0
VERTEX
  8
0
 10
128.47490468
 20
76.75151860
  0
VERTEX
  8
0
 10
129.46004515
 20
76.50347745
  0
VERTEX
  8
0
 10
130.44677439
 20
76.23321104
  0
VERTEX
  8
0
 10
131.43510106
 20
75.94059897
  0
VERTEX
  8
0
 10
131.85449555
 20
75.79439723
  0
VERTEX
  8
0
 10
132.26411353
 20
75.63385991
  0
VERTEX
  8
0
 10
132.66380500
 20
75.45940284
  0
VERTEX
  8
0
 10
133.05341996
 20
75.27144186
  0
VERTEX
  8
0
 10
133.43280840
 20
75.07039278
  0
VERTEX
  8
0
 10
133.80182033
 20
74.85667146
  0
VERTEX
  8
0
 10
134.16030574
 20
74.63069372
  0
VERTEX
  8
0
 10
134.50811465
 20
74.39287538
  0
VERTEX
  8
0
 10
134.84509704
 20
74.14363230
  0
VERTEX
  8
0
 10
135.17110291
 20
73.88338029
  0
VERTEX
  8
0
 10
135.48598228
 20
73.61253519
  0
VERTEX
  8
0
 10
135.78958513
 20
73.33151283
  0
VERTEX
  8
0
 10
136.36236130
 20
72.74059968
  0
VERTEX
  8
0
 10
136.88823141
 20
72.11396748
  0
VERTEX
  8
0
 10
137.36599547
 20
71.45494291
  0
VERTEX
  8
0
 10
137.79445349
 20
70.76685262
  0
VERTEX
  8
0
 10
138.17240545
 20
70.05302327
  0
VERTEX
  8
0
 10
138.49865136
 20
69.31678152
  0
VERTEX
  8
0
 10
138.77199122
 20
68.56145402
  0
VERTEX
  8
0
 10
138.99122504
 20
67.79036745
  0
VERTEX
  8
0
 10
139.15515280
 20
67.00684846
  0
VERTEX
  8
0
 10
139.26257452
 20
66.21422372
  0
VERTEX
  8
0
 10
139.31229018
 20
65.41581987
  0
VERTEX
  8
0
 10
139.30309980
 20
64.61496358
  0
VERTEX
  8
0
 10
139.27603984
 20
64.21465535
  0
VERTEX
  8
0
 10
139.23380337
 20
63.81498151
  0
VERTEX
  8
0
 10
139.17624039
 20
63.41635789
  0
VERTEX
  8
0
 10
139.10320089
 20
63.01920032
  0
VERTEX
  8
0
 10
139.01453489
 20
62.62392464
  0
VERTEX
  8
0
 10
138.91009237
 20
62.23094668
  0
VERTEX
  8
0
 10
138.78972334
 20
61.84068226
  0
VERTEX
  8
0
 10
138.65327779
 20
61.45354723
  0
VERTEX
  8
0
 10
138.50060574
 20
61.06995742
  0
VERTEX
  8
0
 10
138.33155717
 20
60.69032865
  0
VERTEX
  8
0
 10
138.14598209
 20
60.31507676
  0
VERTEX
  8
0
 10
137.94373050
 20
59.94461758
  0
VERTEX
  8
0
 10
137.72465240
 20
59.57936695
  0
VERTEX
  8
0
 10
137.48859779
 20
59.21974070
  0
VERTEX
  8
0
 10
137.23541667
 20
58.86615465
  0
VERTEX
  8
0
 10
136.96495903
 20
58.51902465
  0
VERTEX
  8
0
 10
136.67707488
 20
58.17876653
  0
VERTEX
  8
0
 10
136.37161422
 20
57.84579611
  0
VERTEX
  8
0
 10
136.04842705
 20
57.52052923
  0
VERTEX
  8
0
 10
135.70736337
 20
57.20338173
  0
VERTEX
  8
0
 10
135.34827317
 20
56.89476943
  0
VERTEX
  8
0
 10
134.97100647
 20
56.59510816
  0
VERTEX
  8
0
 10
134.57541325
 20
56.30481377
  0
VERTEX
  8
0
 10
134.16134352
 20
56.02430208
  0
VERTEX
  8
0
 10
133.72864729
 20
55.75398893
  0
VERTEX
  8
0
 10
133.27717453
 20
55.49429014
  0
VERTEX
  8
0
 10
132.80677527
 20
55.24562155
  0
VERTEX
  8
0
 10
132.31729950
 20
55.00839900
  0
VERTEX
  8
0
 10
131.55157274
 20
54.67647412
  0
VERTEX
  8
0
 10
130.73187038
 20
54.36476422
  0
VERTEX
  8
0
 10
129.86178753
 20
54.07364798
  0
VERTEX
  8
0
 10
128.94491931
 20
53.80350406
  0
VERTEX
  8
0
 10
127.98486083
 20
53.55471111
  0
VERTEX
  8
0
 10
126.98520720
 20
53.32764779
  0
VERTEX
  8
0
 10
125.94955352
 20
53.12269278
  0
VERTEX
  8
0
 10
124.88149492
 20
52.94022473
  0
VERTEX
  8
0
 10
123.78462650
 20
52.78062229
  0
VERTEX
  8
0
 10
122.66254337
 20
52.64426415
  0
VERTEX
  8
0
 10
121.51884065
 20
52.53152895
  0
VERTEX
  8
0
 10
120.35711344
 20
52.44279535
  0
VERTEX
  8
0
 10
119.18095686
 20
52.37844203
  0
VERTEX
  8
0
 10
117.99396602
 20
52.33884763
  0
VERTEX
  8
0
 10
116.79973604
 20
52.32439083
  0
VERTEX
  8
0
 10
115.60186201
 20
52.33545028
  0
VERTEX
  8
0
 10
114.40393905
 20
52.37240465
  0
VERTEX
  8
0
 10
113.20956228
 20
52.43563260
  0
VERTEX
  8
0
 10
112.02232680
 20
52.52551278
  0
VERTEX
  8
0
 10
110.84582773
 20
52.64242386
  0
VERTEX
  8
0
 10
109.68366018
 20
52.78674451
  0
VERTEX
  8
0
 10
108.53941926
 20
52.95885338
  0
VERTEX
  8
0
 10
107.41670008
 20
53.15912914
  0
VERTEX
  8
0
 10
106.31909775
 20
53.38795044
  0
VERTEX
  8
0
 10
105.25020738
 20
53.64569595
  0
VERTEX
  8
0
 10
104.21362409
 20
53.93274433
  0
VERTEX
  8
0
 10
103.21294299
 20
54.24947424
  0
VERTEX
  8
0
 10
102.25175918
 20
54.59626435
  0
VERTEX
  8
0
 10
101.33366778
 20
54.97349331
  0
VERTEX
  8
0
 10
100.46226390
 20
55.38153979
  0
VERTEX
  8
0
 10
99.64114265
 20
55.82078245
  0
VERTEX
  8
0
 10
98.87389914
 20
56.29159994
  0
VERTEX
  8
0
 10
98.66393786
 20
56.44962461
  0
VERTEX
  8
0
 10
98.49403441
 20
56.61781790
  0
VERTEX
  8
0
 10
98.36189028
 20
56.79320940
  0
VERTEX
  8
0
 10
98.26520699
 20
56.97282872
  0
VERTEX
  8
0
 10
98.20168604
 20
57.15370542
  0
VERTEX
  8
0
 10
98.16902892
 20
57.33286910
  0
VERTEX
  8
0
 10
98.16493716
 20
57.50734935
  0
VERTEX
  8
0
 10
98.18711224
 20
57.67417574
  0
VERTEX
  8
0
 10
98.23325568
 20
57.83037788
  0
VERTEX
  8
0
 10
98.30106899
 20
57.97298534
  0
VERTEX
  8
0
 10
98.38825366
 20
58.09902772
  0
VERTEX
  8
0
 10
98.49251119
 20
58.20553459
  0
VERTEX
  8
0
 10
98.61154311
 20
58.28953556
  0
VERTEX
  8
0
 10
98.74305090
 20
58.34806019
  0
VERTEX
  8
0
 10
98.88473607
 20
58.37813809
  0
VERTEX
  8
0
 10
99.03430014
 20
58.37679883
  0
VERTEX
  8
0
 10
100.82641762
 20
58.17108898
  0
VERTEX
  8
0
 10
102.57707243
 20
57.98426228
  0
VERTEX
  8
0
 10
104.27831751
 20
57.82029798
  0
VERTEX
  8
0
 10
105.92220577
 20
57.68317532
  0
VERTEX
  8
0
 10
107.50079016
 20
57.57687357
  0
VERTEX
  8
0
 10
109.00612359
 20
57.50537196
  0
VERTEX
  8
0
 10
110.43025901
 20
57.47264976
  0
VERTEX
  8
0
 10
111.76524933
 20
57.48268620
  0
VERTEX
  8
0
 10
113.00314750
 20
57.53946055
  0
VERTEX
  8
0
 10
113.58320356
 20
57.58661795
  0
VERTEX
  8
0
 10
114.13600643
 20
57.64695205
  0
VERTEX
  8
0
 10
114.66056272
 20
57.72096024
  0
VERTEX
  8
0
 10
115.15587906
 20
57.80913995
  0
VERTEX
  8
0
 10
115.62096205
 20
57.91198857
  0
VERTEX
  8
0
 10
116.05481831
 20
58.03000351
  0
VERTEX
  8
0
 10
116.45645446
 20
58.16368217
  0
VERTEX
  8
0
 10
116.82487712
 20
58.31352197
  0
VERTEX
  8
0
 10
117.15909290
 20
58.48002030
  0
VERTEX
  8
0
 10
117.45810842
 20
58.66367458
  0
VERTEX
  8
0
 10
117.72093029
 20
58.86498221
  0
VERTEX
  8
0
 10
117.94656514
 20
59.08444060
  0
VERTEX
  8
0
 10
118.13401956
 20
59.32254715
  0
VERTEX
  8
0
 10
118.28230019
 20
59.57979928
  0
VERTEX
  8
0
 10
118.64825002
 20
60.11026297
  0
VERTEX
  8
0
 10
118.96867357
 20
60.66190134
  0
VERTEX
  8
0
 10
119.23696974
 20
61.23141084
  0
VERTEX
  8
0
 10
119.34950721
 20
61.52183489
  0
VERTEX
  8
0
 10
119.44653742
 20
61.81548787
  0
VERTEX
  8
0
 10
119.52723523
 20
62.11195686
  0
VERTEX
  8
0
 10
119.59077550
 20
62.41082889
  0
VERTEX
  8
0
 10
119.63633310
 20
62.71169102
  0
VERTEX
  8
0
 10
119.66308289
 20
63.01413030
  0
VERTEX
  8
0
 10
119.67019972
 20
63.31773379
  0
VERTEX
  8
0
 10
119.65685847
 20
63.62208855
  0
VERTEX
  8
0
 10
119.62223399
 20
63.92678162
  0
VERTEX
  8
0
 10
119.56550114
 20
64.23140006
  0
VERTEX
  8
0
 10
125.42009883
 20
64.07099906
  0
VERTEX
  8
0
 10
125.50029933
 20
66.63740094
  0
VERTEX
  8
0
 10
119.82070058
 20
66.89980058
  0
VERTEX
  8
0
 10
119.73669109
 20
67.37111983
  0
VERTEX
  8
0
 10
119.63329320
 20
67.83903493
  0
VERTEX
  8
0
 10
119.50744042
 20
68.30108156
  0
VERTEX
  8
0
 10
119.35606623
 20
68.75479544
  0
VERTEX
  8
0
 10
119.17610415
 20
69.19771224
  0
VERTEX
  8
0
 10
118.96448767
 20
69.62736768
  0
VERTEX
  8
0
 10
118.71815029
 20
70.04129744
  0
VERTEX
  8
0
 10
118.43402551
 20
70.43703722
  0
VERTEX
  8
0
 10
118.10904683
 20
70.81212271
  0
VERTEX
  8
0
 10
117.74014775
 20
71.16408962
  0
VERTEX
  8
0
 10
117.32426177
 20
71.49047363
  0
VERTEX
  8
0
 10
116.85832240
 20
71.78881044
  0
VERTEX
  8
0
 10
116.33926312
 20
72.05663576
  0
VERTEX
  8
0
 10
115.76401744
 20
72.29148526
  0
VERTEX
  8
0
 10
115.12951887
 20
72.49089466
  0
VERTEX
  8
0
 10
114.43270089
 20
72.65239964
  0
VERTEX
  8
0
 10
113.65134315
 20
72.78343930
  0
VERTEX
  8
0
 10
112.86969705
 20
72.87437970
  0
VERTEX
  8
0
 10
112.08752104
 20
72.92763491
  0
VERTEX
  8
0
 10
111.30457354
 20
72.94561899
  0
VERTEX
  8
0
 10
110.52061299
 20
72.93074602
  0
VERTEX
  8
0
 10
109.73539784
 20
72.88543007
  0
VERTEX
  8
0
 10
108.94868652
 20
72.81208520
  0
VERTEX
  8
0
 10
108.16023748
 20
72.71312548
  0
VERTEX
  8
0
 10
107.36980914
 20
72.59096499
  0
VERTEX
  8
0
 10
106.57715995
 20
72.44801780
  0
VERTEX
  8
0
 10
105.78204835
 20
72.28669797
  0
VERTEX
  8
0
 10
104.98423278
 20
72.10941957
  0
VERTEX
  8
0
 10
103.37952346
 20
71.71664336
  0
VERTEX
  8
0
 10
101.76109950
 20
71.28900172
  0
SEQEND
  0
POLYLINE
  8
Nível Padrão
 66
   1
 39
0.000000
 70
    1
  0
VERTEX
  8
0
 10
70.10330150
 20
43.29609917
  0
VERTEX
  8
0
 10
70.02424807
 20
43.52736036
  0
VERTEX
  8
0
 10
69.96933334
 20
43.76159357
  0
VERTEX
  8
0
 10
69.94175697
 20
43.99943643
  0
VERTEX
  8
0
 10
69.94471863
 20
44.24152658
  0
VERTEX
  8
0
 10
69.98141797
 20
44.48850166
  0
VERTEX
  8
0
 10
70.05505465
 20
44.74099931
  0
VERTEX
  8
0
 10
70.16882833
 20
44.99965718
  0
VERTEX
  8
0
 10
70.32593867
 20
45.26511290
  0
VERTEX
  8
0
 10
70.52958534
 20
45.53800411
  0
VERTEX
  8
0
 10
70.78296799
 20
45.81896846
  0
VERTEX
  8
0
 10
71.08928628
 20
46.10864359
  0
VERTEX
  8
0
 10
71.45173987
 20
46.40766713
  0
VERTEX
  8
0
 10
71.87352843
 20
46.71667673
  0
VERTEX
  8
0
 10
72.35785161
 20
47.03631003
  0
VERTEX
  8
0
 10
72.90790907
 20
47.36720466
  0
VERTEX
  8
0
 10
73.52690047
 20
47.70999828
  0
VERTEX
  8
0
 10
74.00395108
 20
47.83262971
  0
VERTEX
  8
0
 10
74.46739465
 20
47.92575316
  0
VERTEX
  8
0
 10
74.91787410
 20
47.99020053
  0
VERTEX
  8
0
 10
75.35603236
 20
48.02680369
  0
VERTEX
  8
0
 10
75.78251234
 20
48.03639453
  0
VERTEX
  8
0
 10
76.19795697
 20
48.01980492
  0
VERTEX
  8
0
 10
76.60300917
 20
47.97786675
  0
VERTEX
  8
0
 10
76.99831186
 20
47.91141190
  0
VERTEX
  8
0
 10
77.38450796
 20
47.82127225
  0
VERTEX
  8
0
 10
77.76224040
 20
47.70827969
  0
VERTEX
  8
0
 10
78.13215210
 20
47.57326610
  0
VERTEX
  8
0
 10
78.49488598
 20
47.41706335
  0
VERTEX
  8
0
 10
78.85108496
 20
47.24050334
  0
VERTEX
  8
0
 10
79.20139196
 20
47.04441794
  0
VERTEX
  8
0
 10
79.54644991
 20
46.82963903
  0
VERTEX
  8
0
 10
79.88690172
 20
46.59699850
  0
VERTEX
  8
0
 10
80.18383206
 20
46.26672198
  0
VERTEX
  8
0
 10
80.49075724
 20
45.97622088
  0
VERTEX
  8
0
 10
80.80707125
 20
45.72248319
  0
VERTEX
  8
0
 10
81.13216809
 20
45.50249690
  0
VERTEX
  8
0
 10
81.46544172
 20
45.31325001
  0
VERTEX
  8
0
 10
81.80628615
 20
45.15173050
  0
VERTEX
  8
0
 10
82.15409534
 20
45.01492637
  0
VERTEX
  8
0
 10
82.50826330
 20
44.89982562
  0
VERTEX
  8
0
 10
82.86818400
 20
44.80341623
  0
VERTEX
  8
0
 10
83.23325144
 20
44.72268620
  0
VERTEX
  8
0
 10
83.97640243
 20
44.59621619
  0
VERTEX
  8
0
 10
85.49780053
 20
44.39890014
  0
VERTEX
  8
0
 10
85.81541810
 20
44.38306159
  0
VERTEX
  8
0
 10
86.12839421
 20
44.34264531
  0
VERTEX
  8
0
 10
86.43878813
 20
44.27451887
  0
VERTEX
  8
0
 10
86.74865914
 20
44.17554986
  0
VERTEX
  8
0
 10
87.06006650
 20
44.04260584
  0
VERTEX
  8
0
 10
87.37506951
 20
43.87255441
  0
VERTEX
  8
0
 10
87.69572742
 20
43.66226312
  0
VERTEX
  8
0
 10
88.02409952
 20
43.40859956
  0
VERTEX
  8
0
 10
88.36224508
 20
43.10843130
  0
VERTEX
  8
0
 10
88.71222338
 20
42.75862593
  0
VERTEX
  8
0
 10
89.07609368
 20
42.35605101
  0
VERTEX
  8
0
 10
89.45591527
 20
41.89757412
  0
VERTEX
  8
0
 10
89.85374742
 20
41.38006284
  0
VERTEX
  8
0
 10
90.27164940
 20
40.80038475
  0
VERTEX
  8
0
 10
90.71168050
 20
40.15540741
  0
VERTEX
  8
0
 10
91.17589997
 20
39.44199842
  0
VERTEX
  8
0
 10
91.27654048
 20
38.89432476
  0
VERTEX
  8
0
 10
91.42073728
 20
38.38975890
  0
VERTEX
  8
0
 10
91.60849035
 20
37.92789698
  0
VERTEX
  8
0
 10
91.83979969
 20
37.50833517
  0
VERTEX
  8
0
 10
92.11466530
 20
37.13066961
  0
VERTEX
  8
0
 10
92.26843171
 20
36.95742172
  0
VERTEX
  8
0
 10
92.43308717
 20
36.79449645
  0
VERTEX
  8
0
 10
92.79506530
 20
36.49941186
  0
VERTEX
  8
0
 10
93.20059968
 20
36.24501198
  0
VERTEX
  8
0
 10
93.64969030
 20
36.03089298
  0
VERTEX
  8
0
 10
94.14233716
 20
35.85665099
  0
VERTEX
  8
0
 10
94.67854026
 20
35.72188219
  0
VERTEX
  8
0
 10
95.25829959
 20
35.62618271
  0
VERTEX
  8
0
 10
95.88161515
 20
35.56914872
  0
VERTEX
  8
0
 10
96.54848692
 20
35.55037637
  0
VERTEX
  8
0
 10
97.25891491
 20
35.56946181
  0
VERTEX
  8
0
 10
98.01289911
 20
35.62600119
  0
VERTEX
  8
0
 10
98.59555006
 20
35.65097451
  0
VERTEX
  8
0
 10
99.16634996
 20
35.66011880
  0
VERTEX
  8
0
 10
99.72525734
 20
35.65357359
  0
VERTEX
  8
0
 10
100.27223073
 20
35.63147840
  0
VERTEX
  8
0
 10
100.80722865
 20
35.59397276
  0
VERTEX
  8
0
 10
101.33020963
 20
35.54119620
  0
VERTEX
  8
0
 10
101.84113219
 20
35.47328824
  0
VERTEX
  8
0
 10
102.33995486
 20
35.39038841
  0
VERTEX
  8
0
 10
102.82663617
 20
35.29263624
  0
VERTEX
  8
0
 10
103.30113465
 20
35.18017125
  0
VERTEX
  8
0
 10
103.76340881
 20
35.05313297
  0
VERTEX
  8
0
 10
104.21341720
 20
34.91166092
  0
VERTEX
  8
0
 10
104.65111832
 20
34.75589464
  0
VERTEX
  8
0
 10
105.07647072
 20
34.58597364
  0
VERTEX
  8
0
 10
105.48943291
 20
34.40203745
  0
VERTEX
  8
0
 10
105.88996343
 20
34.20422561
  0
VERTEX
  8
0
 10
106.27802079
 20
33.99267763
  0
VERTEX
  8
0
 10
106.65356353
 20
33.76753305
  0
VERTEX
  8
0
 10
107.01655017
 20
33.52893139
  0
VERTEX
  8
0
 10
107.36693924
 20
33.27701217
  0
VERTEX
  8
0
 10
107.70468927
 20
33.01191493
  0
VERTEX
  8
0
 10
108.02975878
 20
32.73377918
  0
VERTEX
  8
0
 10
108.34210629
 20
32.44274446
  0
VERTEX
  8
0
 10
108.64169034
 20
32.13895029
  0
VERTEX
  8
0
 10
108.92846945
 20
31.82253620
  0
VERTEX
  8
0
 10
109.20240215
 20
31.49364171
  0
VERTEX
  8
0
 10
109.46344696
 20
31.15240635
  0
VERTEX
  8
0
 10
109.71156241
 20
30.79896965
  0
VERTEX
  8
0
 10
109.94670703
 20
30.43347113
  0
VERTEX
  8
0
 10
110.16883934
 20
30.05605033
  0
VERTEX
  8
0
 10
110.37791786
 20
29.66684675
  0
VERTEX
  8
0
 10
110.57390114
 20
29.26599994
  0
VERTEX
  8
0
 10
110.66274049
 20
29.05758880
  0
VERTEX
  8
0
 10
110.73464238
 20
28.85132042
  0
VERTEX
  8
0
 10
110.82993633
 20
28.44755333
  0
VERTEX
  8
0
 10
110.86438800
 20
28.05938149
  0
VERTEX
  8
0
 10
110.84260244
 20
27.69148773
  0
VERTEX
  8
0
 10
110.76918465
 20
27.34855487
  0
VERTEX
  8
0
 10
110.64873967
 20
27.03526572
  0
VERTEX
  8
0
 10
110.48587253
 20
26.75630310
  0
VERTEX
  8
0
 10
110.28518825
 20
26.51634984
  0
VERTEX
  8
0
 10
110.05129185
 20
26.32008876
  0
VERTEX
  8
0
 10
109.78878837
 20
26.17220267
  0
VERTEX
  8
0
 10
109.50228283
 20
26.07737440
  0
VERTEX
  8
0
 10
109.35146836
 20
26.05132032
  0
VERTEX
  8
0
 10
109.19638026
 20
26.04028676
  0
VERTEX
  8
0
 10
109.03759416
 20
26.04485906
  0
VERTEX
  8
0
 10
108.87568568
 20
26.06562258
  0
VERTEX
  8
0
 10
108.71123046
 20
26.10316267
  0
VERTEX
  8
0
 10
108.54480412
 20
26.15806467
  0
VERTEX
  8
0
 10
108.37698229
 20
26.23091396
  0
VERTEX
  8
0
 10
108.20834061
 20
26.32229587
  0
VERTEX
  8
0
 10
108.03945469
 20
26.43279575
  0
VERTEX
  8
0
 10
107.87090017
 20
26.56299897
  0
VERTEX
  8
0
 10
107.28304254
 20
27.03735795
  0
VERTEX
  8
0
 10
106.71090501
 20
27.46762272
  0
VERTEX
  8
0
 10
106.15438153
 20
27.85489127
  0
VERTEX
  8
0
 10
105.61336605
 20
28.20026161
  0
VERTEX
  8
0
 10
105.08775250
 20
28.50483171
  0
VERTEX
  8
0
 10
104.57743485
 20
28.76969957
  0
VERTEX
  8
0
 10
104.08230703
 20
28.99596319
  0
VERTEX
  8
0
 10
103.60226298
 20
29.18472055
  0
VERTEX
  8
0
 10
103.13719667
 20
29.33706965
  0
VERTEX
  8
0
 10
102.68700203
 20
29.45410848
  0
VERTEX
  8
0
 10
102.25157300
 20
29.53693502
  0
VERTEX
  8
0
 10
101.83080355
 20
29.58664728
  0
VERTEX
  8
0
 10
101.42458760
 20
29.60434324
  0
VERTEX
  8
0
 10
101.03281911
 20
29.59112090
  0
VERTEX
  8
0
 10
100.65539203
 20
29.54807824
  0
VERTEX
  8
0
 10
100.29220030
 20
29.47631327
  0
VERTEX
  8
0
 10
99.94313787
 20
29.37692396
  0
VERTEX
  8
0
 10
99.60809868
 20
29.25100832
  0
VERTEX
  8
0
 10
99.28697668
 20
29.09966433
  0
VERTEX
  8
0
 10
98.97966582
 20
28.92398998
  0
VERTEX
  8
0
 10
98.68606005
 20
28.72508328
  0
VERTEX
  8
0
 10
98.40605330
 20
28.50404220
  0
VERTEX
  8
0
 10
98.13953953
 20
28.26196475
  0
VERTEX
  8
0
 10
97.88641268
 20
27.99994891
  0
VERTEX
  8
0
 10
97.64656670
 20
27.71909267
  0
VERTEX
  8
0
 10
97.41989553
 20
27.42049403
  0
VERTEX
  8
0
 10
97.20629313
 20
27.10525098
  0
VERTEX
  8
0
 10
97.00565344
 20
26.77446150
  0
VERTEX
  8
0
 10
96.81787040
 20
26.42922360
  0
VERTEX
  8
0
 10
96.64283796
 20
26.07063527
  0
VERTEX
  8
0
 10
96.48045006
 20
25.69979448
  0
VERTEX
  8
0
 10
96.33060067
 20
25.31779925
  0
VERTEX
  8
0
 10
83.78449997
 20
27.70689856
  0
VERTEX
  8
0
 10
83.31690008
 20
25.25119833
  0
VERTEX
  8
0
 10
95.56379936
 20
22.91910086
  0
VERTEX
  8
0
 10
95.50675480
 20
22.38629721
  0
VERTEX
  8
0
 10
95.46592037
 20
21.83284293
  0
VERTEX
  8
0
 10
95.44780071
 20
21.26416629
  0
VERTEX
  8
0
 10
95.45890045
 20
20.68569556
  0
VERTEX
  8
0
 10
95.50572423
 20
20.10285903
  0
VERTEX
  8
0
 10
95.59477670
 20
19.52108495
  0
VERTEX
  8
0
 10
95.73256247
 20
18.94580162
  0
VERTEX
  8
0
 10
95.82176305
 20
18.66229031
  0
VERTEX
  8
0
 10
95.92558620
 20
18.38243729
  0
VERTEX
  8
0
 10
96.04484500
 20
18.10692109
  0
VERTEX
  8
0
 10
96.18035252
 20
17.83642024
  0
VERTEX
  8
0
 10
96.33292185
 20
17.57161328
  0
VERTEX
  8
0
 10
96.50336606
 20
17.31317875
  0
VERTEX
  8
0
 10
96.69249824
 20
17.06179517
  0
VERTEX
  8
0
 10
96.90113146
 20
16.81814109
  0
VERTEX
  8
0
 10
97.13007881
 20
16.58289503
  0
VERTEX
  8
0
 10
97.38015336
 20
16.35673553
  0
VERTEX
  8
0
 10
97.65216820
 20
16.14034112
  0
VERTEX
  8
0
 10
97.94693639
 20
15.93439034
  0
VERTEX
  8
0
 10
98.26527104
 20
15.73956173
  0
VERTEX
  8
0
 10
98.60798520
 20
15.55653381
  0
VERTEX
  8
0
 10
98.97589196
 20
15.38598512
  0
VERTEX
  8
0
 10
99.36980441
 20
15.22859420
  0
VERTEX
  8
0
 10
99.79053562
 20
15.08503957
  0
VERTEX
  8
0
 10
100.23889867
 20
14.95599978
  0
VERTEX
  8
0
 10
100.52371015
 20
14.89887968
  0
VERTEX
  8
0
 10
100.80893689
 20
14.87463419
  0
VERTEX
  8
0
 10
101.09458636
 20
14.87955434
  0
VERTEX
  8
0
 10
101.38066604
 20
14.90993113
  0
VERTEX
  8
0
 10
101.66718340
 20
14.96205558
  0
VERTEX
  8
0
 10
101.95414591
 20
15.03221869
  0
VERTEX
  8
0
 10
102.52943627
 20
15.21182496
  0
VERTEX
  8
0
 10
103.68568760
 20
15.62430602
  0
VERTEX
  8
0
 10
104.26676812
 20
15.79783701
  0
VERTEX
  8
0
 10
104.55807325
 20
15.86344365
  0
VERTEX
  8
0
 10
104.84989825
 20
15.90999908
  0
VERTEX
  8
0
 10
105.21974436
 20
15.94304040
  0
VERTEX
  8
0
 10
105.55674199
 20
15.94848165
  0
VERTEX
  8
0
 10
105.86133807
 20
15.92788594
  0
VERTEX
  8
0
 10
106.13397954
 20
15.88281640
  0
VERTEX
  8
0
 10
106.37511333
 20
15.81483615
  0
VERTEX
  8
0
 10
106.58518638
 20
15.72550833
  0
VERTEX
  8
0
 10
106.76464561
 20
15.61639605
  0
VERTEX
  8
0
 10
106.91393797
 20
15.48906243
  0
VERTEX
  8
0
 10
107.03351038
 20
15.34507061
  0
VERTEX
  8
0
 10
107.12380979
 20
15.18598371
  0
VERTEX
  8
0
 10
107.18528312
 20
15.01336484
  0
VERTEX
  8
0
 10
107.21837731
 20
14.82877714
  0
VERTEX
  8
0
 10
107.22353929
 20
14.63378373
  0
VERTEX
  8
0
 10
107.20121600
 20
14.42994773
  0
VERTEX
  8
0
 10
107.15185437
 20
14.21883227
  0
VERTEX
  8
0
 10
107.07590133
 20
14.00200047
  0
VERTEX
  8
0
 10
106.96804708
 20
13.75792312
  0
VERTEX
  8
0
 10
106.84469541
 20
13.51853652
  0
VERTEX
  8
0
 10
106.70581590
 20
13.28420901
  0
VERTEX
  8
0
 10
106.55137810
 20
13.05530890
  0
VERTEX
  8
0
 10
106.38135158
 20
12.83220450
  0
VERTEX
  8
0
 10
106.19570592
 20
12.61526413
  0
VERTEX
  8
0
 10
105.99441068
 20
12.40485612
  0
VERTEX
  8
0
 10
105.77743542
 20
12.20134878
  0
VERTEX
  8
0
 10
105.54474971
 20
12.00511042
  0
VERTEX
  8
0
 10
105.29632313
 20
11.81650937
  0
VERTEX
  8
0
 10
105.03212523
 20
11.63591395
  0
VERTEX
  8
0
 10
104.75212559
 20
11.46369246
  0
VERTEX
  8
0
 10
104.45629377
 20
11.30021324
  0
VERTEX
  8
0
 10
104.14459934
 20
11.14584459
  0
VERTEX
  8
0
 10
103.81701187
 20
11.00095484
  0
VERTEX
  8
0
 10
103.47350091
 20
10.86591230
  0
VERTEX
  8
0
 10
103.11403605
 20
10.74108530
  0
VERTEX
  8
0
 10
102.73858685
 20
10.62684214
  0
VERTEX
  8
0
 10
101.93961368
 20
10.43158065
  0
VERTEX
  8
0
 10
101.07633794
 20
10.28307437
  0
VERTEX
  8
0
 10
100.14851617
 20
10.18426984
  0
VERTEX
  8
0
 10
99.15590492
 20
10.13811362
  0
VERTEX
  8
0
 10
98.09826070
 20
10.14755224
  0
VERTEX
  8
0
 10
96.97534007
 20
10.21553225
  0
VERTEX
  8
0
 10
95.78689956
 20
10.34500019
  0
VERTEX
  8
0
 10
95.39996491
 20
10.41338063
  0
VERTEX
  8
0
 10
95.02311513
 20
10.51280580
  0
VERTEX
  8
0
 10
94.65530695
 20
10.64006418
  0
VERTEX
  8
0
 10
94.29549710
 20
10.79194423
  0
VERTEX
  8
0
 10
93.94264233
 20
10.96523442
  0
VERTEX
  8
0
 10
93.59569935
 20
11.15672324
  0
VERTEX
  8
0
 10
92.91537576
 20
11.58145059
  0
VERTEX
  8
0
 10
92.24618021
 20
12.04043404
  0
VERTEX
  8
0
 10
91.57976659
 20
12.50798135
  0
VERTEX
  8
0
 10
90.90778878
 20
12.95840028
  0
VERTEX
  8
0
 10
90.56710514
 20
13.16915777
  0
VERTEX
  8
0
 10
90.22190067
 20
13.36599858
  0
VERTEX
  8
0
 10
89.65189390
 20
13.50166474
  0
VERTEX
  8
0
 10
89.12833356
 20
13.60787302
  0
VERTEX
  8
0
 10
88.64761522
 20
13.68478823
  0
VERTEX
  8
0
 10
88.20613451
 20
13.73257515
  0
VERTEX
  8
0
 10
87.80028701
 20
13.75139860
  0
VERTEX
  8
0
 10
87.42646832
 20
13.74142336
  0
VERTEX
  8
0
 10
87.08107405
 20
13.70281423
  0
VERTEX
  8
0
 10
86.76049979
 20
13.63573600
  0
VERTEX
  8
0
 10
86.46114115
 20
13.54035348
  0
VERTEX
  8
0
 10
86.17939372
 20
13.41683145
  0
VERTEX
  8
0
 10
85.91165311
 20
13.26533472
  0
VERTEX
  8
0
 10
85.65431491
 20
13.08602808
  0
VERTEX
  8
0
 10
85.40377472
 20
12.87907632
  0
VERTEX
  8
0
 10
85.15642815
 20
12.64464425
  0
VERTEX
  8
0
 10
84.90867079
 20
12.38289665
  0
VERTEX
  8
0
 10
84.65689825
 20
12.09399833
  0
VERTEX
  8
0
 10
84.14014848
 20
11.68773889
  0
VERTEX
  8
0
 10
83.62339870
 20
11.32107237
  0
VERTEX
  8
0
 10
83.10664891
 20
10.99399877
  0
VERTEX
  8
0
 10
82.58989911
 20
10.70651810
  0
VERTEX
  8
0
 10
82.07314929
 20
10.45863036
  0
VERTEX
  8
0
 10
81.55639944
 20
10.25033555
  0
VERTEX
  8
0
 10
81.03964956
 20
10.08163369
  0
VERTEX
  8
0
 10
80.52289964
 20
9.95252477
  0
VERTEX
  8
0
 10
80.00614968
 20
9.86300881
  0
VERTEX
  8
0
 10
79.48939968
 20
9.81308581
  0
VERTEX
  8
0
 10
78.97264962
 20
9.80275577
  0
VERTEX
  8
0
 10
78.45589951
 20
9.83201870
  0
VERTEX
  8
0
 10
77.93914934
 20
9.90087460
  0
VERTEX
  8
0
 10
77.42239909
 20
10.00932348
  0
VERTEX
  8
0
 10
76.90564878
 20
10.15736534
  0
VERTEX
  8
0
 10
76.38889839
 20
10.34500019
  0
VERTEX
  8
0
 10
70.66489903
 20
10.50400067
  0
VERTEX
  8
0
 10
70.05306229
 20
10.46383901
  0
VERTEX
  8
0
 10
69.48190401
 20
10.44251233
  0
VERTEX
  8
0
 10
68.94968306
 20
10.44053920
  0
VERTEX
  8
0
 10
68.45465833
 20
10.45843815
  0
VERTEX
  8
0
 10
67.99508870
 20
10.49672773
  0
VERTEX
  8
0
 10
67.56923304
 20
10.55592649
  0
VERTEX
  8
0
 10
67.17535024
 20
10.63655297
  0
VERTEX
  8
0
 10
66.81169918
 20
10.73912573
  0
VERTEX
  8
0
 10
66.47653875
 20
10.86416331
  0
VERTEX
  8
0
 10
66.16812782
 20
11.01218426
  0
VERTEX
  8
0
 10
65.88472528
 20
11.18370712
  0
VERTEX
  8
0
 10
65.62459000
 20
11.37925044
  0
VERTEX
  8
0
 10
65.38598087
 20
11.59933277
  0
VERTEX
  8
0
 10
65.16715677
 20
11.84447265
  0
VERTEX
  8
0
 10
64.96637659
 20
12.11518864
  0
VERTEX
  8
0
 10
64.78189919
 20
12.41199928
  0
VERTEX
  8
0
 10
64.52772113
 20
12.68836456
  0
VERTEX
  8
0
 10
64.29645073
 20
12.97261988
  0
VERTEX
  8
0
 10
64.08859644
 20
13.26425533
  0
VERTEX
  8
0
 10
63.90466670
 20
13.56276100
  0
VERTEX
  8
0
 10
63.74516998
 20
13.86762698
  0
VERTEX
  8
0
 10
63.61061472
 20
14.17834337
  0
VERTEX
  8
0
 10
63.50150937
 20
14.49440026
  0
VERTEX
  8
0
 10
63.41836237
 20
14.81528775
  0
VERTEX
  8
0
 10
63.36168219
 20
15.14049592
  0
VERTEX
  8
0
 10
63.33197726
 20
15.46951487
  0
VERTEX
  8
0
 10
63.32975604
 20
15.80183470
  0
VERTEX
  8
0
 10
63.35552697
 20
16.13694549
  0
VERTEX
  8
0
 10
63.40979851
 20
16.47433735
  0
VERTEX
  8
0
 10
63.49307911
 20
16.81350035
  0
VERTEX
  8
0
 10
63.60587722
 20
17.15392460
  0
VERTEX
  8
0
 10
63.74870128
 20
17.49510019
  0
VERTEX
  8
0
 10
75.42329975
 20
16.91320031
  0
VERTEX
  8
0
 10
75.54790086
 20
19.40960050
  0
VERTEX
  8
0
 10
63.98920047
 20
19.98570072
  0
VERTEX
  8
0
 10
63.98193457
 20
20.58984906
  0
VERTEX
  8
0
 10
63.93587378
 20
21.16295644
  0
VERTEX
  8
0
 10
63.85101694
 20
21.70502259
  0
VERTEX
  8
0
 10
63.72736285
 20
22.21604722
  0
VERTEX
  8
0
 10
63.56491035
 20
22.69603004
  0
VERTEX
  8
0
 10
63.36365825
 20
23.14497077
  0
VERTEX
  8
0
 10
63.12360538
 20
23.56286912
  0
VERTEX
  8
0
 10
62.84475056
 20
23.94972482
  0
VERTEX
  8
0
 10
62.52709260
 20
24.30553758
  0
VERTEX
  8
0
 10
62.17063034
 20
24.63030711
  0
VERTEX
  8
0
 10
61.77536259
 20
24.92403313
  0
VERTEX
  8
0
 10
61.34128818
 20
25.18671535
  0
VERTEX
  8
0
 10
60.86840592
 20
25.41835350
  0
VERTEX
  8
0
 10
60.35671464
 20
25.61894728
  0
VERTEX
  8
0
 10
59.80621316
 20
25.78849641
  0
VERTEX
  8
0
 10
59.21690031
 20
25.92700061
  0
VERTEX
  8
0
 10
58.74952520
 20
26.18434902
  0
VERTEX
  8
0
 10
58.30186010
 20
26.46939733
  0
VERTEX
  8
0
 10
57.87504550
 20
26.78008741
  0
VERTEX
  8
0
 10
57.47022189
 20
27.11436113
  0
VERTEX
  8
0
 10
57.08852976
 20
27.47016037
  0
VERTEX
  8
0
 10
56.73110960
 20
27.84542701
  0
VERTEX
  8
0
 10
56.39910191
 20
28.23810292
  0
VERTEX
  8
0
 10
56.09364718
 20
28.64612998
  0
VERTEX
  8
0
 10
55.81588591
 20
29.06745006
  0
VERTEX
  8
0
 10
55.56695857
 20
29.50000504
  0
VERTEX
  8
0
 10
55.34800567
 20
29.94173679
  0
VERTEX
  8
0
 10
55.16016771
 20
30.39058720
  0
VERTEX
  8
0
 10
55.00458516
 20
30.84449813
  0
VERTEX
  8
0
 10
54.88239853
 20
31.30141146
  0
VERTEX
  8
0
 10
54.79474830
 20
31.75926907
  0
VERTEX
  8
0
 10
54.74277497
 20
32.21601283
  0
VERTEX
  8
0
 10
54.72761903
 20
32.66958462
  0
VERTEX
  8
0
 10
54.75042098
 20
33.11792631
  0
VERTEX
  8
0
 10
54.81232130
 20
33.55897979
  0
VERTEX
  8
0
 10
54.91446049
 20
33.99068691
  0
VERTEX
  8
0
 10
55.05797904
 20
34.41098957
  0
VERTEX
  8
0
 10
55.24401745
 20
34.81782964
  0
VERTEX
  8
0
 10
55.47371620
 20
35.20914899
  0
VERTEX
  8
0
 10
55.74821578
 20
35.58288949
  0
VERTEX
  8
0
 10
56.06865670
 20
35.93699303
  0
VERTEX
  8
0
 10
56.43617944
 20
36.26940147
  0
VERTEX
  8
0
 10
56.85192449
 20
36.57805671
  0
VERTEX
  8
0
 10
57.31703235
 20
36.86090060
  0
VERTEX
  8
0
 10
57.83264352
 20
37.11587503
  0
VERTEX
  8
0
 10
58.39989847
 20
37.34092186
  0
VERTEX
  8
0
 10
59.01993771
 20
37.53398299
  0
VERTEX
  8
0
 10
59.69390172
 20
37.69300028
  0
VERTEX
  8
0
 10
60.41831891
 20
37.64940624
  0
VERTEX
  8
0
 10
61.13191764
 20
37.63796790
  0
VERTEX
  8
0
 10
61.83300602
 20
37.65899403
  0
VERTEX
  8
0
 10
62.51989216
 20
37.71279343
  0
VERTEX
  8
0
 10
63.19088416
 20
37.79967488
  0
VERTEX
  8
0
 10
63.84429012
 20
37.91994717
  0
VERTEX
  8
0
 10
64.47841815
 20
38.07391909
  0
VERTEX
  8
0
 10
65.09157635
 20
38.26189942
  0
VERTEX
  8
0
 10
65.68207282
 20
38.48419696
  0
VERTEX
  8
0
 10
66.24821566
 20
38.74112049
  0
VERTEX
  8
0
 10
66.78831298
 20
39.03297879
  0
VERTEX
  8
0
 10
67.30067289
 20
39.36008066
  0
VERTEX
  8
0
 10
67.78360348
 20
39.72273488
  0
VERTEX
  8
0
 10
68.23541285
 20
40.12125024
  0
VERTEX
  8
0
 10
68.65440912
 20
40.55593553
  0
VERTEX
  8
0
 10
69.03890039
 20
41.02709953
  0
VERTEX
  8
0
 10
79.56929942
 20
37.01509897
  0
VERTEX
  8
0
 10
80.45859928
 20
39.35079831
  0
VERTEX
  8
0
 10
70.10330150
 20
43.29609917
  0
SEQEND
  0
POLYLINE
  8
Nível Padrão
 66
   1
 39
0.000000
 70
    1
  0
VERTEX
  8
0
 10
143.51110067
 20
33.29919892
  0
VERTEX
  8
0
 10
144.26829936
 20
25.87889936
  0
VERTEX
  8
0
 10
133.55510147
 20
24.59140158
  0
VERTEX
  8
0
 10
133.85390072
 20
22.10980042
  0
VERTEX
  8
0
 10
144.78970139
 20
23.42399994
  0
VERTEX
  8
0
 10
145.53730100
 20
16.69509897
  0
VERTEX
  8
0
 10
132.68569828
 20
16.31749975
  0
VERTEX
  8
0
 10
132.75889967
 20
13.81930039
  0
VERTEX
  8
0
 10
139.75530144
 20
14.02489928
  0
VERTEX
  8
0
 10
139.79339487
 20
13.67231484
  0
VERTEX
  8
0
 10
139.80796044
 20
13.32280105
  0
VERTEX
  8
0
 10
139.79882574
 20
12.97806680
  0
VERTEX
  8
0
 10
139.76581836
 20
12.63982096
  0
VERTEX
  8
0
 10
139.70876587
 20
12.30977241
  0
VERTEX
  8
0
 10
139.62749585
 20
11.98963002
  0
VERTEX
  8
0
 10
139.52183589
 20
11.68110267
  0
VERTEX
  8
0
 10
139.39161357
 20
11.38589925
  0
VERTEX
  8
0
 10
139.23665647
 20
11.10572862
  0
VERTEX
  8
0
 10
139.05679218
 20
10.84229967
  0
VERTEX
  8
0
 10
138.85184826
 20
10.59732128
  0
VERTEX
  8
0
 10
138.62165232
 20
10.37250231
  0
VERTEX
  8
0
 10
138.36603191
 20
10.16955165
  0
VERTEX
  8
0
 10
138.08481464
 20
9.99017818
  0
VERTEX
  8
0
 10
137.77782808
 20
9.83609077
  0
VERTEX
  8
0
 10
137.44489981
 20
9.70899831
  0
VERTEX
  8
0
 10
121.22690103
 20
9.07299994
  0
VERTEX
  8
0
 10
120.79954731
 20
9.18327923
  0
VERTEX
  8
0
 10
120.39472410
 20
9.30932959
  0
VERTEX
  8
0
 10
120.01243138
 20
9.45115103
  0
VERTEX
  8
0
 10
119.65266917
 20
9.60874355
  0
VERTEX
  8
0
 10
119.31543744
 20
9.78210716
  0
VERTEX
  8
0
 10
119.00073620
 20
9.97124186
  0
VERTEX
  8
0
 10
118.70856544
 20
10.17614766
  0
VERTEX
  8
0
 10
118.43892515
 20
10.39682457
  0
VERTEX
  8
0
 10
118.19181533
 20
10.63327259
  0
VERTEX
  8
0
 10
117.96723598
 20
10.88549172
  0
VERTEX
  8
0
 10
117.76518709
 20
11.15348198
  0
VERTEX
  8
0
 10
117.58566865
 20
11.43724335
  0
VERTEX
  8
0
 10
117.42868066
 20
11.73677586
  0
VERTEX
  8
0
 10
117.29422311
 20
12.05207951
  0
VERTEX
  8
0
 10
117.18229601
 20
12.38315429
  0
VERTEX
  8
0
 10
117.09289933
 20
12.73000022
  0
VERTEX
  8
0
 10
117.14901008
 20
13.05281635
  0
VERTEX
  8
0
 10
117.17514840
 20
13.35315126
  0
VERTEX
  8
0
 10
117.17301057
 20
13.63227760
  0
VERTEX
  8
0
 10
117.14429288
 20
13.89146803
  0
VERTEX
  8
0
 10
117.09069163
 20
14.13199521
  0
VERTEX
  8
0
 10
117.01390310
 20
14.35513179
  0
VERTEX
  8
0
 10
116.91562358
 20
14.56215042
  0
VERTEX
  8
0
 10
116.79754937
 20
14.75432378
  0
VERTEX
  8
0
 10
116.66137674
 20
14.93292450
  0
VERTEX
  8
0
 10
116.50880200
 20
15.09922525
  0
VERTEX
  8
0
 10
116.34152142
 20
15.25449869
  0
VERTEX
  8
0
 10
116.16123130
 20
15.40001746
  0
VERTEX
  8
0
 10
115.76840760
 20
15.66688166
  0
VERTEX
  8
0
 10
115.34390119
 20
15.90999908
  0
VERTEX
  8
0
 10
115.04668781
 20
16.05308696
  0
VERTEX
  8
0
 10
114.76439906
 20
16.21386076
  0
VERTEX
  8
0
 10
114.49691500
 20
16.39129569
  0
VERTEX
  8
0
 10
114.24411574
 20
16.58436694
  0
VERTEX
  8
0
 10
114.00588135
 20
16.79204970
  0
VERTEX
  8
0
 10
113.78209192
 20
17.01331917
  0
VERTEX
  8
0
 10
113.57262753
 20
17.24715055
  0
VERTEX
  8
0
 10
113.37736826
 20
17.49251902
  0
VERTEX
  8
0
 10
113.19619420
 20
17.74839979
  0
VERTEX
  8
0
 10
113.02898543
 20
18.01376804
  0
VERTEX
  8
0
 10
112.87562204
 20
18.28759898
  0
VERTEX
  8
0
 10
112.73598410
 20
18.56886780
  0
VERTEX
  8
0
 10
112.49740493
 20
19.14961985
  0
VERTEX
  8
0
 10
112.31228860
 20
19.74782575
  0
VERTEX
  8
0
 10
112.17967578
 20
20.35528707
  0
VERTEX
  8
0
 10
112.09860712
 20
20.96380537
  0
VERTEX
  8
0
 10
112.06812331
 20
21.56518220
  0
VERTEX
  8
0
 10
112.08726500
 20
22.15121912
  0
VERTEX
  8
0
 10
112.15507287
 20
22.71371769
  0
VERTEX
  8
0
 10
112.27058758
 20
23.24447948
  0
VERTEX
  8
0
 10
112.43284981
 20
23.73530605
  0
VERTEX
  8
0
 10
112.53121145
 20
23.96318161
  0
VERTEX
  8
0
 10
112.64090022
 20
24.17799894
  0
VERTEX
  8
0
 10
112.87272321
 20
24.56791999
  0
VERTEX
  8
0
 10
113.10509818
 20
24.91019608
  0
VERTEX
  8
0
 10
113.33525834
 20
25.21127839
  0
VERTEX
  8
0
 10
113.56043689
 20
25.47761811
  0
VERTEX
  8
0
 10
113.98478198
 20
25.93187446
  0
VERTEX
  8
0
 10
114.35599906
 20
26.32457455
  0
VERTEX
  8
0
 10
114.51476761
 20
26.51396894
  0
VERTEX
  8
0
 10
114.65195377
 20
26.70732780
  0
VERTEX
  8
0
 10
114.76479073
 20
26.91110229
  0
VERTEX
  8
0
 10
114.85051171
 20
27.13174361
  0
VERTEX
  8
0
 10
114.90634990
 20
27.37570293
  0
VERTEX
  8
0
 10
114.92953850
 20
27.64943142
  0
VERTEX
  8
0
 10
114.91731073
 20
27.95938026
  0
VERTEX
  8
0
 10
114.86689978
 20
28.31200064
  0
VERTEX
  8
0
 10
114.81494782
 20
28.69638004
  0
VERTEX
  8
0
 10
114.79867358
 20
29.09429743
  0
VERTEX
  8
0
 10
114.81617511
 20
29.50123918
  0
VERTEX
  8
0
 10
114.86555046
 20
29.91269166
  0
VERTEX
  8
0
 10
114.94489766
 20
30.32414125
  0
VERTEX
  8
0
 10
115.05231475
 20
30.73107431
  0
VERTEX
  8
0
 10
115.18589980
 20
31.12897723
  0
VERTEX
  8
0
 10
115.34375082
 20
31.51333638
  0
VERTEX
  8
0
 10
115.52396588
 20
31.87963813
  0
VERTEX
  8
0
 10
115.72464301
 20
32.22336885
  0
VERTEX
  8
0
 10
115.94388026
 20
32.54001492
  0
VERTEX
  8
0
 10
116.17977567
 20
32.82506272
  0
VERTEX
  8
0
 10
116.43042729
 20
33.07399861
  0
VERTEX
  8
0
 10
116.69393315
 20
33.28230896
  0
VERTEX
  8
0
 10
116.96839131
 20
33.44548017
  0
VERTEX
  8
0
 10
117.25189981
 20
33.55899858
  0
VERTEX
  8
0
 10
131.40289950
 20
37.85200075
  0
VERTEX
  8
0
 10
131.75171992
 20
37.94446179
  0
VERTEX
  8
0
 10
132.09378098
 20
38.01664468
  0
VERTEX
  8
0
 10
132.42908267
 20
38.06854942
  0
VERTEX
  8
0
 10
132.75762498
 20
38.10017600
  0
VERTEX
  8
0
 10
133.07940791
 20
38.11152445
  0
VERTEX
  8
0
 10
133.39443146
 20
38.10259476
  0
VERTEX
  8
0
 10
133.70269561
 20
38.07338693
  0
VERTEX
  8
0
 10
134.00420037
 20
38.02390098
  0
VERTEX
  8
0
 10
134.29894573
 20
37.95413691
  0
VERTEX
  8
0
 10
134.58693168
 20
37.86409472
  0
VERTEX
  8
0
 10
134.86815822
 20
37.75377442
  0
VERTEX
  8
0
 10
135.14262534
 20
37.62317602
  0
VERTEX
  8
0
 10
135.41033304
 20
37.47229951
  0
VERTEX
  8
0
 10
135.67128131
 20
37.30114491
  0
VERTEX
  8
0
 10
135.92547015
 20
37.10971222
  0
VERTEX
  8
0
 10
136.17289956
 20
36.89800144
  0
VERTEX
  8
0
 10
137.11200106
 20
34.39010069
  0
VERTEX
  8
0
 10
129.99510097
 20
32.75109867
  0
VERTEX
  8
0
 10
130.55590122
 20
30.31559850
  0
VERTEX
  8
0
 10
143.51110067
 20
33.29919892
  0
SEQEND
  0
POLYLINE
  8
Nível Padrão
 66
   1
 39
0.000000
 70
    1
  0
VERTEX
  8
0
 10
157.47889933
 20
34.51300142
  0
VERTEX
  8
0
 10
156.41910707
 20
34.01586205
  0
VERTEX
  8
0
 10
155.94286816
 20
33.80722479
  0
VERTEX
  8
0
 10
155.49852417
 20
33.62838082
  0
VERTEX
  8
0
 10
155.08316768
 20
33.48170890
  0
VERTEX
  8
0
 10
154.69389128
 20
33.36958780
  0
VERTEX
  8
0
 10
154.32778754
 20
33.29439626
  0
VERTEX
  8
0
 10
153.98194904
 20
33.25851306
  0
VERTEX
  8
0
 10
153.65346837
 20
33.26431694
  0
VERTEX
  8
0
 10
153.33943810
 20
33.31418667
  0
VERTEX
  8
0
 10
153.03695082
 20
33.41050100
  0
VERTEX
  8
0
 10
152.74309910
 20
33.55563871
  0
VERTEX
  8
0
 10
152.45497553
 20
33.75197853
  0
VERTEX
  8
0
 10
152.16967268
 20
34.00189925
  0
VERTEX
  8
0
 10
151.88428315
 20
34.30777960
  0
VERTEX
  8
0
 10
151.59589950
 20
34.67199836
  0
VERTEX
  8
0
 10
150.56250068
 20
36.49391895
  0
VERTEX
  8
0
 10
149.55226257
 20
38.35447123
  0
VERTEX
  8
0
 10
148.56778678
 20
40.25799358
  0
VERTEX
  8
0
 10
147.61167490
 20
42.20882439
  0
VERTEX
  8
0
 10
146.68652853
 20
44.21130202
  0
VERTEX
  8
0
 10
145.79494927
 20
46.26976487
  0
VERTEX
  8
0
 10
144.93953872
 20
48.38855131
  0
VERTEX
  8
0
 10
144.52620971
 20
49.47192162
  0
VERTEX
  8
0
 10
144.12289847
 20
50.57199972
  0
VERTEX
  8
0
 10
144.09309871
 20
50.92250384
  0
VERTEX
  8
0
 10
144.04472378
 20
51.25597063
  0
VERTEX
  8
0
 10
143.97870150
 20
51.57254777
  0
VERTEX
  8
0
 10
143.89595965
 20
51.87238289
  0
VERTEX
  8
0
 10
143.79742603
 20
52.15562367
  0
VERTEX
  8
0
 10
143.68402845
 20
52.42241776
  0
VERTEX
  8
0
 10
143.55669469
 20
52.67291281
  0
VERTEX
  8
0
 10
143.41635255
 20
52.90725648
  0
VERTEX
  8
0
 10
143.26392983
 20
53.12559644
  0
VERTEX
  8
0
 10
143.10035433
 20
53.32808033
  0
VERTEX
  8
0
 10
142.92655384
 20
53.51485581
  0
VERTEX
  8
0
 10
142.74345616
 20
53.68607054
  0
VERTEX
  8
0
 10
142.55198909
 20
53.84187218
  0
VERTEX
  8
0
 10
142.35308042
 20
53.98240839
  0
VERTEX
  8
0
 10
142.14765795
 20
54.10782681
  0
VERTEX
  8
0
 10
141.93664948
 20
54.21827511
  0
VERTEX
  8
0
 10
141.72098280
 20
54.31390095
  0
VERTEX
  8
0
 10
141.50158571
 20
54.39485198
  0
VERTEX
  8
0
 10
141.05531149
 20
54.51332025
  0
VERTEX
  8
0
 10
140.60524918
 20
54.57486117
  0
VERTEX
  8
0
 10
140.15882118
 20
54.58065600
  0
VERTEX
  8
0
 10
139.72344984
 20
54.53188599
  0
VERTEX
  8
0
 10
139.30655755
 20
54.42973241
  0
VERTEX
  8
0
 10
138.91556667
 20
54.27537650
  0
VERTEX
  8
0
 10
138.73210375
 20
54.17899182
  0
VERTEX
  8
0
 10
138.55789958
 20
54.06999953
  0
VERTEX
  8
0
 10
136.65670351
 20
52.98467038
  0
VERTEX
  8
0
 10
134.76254218
 20
51.93509920
  0
VERTEX
  8
0
 10
132.87303784
 20
50.92166743
  0
VERTEX
  8
0
 10
130.98581276
 20
49.94475653
  0
VERTEX
  8
0
 10
129.09848921
 20
49.00474794
  0
VERTEX
  8
0
 10
127.20868944
 20
48.10202309
  0
VERTEX
  8
0
 10
125.31403573
 20
47.23696344
  0
VERTEX
  8
0
 10
123.41215034
 20
46.40995043
  0
VERTEX
  8
0
 10
121.50065553
 20
45.62136550
  0
VERTEX
  8
0
 10
119.57717356
 20
44.87159010
  0
VERTEX
  8
0
 10
117.63932671
 20
44.16100567
  0
VERTEX
  8
0
 10
115.68473722
 20
43.48999366
  0
VERTEX
  8
0
 10
113.71102738
 20
42.85893551
  0
VERTEX
  8
0
 10
111.71581943
 20
42.26821266
  0
VERTEX
  8
0
 10
109.69673566
 20
41.71820657
  0
VERTEX
  8
0
 10
107.65139831
 20
41.20929867
  0
VERTEX
  8
0
 10
107.38619383
 20
41.15858550
  0
VERTEX
  8
0
 10
107.13854266
 20
41.09104319
  0
VERTEX
  8
0
 10
106.90851956
 20
41.00796155
  0
VERTEX
  8
0
 10
106.69619932
 20
40.91063040
  0
VERTEX
  8
0
 10
106.50165672
 20
40.80033955
  0
VERTEX
  8
0
 10
106.32496654
 20
40.67837881
  0
VERTEX
  8
0
 10
106.16620356
 20
40.54603800
  0
VERTEX
  8
0
 10
106.02544255
 20
40.40460693
  0
VERTEX
  8
0
 10
105.90275830
 20
40.25537542
  0
VERTEX
  8
0
 10
105.79822559
 20
40.09963328
  0
VERTEX
  8
0
 10
105.71191919
 20
39.93867032
  0
VERTEX
  8
0
 10
105.64391389
 20
39.77377637
  0
VERTEX
  8
0
 10
105.59428447
 20
39.60624122
  0
VERTEX
  8
0
 10
105.56310570
 20
39.43735470
  0
VERTEX
  8
0
 10
105.55045237
 20
39.26840662
  0
VERTEX
  8
0
 10
105.55639925
 20
39.10068680
  0
VERTEX
  8
0
 10
105.58102113
 20
38.93548504
  0
VERTEX
  8
0
 10
105.62439278
 20
38.77409117
  0
VERTEX
  8
0
 10
105.68658898
 20
38.61779499
  0
VERTEX
  8
0
 10
105.76768452
 20
38.46788633
  0
VERTEX
  8
0
 10
105.86775417
 20
38.32565499
  0
VERTEX
  8
0
 10
105.98687271
 20
38.19239078
  0
VERTEX
  8
0
 10
106.12511493
 20
38.06938353
  0
VERTEX
  8
0
 10
106.28255559
 20
37.95792305
  0
VERTEX
  8
0
 10
106.45926949
 20
37.85929915
  0
VERTEX
  8
0
 10
106.65533141
 20
37.77480164
  0
VERTEX
  8
0
 10
106.87081611
 20
37.70572034
  0
VERTEX
  8
0
 10
107.10579838
 20
37.65334507
  0
VERTEX
  8
0
 10
107.36035301
 20
37.61896563
  0
VERTEX
  8
0
 10
107.63455476
 20
37.60387184
  0
VERTEX
  8
0
 10
107.92847842
 20
37.60935352
  0
VERTEX
  8
0
 10
108.24219878
 20
37.63670047
  0
VERTEX
  8
0
 10
110.23481078
 20
38.04141169
  0
VERTEX
  8
0
 10
112.18464476
 20
38.48868264
  0
VERTEX
  8
0
 10
114.09437979
 20
38.97723788
  0
VERTEX
  8
0
 10
115.96669492
 20
39.50580197
  0
VERTEX
  8
0
 10
117.80426920
 20
40.07309947
  0
VERTEX
  8
0
 10
119.60978169
 20
40.67785494
  0
VERTEX
  8
0
 10
121.38591145
 20
41.31879293
  0
VERTEX
  8
0
 10
123.13533752
 20
41.99463800
  0
VERTEX
  8
0
 10
124.86073898
 20
42.70411472
  0
VERTEX
  8
0
 10
126.56479487
 20
43.44594764
  0
VERTEX
  8
0
 10
128.25018426
 20
44.21886132
  0
VERTEX
  8
0
 10
129.91958619
 20
45.02158031
  0
VERTEX
  8
0
 10
131.57567972
 20
45.85282918
  0
VERTEX
  8
0
 10
133.22114391
 20
46.71133249
  0
VERTEX
  8
0
 10
134.85865782
 20
47.59581479
  0
VERTEX
  8
0
 10
136.49090050
 20
48.50500064
  0
VERTEX
  8
0
 10
136.90330217
 20
48.74971153
  0
VERTEX
  8
0
 10
137.29649399
 20
48.95119430
  0
VERTEX
  8
0
 10
137.67047552
 20
49.10944895
  0
VERTEX
  8
0
 10
138.02524631
 20
49.22447548
  0
VERTEX
  8
0
 10
138.36080595
 20
49.29627389
  0
VERTEX
  8
0
 10
138.67715397
 20
49.32484418
  0
VERTEX
  8
0
 10
138.97428994
 20
49.31018634
  0
VERTEX
  8
0
 10
139.25221343
 20
49.25230039
  0
VERTEX
  8
0
 10
139.51092400
 20
49.15118631
  0
VERTEX
  8
0
 10
139.75042120
 20
49.00684412
  0
VERTEX
  8
0
 10
139.97070459
 20
48.81927380
  0
VERTEX
  8
0
 10
140.17177375
 20
48.58847536
  0
VERTEX
  8
0
 10
140.35362822
 20
48.31444880
  0
VERTEX
  8
0
 10
140.51626756
 20
47.99719412
  0
VERTEX
  8
0
 10
140.65969135
 20
47.63671131
  0
VERTEX
  8
0
 10
140.78389914
 20
47.23300039
  0
VERTEX
  8
0
 10
141.43841648
 20
44.96516991
  0
VERTEX
  8
0
 10
141.79108120
 20
43.81562293
  0
VERTEX
  8
0
 10
142.16642197
 20
42.65759658
  0
VERTEX
  8
0
 10
142.56874277
 20
41.49254722
  0
VERTEX
  8
0
 10
143.00234760
 20
40.32193119
  0
VERTEX
  8
0
 10
143.47154048
 20
39.14720486
  0
VERTEX
  8
0
 10
143.98062540
 20
37.96982456
  0
VERTEX
  8
0
 10
144.53390636
 20
36.79124665
  0
VERTEX
  8
0
 10
145.13568736
 20
35.61292748
  0
VERTEX
  8
0
 10
145.79027241
 20
34.43632340
  0
VERTEX
  8
0
 10
146.50196549
 20
33.26289075
  0
VERTEX
  8
0
 10
147.27507063
 20
32.09408590
  0
VERTEX
  8
0
 10
148.11389181
 20
30.93136519
  0
VERTEX
  8
0
 10
148.55929091
 20
30.35274149
  0
VERTEX
  8
0
 10
149.02273303
 20
29.77618496
  0
VERTEX
  8
0
 10
149.50475616
 20
29.20187765
  0
VERTEX
  8
0
 10
150.00589831
 20
28.63000158
  0
VERTEX
  8
0
 10
150.87599383
 20
27.21561350
  0
VERTEX
  8
0
 10
151.29536155
 20
26.48019606
  0
VERTEX
  8
0
 10
151.49014964
 20
26.10268755
  0
VERTEX
  8
0
 10
151.67082597
 20
25.71760054
  0
VERTEX
  8
0
 10
151.83425461
 20
25.32415104
  0
VERTEX
  8
0
 10
151.97729963
 20
24.92155507
  0
VERTEX
  8
0
 10
152.09682509
 20
24.50902865
  0
VERTEX
  8
0
 10
152.18969506
 20
24.08578779
  0
VERTEX
  8
0
 10
152.25277360
 20
23.65104852
  0
VERTEX
  8
0
 10
152.28292480
 20
23.20402684
  0
VERTEX
  8
0
 10
152.27701270
 20
22.74393877
  0
VERTEX
  8
0
 10
152.23190139
 20
22.27000033
  0
VERTEX
  8
0
 10
152.11007011
 20
21.46585675
  0
VERTEX
  8
0
 10
152.04413820
 20
20.67892987
  0
VERTEX
  8
0
 10
152.03327919
 20
19.91123255
  0
VERTEX
  8
0
 10
152.07666660
 20
19.16477763
  0
VERTEX
  8
0
 10
152.17347396
 20
18.44157795
  0
VERTEX
  8
0
 10
152.32287481
 20
17.74364635
  0
VERTEX
  8
0
 10
152.52404267
 20
17.07299569
  0
VERTEX
  8
0
 10
152.77615107
 20
16.43163880
  0
VERTEX
  8
0
 10
153.07837354
 20
15.82158852
  0
VERTEX
  8
0
 10
153.42988360
 20
15.24485770
  0
VERTEX
  8
0
 10
153.62386320
 20
14.96961610
  0
VERTEX
  8
0
 10
153.82985478
 20
14.70345919
  0
VERTEX
  8
0
 10
154.04775503
 20
14.44663856
  0
VERTEX
  8
0
 10
154.27746062
 20
14.19940582
  0
VERTEX
  8
0
 10
154.51886827
 20
13.96201258
  0
VERTEX
  8
0
 10
154.77187464
 20
13.73471045
  0
VERTEX
  8
0
 10
155.03637645
 20
13.51775102
  0
VERTEX
  8
0
 10
155.31227038
 20
13.31138590
  0
VERTEX
  8
0
 10
155.59945311
 20
13.11586671
  0
VERTEX
  8
0
 10
155.89782135
 20
12.93144504
  0
VERTEX
  8
0
 10
156.20727177
 20
12.75837250
  0
VERTEX
  8
0
 10
156.52770108
 20
12.59690069
  0
VERTEX
  8
0
 10
161.18230047
 20
19.68440028
  0
VERTEX
  8
0
 10
163.27189850
 20
18.31220056
  0
VERTEX
  8
0
 10
158.74650044
 20
11.42139928
  0
VERTEX
  8
0
 10
159.73211570
 20
11.05246085
  0
VERTEX
  8
0
 10
160.23363438
 20
10.88738323
  0
VERTEX
  8
0
 10
160.73980122
 20
10.73815422
  0
VERTEX
  8
0
 10
161.24974683
 20
10.60696447
  0
VERTEX
  8
0
 10
161.76260180
 20
10.49600466
  0
VERTEX
  8
0
 10
162.27749675
 20
10.40746545
  0
VERTEX
  8
0
 10
162.79356226
 20
10.34353749
  0
VERTEX
  8
0
 10
163.30992894
 20
10.30641145
  0
VERTEX
  8
0
 10
163.82572740
 20
10.29827800
  0
VERTEX
  8
0
 10
164.34008823
 20
10.32132778
  0
VERTEX
  8
0
 10
164.85214203
 20
10.37775148
  0
VERTEX
  8
0
 10
165.36101940
 20
10.46973974
  0
VERTEX
  8
0
 10
165.86585095
 20
10.59948323
  0
VERTEX
  8
0
 10
166.36576727
 20
10.76917262
  0
VERTEX
  8
0
 10
166.85989897
 20
10.98099856
  0
VERTEX
  8
0
 10
167.61591795
 20
11.41976314
  0
VERTEX
  8
0
 10
168.34431821
 20
11.87413767
  0
VERTEX
  8
0
 10
169.04509980
 20
12.34412215
  0
VERTEX
  8
0
 10
169.71826277
 20
12.82971656
  0
VERTEX
  8
0
 10
170.36380720
 20
13.33092092
  0
VERTEX
  8
0
 10
170.98173312
 20
13.84773522
  0
VERTEX
  8
0
 10
171.57204061
 20
14.38015947
  0
VERTEX
  8
0
 10
172.13472971
 20
14.92819367
  0
VERTEX
  8
0
 10
172.66980047
 20
15.49183781
  0
VERTEX
  8
0
 10
173.17725297
 20
16.07109190
  0
VERTEX
  8
0
 10
173.65708724
 20
16.66595593
  0
VERTEX
  8
0
 10
174.10930336
 20
17.27642992
  0
VERTEX
  8
0
 10
174.53390137
 20
17.90251385
  0
VERTEX
  8
0
 10
174.93088133
 20
18.54420773
  0
VERTEX
  8
0
 10
175.30024330
 20
19.20151157
  0
VERTEX
  8
0
 10
175.64198734
 20
19.87442535
  0
VERTEX
  8
0
 10
175.95611349
 20
20.56294909
  0
VERTEX
  8
0
 10
176.24262182
 20
21.26708277
  0
VERTEX
  8
0
 10
176.50151238
 20
21.98682642
  0
VERTEX
  8
0
 10
176.73278523
 20
22.72218001
  0
VERTEX
  8
0
 10
176.93644043
 20
23.47314356
  0
VERTEX
  8
0
 10
177.11247802
 20
24.23971706
  0
VERTEX
  8
0
 10
177.26089807
 20
25.02190052
  0
VERTEX
  8
0
 10
177.38170064
 20
25.81969393
  0
VERTEX
  8
0
 10
177.47488578
 20
26.63309731
  0
VERTEX
  8
0
 10
177.54045354
 20
27.46211063
  0
VERTEX
  8
0
 10
177.57840398
 20
28.30673392
  0
VERTEX
  8
0
 10
177.58873716
 20
29.16696717
  0
VERTEX
  8
0
 10
177.57145314
 20
30.04281037
  0
VERTEX
  8
0
 10
177.52655196
 20
30.93426354
  0
VERTEX
  8
0
 10
177.45403369
 20
31.84132666
  0
VERTEX
  8
0
 10
177.35389839
 20
32.76399975
  0
VERTEX
  8
0
 10
177.28113647
 20
33.32715788
  0
VERTEX
  8
0
 10
177.18368801
 20
33.89360826
  0
VERTEX
  8
0
 10
177.05898440
 20
34.46018374
  0
VERTEX
  8
0
 10
176.90445702
 20
35.02371720
  0
VERTEX
  8
0
 10
176.71753726
 20
35.58104148
  0
VERTEX
  8
0
 10
176.49565651
 20
36.12898946
  0
VERTEX
  8
0
 10
176.23624616
 20
36.66439398
  0
VERTEX
  8
0
 10
175.93673758
 20
37.18408791
  0
VERTEX
  8
0
 10
175.59456217
 20
37.68490410
  0
VERTEX
  8
0
 10
175.20715132
 20
38.16367543
  0
VERTEX
  8
0
 10
174.77193641
 20
38.61723475
  0
VERTEX
  8
0
 10
174.28634882
 20
39.04241491
  0
VERTEX
  8
0
 10
173.74781995
 20
39.43604878
  0
VERTEX
  8
0
 10
173.45789984
 20
39.62004613
  0
VERTEX
  8
0
 10
173.15378118
 20
39.79496922
  0
VERTEX
  8
0
 10
172.83514290
 20
39.96042218
  0
VERTEX
  8
0
 10
172.50166390
 20
40.11600909
  0
VERTEX
  8
0
 10
172.15302313
 20
40.26133408
  0
VERTEX
  8
0
 10
171.78889950
 20
40.39600125
  0
VERTEX
  8
0
 10
171.22348234
 20
40.54710182
  0
VERTEX
  8
0
 10
170.66653720
 20
40.67420081
  0
VERTEX
  8
0
 10
170.11797967
 20
40.77753744
  0
VERTEX
  8
0
 10
169.57772530
 20
40.85735093
  0
VERTEX
  8
0
 10
169.04568967
 20
40.91388052
  0
VERTEX
  8
0
 10
168.52178834
 20
40.94736543
  0
VERTEX
  8
0
 10
168.00593689
 20
40.95804490
  0
VERTEX
  8
0
 10
167.49805088
 20
40.94615814
  0
VERTEX
  8
0
 10
166.99804588
 20
40.91194439
  0
VERTEX
  8
0
 10
166.50583746
 20
40.85564287
  0
VERTEX
  8
0
 10
166.02134120
 20
40.77749282
  0
VERTEX
  8
0
 10
165.54447265
 20
40.67773345
  0
VERTEX
  8
0
 10
165.07514740
 20
40.55660400
  0
VERTEX
  8
0
 10
164.61328100
 20
40.41434369
  0
VERTEX
  8
0
 10
164.15878903
 20
40.25119176
  0
VERTEX
  8
0
 10
163.71158705
 20
40.06738743
  0
VERTEX
  8
0
 10
163.27159064
 20
39.86316992
  0
VERTEX
  8
0
 10
162.83871537
 20
39.63877847
  0
VERTEX
  8
0
 10
162.41287680
 20
39.39445230
  0
VERTEX
  8
0
 10
161.99399050
 20
39.13043064
  0
VERTEX
  8
0
 10
161.58197204
 20
38.84695272
  0
VERTEX
  8
0
 10
161.17673699
 20
38.54425777
  0
VERTEX
  8
0
 10
160.77820093
 20
38.22258501
  0
VERTEX
  8
0
 10
160.38627941
 20
37.88217367
  0
VERTEX
  8
0
 10
160.00088801
 20
37.52326298
  0
VERTEX
  8
0
 10
159.62194230
 20
37.14609216
  0
VERTEX
  8
0
 10
159.24935784
 20
36.75090045
  0
VERTEX
  8
0
 10
158.88305021
 20
36.33792707
  0
VERTEX
  8
0
 10
158.52293498
 20
35.90741125
  0
VERTEX
  8
0
 10
158.16892771
 20
35.45959221
  0
VERTEX
  8
0
 10
157.47889933
 20
34.51300142
  0
SEQEND
  0
POLYLINE
  8
Nível Padrão
 66
   1
 39
0.000000
 70
    1
  0
VERTEX
  8
0
 10
146.17039953
 20
116.23799883
  0
VERTEX
  8
0
 10
146.32699007
 20
116.50311231
  0
VERTEX
  8
0
 10
146.48998964
 20
116.74983601
  0
VERTEX
  8
0
 10
146.65860615
 20
116.97812645
  0
VERTEX
  8
0
 10
146.83204747
 20
117.18794013
  0
VERTEX
  8
0
 10
147.00952148
 20
117.37923356
  0
VERTEX
  8
0
 10
147.19023608
 20
117.55196327
  0
VERTEX
  8
0
 10
147.37339916
 20
117.70608577
  0
VERTEX
  8
0
 10
147.55821860
 20
117.84155755
  0
VERTEX
  8
0
 10
147.74390228
 20
117.95833515
  0
VERTEX
  8
0
 10
147.92965810
 20
118.05637506
  0
VERTEX
  8
0
 10
148.11469393
 20
118.13563381
  0
VERTEX
  8
0
 10
148.29821768
 20
118.19606790
  0
VERTEX
  8
0
 10
148.47943722
 20
118.23763385
  0
VERTEX
  8
0
 10
148.65756044
 20
118.26028817
  0
VERTEX
  8
0
 10
148.83179523
 20
118.26398737
  0
VERTEX
  8
0
 10
149.00134947
 20
118.24868797
  0
VERTEX
  8
0
 10
149.16543106
 20
118.21434647
  0
VERTEX
  8
0
 10
149.32324787
 20
118.16091939
  0
VERTEX
  8
0
 10
149.47400780
 20
118.08836324
  0
VERTEX
  8
0
 10
149.61691873
 20
117.99663454
  0
VERTEX
  8
0
 10
149.75118856
 20
117.88568979
  0
VERTEX
  8
0
 10
149.87602515
 20
117.75548551
  0
VERTEX
  8
0
 10
149.99063641
 20
117.60597821
  0
VERTEX
  8
0
 10
150.09423022
 20
117.43712440
  0
VERTEX
  8
0
 10
150.18601447
 20
117.24888060
  0
VERTEX
  8
0
 10
150.26519704
 20
117.04120331
  0
VERTEX
  8
0
 10
150.33098582
 20
116.81404906
  0
VERTEX
  8
0
 10
150.38258870
 20
116.56737435
  0
VERTEX
  8
0
 10
150.41921356
 20
116.30113569
  0
VERTEX
  8
0
 10
150.44006829
 20
116.01528960
  0
VERTEX
  8
0
 10
150.44436078
 20
115.70979259
  0
VERTEX
  8
0
 10
150.43129892
 20
115.38460117
  0
VERTEX
  8
0
 10
149.81577227
 20
113.73451278
  0
VERTEX
  8
0
 10
149.16119790
 20
112.09743770
  0
VERTEX
  8
0
 10
148.46930929
 20
110.47279773
  0
VERTEX
  8
0
 10
147.74183993
 20
108.86001470
  0
VERTEX
  8
0
 10
146.98052331
 20
107.25851042
  0
VERTEX
  8
0
 10
146.18709292
 20
105.66770671
  0
VERTEX
  8
0
 10
145.36328227
 20
104.08702539
  0
VERTEX
  8
0
 10
144.51082482
 20
102.51588828
  0
VERTEX
  8
0
 10
143.63145409
 20
100.95371720
  0
VERTEX
  8
0
 10
142.72690355
 20
99.39993396
  0
VERTEX
  8
0
 10
141.79890670
 20
97.85396038
  0
VERTEX
  8
0
 10
140.84919704
 20
96.31521829
  0
VERTEX
  8
0
 10
139.87950804
 20
94.78312949
  0
VERTEX
  8
0
 10
138.89157321
 20
93.25711581
  0
VERTEX
  8
0
 10
137.88712603
 20
91.73659907
  0
VERTEX
  8
0
 10
136.86790000
 20
90.22100108
  0
VERTEX
  8
0
 10
136.55118866
 20
89.85291053
  0
VERTEX
  8
0
 10
136.26977200
 20
89.47920144
  0
VERTEX
  8
0
 10
136.02676967
 20
89.10424197
  0
VERTEX
  8
0
 10
135.82530138
 20
88.73240029
  0
VERTEX
  8
0
 10
135.66848680
 20
88.36804457
  0
VERTEX
  8
0
 10
135.55944560
 20
88.01554296
  0
VERTEX
  8
0
 10
135.50129748
 20
87.67926362
  0
VERTEX
  8
0
 10
135.49716210
 20
87.36357473
  0
VERTEX
  8
0
 10
135.51632409
 20
87.21481674
  0
VERTEX
  8
0
 10
135.55015915
 20
87.07284443
  0
VERTEX
  8
0
 10
135.59905724
 20
86.93820381
  0
VERTEX
  8
0
 10
135.66340832
 20
86.81144090
  0
VERTEX
  8
0
 10
135.74360234
 20
86.69310172
  0
VERTEX
  8
0
 10
135.84002927
 20
86.58373229
  0
VERTEX
  8
0
 10
135.95307907
 20
86.48387863
  0
VERTEX
  8
0
 10
136.08314170
 20
86.39408677
  0
VERTEX
  8
0
 10
136.23060711
 20
86.31490272
  0
VERTEX
  8
0
 10
136.39586528
 20
86.24687250
  0
VERTEX
  8
0
 10
136.57930615
 20
86.19054213
  0
VERTEX
  8
0
 10
136.78131969
 20
86.14645764
  0
VERTEX
  8
0
 10
137.00229585
 20
86.11516504
  0
VERTEX
  8
0
 10
137.24262461
 20
86.09721035
  0
VERTEX
  8
0
 10
137.78289972
 20
86.10349881
  0
VERTEX
  8
0
 10
138.88958148
 20
86.15008117
  0
VERTEX
  8
0
 10
139.99327649
 20
86.17280567
  0
VERTEX
  8
0
 10
141.09377760
 20
86.17000734
  0
VERTEX
  8
0
 10
142.19087768
 20
86.14002123
  0
VERTEX
  8
0
 10
143.28436959
 20
86.08118239
  0
VERTEX
  8
0
 10
144.37404618
 20
85.99182587
  0
VERTEX
  8
0
 10
145.45970032
 20
85.87028671
  0
VERTEX
  8
0
 10
146.54112487
 20
85.71489997
  0
VERTEX
  8
0
 10
147.61811269
 20
85.52400069
  0
VERTEX
  8
0
 10
148.69045664
 20
85.29592391
  0
VERTEX
  8
0
 10
149.75794958
 20
85.02900469
  0
VERTEX
  8
0
 10
150.82038436
 20
84.72157807
  0
VERTEX
  8
0
 10
151.87755386
 20
84.37197910
  0
VERTEX
  8
0
 10
152.92925092
 20
83.97854283
  0
VERTEX
  8
0
 10
153.97526841
 20
83.53960430
  0
VERTEX
  8
0
 10
155.01539919
 20
83.05349856
  0
VERTEX
  8
0
 10
155.85939225
 20
82.67123047
  0
VERTEX
  8
0
 10
156.68847723
 20
82.31878760
  0
VERTEX
  8
0
 10
157.50161409
 20
81.99824988
  0
VERTEX
  8
0
 10
158.29776281
 20
81.71169725
  0
VERTEX
  8
0
 10
159.07588336
 20
81.46120965
  0
VERTEX
  8
0
 10
159.83493571
 20
81.24886700
  0
VERTEX
  8
0
 10
160.57387983
 20
81.07674925
  0
VERTEX
  8
0
 10
161.29167569
 20
80.94693633
  0
VERTEX
  8
0
 10
161.98728327
 20
80.86150817
  0
VERTEX
  8
0
 10
162.65966252
 20
80.82254470
  0
VERTEX
  8
0
 10
163.30777342
 20
80.83212588
  0
VERTEX
  8
0
 10
163.93057595
 20
80.89233162
  0
VERTEX
  8
0
 10
164.52703007
 20
81.00524186
  0
VERTEX
  8
0
 10
164.81505147
 20
81.08211115
  0
VERTEX
  8
0
 10
165.09609576
 20
81.17293655
  0
VERTEX
  8
0
 10
165.37003292
 20
81.27797803
  0
VERTEX
  8
0
 10
165.63673297
 20
81.39749561
  0
VERTEX
  8
0
 10
165.89606590
 20
81.53174925
  0
VERTEX
  8
0
 10
166.14790169
 20
81.68099897
  0
VERTEX
  8
0
 10
166.67791875
 20
81.82460844
  0
VERTEX
  8
0
 10
167.22366278
 20
81.92652801
  0
VERTEX
  8
0
 10
167.78157878
 20
81.98648185
  0
VERTEX
  8
0
 10
168.34811171
 20
82.00419413
  0
VERTEX
  8
0
 10
168.91970655
 20
81.97938903
  0
VERTEX
  8
0
 10
169.49280828
 20
81.91179071
  0
VERTEX
  8
0
 10
170.06386189
 20
81.80112336
  0
VERTEX
  8
0
 10
170.62931233
 20
81.64711114
  0
VERTEX
  8
0
 10
171.18560459
 20
81.44947822
  0
VERTEX
  8
0
 10
171.72918365
 20
81.20794878
  0
VERTEX
  8
0
 10
172.25649449
 20
80.92224698
  0
VERTEX
  8
0
 10
172.76398207
 20
80.59209700
  0
VERTEX
  8
0
 10
173.24809138
 20
80.21722302
  0
VERTEX
  8
0
 10
173.70526740
 20
79.79734919
  0
VERTEX
  8
0
 10
174.13195509
 20
79.33219970
  0
VERTEX
  8
0
 10
174.52459944
 20
78.82149872
  0
VERTEX
  8
0
 10
168.24150022
 20
72.37410031
  0
VERTEX
  8
0
 10
170.03150172
 20
70.62950131
  0
VERTEX
  8
0
 10
176.12210069
 20
76.87940061
  0
VERTEX
  8
0
 10
176.44777349
 20
76.52362906
  0
VERTEX
  8
0
 10
176.77750591
 20
76.12785110
  0
VERTEX
  8
0
 10
177.09976666
 20
75.70430694
  0
VERTEX
  8
0
 10
177.40302446
 20
75.26523678
  0
VERTEX
  8
0
 10
177.67574801
 20
74.82288083
  0
VERTEX
  8
0
 10
177.90640605
 20
74.38947929
  0
VERTEX
  8
0
 10
178.08346727
 20
73.97727236
  0
VERTEX
  8
0
 10
178.19540039
 20
73.59850025
  0
VERTEX
  8
0
 10
178.18310464
 20
72.92657641
  0
VERTEX
  8
0
 10
178.15149907
 20
72.26309965
  0
VERTEX
  8
0
 10
178.10068774
 20
71.60802448
  0
VERTEX
  8
0
 10
178.03077470
 20
70.96130538
  0
VERTEX
  8
0
 10
177.94186401
 20
70.32289687
  0
VERTEX
  8
0
 10
177.83405973
 20
69.69275343
  0
VERTEX
  8
0
 10
177.70746593
 20
69.07082956
  0
VERTEX
  8
0
 10
177.56218666
 20
68.45707976
  0
VERTEX
  8
0
 10
177.39832598
 20
67.85145854
  0
VERTEX
  8
0
 10
177.21598795
 20
67.25392038
  0
VERTEX
  8
0
 10
177.01527663
 20
66.66441978
  0
VERTEX
  8
0
 10
176.79629608
 20
66.08291124
  0
VERTEX
  8
0
 10
176.55915037
 20
65.50934926
  0
VERTEX
  8
0
 10
176.30394354
 20
64.94368834
  0
VERTEX
  8
0
 10
176.03077966
 20
64.38588298
  0
VERTEX
  8
0
 10
175.73976278
 20
63.83588766
  0
VERTEX
  8
0
 10
175.43099698
 20
63.29365689
  0
VERTEX
  8
0
 10
175.10458630
 20
62.75914517
  0
VERTEX
  8
0
 10
174.76063482
 20
62.23230700
  0
VERTEX
  8
0
 10
174.39924657
 20
61.71309687
  0
VERTEX
  8
0
 10
174.02052564
 20
61.20146927
  0
VERTEX
  8
0
 10
173.62457606
 20
60.69737872
  0
VERTEX
  8
0
 10
173.21150192
 20
60.20077970
  0
VERTEX
  8
0
 10
172.78140726
 20
59.71162671
  0
VERTEX
  8
0
 10
172.33439614
 20
59.22987425
  0
VERTEX
  8
0
 10
171.87057263
 20
58.75547682
  0
VERTEX
  8
0
 10
171.39004077
 20
58.28838892
  0
VERTEX
  8
0
 10
170.89290465
 20
57.82856504
  0
VERTEX
  8
0
 10
170.37926830
 20
57.37595968
  0
VERTEX
  8
0
 10
169.84923580
 20
56.93052733
  0
VERTEX
  8
0
 10
169.30291120
 20
56.49222251
  0
VERTEX
  8
0
 10
168.74039856
 20
56.06099969
  0
VERTEX
  8
0
 10
167.88832066
 20
55.61009443
  0
VERTEX
  8
0
 10
167.02882319
 20
55.19999185
  0
VERTEX
  8
0
 10
166.16169828
 20
54.83183598
  0
VERTEX
  8
0
 10
165.28673807
 20
54.50677088
  0
VERTEX
  8
0
 10
164.40373468
 20
54.22594058
  0
VERTEX
  8
0
 10
163.51248027
 20
53.99048911
  0
VERTEX
  8
0
 10
162.61276696
 20
53.80156053
  0
VERTEX
  8
0
 10
161.70438689
 20
53.66029885
  0
VERTEX
  8
0
 10
160.78713220
 20
53.56784813
  0
VERTEX
  8
0
 10
159.86079503
 20
53.52535240
  0
VERTEX
  8
0
 10
158.92516751
 20
53.53395570
  0
VERTEX
  8
0
 10
157.98004177
 20
53.59480207
  0
VERTEX
  8
0
 10
157.02520997
 20
53.70903555
  0
VERTEX
  8
0
 10
156.06046422
 20
53.87780018
  0
VERTEX
  8
0
 10
155.08559668
 20
54.10223999
  0
VERTEX
  8
0
 10
154.10039947
 20
54.38349903
  0
VERTEX
  8
0
 10
153.66696530
 20
54.68541175
  0
VERTEX
  8
0
 10
153.25350049
 20
54.99398066
  0
VERTEX
  8
0
 10
152.86000506
 20
55.30920574
  0
VERTEX
  8
0
 10
152.48647903
 20
55.63108695
  0
VERTEX
  8
0
 10
152.13292242
 20
55.95962424
  0
VERTEX
  8
0
 10
151.79933524
 20
56.29481759
  0
VERTEX
  8
0
 10
151.48571752
 20
56.63666695
  0
VERTEX
  8
0
 10
151.19206927
 20
56.98517230
  0
VERTEX
  8
0
 10
150.91839050
 20
57.34033359
  0
VERTEX
  8
0
 10
150.66468124
 20
57.70215079
  0
VERTEX
  8
0
 10
150.43094151
 20
58.07062387
  0
VERTEX
  8
0
 10
150.21717132
 20
58.44575278
  0
VERTEX
  8
0
 10
150.02337069
 20
58.82753749
  0
VERTEX
  8
0
 10
149.84953965
 20
59.21597796
  0
VERTEX
  8
0
 10
149.69567820
 20
59.61107417
  0
VERTEX
  8
0
 10
149.56178636
 20
60.01282606
  0
VERTEX
  8
0
 10
149.44786416
 20
60.42123361
  0
VERTEX
  8
0
 10
149.35391161
 20
60.83629678
  0
VERTEX
  8
0
 10
149.27992873
 20
61.25801554
  0
VERTEX
  8
0
 10
149.22591554
 20
61.68638984
  0
VERTEX
  8
0
 10
149.19187206
 20
62.12141965
  0
VERTEX
  8
0
 10
149.17779830
 20
62.56310494
  0
VERTEX
  8
0
 10
149.18369428
 20
63.01144566
  0
VERTEX
  8
0
 10
149.20956002
 20
63.46644179
  0
VERTEX
  8
0
 10
149.25539554
 20
63.92809329
  0
VERTEX
  8
0
 10
149.32120086
 20
64.39640011
  0
VERTEX
  8
0
 10
149.40697599
 20
64.87136223
  0
VERTEX
  8
0
 10
149.51272095
 20
65.35297961
  0
VERTEX
  8
0
 10
149.63843577
 20
65.84125221
  0
VERTEX
  8
0
 10
149.78412045
 20
66.33617999
  0
VERTEX
  8
0
 10
149.94977502
 20
66.83776293
  0
VERTEX
  8
0
 10
150.13539950
 20
67.34600097
  0
VERTEX
  8
0
 10
153.49040083
 20
73.75099903
  0
VERTEX
  8
0
 10
153.73037407
 20
74.14697404
  0
VERTEX
  8
0
 10
153.91132129
 20
74.52819343
  0
VERTEX
  8
0
 10
154.03658367
 20
74.89549216
  0
VERTEX
  8
0
 10
154.10950235
 20
75.24970519
  0
VERTEX
  8
0
 10
154.13341851
 20
75.59166748
  0
VERTEX
  8
0
 10
154.11167330
 20
75.92221397
  0
VERTEX
  8
0
 10
154.04760788
 20
76.24217964
  0
VERTEX
  8
0
 10
153.94456342
 20
76.55239942
  0
VERTEX
  8
0
 10
153.80588107
 20
76.85370829
  0
VERTEX
  8
0
 10
153.63490199
 20
77.14694120
  0
VERTEX
  8
0
 10
153.43496734
 20
77.43293310
  0
VERTEX
  8
0
 10
153.20941829
 20
77.71251896
  0
VERTEX
  8
0
 10
152.96159600
 20
77.98653372
  0
VERTEX
  8
0
 10
152.69484162
 20
78.25581235
  0
VERTEX
  8
0
 10
152.11790125
 20
78.78350103
  0
VERTEX
  8
0
 10
150.92349519
 20
79.20428023
  0
VERTEX
  8
0
 10
149.72392184
 20
79.57856719
  0
VERTEX
  8
0
 10
148.51928488
 20
79.90729780
  0
VERTEX
  8
0
 10
147.30968803
 20
80.19140798
  0
VERTEX
  8
0
 10
146.09523498
 20
80.43183361
  0
VERTEX
  8
0
 10
144.87602943
 20
80.62951058
  0
VERTEX
  8
0
 10
143.65217507
 20
80.78537480
  0
VERTEX
  8
0
 10
142.42377561
 20
80.90036216
  0
VERTEX
  8
0
 10
141.19093475
 20
80.97540856
  0
VERTEX
  8
0
 10
139.95375619
 20
81.01144989
  0
VERTEX
  8
0
 10
138.71234362
 20
81.00942206
  0
VERTEX
  8
0
 10
137.46680075
 20
80.97026095
  0
VERTEX
  8
0
 10
136.21723126
 20
80.89490246
  0
VERTEX
  8
0
 10
134.96373887
 20
80.78428249
  0
VERTEX
  8
0
 10
133.70642728
 20
80.63933694
  0
VERTEX
  8
0
 10
132.44540017
 20
80.46100169
  0
VERTEX
  8
0
 10
131.68399538
 20
80.48086263
  0
VERTEX
  8
0
 10
130.98471814
 20
80.54509557
  0
VERTEX
  8
0
 10
130.34756786
 20
80.65370066
  0
VERTEX
  8
0
 10
129.77254395
 20
80.80667806
  0
VERTEX
  8
0
 10
129.50832919
 20
80.89980641
  0
VERTEX
  8
0
 10
129.25964581
 20
81.00402789
  0
VERTEX
  8
0
 10
129.02649373
 20
81.11934253
  0
VERTEX
  8
0
 10
128.80887286
 20
81.24575032
  0
VERTEX
  8
0
 10
128.60678315
 20
81.38325130
  0
VERTEX
  8
0
 10
128.42022452
 20
81.53184548
  0
VERTEX
  8
0
 10
128.24919689
 20
81.69153288
  0
VERTEX
  8
0
 10
128.09370019
 20
81.86231352
  0
VERTEX
  8
0
 10
127.95373434
 20
82.04418741
  0
VERTEX
  8
0
 10
127.82929928
 20
82.23715458
  0
VERTEX
  8
0
 10
127.72039492
 20
82.44121504
  0
VERTEX
  8
0
 10
127.62702120
 20
82.65636881
  0
VERTEX
  8
0
 10
127.54917804
 20
82.88261591
  0
VERTEX
  8
0
 10
127.48686537
 20
83.11995635
  0
VERTEX
  8
0
 10
127.44008311
 20
83.36839016
  0
VERTEX
  8
0
 10
127.40883119
 20
83.62791735
  0
VERTEX
  8
0
 10
127.39310954
 20
83.89853794
  0
VERTEX
  8
0
 10
127.39291808
 20
84.18025195
  0
VERTEX
  8
0
 10
127.43912544
 20
84.77696030
  0
VERTEX
  8
0
 10
127.54745270
 20
85.41804253
  0
VERTEX
  8
0
 10
127.71789925
 20
86.10349881
  0
VERTEX
  8
0
 10
130.59746280
 20
89.67635318
  0
VERTEX
  8
0
 10
132.00405512
 20
91.44798647
  0
VERTEX
  8
0
 10
133.38273579
 20
93.21705461
  0
VERTEX
  8
0
 10
134.72916583
 20
94.98903071
  0
VERTEX
  8
0
 10
136.03900622
 20
96.76938786
  0
VERTEX
  8
0
 10
137.30791797
 20
98.56359917
  0
VERTEX
  8
0
 10
138.53156208
 20
100.37713773
  0
VERTEX
  8
0
 10
139.70559953
 20
102.21547663
  0
VERTEX
  8
0
 10
140.27265983
 20
103.14565655
  0
VERTEX
  8
0
 10
140.82569134
 20
104.08408897
  0
VERTEX
  8
0
 10
141.36415169
 20
105.03145803
  0
VERTEX
  8
0
 10
141.88749851
 20
105.98844786
  0
VERTEX
  8
0
 10
142.39518940
 20
106.95574260
  0
VERTEX
  8
0
 10
142.88668202
 20
107.93402639
  0
VERTEX
  8
0
 10
143.36143396
 20
108.92398336
  0
VERTEX
  8
0
 10
143.81890287
 20
109.92629765
  0
VERTEX
  8
0
 10
144.25854637
 20
110.94165340
  0
VERTEX
  8
0
 10
144.67982208
 20
111.97073475
  0
VERTEX
  8
0
 10
145.08218763
 20
113.01422583
  0
VERTEX
  8
0
 10
145.46510063
 20
114.07281078
  0
VERTEX
  8
0
 10
145.82801872
 20
115.14717373
  0
VERTEX
  8
0
 10
146.17039953
 20
116.23799883
  0
SEQEND
  0
POLYLINE
  8
Nível Padrão
 66
   1
 39
0.000000
 70
    1
  0
VERTEX
  8
0
 10
156.81150022
 20
68.52579922
  0
VERTEX
  8
0
 10
156.99130130
 20
68.51671702
  0
VERTEX
  8
0
 10
157.16591443
 20
68.49006026
  0
VERTEX
  8
0
 10
157.33445484
 20
68.44671370
  0
VERTEX
  8
0
 10
157.49603777
 20
68.38756209
  0
VERTEX
  8
0
 10
157.64977848
 20
68.31349020
  0
VERTEX
  8
0
 10
157.79479220
 20
68.22538277
  0
VERTEX
  8
0
 10
157.93019418
 20
68.12412457
  0
VERTEX
  8
0
 10
158.05509966
 20
68.01060035
  0
VERTEX
  8
0
 10
158.16862387
 20
67.88569487
  0
VERTEX
  8
0
 10
158.26988207
 20
67.75029290
  0
VERTEX
  8
0
 10
158.35798950
 20
67.60527918
  0
VERTEX
  8
0
 10
158.43206140
 20
67.45153847
  0
VERTEX
  8
0
 10
158.49121301
 20
67.28995553
  0
VERTEX
  8
0
 10
158.53455957
 20
67.12141512
  0
VERTEX
  8
0
 10
158.56121633
 20
66.94680200
  0
VERTEX
  8
0
 10
158.57029853
 20
66.76700092
  0
VERTEX
  8
0
 10
158.56121633
 20
66.58719980
  0
VERTEX
  8
0
 10
158.53455957
 20
66.41258656
  0
VERTEX
  8
0
 10
158.49121301
 20
66.24404598
  0
VERTEX
  8
0
 10
158.43206140
 20
66.08246281
  0
VERTEX
  8
0
 10
158.35798950
 20
65.92872184
  0
VERTEX
  8
0
 10
158.26988207
 20
65.78370782
  0
VERTEX
  8
0
 10
158.16862387
 20
65.64830552
  0
VERTEX
  8
0
 10
158.05509966
 20
65.52339972
  0
VERTEX
  8
0
 10
157.93019418
 20
65.40987517
  0
VERTEX
  8
0
 10
157.79479220
 20
65.30861665
  0
VERTEX
  8
0
 10
157.64977848
 20
65.22050893
  0
VERTEX
  8
0
 10
157.49603777
 20
65.14643676
  0
VERTEX
  8
0
 10
157.33445484
 20
65.08728493
  0
VERTEX
  8
0
 10
157.16591443
 20
65.04393819
  0
VERTEX
  8
0
 10
156.99130130
 20
65.01728132
  0
VERTEX
  8
0
 10
156.81150022
 20
65.00819908
  0
VERTEX
  8
0
 10
156.63169910
 20
65.01728132
  0
VERTEX
  8
0
 10
156.45708587
 20
65.04393819
  0
VERTEX
  8
0
 10
156.28854528
 20
65.08728493
  0
VERTEX
  8
0
 10
156.12696212
 20
65.14643676
  0
VERTEX
  8
0
 10
155.97322114
 20
65.22050893
  0
VERTEX
  8
0
 10
155.82820713
 20
65.30861665
  0
VERTEX
  8
0
 10
155.69280483
 20
65.40987517
  0
VERTEX
  8
0
 10
155.56789902
 20
65.52339972
  0
VERTEX
  8
0
 10
155.45437448
 20
65.64830552
  0
VERTEX
  8
0
 10
155.35311596
 20
65.78370782
  0
VERTEX
  8
0
 10
155.26500823
 20
65.92872184
  0
VERTEX
  8
0
 10
155.19093607
 20
66.08246281
  0
VERTEX
  8
0
 10
155.13178424
 20
66.24404598
  0
VERTEX
  8
0
 10
155.08843750
 20
66.41258656
  0
VERTEX
  8
0
 10
155.06178063
 20
66.58719980
  0
VERTEX
  8
0
 10
155.05269839
 20
66.76700092
  0
VERTEX
  8
0
 10
155.06178063
 20
66.94680200
  0
VERTEX
  8
0
 10
155.08843750
 20
67.12141512
  0
VERTEX
  8
0
 10
155.13178424
 20
67.28995553
  0
VERTEX
  8
0
 10
155.19093607
 20
67.45153847
  0
VERTEX
  8
0
 10
155.26500823
 20
67.60527918
  0
VERTEX
  8
0
 10
155.35311596
 20
67.75029290
  0
VERTEX
  8
0
 10
155.45437448
 20
67.88569487
  0
VERTEX
  8
0
 10
155.56789902
 20
68.01060035
  0
VERTEX
  8
0
 10
155.69280483
 20
68.12412457
  0
VERTEX
  8
0
 10
155.82820713
 20
68.22538277
  0
VERTEX
  8
0
 10
155.97322114
 20
68.31349020
  0
VERTEX
  8
0
 10
156.12696212
 20
68.38756209
  0
VERTEX
  8
0
 10
156.28854528
 20
68.44671370
  0
VERTEX
  8
0
 10
156.45708587
 20
68.49006026
  0
VERTEX
  8
0
 10
156.63169910
 20
68.51671702
  0
VERTEX
  8
0
 10
156.81150022
 20
68.52579922
  0
SEQEND
  0
POLYLINE
  8
Nível Padrão
 66
   1
 39
0.000000
 70
    1
  0
VERTEX
  8
0
 10
164.33309992
 20
34.02939953
  0
VERTEX
  8
0
 10
164.51290104
 20
34.02031729
  0
VERTEX
  8
0
 10
164.68751427
 20
33.99366042
  0
VERTEX
  8
0
 10
164.85605486
 20
33.95031370
  0
VERTEX
  8
0
 10
165.01763802
 20
33.89116190
  0
VERTEX
  8
0
 10
165.17137899
 20
33.81708979
  0
VERTEX
  8
0
 10
165.31639301
 20
33.72898214
  0
VERTEX
  8
0
 10
165.45179531
 20
33.62772373
  0
VERTEX
  8
0
 10
165.57670111
 20
33.51419933
  0
VERTEX
  8
0
 10
165.69022566
 20
33.38929372
  0
VERTEX
  8
0
 10
165.79148418
 20
33.25389165
  0
VERTEX
  8
0
 10
165.87959191
 20
33.10887792
  0
VERTEX
  8
0
 10
165.95366407
 20
32.95513729
  0
VERTEX
  8
0
 10
166.01281590
 20
32.79355453
  0
VERTEX
  8
0
 10
166.05616264
 20
32.62501441
  0
VERTEX
  8
0
 10
166.08281951
 20
32.45040172
  0
VERTEX
  8
0
 10
166.09190175
 20
32.27060122
  0
VERTEX
  8
0
 10
166.08281951
 20
32.09080010
  0
VERTEX
  8
0
 10
166.05616264
 20
31.91618687
  0
VERTEX
  8
0
 10
166.01281590
 20
31.74764628
  0
VERTEX
  8
0
 10
165.95366407
 20
31.58606312
  0
VERTEX
  8
0
 10
165.87959191
 20
31.43232214
  0
VERTEX
  8
0
 10
165.79148418
 20
31.28730813
  0
VERTEX
  8
0
 10
165.69022566
 20
31.15190583
  0
VERTEX
  8
0
 10
165.57670111
 20
31.02700002
  0
VERTEX
  8
0
 10
165.45179531
 20
30.91347548
  0
VERTEX
  8
0
 10
165.31639301
 20
30.81221696
  0
VERTEX
  8
0
 10
165.17137899
 20
30.72410923
  0
VERTEX
  8
0
 10
165.01763802
 20
30.65003707
  0
VERTEX
  8
0
 10
164.85605486
 20
30.59088524
  0
VERTEX
  8
0
 10
164.68751427
 20
30.54753850
  0
VERTEX
  8
0
 10
164.51290104
 20
30.52088163
  0
VERTEX
  8
0
 10
164.33309992
 20
30.51179939
  0
VERTEX
  8
0
 10
164.15329884
 20
30.52088163
  0
VERTEX
  8
0
 10
163.97868571
 20
30.54753850
  0
VERTEX
  8
0
 10
163.81014530
 20
30.59088524
  0
VERTEX
  8
0
 10
163.64856237
 20
30.65003707
  0
VERTEX
  8
0
 10
163.49482166
 20
30.72410923
  0
VERTEX
  8
0
 10
163.34980794
 20
30.81221696
  0
VERTEX
  8
0
 10
163.21440596
 20
30.91347548
  0
VERTEX
  8
0
 10
163.08950048
 20
31.02700002
  0
VERTEX
  8
0
 10
162.97597627
 20
31.15190583
  0
VERTEX
  8
0
 10
162.87471806
 20
31.28730813
  0
VERTEX
  8
0
 10
162.78661064
 20
31.43232214
  0
VERTEX
  8
0
 10
162.71253874
 20
31.58606312
  0
VERTEX
  8
0
 10
162.65338713
 20
31.74764628
  0
VERTEX
  8
0
 10
162.61004057
 20
31.91618687
  0
VERTEX
  8
0
 10
162.58338381
 20
32.09080010
  0
VERTEX
  8
0
 10
162.57430161
 20
32.27060122
  0
VERTEX
  8
0
 10
162.58338381
 20
32.45040172
  0
VERTEX
  8
0
 10
162.61004057
 20
32.62501441
  0
VERTEX
  8
0
 10
162.65338713
 20
32.79355453
  0
VERTEX
  8
0
 10
162.71253874
 20
32.95513729
  0
VERTEX
  8
0
 10
162.78661064
 20
33.10887792
  0
VERTEX
  8
0
 10
162.87471806
 20
33.25389165
  0
VERTEX
  8
0
 10
162.97597627
 20
33.38929372
  0
VERTEX
  8
0
 10
163.08950048
 20
33.51419933
  0
VERTEX
  8
0
 10
163.21440596
 20
33.62772373
  0
VERTEX
  8
0
 10
163.34980794
 20
33.72898214
  0
VERTEX
  8
0
 10
163.49482166
 20
33.81708979
  0
VERTEX
  8
0
 10
163.64856237
 20
33.89116190
  0
VERTEX
  8
0
 10
163.81014530
 20
33.95031370
  0
VERTEX
  8
0
 10
163.97868571
 20
33.99366042
  0
VERTEX
  8
0
 10
164.15329884
 20
34.02031729
  0
VERTEX
  8
0
 10
164.33309992
 20
34.02939953
  0
SEQEND
  0
ENDSEC
  0
EOF
