  0
SECTION
  2
HEADER
  9
$ACADVER
  1
AC1009
  0
ENDSEC
  0
SECTION
  2
ENTITIES
  0
POLYLINE
  5
90
  8
Layer_0
  62
0
  66
1
  10
0
  20
0
  30
0
  0
VERTEX
  5
90
  8
Layer_0
  10
378.92416
  20
262.09506
  0
VERTEX
  5
91
  8
Layer_0
  10
265.64816
  20
262.09506
  0
VERTEX
  5
92
  8
Layer_0
  10
265.64816
  20
316.05319
  0
VERTEX
  5
93
  8
Layer_0
  10
378.92416
  20
316.05319
  0
VERTEX
  5
94
  8
Layer_0
  10
378.92416
  20
262.09506
  0
SEQEND
  0
POLYLINE
  5
96
  8
Layer_0
  62
0
  66
1
  10
0
  20
0
  30
0
  0
VERTEX
  5
96
  8
Layer_0
  10
378.92435
  20
87.75029
  0
VERTEX
  5
97
  8
Layer_0
  10
265.64835
  20
87.75029
  0
VERTEX
  5
98
  8
Layer_0
  10
265.64835
  20
262.09473
  0
VERTEX
  5
99
  8
Layer_0
  10
378.92435
  20
262.09473
  0
VERTEX
  5
9a
  8
Layer_0
  10
378.92435
  20
87.75029
  0
SEQEND
  0
POLYLINE
  5
9c
  8
Layer_0
  62
0
  66
1
  10
0
  20
0
  30
0
  0
VERTEX
  5
9c
  8
Layer_0
  10
370.48677
  20
274.75872
  0
VERTEX
  5
9d
  8
Layer_0
  10
370.46911
  20
274.42095
  0
VERTEX
  5
9e
  8
Layer_0
  10
370.41727
  20
274.09294
  0
VERTEX
  5
9f
  8
Layer_0
  10
370.33297
  20
273.77634
  0
VERTEX
  5
a0
  8
Layer_0
  10
370.21794
  20
273.47283
  0
VERTEX
  5
a1
  8
Layer_0
  10
370.0739
  20
273.18405
  0
VERTEX
  5
a2
  8
Layer_0
  10
369.90255
  20
272.91167
  0
VERTEX
  5
a3
  8
Layer_0
  10
369.70563
  20
272.65735
  0
VERTEX
  5
a4
  8
Layer_0
  10
369.48484
  20
272.42275
  0
VERTEX
  5
a5
  8
Layer_0
  10
369.24192
  20
272.20953
  0
VERTEX
  5
a6
  8
Layer_0
  10
368.97858
  20
272.01936
  0
VERTEX
  5
a7
  8
Layer_0
  10
368.69653
  20
271.85388
  0
VERTEX
  5
a8
  8
Layer_0
  10
368.39751
  20
271.71477
  0
VERTEX
  5
a9
  8
Layer_0
  10
368.08322
  20
271.60368
  0
VERTEX
  5
aa
  8
Layer_0
  10
367.75539
  20
271.52228
  0
VERTEX
  5
ab
  8
Layer_0
  10
367.41573
  20
271.47222
  0
VERTEX
  5
ac
  8
Layer_0
  10
367.06598
  20
271.45516
  0
VERTEX
  5
ad
  8
Layer_0
  10
277.50635
  20
271.45517
  0
VERTEX
  5
ae
  8
Layer_0
  10
277.15659
  20
271.47222
  0
VERTEX
  5
af
  8
Layer_0
  10
276.81694
  20
271.52228
  0
VERTEX
  5
b0
  8
Layer_0
  10
276.48911
  20
271.60368
  0
VERTEX
  5
b1
  8
Layer_0
  10
276.17482
  20
271.71477
  0
VERTEX
  5
b2
  8
Layer_0
  10
275.87579
  20
271.85388
  0
VERTEX
  5
b3
  8
Layer_0
  10
275.59375
  20
272.01936
  0
VERTEX
  5
b4
  8
Layer_0
  10
275.33041
  20
272.20953
  0
VERTEX
  5
b5
  8
Layer_0
  10
275.08748
  20
272.42275
  0
VERTEX
  5
b6
  8
Layer_0
  10
274.8667
  20
272.65735
  0
VERTEX
  5
b7
  8
Layer_0
  10
274.66978
  20
272.91167
  0
VERTEX
  5
b8
  8
Layer_0
  10
274.49843
  20
273.18405
  0
VERTEX
  5
b9
  8
Layer_0
  10
274.35438
  20
273.47283
  0
VERTEX
  5
ba
  8
Layer_0
  10
274.23935
  20
273.77634
  0
VERTEX
  5
bb
  8
Layer_0
  10
274.15506
  20
274.09294
  0
VERTEX
  5
bc
  8
Layer_0
  10
274.10322
  20
274.42095
  0
VERTEX
  5
bd
  8
Layer_0
  10
274.08556
  20
274.75872
  0
VERTEX
  5
be
  8
Layer_0
  10
274.08557
  20
301.18719
  0
VERTEX
  5
bf
  8
Layer_0
  10
274.10322
  20
301.52497
  0
VERTEX
  5
c0
  8
Layer_0
  10
274.15506
  20
301.85298
  0
VERTEX
  5
c1
  8
Layer_0
  10
274.23935
  20
302.16958
  0
VERTEX
  5
c2
  8
Layer_0
  10
274.35438
  20
302.4731
  0
VERTEX
  5
c3
  8
Layer_0
  10
274.49843
  20
302.76188
  0
VERTEX
  5
c4
  8
Layer_0
  10
274.66978
  20
303.03425
  0
VERTEX
  5
c5
  8
Layer_0
  10
274.8667
  20
303.28857
  0
VERTEX
  5
c6
  8
Layer_0
  10
275.08748
  20
303.52317
  0
VERTEX
  5
c7
  8
Layer_0
  10
275.33041
  20
303.73639
  0
VERTEX
  5
c8
  8
Layer_0
  10
275.59375
  20
303.92656
  0
VERTEX
  5
c9
  8
Layer_0
  10
275.87579
  20
304.09204
  0
VERTEX
  5
ca
  8
Layer_0
  10
276.17482
  20
304.23115
  0
VERTEX
  5
cb
  8
Layer_0
  10
276.48911
  20
304.34224
  0
VERTEX
  5
cc
  8
Layer_0
  10
276.81694
  20
304.42364
  0
VERTEX
  5
cd
  8
Layer_0
  10
277.15659
  20
304.4737
  0
VERTEX
  5
ce
  8
Layer_0
  10
277.50635
  20
304.49076
  0
VERTEX
  5
cf
  8
Layer_0
  10
367.06598
  20
304.49075
  0
VERTEX
  5
d0
  8
Layer_0
  10
367.41573
  20
304.4737
  0
VERTEX
  5
d1
  8
Layer_0
  10
367.75539
  20
304.42364
  0
VERTEX
  5
d2
  8
Layer_0
  10
368.08322
  20
304.34224
  0
VERTEX
  5
d3
  8
Layer_0
  10
368.39751
  20
304.23115
  0
VERTEX
  5
d4
  8
Layer_0
  10
368.69653
  20
304.09204
  0
VERTEX
  5
d5
  8
Layer_0
  10
368.97858
  20
303.92656
  0
VERTEX
  5
d6
  8
Layer_0
  10
369.24192
  20
303.73639
  0
VERTEX
  5
d7
  8
Layer_0
  10
369.48484
  20
303.52317
  0
VERTEX
  5
d8
  8
Layer_0
  10
369.70563
  20
303.28857
  0
VERTEX
  5
d9
  8
Layer_0
  10
369.90255
  20
303.03425
  0
VERTEX
  5
da
  8
Layer_0
  10
370.0739
  20
302.76188
  0
VERTEX
  5
db
  8
Layer_0
  10
370.21794
  20
302.4731
  0
VERTEX
  5
dc
  8
Layer_0
  10
370.33297
  20
302.16958
  0
VERTEX
  5
dd
  8
Layer_0
  10
370.41727
  20
301.85298
  0
VERTEX
  5
de
  8
Layer_0
  10
370.46911
  20
301.52497
  0
VERTEX
  5
df
  8
Layer_0
  10
370.48677
  20
301.1872
  0
VERTEX
  5
e0
  8
Layer_0
  10
370.48676
  20
274.75873
  0
SEQEND
  0
POLYLINE
  5
e2
  8
Layer_0
  62
0
  66
1
  10
0
  20
0
  30
0
  0
VERTEX
  5
e2
  8
Layer_0
  10
143.45959
  20
270.63232
  0
VERTEX
  5
e3
  8
Layer_0
  10
143.86414
  20
270.64209
  0
VERTEX
  5
e4
  8
Layer_0
  10
144.16754
  20
270.65509
  0
VERTEX
  5
e5
  8
Layer_0
  10
144.50806
  20
270.67245
  0
VERTEX
  5
e6
  8
Layer_0
  10
144.91177
  20
270.69739
  0
VERTEX
  5
e7
  8
Layer_0
  10
145.31522
  20
270.73102
  0
VERTEX
  5
e8
  8
Layer_0
  10
145.71786
  20
270.77332
  0
VERTEX
  5
e9
  8
Layer_0
  10
146.11914
  20
270.82404
  0
VERTEX
  5
ea
  8
Layer_0
  10
146.39026
  20
270.86334
  0
VERTEX
  5
eb
  8
Layer_0
  10
146.72131
  20
270.91376
  0
VERTEX
  5
ec
  8
Layer_0
  10
147.12097
  20
270.9791
  0
VERTEX
  5
ed
  8
Layer_0
  10
147.51871
  20
271.05286
  0
VERTEX
  5
ee
  8
Layer_0
  10
147.9151
  20
271.13501
  0
VERTEX
  5
ef
  8
Layer_0
  10
148.30933
  20
271.22583
  0
VERTEX
  5
f0
  8
Layer_0
  10
148.57043
  20
271.29089
  0
VERTEX
  5
f1
  8
Layer_0
  10
148.88956
  20
271.3728
  0
VERTEX
  5
f2
  8
Layer_0
  10
149.28052
  20
271.47742
  0
VERTEX
  5
f3
  8
Layer_0
  10
149.66904
  20
271.59076
  0
VERTEX
  5
f4
  8
Layer_0
  10
150.05515
  20
271.71198
  0
VERTEX
  5
f5
  8
Layer_0
  10
150.43851
  20
271.84186
  0
VERTEX
  5
f6
  8
Layer_0
  10
150.69717
  20
271.93457
  0
VERTEX
  5
f7
  8
Layer_0
  10
151.0033
  20
272.04681
  0
VERTEX
  5
f8
  8
Layer_0
  10
151.38177
  20
272.19025
  0
VERTEX
  5
f9
  8
Layer_0
  10
151.75702
  20
272.34155
  0
VERTEX
  5
fa
  8
Layer_0
  10
152.12903
  20
272.50122
  0
VERTEX
  5
fb
  8
Layer_0
  10
152.4975
  20
272.66852
  0
VERTEX
  5
fc
  8
Layer_0
  10
152.69217
  20
272.76099
  0
VERTEX
  5
fd
  8
Layer_0
  10
152.98337
  20
272.90115
  0
VERTEX
  5
fe
  8
Layer_0
  10
153.34613
  20
273.08063
  0
VERTEX
  5
ff
  8
Layer_0
  10
153.70511
  20
273.2677
  0
VERTEX
  5
100
  8
Layer_0
  10
154.05975
  20
273.46265
  0
VERTEX
  5
101
  8
Layer_0
  10
154.41031
  20
273.66492
  0
VERTEX
  5
102
  8
Layer_0
  10
154.59686
  20
273.77692
  0
VERTEX
  5
103
  8
Layer_0
  10
154.8718
  20
273.94391
  0
VERTEX
  5
104
  8
Layer_0
  10
155.2153
  20
274.15756
  0
VERTEX
  5
105
  8
Layer_0
  10
155.55423
  20
274.37881
  0
VERTEX
  5
106
  8
Layer_0
  10
155.88852
  20
274.60712
  0
VERTEX
  5
107
  8
Layer_0
  10
156.37927
  20
274.96228
  0
VERTEX
  5
108
  8
Layer_0
  10
156.6355
  20
275.15399
  0
VERTEX
  5
109
  8
Layer_0
  10
156.95706
  20
275.3999
  0
VERTEX
  5
10a
  8
Layer_0
  10
157.27319
  20
275.65259
  0
VERTEX
  5
10b
  8
Layer_0
  10
157.58362
  20
275.91205
  0
VERTEX
  5
10c
  8
Layer_0
  10
158.0199
  20
276.29626
  0
VERTEX
  5
10d
  8
Layer_0
  10
158.25659
  20
276.51126
  0
VERTEX
  5
10e
  8
Layer_0
  10
158.55319
  20
276.78644
  0
VERTEX
  5
10f
  8
Layer_0
  10
158.84384
  20
277.06818
  0
VERTEX
  5
110
  8
Layer_0
  10
159.12854
  20
277.35583
  0
VERTEX
  5
111
  8
Layer_0
  10
159.53714
  20
277.79181
  0
VERTEX
  5
112
  8
Layer_0
  10
159.75214
  20
278.0285
  0
VERTEX
  5
113
  8
Layer_0
  10
160.02109
  20
278.33109
  0
VERTEX
  5
114
  8
Layer_0
  10
160.28357
  20
278.6391
  0
VERTEX
  5
115
  8
Layer_0
  10
160.53925
  20
278.95279
  0
VERTEX
  5
116
  8
Layer_0
  10
160.90012
  20
279.42047
  0
VERTEX
  5
117
  8
Layer_0
  10
161.0918
  20
279.677
  0
VERTEX
  5
118
  8
Layer_0
  10
161.33066
  20
280.00369
  0
VERTEX
  5
119
  8
Layer_0
  10
161.56247
  20
280.33557
  0
VERTEX
  5
11a
  8
Layer_0
  10
161.78699
  20
280.6723
  0
VERTEX
  5
11b
  8
Layer_0
  10
162.10013
  20
281.16983
  0
VERTEX
  5
11c
  8
Layer_0
  10
162.26715
  20
281.44449
  0
VERTEX
  5
11d
  8
Layer_0
  10
162.47375
  20
281.7926
  0
VERTEX
  5
11e
  8
Layer_0
  10
162.67276
  20
282.14484
  0
VERTEX
  5
11f
  8
Layer_0
  10
162.86444
  20
282.50165
  0
VERTEX
  5
120
  8
Layer_0
  10
163.048
  20
282.86224
  0
VERTEX
  5
121
  8
Layer_0
  10
163.14725
  20
283.06503
  0
VERTEX
  5
122
  8
Layer_0
  10
163.28741
  20
283.35623
  0
VERTEX
  5
123
  8
Layer_0
  10
163.45905
  20
283.72278
  0
VERTEX
  5
124
  8
Layer_0
  10
163.6228
  20
284.0929
  0
VERTEX
  5
125
  8
Layer_0
  10
163.77844
  20
284.46625
  0
VERTEX
  5
126
  8
Layer_0
  10
163.92621
  20
284.84311
  0
VERTEX
  5
127
  8
Layer_0
  10
164.00159
  20
285.0451
  0
VERTEX
  5
128
  8
Layer_0
  10
164.11383
  20
285.3512
  0
VERTEX
  5
129
  8
Layer_0
  10
164.24911
  20
285.7327
  0
VERTEX
  5
12a
  8
Layer_0
  10
164.37628
  20
286.11688
  0
VERTEX
  5
12b
  8
Layer_0
  10
164.49503
  20
286.50378
  0
VERTEX
  5
12c
  8
Layer_0
  10
164.60538
  20
286.89313
  0
VERTEX
  5
12d
  8
Layer_0
  10
164.6767
  20
287.16266
  0
VERTEX
  5
12e
  8
Layer_0
  10
164.75858
  20
287.48203
  0
VERTEX
  5
12f
  8
Layer_0
  10
164.85483
  20
287.87518
  0
VERTEX
  5
130
  8
Layer_0
  10
164.94266
  20
288.2702
  0
VERTEX
  5
131
  8
Layer_0
  10
165.02213
  20
288.66714
  0
VERTEX
  5
132
  8
Layer_0
  10
165.09286
  20
289.06543
  0
VERTEX
  5
133
  8
Layer_0
  10
165.13193
  20
289.31
  0
VERTEX
  5
134
  8
Layer_0
  10
165.18262
  20
289.64078
  0
VERTEX
  5
135
  8
Layer_0
  10
165.23956
  20
290.0415
  0
VERTEX
  5
136
  8
Layer_0
  10
165.28809
  20
290.44333
  0
VERTEX
  5
137
  8
Layer_0
  10
165.32794
  20
290.84595
  0
VERTEX
  5
138
  8
Layer_0
  10
165.35913
  20
291.24966
  0
VERTEX
  5
139
  8
Layer_0
  10
165.37701
  20
291.55548
  0
VERTEX
  5
13a
  8
Layer_0
  10
165.3941
  20
291.89606
  0
VERTEX
  5
13b
  8
Layer_0
  10
165.40982
  20
292.30029
  0
VERTEX
  5
13c
  8
Layer_0
  10
165.41714
  20
292.70508
  0
VERTEX
  5
13d
  8
Layer_0
  10
165.4158
  20
293.10962
  0
VERTEX
  5
13e
  8
Layer_0
  10
165.40576
  20
293.5144
  0
VERTEX
  5
13f
  8
Layer_0
  10
165.3941
  20
293.78748
  0
VERTEX
  5
140
  8
Layer_0
  10
165.37701
  20
294.12799
  0
VERTEX
  5
141
  8
Layer_0
  10
165.35236
  20
294.53198
  0
VERTEX
  5
142
  8
Layer_0
  10
165.319
  20
294.93542
  0
VERTEX
  5
143
  8
Layer_0
  10
165.27725
  20
295.33807
  0
VERTEX
  5
144
  8
Layer_0
  10
165.22653
  20
295.73959
  0
VERTEX
  5
145
  8
Layer_0
  10
165.18262
  20
296.04272
  0
VERTEX
  5
146
  8
Layer_0
  10
165.13193
  20
296.3735
  0
VERTEX
  5
147
  8
Layer_0
  10
165.06631
  20
296.77289
  0
VERTEX
  5
148
  8
Layer_0
  10
164.99228
  20
297.17062
  0
VERTEX
  5
149
  8
Layer_0
  10
164.90961
  20
297.56702
  0
VERTEX
  5
14a
  8
Layer_0
  10
164.81848
  20
297.96124
  0
VERTEX
  5
14b
  8
Layer_0
  10
164.75858
  20
298.20148
  0
VERTEX
  5
14c
  8
Layer_0
  10
164.6767
  20
298.52087
  0
VERTEX
  5
14d
  8
Layer_0
  10
164.57202
  20
298.91183
  0
VERTEX
  5
14e
  8
Layer_0
  10
164.45898
  20
299.30035
  0
VERTEX
  5
14f
  8
Layer_0
  10
164.33749
  20
299.68646
  0
VERTEX
  5
150
  8
Layer_0
  10
164.20792
  20
300.06982
  0
VERTEX
  5
151
  8
Layer_0
  10
164.11383
  20
300.33228
  0
VERTEX
  5
152
  8
Layer_0
  10
164.00159
  20
300.6384
  0
VERTEX
  5
153
  8
Layer_0
  10
163.85815
  20
301.01691
  0
VERTEX
  5
154
  8
Layer_0
  10
163.70685
  20
301.39215
  0
VERTEX
  5
155
  8
Layer_0
  10
163.54715
  20
301.76413
  0
VERTEX
  5
156
  8
Layer_0
  10
163.37988
  20
302.1326
  0
VERTEX
  5
157
  8
Layer_0
  10
163.28741
  20
302.32727
  0
VERTEX
  5
158
  8
Layer_0
  10
163.14725
  20
302.61847
  0
VERTEX
  5
159
  8
Layer_0
  10
162.96774
  20
302.98123
  0
VERTEX
  5
15a
  8
Layer_0
  10
162.78067
  20
303.34021
  0
VERTEX
  5
15b
  8
Layer_0
  10
162.58572
  20
303.69485
  0
VERTEX
  5
15c
  8
Layer_0
  10
162.38345
  20
304.04541
  0
VERTEX
  5
15d
  8
Layer_0
  10
162.26715
  20
304.23901
  0
VERTEX
  5
15e
  8
Layer_0
  10
162.10013
  20
304.51367
  0
VERTEX
  5
15f
  8
Layer_0
  10
161.8862
  20
304.85718
  0
VERTEX
  5
160
  8
Layer_0
  10
161.66498
  20
305.19611
  0
VERTEX
  5
161
  8
Layer_0
  10
161.4364
  20
305.53015
  0
VERTEX
  5
162
  8
Layer_0
  10
161.0918
  20
306.00653
  0
VERTEX
  5
163
  8
Layer_0
  10
160.90012
  20
306.263
  0
VERTEX
  5
164
  8
Layer_0
  10
160.65445
  20
306.58459
  0
VERTEX
  5
165
  8
Layer_0
  10
160.40176
  20
306.9007
  0
VERTEX
  5
166
  8
Layer_0
  10
160.14258
  20
307.21143
  0
VERTEX
  5
167
  8
Layer_0
  10
159.75214
  20
307.65497
  0
VERTEX
  5
168
  8
Layer_0
  10
159.53714
  20
307.89166
  0
VERTEX
  5
169
  8
Layer_0
  10
159.26193
  20
308.18829
  0
VERTEX
  5
16a
  8
Layer_0
  10
158.98022
  20
308.47894
  0
VERTEX
  5
16b
  8
Layer_0
  10
158.69257
  20
308.76367
  0
VERTEX
  5
16c
  8
Layer_0
  10
158.25659
  20
309.17224
  0
VERTEX
  5
16d
  8
Layer_0
  10
158.0199
  20
309.38727
  0
VERTEX
  5
16e
  8
Layer_0
  10
157.71729
  20
309.65619
  0
VERTEX
  5
16f
  8
Layer_0
  10
157.4093
  20
309.91864
  0
VERTEX
  5
170
  8
Layer_0
  10
157.09561
  20
310.17432
  0
VERTEX
  5
171
  8
Layer_0
  10
156.6355
  20
310.52954
  0
VERTEX
  5
172
  8
Layer_0
  10
156.37927
  20
310.72119
  0
VERTEX
  5
173
  8
Layer_0
  10
156.05255
  20
310.96008
  0
VERTEX
  5
174
  8
Layer_0
  10
155.72098
  20
311.19214
  0
VERTEX
  5
175
  8
Layer_0
  10
155.38449
  20
311.41693
  0
VERTEX
  5
176
  8
Layer_0
  10
154.8718
  20
311.73956
  0
VERTEX
  5
177
  8
Layer_0
  10
154.59686
  20
311.90662
  0
VERTEX
  5
178
  8
Layer_0
  10
154.24872
  20
312.11322
  0
VERTEX
  5
179
  8
Layer_0
  10
153.89624
  20
312.31195
  0
VERTEX
  5
17a
  8
Layer_0
  10
153.53943
  20
312.50336
  0
VERTEX
  5
17b
  8
Layer_0
  10
153.17883
  20
312.68689
  0
VERTEX
  5
17c
  8
Layer_0
  10
152.98337
  20
312.78235
  0
VERTEX
  5
17d
  8
Layer_0
  10
152.69217
  20
312.92255
  0
VERTEX
  5
17e
  8
Layer_0
  10
152.32559
  20
313.09418
  0
VERTEX
  5
17f
  8
Layer_0
  10
151.95551
  20
313.25793
  0
VERTEX
  5
180
  8
Layer_0
  10
151.58215
  20
313.41351
  0
VERTEX
  5
181
  8
Layer_0
  10
151.20526
  20
313.56128
  0
VERTEX
  5
182
  8
Layer_0
  10
151.0033
  20
313.63666
  0
VERTEX
  5
183
  8
Layer_0
  10
150.69717
  20
313.7489
  0
VERTEX
  5
184
  8
Layer_0
  10
150.3157
  20
313.88422
  0
VERTEX
  5
185
  8
Layer_0
  10
149.93149
  20
314.01141
  0
VERTEX
  5
186
  8
Layer_0
  10
149.54459
  20
314.13013
  0
VERTEX
  5
187
  8
Layer_0
  10
149.15524
  20
314.24048
  0
VERTEX
  5
188
  8
Layer_0
  10
148.88956
  20
314.31073
  0
VERTEX
  5
189
  8
Layer_0
  10
148.57043
  20
314.39258
  0
VERTEX
  5
18a
  8
Layer_0
  10
148.17728
  20
314.48914
  0
VERTEX
  5
18b
  8
Layer_0
  10
147.78226
  20
314.57697
  0
VERTEX
  5
18c
  8
Layer_0
  10
147.38531
  20
314.65643
  0
VERTEX
  5
18d
  8
Layer_0
  10
146.98703
  20
314.72742
  0
VERTEX
  5
18e
  8
Layer_0
  10
146.73624
  20
314.76727
  0
VERTEX
  5
18f
  8
Layer_0
  10
146.40518
  20
314.81799
  0
VERTEX
  5
190
  8
Layer_0
  10
146.0047
  20
314.87518
  0
VERTEX
  5
191
  8
Layer_0
  10
145.60291
  20
314.92346
  0
VERTEX
  5
192
  8
Layer_0
  10
145.19998
  20
314.96332
  0
VERTEX
  5
193
  8
Layer_0
  10
144.79654
  20
314.99426
  0
VERTEX
  5
194
  8
Layer_0
  10
144.49289
  20
315.01215
  0
VERTEX
  5
195
  8
Layer_0
  10
144.15234
  20
315.02924
  0
VERTEX
  5
196
  8
Layer_0
  10
143.74808
  20
315.04492
  0
VERTEX
  5
197
  8
Layer_0
  10
143.34329
  20
315.05225
  0
VERTEX
  5
198
  8
Layer_0
  10
142.93875
  20
315.0509
  0
VERTEX
  5
199
  8
Layer_0
  10
142.53397
  20
315.04089
  0
VERTEX
  5
19a
  8
Layer_0
  10
142.26093
  20
315.02924
  0
VERTEX
  5
19b
  8
Layer_0
  10
141.92041
  20
315.01215
  0
VERTEX
  5
19c
  8
Layer_0
  10
141.51642
  20
314.98743
  0
VERTEX
  5
19d
  8
Layer_0
  10
141.11298
  20
314.9541
  0
VERTEX
  5
19e
  8
Layer_0
  10
140.71033
  20
314.91235
  0
VERTEX
  5
19f
  8
Layer_0
  10
140.30881
  20
314.86163
  0
VERTEX
  5
1a0
  8
Layer_0
  10
140.00568
  20
314.81775
  0
VERTEX
  5
1a1
  8
Layer_0
  10
139.6749
  20
314.76703
  0
VERTEX
  5
1a2
  8
Layer_0
  10
139.27551
  20
314.70142
  0
VERTEX
  5
1a3
  8
Layer_0
  10
138.87778
  20
314.62738
  0
VERTEX
  5
1a4
  8
Layer_0
  10
138.48138
  20
314.54468
  0
VERTEX
  5
1a5
  8
Layer_0
  10
138.08716
  20
314.45361
  0
VERTEX
  5
1a6
  8
Layer_0
  10
137.84692
  20
314.39368
  0
VERTEX
  5
1a7
  8
Layer_0
  10
137.52753
  20
314.31183
  0
VERTEX
  5
1a8
  8
Layer_0
  10
137.13657
  20
314.20715
  0
VERTEX
  5
1a9
  8
Layer_0
  10
136.74802
  20
314.09406
  0
VERTEX
  5
1aa
  8
Layer_0
  10
136.36194
  20
313.9726
  0
VERTEX
  5
1ab
  8
Layer_0
  10
135.97855
  20
313.84302
  0
VERTEX
  5
1ac
  8
Layer_0
  10
135.71609
  20
313.7489
  0
VERTEX
  5
1ad
  8
Layer_0
  10
135.41
  20
313.63666
  0
VERTEX
  5
1ae
  8
Layer_0
  10
135.03149
  20
313.49323
  0
VERTEX
  5
1af
  8
Layer_0
  10
134.65625
  20
313.34198
  0
VERTEX
  5
1b0
  8
Layer_0
  10
134.28427
  20
313.18225
  0
VERTEX
  5
1b1
  8
Layer_0
  10
133.9158
  20
313.01495
  0
VERTEX
  5
1b2
  8
Layer_0
  10
133.72113
  20
312.92255
  0
VERTEX
  5
1b3
  8
Layer_0
  10
133.42993
  20
312.78235
  0
VERTEX
  5
1b4
  8
Layer_0
  10
133.06717
  20
312.60284
  0
VERTEX
  5
1b5
  8
Layer_0
  10
132.70819
  20
312.41577
  0
VERTEX
  5
1b6
  8
Layer_0
  10
132.35355
  20
312.22083
  0
VERTEX
  5
1b7
  8
Layer_0
  10
132.00296
  20
312.01855
  0
VERTEX
  5
1b8
  8
Layer_0
  10
131.80939
  20
311.90228
  0
VERTEX
  5
1b9
  8
Layer_0
  10
131.53473
  20
311.73523
  0
VERTEX
  5
1ba
  8
Layer_0
  10
131.19119
  20
311.5213
  0
VERTEX
  5
1bb
  8
Layer_0
  10
130.85229
  20
311.30005
  0
VERTEX
  5
1bc
  8
Layer_0
  10
130.51825
  20
311.07153
  0
VERTEX
  5
1bd
  8
Layer_0
  10
130.04187
  20
310.72693
  0
VERTEX
  5
1be
  8
Layer_0
  10
129.7854
  20
310.53522
  0
VERTEX
  5
1bf
  8
Layer_0
  10
129.46384
  20
310.28955
  0
VERTEX
  5
1c0
  8
Layer_0
  10
129.14767
  20
310.03687
  0
VERTEX
  5
1c1
  8
Layer_0
  10
128.83698
  20
309.77765
  0
VERTEX
  5
1c2
  8
Layer_0
  10
128.3934
  20
309.38727
  0
VERTEX
  5
1c3
  8
Layer_0
  10
128.15671
  20
309.17224
  0
VERTEX
  5
1c4
  8
Layer_0
  10
127.86008
  20
308.89703
  0
VERTEX
  5
1c5
  8
Layer_0
  10
127.56943
  20
308.61536
  0
VERTEX
  5
1c6
  8
Layer_0
  10
127.28473
  20
308.32764
  0
VERTEX
  5
1c7
  8
Layer_0
  10
126.87616
  20
307.89166
  0
VERTEX
  5
1c8
  8
Layer_0
  10
126.66113
  20
307.65497
  0
VERTEX
  5
1c9
  8
Layer_0
  10
126.39218
  20
307.35242
  0
VERTEX
  5
1ca
  8
Layer_0
  10
126.12973
  20
307.04437
  0
VERTEX
  5
1cb
  8
Layer_0
  10
125.87405
  20
306.73071
  0
VERTEX
  5
1cc
  8
Layer_0
  10
125.51318
  20
306.263
  0
VERTEX
  5
1cd
  8
Layer_0
  10
125.32147
  20
306.00653
  0
VERTEX
  5
1ce
  8
Layer_0
  10
125.08261
  20
305.67981
  0
VERTEX
  5
1cf
  8
Layer_0
  10
124.8508
  20
305.34796
  0
VERTEX
  5
1d0
  8
Layer_0
  10
124.62631
  20
305.01117
  0
VERTEX
  5
1d1
  8
Layer_0
  10
124.31314
  20
304.51367
  0
VERTEX
  5
1d2
  8
Layer_0
  10
124.14612
  20
304.23901
  0
VERTEX
  5
1d3
  8
Layer_0
  10
123.93954
  20
303.89087
  0
VERTEX
  5
1d4
  8
Layer_0
  10
123.74051
  20
303.5387
  0
VERTEX
  5
1d5
  8
Layer_0
  10
123.54883
  20
303.18188
  0
VERTEX
  5
1d6
  8
Layer_0
  10
123.36526
  20
302.82129
  0
VERTEX
  5
1d7
  8
Layer_0
  10
123.26605
  20
302.61847
  0
VERTEX
  5
1d8
  8
Layer_0
  10
123.12585
  20
302.32727
  0
VERTEX
  5
1d9
  8
Layer_0
  10
122.95425
  20
301.96069
  0
VERTEX
  5
1da
  8
Layer_0
  10
122.79047
  20
301.59061
  0
VERTEX
  5
1db
  8
Layer_0
  10
122.63486
  20
301.21725
  0
VERTEX
  5
1dc
  8
Layer_0
  10
122.48709
  20
300.84039
  0
VERTEX
  5
1dd
  8
Layer_0
  10
122.40656
  20
300.62457
  0
VERTEX
  5
1de
  8
Layer_0
  10
122.29459
  20
300.31845
  0
VERTEX
  5
1df
  8
Layer_0
  10
122.15955
  20
299.93698
  0
VERTEX
  5
1e0
  8
Layer_0
  10
122.03293
  20
299.55249
  0
VERTEX
  5
1e1
  8
Layer_0
  10
121.91446
  20
299.16559
  0
VERTEX
  5
1e2
  8
Layer_0
  10
121.80438
  20
298.776
  0
VERTEX
  5
1e3
  8
Layer_0
  10
121.74066
  20
298.53549
  0
VERTEX
  5
1e4
  8
Layer_0
  10
121.65851
  20
298.21613
  0
VERTEX
  5
1e5
  8
Layer_0
  10
121.56198
  20
297.82297
  0
VERTEX
  5
1e6
  8
Layer_0
  10
121.47388
  20
297.42792
  0
VERTEX
  5
1e7
  8
Layer_0
  10
121.39417
  20
297.03125
  0
VERTEX
  5
1e8
  8
Layer_0
  10
121.32285
  20
296.63269
  0
VERTEX
  5
1e9
  8
Layer_0
  10
121.27893
  20
296.35858
  0
VERTEX
  5
1ea
  8
Layer_0
  10
121.22849
  20
296.0278
  0
VERTEX
  5
1eb
  8
Layer_0
  10
121.17181
  20
295.62708
  0
VERTEX
  5
1ec
  8
Layer_0
  10
121.12384
  20
295.22528
  0
VERTEX
  5
1ed
  8
Layer_0
  10
121.08426
  20
294.82236
  0
VERTEX
  5
1ee
  8
Layer_0
  10
121.05362
  20
294.41891
  0
VERTEX
  5
1ef
  8
Layer_0
  10
121.03735
  20
294.14319
  0
VERTEX
  5
1f0
  8
Layer_0
  10
121.01999
  20
293.80264
  0
VERTEX
  5
1f1
  8
Layer_0
  10
121.00372
  20
293.3981
  0
VERTEX
  5
1f2
  8
Layer_0
  10
120.99612
  20
292.99359
  0
VERTEX
  5
1f3
  8
Layer_0
  10
120.99722
  20
292.58878
  0
VERTEX
  5
1f4
  8
Layer_0
  10
121.00699
  20
292.18427
  0
VERTEX
  5
1f5
  8
Layer_0
  10
121.01999
  20
291.88086
  0
VERTEX
  5
1f6
  8
Layer_0
  10
121.03735
  20
291.54031
  0
VERTEX
  5
1f7
  8
Layer_0
  10
121.06229
  20
291.1366
  0
VERTEX
  5
1f8
  8
Layer_0
  10
121.09592
  20
290.73315
  0
VERTEX
  5
1f9
  8
Layer_0
  10
121.13821
  20
290.33054
  0
VERTEX
  5
1fa
  8
Layer_0
  10
121.1889
  20
289.92926
  0
VERTEX
  5
1fb
  8
Layer_0
  10
121.22849
  20
289.6557
  0
VERTEX
  5
1fc
  8
Layer_0
  10
121.27893
  20
289.32489
  0
VERTEX
  5
1fd
  8
Layer_0
  10
121.34427
  20
288.92554
  0
VERTEX
  5
1fe
  8
Layer_0
  10
121.418
  20
288.52753
  0
VERTEX
  5
1ff
  8
Layer_0
  10
121.50043
  20
288.13141
  0
VERTEX
  5
200
  8
Layer_0
  10
121.59128
  20
287.73688
  0
VERTEX
  5
201
  8
Layer_0
  10
121.65851
  20
287.46741
  0
VERTEX
  5
202
  8
Layer_0
  10
121.74066
  20
287.14801
  0
VERTEX
  5
203
  8
Layer_0
  10
121.84558
  20
286.75729
  0
VERTEX
  5
204
  8
Layer_0
  10
121.9592
  20
286.36877
  0
VERTEX
  5
205
  8
Layer_0
  10
122.08066
  20
285.98267
  0
VERTEX
  5
206
  8
Layer_0
  10
122.21054
  20
285.5993
  0
VERTEX
  5
207
  8
Layer_0
  10
122.29459
  20
285.36505
  0
VERTEX
  5
208
  8
Layer_0
  10
122.40656
  20
285.05893
  0
VERTEX
  5
209
  8
Layer_0
  10
122.54971
  20
284.68042
  0
VERTEX
  5
20a
  8
Layer_0
  10
122.70099
  20
284.30493
  0
VERTEX
  5
20b
  8
Layer_0
  10
122.86017
  20
283.93292
  0
VERTEX
  5
20c
  8
Layer_0
  10
123.02716
  20
283.56421
  0
VERTEX
  5
20d
  8
Layer_0
  10
123.12585
  20
283.35623
  0
VERTEX
  5
20e
  8
Layer_0
  10
123.26605
  20
283.06503
  0
VERTEX
  5
20f
  8
Layer_0
  10
123.44553
  20
282.70227
  0
VERTEX
  5
210
  8
Layer_0
  10
123.6326
  20
282.34329
  0
VERTEX
  5
211
  8
Layer_0
  10
123.82755
  20
281.98865
  0
VERTEX
  5
212
  8
Layer_0
  10
124.02982
  20
281.63806
  0
VERTEX
  5
213
  8
Layer_0
  10
124.14612
  20
281.44449
  0
VERTEX
  5
214
  8
Layer_0
  10
124.31314
  20
281.16983
  0
VERTEX
  5
215
  8
Layer_0
  10
124.52707
  20
280.82629
  0
VERTEX
  5
216
  8
Layer_0
  10
124.74832
  20
280.4874
  0
VERTEX
  5
217
  8
Layer_0
  10
124.97687
  20
280.15338
  0
VERTEX
  5
218
  8
Layer_0
  10
125.32147
  20
279.677
  0
VERTEX
  5
219
  8
Layer_0
  10
125.51318
  20
279.42047
  0
VERTEX
  5
21a
  8
Layer_0
  10
125.75882
  20
279.09894
  0
VERTEX
  5
21b
  8
Layer_0
  10
126.01151
  20
278.78278
  0
VERTEX
  5
21c
  8
Layer_0
  10
126.27072
  20
278.47208
  0
VERTEX
  5
21d
  8
Layer_0
  10
126.66113
  20
278.0285
  0
VERTEX
  5
21e
  8
Layer_0
  10
126.87616
  20
277.79181
  0
VERTEX
  5
21f
  8
Layer_0
  10
127.15134
  20
277.49518
  0
VERTEX
  5
220
  8
Layer_0
  10
127.43304
  20
277.20453
  0
VERTEX
  5
221
  8
Layer_0
  10
127.72073
  20
276.91986
  0
VERTEX
  5
222
  8
Layer_0
  10
128.15671
  20
276.51126
  0
VERTEX
  5
223
  8
Layer_0
  10
128.3934
  20
276.29626
  0
VERTEX
  5
224
  8
Layer_0
  10
128.69598
  20
276.02728
  0
VERTEX
  5
225
  8
Layer_0
  10
129.004
  20
275.76483
  0
VERTEX
  5
226
  8
Layer_0
  10
129.31769
  20
275.50916
  0
VERTEX
  5
227
  8
Layer_0
  10
129.7854
  20
275.14828
  0
VERTEX
  5
228
  8
Layer_0
  10
130.04187
  20
274.9566
  0
VERTEX
  5
229
  8
Layer_0
  10
130.36859
  20
274.71771
  0
VERTEX
  5
22a
  8
Layer_0
  10
130.70044
  20
274.4859
  0
VERTEX
  5
22b
  8
Layer_0
  10
131.0372
  20
274.26141
  0
VERTEX
  5
22c
  8
Layer_0
  10
131.53473
  20
273.94824
  0
VERTEX
  5
22d
  8
Layer_0
  10
131.80939
  20
273.78125
  0
VERTEX
  5
22e
  8
Layer_0
  10
132.1575
  20
273.57465
  0
VERTEX
  5
22f
  8
Layer_0
  10
132.5097
  20
273.37561
  0
VERTEX
  5
230
  8
Layer_0
  10
132.86652
  20
273.18396
  0
VERTEX
  5
231
  8
Layer_0
  10
133.22711
  20
273.00037
  0
VERTEX
  5
232
  8
Layer_0
  10
133.42993
  20
272.90115
  0
VERTEX
  5
233
  8
Layer_0
  10
133.72113
  20
272.76099
  0
VERTEX
  5
234
  8
Layer_0
  10
134.08768
  20
272.58936
  0
VERTEX
  5
235
  8
Layer_0
  10
134.45779
  20
272.4256
  0
VERTEX
  5
236
  8
Layer_0
  10
134.83115
  20
272.26996
  0
VERTEX
  5
237
  8
Layer_0
  10
135.20801
  20
272.12219
  0
VERTEX
  5
238
  8
Layer_0
  10
135.41
  20
272.04681
  0
VERTEX
  5
239
  8
Layer_0
  10
135.71609
  20
271.93457
  0
VERTEX
  5
23a
  8
Layer_0
  10
136.0976
  20
271.79926
  0
VERTEX
  5
23b
  8
Layer_0
  10
136.48178
  20
271.67212
  0
VERTEX
  5
23c
  8
Layer_0
  10
136.86868
  20
271.55334
  0
VERTEX
  5
23d
  8
Layer_0
  10
137.25803
  20
271.44299
  0
VERTEX
  5
23e
  8
Layer_0
  10
137.52753
  20
271.3717
  0
VERTEX
  5
23f
  8
Layer_0
  10
137.84692
  20
271.28979
  0
VERTEX
  5
240
  8
Layer_0
  10
138.24005
  20
271.19354
  0
VERTEX
  5
241
  8
Layer_0
  10
138.6351
  20
271.10571
  0
VERTEX
  5
242
  8
Layer_0
  10
139.03204
  20
271.02628
  0
VERTEX
  5
243
  8
Layer_0
  10
139.43033
  20
270.95551
  0
VERTEX
  5
244
  8
Layer_0
  10
139.68979
  20
270.91403
  0
VERTEX
  5
245
  8
Layer_0
  10
140.02057
  20
270.86359
  0
VERTEX
  5
246
  8
Layer_0
  10
140.42133
  20
270.80695
  0
VERTEX
  5
247
  8
Layer_0
  10
140.82312
  20
270.75894
  0
VERTEX
  5
248
  8
Layer_0
  10
141.22604
  20
270.71936
  0
VERTEX
  5
249
  8
Layer_0
  10
141.62949
  20
270.68872
  0
VERTEX
  5
24a
  8
Layer_0
  10
141.90521
  20
270.67245
  0
VERTEX
  5
24b
  8
Layer_0
  10
142.24576
  20
270.65509
  0
VERTEX
  5
24c
  8
Layer_0
  10
142.65027
  20
270.63882
  0
VERTEX
  5
24d
  8
Layer_0
  10
143.05481
  20
270.63123
  0
VERTEX
  5
24e
  8
Layer_0
  10
143.45959
  20
270.63232
  0
SEQEND
  0
POLYLINE
  5
250
  8
Layer_0
  62
0
  66
1
  10
0
  20
0
  30
0
  0
VERTEX
  5
250
  8
Layer_0
  10
97.928009
  20
270.63232
  0
VERTEX
  5
251
  8
Layer_0
  10
98.33255
  20
270.64209
  0
VERTEX
  5
252
  8
Layer_0
  10
98.635956
  20
270.65509
  0
VERTEX
  5
253
  8
Layer_0
  10
98.976471
  20
270.67245
  0
VERTEX
  5
254
  8
Layer_0
  10
99.380188
  20
270.69739
  0
VERTEX
  5
255
  8
Layer_0
  10
99.78363
  20
270.73102
  0
VERTEX
  5
256
  8
Layer_0
  10
100.18628
  20
270.77332
  0
VERTEX
  5
257
  8
Layer_0
  10
100.58755
  20
270.82404
  0
VERTEX
  5
258
  8
Layer_0
  10
100.85867
  20
270.86334
  0
VERTEX
  5
259
  8
Layer_0
  10
101.18973
  20
270.91376
  0
VERTEX
  5
25a
  8
Layer_0
  10
101.58939
  20
270.9791
  0
VERTEX
  5
25b
  8
Layer_0
  10
101.98712
  20
271.05286
  0
VERTEX
  5
25c
  8
Layer_0
  10
102.38351
  20
271.13501
  0
VERTEX
  5
25d
  8
Layer_0
  10
102.77774
  20
271.22583
  0
VERTEX
  5
25e
  8
Layer_0
  10
103.03885
  20
271.29089
  0
VERTEX
  5
25f
  8
Layer_0
  10
103.35797
  20
271.3728
  0
VERTEX
  5
260
  8
Layer_0
  10
103.74893
  20
271.47742
  0
VERTEX
  5
261
  8
Layer_0
  10
104.13745
  20
271.59076
  0
VERTEX
  5
262
  8
Layer_0
  10
104.52356
  20
271.71198
  0
VERTEX
  5
263
  8
Layer_0
  10
104.90692
  20
271.84186
  0
VERTEX
  5
264
  8
Layer_0
  10
105.16559
  20
271.93457
  0
VERTEX
  5
265
  8
Layer_0
  10
105.47171
  20
272.04681
  0
VERTEX
  5
266
  8
Layer_0
  10
105.85019
  20
272.19025
  0
VERTEX
  5
267
  8
Layer_0
  10
106.22543
  20
272.34155
  0
VERTEX
  5
268
  8
Layer_0
  10
106.59744
  20
272.50122
  0
VERTEX
  5
269
  8
Layer_0
  10
106.96591
  20
272.66852
  0
VERTEX
  5
26a
  8
Layer_0
  10
107.16058
  20
272.76099
  0
VERTEX
  5
26b
  8
Layer_0
  10
107.45178
  20
272.90115
  0
VERTEX
  5
26c
  8
Layer_0
  10
107.81454
  20
273.08063
  0
VERTEX
  5
26d
  8
Layer_0
  10
108.17352
  20
273.2677
  0
VERTEX
  5
26e
  8
Layer_0
  10
108.52817
  20
273.46265
  0
VERTEX
  5
26f
  8
Layer_0
  10
108.87872
  20
273.66492
  0
VERTEX
  5
270
  8
Layer_0
  10
109.06528
  20
273.77692
  0
VERTEX
  5
271
  8
Layer_0
  10
109.34021
  20
273.94391
  0
VERTEX
  5
272
  8
Layer_0
  10
109.68372
  20
274.15756
  0
VERTEX
  5
273
  8
Layer_0
  10
110.02264
  20
274.37881
  0
VERTEX
  5
274
  8
Layer_0
  10
110.35693
  20
274.60712
  0
VERTEX
  5
275
  8
Layer_0
  10
110.84769
  20
274.96228
  0
VERTEX
  5
276
  8
Layer_0
  10
111.10391
  20
275.15399
  0
VERTEX
  5
277
  8
Layer_0
  10
111.42548
  20
275.3999
  0
VERTEX
  5
278
  8
Layer_0
  10
111.74161
  20
275.65259
  0
VERTEX
  5
279
  8
Layer_0
  10
112.05203
  20
275.91205
  0
VERTEX
  5
27a
  8
Layer_0
  10
112.48831
  20
276.29626
  0
VERTEX
  5
27b
  8
Layer_0
  10
112.72501
  20
276.51126
  0
VERTEX
  5
27c
  8
Layer_0
  10
113.02161
  20
276.78644
  0
VERTEX
  5
27d
  8
Layer_0
  10
113.31226
  20
277.06818
  0
VERTEX
  5
27e
  8
Layer_0
  10
113.59695
  20
277.35583
  0
VERTEX
  5
27f
  8
Layer_0
  10
114.00555
  20
277.79181
  0
VERTEX
  5
280
  8
Layer_0
  10
114.22055
  20
278.0285
  0
VERTEX
  5
281
  8
Layer_0
  10
114.4895
  20
278.33109
  0
VERTEX
  5
282
  8
Layer_0
  10
114.75198
  20
278.6391
  0
VERTEX
  5
283
  8
Layer_0
  10
115.00766
  20
278.95279
  0
VERTEX
  5
284
  8
Layer_0
  10
115.36853
  20
279.42047
  0
VERTEX
  5
285
  8
Layer_0
  10
115.56021
  20
279.677
  0
VERTEX
  5
286
  8
Layer_0
  10
115.79907
  20
280.00369
  0
VERTEX
  5
287
  8
Layer_0
  10
116.03088
  20
280.33557
  0
VERTEX
  5
288
  8
Layer_0
  10
116.2554
  20
280.6723
  0
VERTEX
  5
289
  8
Layer_0
  10
116.56854
  20
281.16983
  0
VERTEX
  5
28a
  8
Layer_0
  10
116.73557
  20
281.44449
  0
VERTEX
  5
28b
  8
Layer_0
  10
116.94217
  20
281.7926
  0
VERTEX
  5
28c
  8
Layer_0
  10
117.14117
  20
282.14484
  0
VERTEX
  5
28d
  8
Layer_0
  10
117.33286
  20
282.50165
  0
VERTEX
  5
28e
  8
Layer_0
  10
117.51642
  20
282.86224
  0
VERTEX
  5
28f
  8
Layer_0
  10
117.61566
  20
283.06503
  0
VERTEX
  5
290
  8
Layer_0
  10
117.75583
  20
283.35623
  0
VERTEX
  5
291
  8
Layer_0
  10
117.92746
  20
283.72278
  0
VERTEX
  5
292
  8
Layer_0
  10
118.09122
  20
284.0929
  0
VERTEX
  5
293
  8
Layer_0
  10
118.24686
  20
284.46625
  0
VERTEX
  5
294
  8
Layer_0
  10
118.39462
  20
284.84311
  0
VERTEX
  5
295
  8
Layer_0
  10
118.47
  20
285.0451
  0
VERTEX
  5
296
  8
Layer_0
  10
118.58224
  20
285.3512
  0
VERTEX
  5
297
  8
Layer_0
  10
118.71753
  20
285.7327
  0
VERTEX
  5
298
  8
Layer_0
  10
118.8447
  20
286.11688
  0
VERTEX
  5
299
  8
Layer_0
  10
118.96344
  20
286.50378
  0
VERTEX
  5
29a
  8
Layer_0
  10
119.07379
  20
286.89313
  0
VERTEX
  5
29b
  8
Layer_0
  10
119.14511
  20
287.16266
  0
VERTEX
  5
29c
  8
Layer_0
  10
119.22699
  20
287.48203
  0
VERTEX
  5
29d
  8
Layer_0
  10
119.32324
  20
287.87518
  0
VERTEX
  5
29e
  8
Layer_0
  10
119.41107
  20
288.2702
  0
VERTEX
  5
29f
  8
Layer_0
  10
119.49054
  20
288.66714
  0
VERTEX
  5
2a0
  8
Layer_0
  10
119.56128
  20
289.06543
  0
VERTEX
  5
2a1
  8
Layer_0
  10
119.60034
  20
289.31
  0
VERTEX
  5
2a2
  8
Layer_0
  10
119.65103
  20
289.64078
  0
VERTEX
  5
2a3
  8
Layer_0
  10
119.70798
  20
290.0415
  0
VERTEX
  5
2a4
  8
Layer_0
  10
119.7565
  20
290.44333
  0
VERTEX
  5
2a5
  8
Layer_0
  10
119.79636
  20
290.84595
  0
VERTEX
  5
2a6
  8
Layer_0
  10
119.82755
  20
291.24966
  0
VERTEX
  5
2a7
  8
Layer_0
  10
119.84543
  20
291.55548
  0
VERTEX
  5
2a8
  8
Layer_0
  10
119.86252
  20
291.89606
  0
VERTEX
  5
2a9
  8
Layer_0
  10
119.87823
  20
292.30029
  0
VERTEX
  5
2aa
  8
Layer_0
  10
119.88556
  20
292.70508
  0
VERTEX
  5
2ab
  8
Layer_0
  10
119.88422
  20
293.10962
  0
VERTEX
  5
2ac
  8
Layer_0
  10
119.87418
  20
293.5144
  0
VERTEX
  5
2ad
  8
Layer_0
  10
119.86252
  20
293.78748
  0
VERTEX
  5
2ae
  8
Layer_0
  10
119.84543
  20
294.12799
  0
VERTEX
  5
2af
  8
Layer_0
  10
119.82077
  20
294.53198
  0
VERTEX
  5
2b0
  8
Layer_0
  10
119.78741
  20
294.93542
  0
VERTEX
  5
2b1
  8
Layer_0
  10
119.74567
  20
295.33807
  0
VERTEX
  5
2b2
  8
Layer_0
  10
119.69495
  20
295.73959
  0
VERTEX
  5
2b3
  8
Layer_0
  10
119.65103
  20
296.04272
  0
VERTEX
  5
2b4
  8
Layer_0
  10
119.60034
  20
296.3735
  0
VERTEX
  5
2b5
  8
Layer_0
  10
119.53473
  20
296.77289
  0
VERTEX
  5
2b6
  8
Layer_0
  10
119.46069
  20
297.17062
  0
VERTEX
  5
2b7
  8
Layer_0
  10
119.37802
  20
297.56702
  0
VERTEX
  5
2b8
  8
Layer_0
  10
119.2869
  20
297.96124
  0
VERTEX
  5
2b9
  8
Layer_0
  10
119.22699
  20
298.20148
  0
VERTEX
  5
2ba
  8
Layer_0
  10
119.14511
  20
298.52087
  0
VERTEX
  5
2bb
  8
Layer_0
  10
119.04044
  20
298.91183
  0
VERTEX
  5
2bc
  8
Layer_0
  10
118.9274
  20
299.30035
  0
VERTEX
  5
2bd
  8
Layer_0
  10
118.80591
  20
299.68646
  0
VERTEX
  5
2be
  8
Layer_0
  10
118.67633
  20
300.06982
  0
VERTEX
  5
2bf
  8
Layer_0
  10
118.58224
  20
300.33228
  0
VERTEX
  5
2c0
  8
Layer_0
  10
118.47
  20
300.6384
  0
VERTEX
  5
2c1
  8
Layer_0
  10
118.32657
  20
301.01691
  0
VERTEX
  5
2c2
  8
Layer_0
  10
118.17526
  20
301.39215
  0
VERTEX
  5
2c3
  8
Layer_0
  10
118.01556
  20
301.76413
  0
VERTEX
  5
2c4
  8
Layer_0
  10
117.8483
  20
302.1326
  0
VERTEX
  5
2c5
  8
Layer_0
  10
117.75583
  20
302.32727
  0
VERTEX
  5
2c6
  8
Layer_0
  10
117.61566
  20
302.61847
  0
VERTEX
  5
2c7
  8
Layer_0
  10
117.43616
  20
302.98123
  0
VERTEX
  5
2c8
  8
Layer_0
  10
117.24908
  20
303.34021
  0
VERTEX
  5
2c9
  8
Layer_0
  10
117.05414
  20
303.69485
  0
VERTEX
  5
2ca
  8
Layer_0
  10
116.85187
  20
304.04541
  0
VERTEX
  5
2cb
  8
Layer_0
  10
116.73557
  20
304.23901
  0
VERTEX
  5
2cc
  8
Layer_0
  10
116.56854
  20
304.51367
  0
VERTEX
  5
2cd
  8
Layer_0
  10
116.35461
  20
304.85718
  0
VERTEX
  5
2ce
  8
Layer_0
  10
116.13339
  20
305.19611
  0
VERTEX
  5
2cf
  8
Layer_0
  10
115.90482
  20
305.53015
  0
VERTEX
  5
2d0
  8
Layer_0
  10
115.56021
  20
306.00653
  0
VERTEX
  5
2d1
  8
Layer_0
  10
115.36853
  20
306.263
  0
VERTEX
  5
2d2
  8
Layer_0
  10
115.12286
  20
306.58459
  0
VERTEX
  5
2d3
  8
Layer_0
  10
114.87018
  20
306.9007
  0
VERTEX
  5
2d4
  8
Layer_0
  10
114.61099
  20
307.21143
  0
VERTEX
  5
2d5
  8
Layer_0
  10
114.22055
  20
307.65497
  0
VERTEX
  5
2d6
  8
Layer_0
  10
114.00555
  20
307.89166
  0
VERTEX
  5
2d7
  8
Layer_0
  10
113.73035
  20
308.18829
  0
VERTEX
  5
2d8
  8
Layer_0
  10
113.44864
  20
308.47894
  0
VERTEX
  5
2d9
  8
Layer_0
  10
113.16098
  20
308.76367
  0
VERTEX
  5
2da
  8
Layer_0
  10
112.72501
  20
309.17224
  0
VERTEX
  5
2db
  8
Layer_0
  10
112.48831
  20
309.38727
  0
VERTEX
  5
2dc
  8
Layer_0
  10
112.1857
  20
309.65619
  0
VERTEX
  5
2dd
  8
Layer_0
  10
111.87772
  20
309.91864
  0
VERTEX
  5
2de
  8
Layer_0
  10
111.56403
  20
310.17432
  0
VERTEX
  5
2df
  8
Layer_0
  10
111.10391
  20
310.52954
  0
VERTEX
  5
2e0
  8
Layer_0
  10
110.84769
  20
310.72119
  0
VERTEX
  5
2e1
  8
Layer_0
  10
110.52097
  20
310.96008
  0
VERTEX
  5
2e2
  8
Layer_0
  10
110.18939
  20
311.19214
  0
VERTEX
  5
2e3
  8
Layer_0
  10
109.85291
  20
311.41693
  0
VERTEX
  5
2e4
  8
Layer_0
  10
109.34021
  20
311.73956
  0
VERTEX
  5
2e5
  8
Layer_0
  10
109.06528
  20
311.90662
  0
VERTEX
  5
2e6
  8
Layer_0
  10
108.71713
  20
312.11322
  0
VERTEX
  5
2e7
  8
Layer_0
  10
108.36465
  20
312.31195
  0
VERTEX
  5
2e8
  8
Layer_0
  10
108.00784
  20
312.50336
  0
VERTEX
  5
2e9
  8
Layer_0
  10
107.64725
  20
312.68689
  0
VERTEX
  5
2ea
  8
Layer_0
  10
107.45178
  20
312.78235
  0
VERTEX
  5
2eb
  8
Layer_0
  10
107.16058
  20
312.92255
  0
VERTEX
  5
2ec
  8
Layer_0
  10
106.79401
  20
313.09418
  0
VERTEX
  5
2ed
  8
Layer_0
  10
106.42392
  20
313.25793
  0
VERTEX
  5
2ee
  8
Layer_0
  10
106.05057
  20
313.41351
  0
VERTEX
  5
2ef
  8
Layer_0
  10
105.67368
  20
313.56128
  0
VERTEX
  5
2f0
  8
Layer_0
  10
105.47171
  20
313.63666
  0
VERTEX
  5
2f1
  8
Layer_0
  10
105.16559
  20
313.7489
  0
VERTEX
  5
2f2
  8
Layer_0
  10
104.78412
  20
313.88422
  0
VERTEX
  5
2f3
  8
Layer_0
  10
104.3999
  20
314.01141
  0
VERTEX
  5
2f4
  8
Layer_0
  10
104.013
  20
314.13013
  0
VERTEX
  5
2f5
  8
Layer_0
  10
103.62366
  20
314.24048
  0
VERTEX
  5
2f6
  8
Layer_0
  10
103.35797
  20
314.31073
  0
VERTEX
  5
2f7
  8
Layer_0
  10
103.03885
  20
314.39258
  0
VERTEX
  5
2f8
  8
Layer_0
  10
102.64569
  20
314.48914
  0
VERTEX
  5
2f9
  8
Layer_0
  10
102.25067
  20
314.57697
  0
VERTEX
  5
2fa
  8
Layer_0
  10
101.85373
  20
314.65643
  0
VERTEX
  5
2fb
  8
Layer_0
  10
101.45544
  20
314.72742
  0
VERTEX
  5
2fc
  8
Layer_0
  10
101.20465
  20
314.76727
  0
VERTEX
  5
2fd
  8
Layer_0
  10
100.8736
  20
314.81799
  0
VERTEX
  5
2fe
  8
Layer_0
  10
100.47311
  20
314.87518
  0
VERTEX
  5
2ff
  8
Layer_0
  10
100.07132
  20
314.92346
  0
VERTEX
  5
300
  8
Layer_0
  10
99.668396
  20
314.96332
  0
VERTEX
  5
301
  8
Layer_0
  10
99.264954
  20
314.99426
  0
VERTEX
  5
302
  8
Layer_0
  10
98.961304
  20
315.01215
  0
VERTEX
  5
303
  8
Layer_0
  10
98.620758
  20
315.02924
  0
VERTEX
  5
304
  8
Layer_0
  10
98.216492
  20
315.04492
  0
VERTEX
  5
305
  8
Layer_0
  10
97.811707
  20
315.05225
  0
VERTEX
  5
306
  8
Layer_0
  10
97.407166
  20
315.0509
  0
VERTEX
  5
307
  8
Layer_0
  10
97.00238
  20
315.04089
  0
VERTEX
  5
308
  8
Layer_0
  10
96.72934
  20
315.02924
  0
VERTEX
  5
309
  8
Layer_0
  10
96.388824
  20
315.01215
  0
VERTEX
  5
30a
  8
Layer_0
  10
95.984833
  20
314.98743
  0
VERTEX
  5
30b
  8
Layer_0
  10
95.58139
  20
314.9541
  0
VERTEX
  5
30c
  8
Layer_0
  10
95.178741
  20
314.91235
  0
VERTEX
  5
30d
  8
Layer_0
  10
94.777222
  20
314.86163
  0
VERTEX
  5
30e
  8
Layer_0
  10
94.474091
  20
314.81775
  0
VERTEX
  5
30f
  8
Layer_0
  10
94.143311
  20
314.76703
  0
VERTEX
  5
310
  8
Layer_0
  10
93.743927
  20
314.70142
  0
VERTEX
  5
311
  8
Layer_0
  10
93.346191
  20
314.62738
  0
VERTEX
  5
312
  8
Layer_0
  10
92.949799
  20
314.54468
  0
VERTEX
  5
313
  8
Layer_0
  10
92.555573
  20
314.45361
  0
VERTEX
  5
314
  8
Layer_0
  10
92.315338
  20
314.39368
  0
VERTEX
  5
315
  8
Layer_0
  10
91.995941
  20
314.31183
  0
VERTEX
  5
316
  8
Layer_0
  10
91.60498
  20
314.20715
  0
VERTEX
  5
317
  8
Layer_0
  10
91.216431
  20
314.09406
  0
VERTEX
  5
318
  8
Layer_0
  10
90.830353
  20
313.9726
  0
VERTEX
  5
319
  8
Layer_0
  10
90.44696
  20
313.84302
  0
VERTEX
  5
31a
  8
Layer_0
  10
90.184509
  20
313.7489
  0
VERTEX
  5
31b
  8
Layer_0
  10
89.878418
  20
313.63666
  0
VERTEX
  5
31c
  8
Layer_0
  10
89.499908
  20
313.49323
  0
VERTEX
  5
31d
  8
Layer_0
  10
89.124664
  20
313.34198
  0
VERTEX
  5
31e
  8
Layer_0
  10
88.752686
  20
313.18225
  0
VERTEX
  5
31f
  8
Layer_0
  10
88.384216
  20
313.01495
  0
VERTEX
  5
320
  8
Layer_0
  10
88.189545
  20
312.92255
  0
VERTEX
  5
321
  8
Layer_0
  10
87.898346
  20
312.78235
  0
VERTEX
  5
322
  8
Layer_0
  10
87.535583
  20
312.60284
  0
VERTEX
  5
323
  8
Layer_0
  10
87.176605
  20
312.41577
  0
VERTEX
  5
324
  8
Layer_0
  10
86.82196
  20
312.22083
  0
VERTEX
  5
325
  8
Layer_0
  10
86.471375
  20
312.01855
  0
VERTEX
  5
326
  8
Layer_0
  10
86.277802
  20
311.90228
  0
VERTEX
  5
327
  8
Layer_0
  10
86.003143
  20
311.73523
  0
VERTEX
  5
328
  8
Layer_0
  10
85.659607
  20
311.5213
  0
VERTEX
  5
329
  8
Layer_0
  10
85.320709
  20
311.30005
  0
VERTEX
  5
32a
  8
Layer_0
  10
84.986664
  20
311.07153
  0
VERTEX
  5
32b
  8
Layer_0
  10
84.510284
  20
310.72693
  0
VERTEX
  5
32c
  8
Layer_0
  10
84.253815
  20
310.53522
  0
VERTEX
  5
32d
  8
Layer_0
  10
83.932251
  20
310.28955
  0
VERTEX
  5
32e
  8
Layer_0
  10
83.616089
  20
310.03687
  0
VERTEX
  5
32f
  8
Layer_0
  10
83.305389
  20
309.77765
  0
VERTEX
  5
330
  8
Layer_0
  10
82.861816
  20
309.38727
  0
VERTEX
  5
331
  8
Layer_0
  10
82.625122
  20
309.17224
  0
VERTEX
  5
332
  8
Layer_0
  10
82.328491
  20
308.89703
  0
VERTEX
  5
333
  8
Layer_0
  10
82.037842
  20
308.61536
  0
VERTEX
  5
334
  8
Layer_0
  10
81.753143
  20
308.32764
  0
VERTEX
  5
335
  8
Layer_0
  10
81.344574
  20
307.89166
  0
VERTEX
  5
336
  8
Layer_0
  10
81.129547
  20
307.65497
  0
VERTEX
  5
337
  8
Layer_0
  10
80.860596
  20
307.35242
  0
VERTEX
  5
338
  8
Layer_0
  10
80.598145
  20
307.04437
  0
VERTEX
  5
339
  8
Layer_0
  10
80.342468
  20
306.73071
  0
VERTEX
  5
33a
  8
Layer_0
  10
79.981598
  20
306.263
  0
VERTEX
  5
33b
  8
Layer_0
  10
79.789886
  20
306.00653
  0
VERTEX
  5
33c
  8
Layer_0
  10
79.551025
  20
305.67981
  0
VERTEX
  5
33d
  8
Layer_0
  10
79.319214
  20
305.34796
  0
VERTEX
  5
33e
  8
Layer_0
  10
79.094727
  20
305.01117
  0
VERTEX
  5
33f
  8
Layer_0
  10
78.781555
  20
304.51367
  0
VERTEX
  5
340
  8
Layer_0
  10
78.614532
  20
304.23901
  0
VERTEX
  5
341
  8
Layer_0
  10
78.407959
  20
303.89087
  0
VERTEX
  5
342
  8
Layer_0
  10
78.208923
  20
303.5387
  0
VERTEX
  5
343
  8
Layer_0
  10
78.017242
  20
303.18188
  0
VERTEX
  5
344
  8
Layer_0
  10
77.833679
  20
302.82129
  0
VERTEX
  5
345
  8
Layer_0
  10
77.734467
  20
302.61847
  0
VERTEX
  5
346
  8
Layer_0
  10
77.594269
  20
302.32727
  0
VERTEX
  5
347
  8
Layer_0
  10
77.422668
  20
301.96069
  0
VERTEX
  5
348
  8
Layer_0
  10
77.258881
  20
301.59061
  0
VERTEX
  5
349
  8
Layer_0
  10
77.103271
  20
301.21725
  0
VERTEX
  5
34a
  8
Layer_0
  10
76.955505
  20
300.84039
  0
VERTEX
  5
34b
  8
Layer_0
  10
76.874969
  20
300.62457
  0
VERTEX
  5
34c
  8
Layer_0
  10
76.763
  20
300.31845
  0
VERTEX
  5
34d
  8
Layer_0
  10
76.62796
  20
299.93698
  0
VERTEX
  5
34e
  8
Layer_0
  10
76.501343
  20
299.55249
  0
VERTEX
  5
34f
  8
Layer_0
  10
76.382874
  20
299.16559
  0
VERTEX
  5
350
  8
Layer_0
  10
76.272797
  20
298.776
  0
VERTEX
  5
351
  8
Layer_0
  10
76.209076
  20
298.53549
  0
VERTEX
  5
352
  8
Layer_0
  10
76.126923
  20
298.21613
  0
VERTEX
  5
353
  8
Layer_0
  10
76.030396
  20
297.82297
  0
VERTEX
  5
354
  8
Layer_0
  10
75.942291
  20
297.42792
  0
VERTEX
  5
355
  8
Layer_0
  10
75.862579
  20
297.03125
  0
VERTEX
  5
356
  8
Layer_0
  10
75.79126
  20
296.63269
  0
VERTEX
  5
357
  8
Layer_0
  10
75.747345
  20
296.35858
  0
VERTEX
  5
358
  8
Layer_0
  10
75.696899
  20
296.0278
  0
VERTEX
  5
359
  8
Layer_0
  10
75.640228
  20
295.62708
  0
VERTEX
  5
35a
  8
Layer_0
  10
75.592255
  20
295.22528
  0
VERTEX
  5
35b
  8
Layer_0
  10
75.552673
  20
294.82236
  0
VERTEX
  5
35c
  8
Layer_0
  10
75.522034
  20
294.41891
  0
VERTEX
  5
35d
  8
Layer_0
  10
75.505768
  20
294.14319
  0
VERTEX
  5
35e
  8
Layer_0
  10
75.488403
  20
293.80264
  0
VERTEX
  5
35f
  8
Layer_0
  10
75.472137
  20
293.3981
  0
VERTEX
  5
360
  8
Layer_0
  10
75.464539
  20
292.99359
  0
VERTEX
  5
361
  8
Layer_0
  10
75.465637
  20
292.58878
  0
VERTEX
  5
362
  8
Layer_0
  10
75.475403
  20
292.18427
  0
VERTEX
  5
363
  8
Layer_0
  10
75.488403
  20
291.88086
  0
VERTEX
  5
364
  8
Layer_0
  10
75.505768
  20
291.54031
  0
VERTEX
  5
365
  8
Layer_0
  10
75.530701
  20
291.1366
  0
VERTEX
  5
366
  8
Layer_0
  10
75.564331
  20
290.73315
  0
VERTEX
  5
367
  8
Layer_0
  10
75.606628
  20
290.33054
  0
VERTEX
  5
368
  8
Layer_0
  10
75.657318
  20
289.92926
  0
VERTEX
  5
369
  8
Layer_0
  10
75.696899
  20
289.6557
  0
VERTEX
  5
36a
  8
Layer_0
  10
75.747345
  20
289.32489
  0
VERTEX
  5
36b
  8
Layer_0
  10
75.812683
  20
288.92554
  0
VERTEX
  5
36c
  8
Layer_0
  10
75.886414
  20
288.52753
  0
VERTEX
  5
36d
  8
Layer_0
  10
75.968842
  20
288.13141
  0
VERTEX
  5
36e
  8
Layer_0
  10
76.059692
  20
287.73688
  0
VERTEX
  5
36f
  8
Layer_0
  10
76.126923
  20
287.46741
  0
VERTEX
  5
370
  8
Layer_0
  10
76.209076
  20
287.14801
  0
VERTEX
  5
371
  8
Layer_0
  10
76.313995
  20
286.75729
  0
VERTEX
  5
372
  8
Layer_0
  10
76.427612
  20
286.36877
  0
VERTEX
  5
373
  8
Layer_0
  10
76.549072
  20
285.98267
  0
VERTEX
  5
374
  8
Layer_0
  10
76.678955
  20
285.5993
  0
VERTEX
  5
375
  8
Layer_0
  10
76.763
  20
285.36505
  0
VERTEX
  5
376
  8
Layer_0
  10
76.874969
  20
285.05893
  0
VERTEX
  5
377
  8
Layer_0
  10
77.018127
  20
284.68042
  0
VERTEX
  5
378
  8
Layer_0
  10
77.169403
  20
284.30493
  0
VERTEX
  5
379
  8
Layer_0
  10
77.328583
  20
283.93292
  0
VERTEX
  5
37a
  8
Layer_0
  10
77.495575
  20
283.56421
  0
VERTEX
  5
37b
  8
Layer_0
  10
77.594269
  20
283.35623
  0
VERTEX
  5
37c
  8
Layer_0
  10
77.734467
  20
283.06503
  0
VERTEX
  5
37d
  8
Layer_0
  10
77.91394
  20
282.70227
  0
VERTEX
  5
37e
  8
Layer_0
  10
78.101013
  20
282.34329
  0
VERTEX
  5
37f
  8
Layer_0
  10
78.295959
  20
281.98865
  0
VERTEX
  5
380
  8
Layer_0
  10
78.49823
  20
281.63806
  0
VERTEX
  5
381
  8
Layer_0
  10
78.614532
  20
281.44449
  0
VERTEX
  5
382
  8
Layer_0
  10
78.781555
  20
281.16983
  0
VERTEX
  5
383
  8
Layer_0
  10
78.995483
  20
280.82629
  0
VERTEX
  5
384
  8
Layer_0
  10
79.216736
  20
280.4874
  0
VERTEX
  5
385
  8
Layer_0
  10
79.445282
  20
280.15338
  0
VERTEX
  5
386
  8
Layer_0
  10
79.789886
  20
279.677
  0
VERTEX
  5
387
  8
Layer_0
  10
79.981598
  20
279.42047
  0
VERTEX
  5
388
  8
Layer_0
  10
80.227234
  20
279.09894
  0
VERTEX
  5
389
  8
Layer_0
  10
80.479919
  20
278.78278
  0
VERTEX
  5
38a
  8
Layer_0
  10
80.739136
  20
278.47208
  0
VERTEX
  5
38b
  8
Layer_0
  10
81.129547
  20
278.0285
  0
VERTEX
  5
38c
  8
Layer_0
  10
81.344574
  20
277.79181
  0
VERTEX
  5
38d
  8
Layer_0
  10
81.619751
  20
277.49518
  0
VERTEX
  5
38e
  8
Layer_0
  10
81.901459
  20
277.20453
  0
VERTEX
  5
38f
  8
Layer_0
  10
82.189148
  20
276.91986
  0
VERTEX
  5
390
  8
Layer_0
  10
82.625122
  20
276.51126
  0
VERTEX
  5
391
  8
Layer_0
  10
82.861816
  20
276.29626
  0
VERTEX
  5
392
  8
Layer_0
  10
83.164398
  20
276.02728
  0
VERTEX
  5
393
  8
Layer_0
  10
83.472412
  20
275.76483
  0
VERTEX
  5
394
  8
Layer_0
  10
83.786102
  20
275.50916
  0
VERTEX
  5
395
  8
Layer_0
  10
84.253815
  20
275.14828
  0
VERTEX
  5
396
  8
Layer_0
  10
84.510284
  20
274.9566
  0
VERTEX
  5
397
  8
Layer_0
  10
84.837006
  20
274.71771
  0
VERTEX
  5
398
  8
Layer_0
  10
85.168854
  20
274.4859
  0
VERTEX
  5
399
  8
Layer_0
  10
85.505615
  20
274.26141
  0
VERTEX
  5
39a
  8
Layer_0
  10
86.003143
  20
273.94824
  0
VERTEX
  5
39b
  8
Layer_0
  10
86.277802
  20
273.78125
  0
VERTEX
  5
39c
  8
Layer_0
  10
86.625916
  20
273.57465
  0
VERTEX
  5
39d
  8
Layer_0
  10
86.978119
  20
273.37561
  0
VERTEX
  5
39e
  8
Layer_0
  10
87.33493
  20
273.18396
  0
VERTEX
  5
39f
  8
Layer_0
  10
87.695526
  20
273.00037
  0
VERTEX
  5
3a0
  8
Layer_0
  10
87.898346
  20
272.90115
  0
VERTEX
  5
3a1
  8
Layer_0
  10
88.189545
  20
272.76099
  0
VERTEX
  5
3a2
  8
Layer_0
  10
88.556091
  20
272.58936
  0
VERTEX
  5
3a3
  8
Layer_0
  10
88.926208
  20
272.4256
  0
VERTEX
  5
3a4
  8
Layer_0
  10
89.299561
  20
272.26996
  0
VERTEX
  5
3a5
  8
Layer_0
  10
89.676422
  20
272.12219
  0
VERTEX
  5
3a6
  8
Layer_0
  10
89.878418
  20
272.04681
  0
VERTEX
  5
3a7
  8
Layer_0
  10
90.184509
  20
271.93457
  0
VERTEX
  5
3a8
  8
Layer_0
  10
90.56601
  20
271.79926
  0
VERTEX
  5
3a9
  8
Layer_0
  10
90.950195
  20
271.67212
  0
VERTEX
  5
3aa
  8
Layer_0
  10
91.337097
  20
271.55334
  0
VERTEX
  5
3ab
  8
Layer_0
  10
91.72644
  20
271.44299
  0
VERTEX
  5
3ac
  8
Layer_0
  10
91.995941
  20
271.3717
  0
VERTEX
  5
3ad
  8
Layer_0
  10
92.315338
  20
271.28979
  0
VERTEX
  5
3ae
  8
Layer_0
  10
92.708466
  20
271.19354
  0
VERTEX
  5
3af
  8
Layer_0
  10
93.103516
  20
271.10571
  0
VERTEX
  5
3b0
  8
Layer_0
  10
93.500458
  20
271.02628
  0
VERTEX
  5
3b1
  8
Layer_0
  10
93.898743
  20
270.95551
  0
VERTEX
  5
3b2
  8
Layer_0
  10
94.158203
  20
270.91403
  0
VERTEX
  5
3b3
  8
Layer_0
  10
94.488983
  20
270.86359
  0
VERTEX
  5
3b4
  8
Layer_0
  10
94.88974
  20
270.80695
  0
VERTEX
  5
3b5
  8
Layer_0
  10
95.291534
  20
270.75894
  0
VERTEX
  5
3b6
  8
Layer_0
  10
95.694458
  20
270.71936
  0
VERTEX
  5
3b7
  8
Layer_0
  10
96.0979
  20
270.68872
  0
VERTEX
  5
3b8
  8
Layer_0
  10
96.373627
  20
270.67245
  0
VERTEX
  5
3b9
  8
Layer_0
  10
96.714172
  20
270.65509
  0
VERTEX
  5
3ba
  8
Layer_0
  10
97.118683
  20
270.63882
  0
VERTEX
  5
3bb
  8
Layer_0
  10
97.523224
  20
270.63123
  0
VERTEX
  5
3bc
  8
Layer_0
  10
97.928009
  20
270.63232
  0
SEQEND
  0
POLYLINE
  5
3be
  8
Layer_0
  62
0
  66
1
  10
0
  20
0
  30
0
  0
VERTEX
  5
3be
  8
Layer_0
  10
188.99117
  20
270.63232
  0
VERTEX
  5
3bf
  8
Layer_0
  10
189.39571
  20
270.64209
  0
VERTEX
  5
3c0
  8
Layer_0
  10
189.69911
  20
270.65509
  0
VERTEX
  5
3c1
  8
Layer_0
  10
190.03963
  20
270.67245
  0
VERTEX
  5
3c2
  8
Layer_0
  10
190.44334
  20
270.69739
  0
VERTEX
  5
3c3
  8
Layer_0
  10
190.84679
  20
270.73102
  0
VERTEX
  5
3c4
  8
Layer_0
  10
191.24944
  20
270.77332
  0
VERTEX
  5
3c5
  8
Layer_0
  10
191.65071
  20
270.82404
  0
VERTEX
  5
3c6
  8
Layer_0
  10
191.92183
  20
270.86334
  0
VERTEX
  5
3c7
  8
Layer_0
  10
192.25288
  20
270.91376
  0
VERTEX
  5
3c8
  8
Layer_0
  10
192.65254
  20
270.9791
  0
VERTEX
  5
3c9
  8
Layer_0
  10
193.05028
  20
271.05286
  0
VERTEX
  5
3ca
  8
Layer_0
  10
193.44667
  20
271.13501
  0
VERTEX
  5
3cb
  8
Layer_0
  10
193.8409
  20
271.22583
  0
VERTEX
  5
3cc
  8
Layer_0
  10
194.10201
  20
271.29089
  0
VERTEX
  5
3cd
  8
Layer_0
  10
194.42113
  20
271.3728
  0
VERTEX
  5
3ce
  8
Layer_0
  10
194.81209
  20
271.47742
  0
VERTEX
  5
3cf
  8
Layer_0
  10
195.20061
  20
271.59076
  0
VERTEX
  5
3d0
  8
Layer_0
  10
195.58672
  20
271.71198
  0
VERTEX
  5
3d1
  8
Layer_0
  10
195.97008
  20
271.84186
  0
VERTEX
  5
3d2
  8
Layer_0
  10
196.22874
  20
271.93457
  0
VERTEX
  5
3d3
  8
Layer_0
  10
196.53487
  20
272.04681
  0
VERTEX
  5
3d4
  8
Layer_0
  10
196.91335
  20
272.19025
  0
VERTEX
  5
3d5
  8
Layer_0
  10
197.28859
  20
272.34155
  0
VERTEX
  5
3d6
  8
Layer_0
  10
197.6606
  20
272.50122
  0
VERTEX
  5
3d7
  8
Layer_0
  10
198.02907
  20
272.66852
  0
VERTEX
  5
3d8
  8
Layer_0
  10
198.22374
  20
272.76099
  0
VERTEX
  5
3d9
  8
Layer_0
  10
198.51494
  20
272.90115
  0
VERTEX
  5
3da
  8
Layer_0
  10
198.8777
  20
273.08063
  0
VERTEX
  5
3db
  8
Layer_0
  10
199.23668
  20
273.2677
  0
VERTEX
  5
3dc
  8
Layer_0
  10
199.59132
  20
273.46265
  0
VERTEX
  5
3dd
  8
Layer_0
  10
199.94188
  20
273.66492
  0
VERTEX
  5
3de
  8
Layer_0
  10
200.12843
  20
273.77692
  0
VERTEX
  5
3df
  8
Layer_0
  10
200.40337
  20
273.94391
  0
VERTEX
  5
3e0
  8
Layer_0
  10
200.74687
  20
274.15756
  0
VERTEX
  5
3e1
  8
Layer_0
  10
201.0858
  20
274.37881
  0
VERTEX
  5
3e2
  8
Layer_0
  10
201.42009
  20
274.60712
  0
VERTEX
  5
3e3
  8
Layer_0
  10
201.91084
  20
274.96228
  0
VERTEX
  5
3e4
  8
Layer_0
  10
202.16707
  20
275.15399
  0
VERTEX
  5
3e5
  8
Layer_0
  10
202.48863
  20
275.3999
  0
VERTEX
  5
3e6
  8
Layer_0
  10
202.80476
  20
275.65259
  0
VERTEX
  5
3e7
  8
Layer_0
  10
203.11519
  20
275.91205
  0
VERTEX
  5
3e8
  8
Layer_0
  10
203.55147
  20
276.29626
  0
VERTEX
  5
3e9
  8
Layer_0
  10
203.78816
  20
276.51126
  0
VERTEX
  5
3ea
  8
Layer_0
  10
204.08476
  20
276.78644
  0
VERTEX
  5
3eb
  8
Layer_0
  10
204.37541
  20
277.06818
  0
VERTEX
  5
3ec
  8
Layer_0
  10
204.66011
  20
277.35583
  0
VERTEX
  5
3ed
  8
Layer_0
  10
205.06871
  20
277.79181
  0
VERTEX
  5
3ee
  8
Layer_0
  10
205.28371
  20
278.0285
  0
VERTEX
  5
3ef
  8
Layer_0
  10
205.55266
  20
278.33109
  0
VERTEX
  5
3f0
  8
Layer_0
  10
205.81514
  20
278.6391
  0
VERTEX
  5
3f1
  8
Layer_0
  10
206.07082
  20
278.95279
  0
VERTEX
  5
3f2
  8
Layer_0
  10
206.43169
  20
279.42047
  0
VERTEX
  5
3f3
  8
Layer_0
  10
206.62337
  20
279.677
  0
VERTEX
  5
3f4
  8
Layer_0
  10
206.86223
  20
280.00369
  0
VERTEX
  5
3f5
  8
Layer_0
  10
207.09404
  20
280.33557
  0
VERTEX
  5
3f6
  8
Layer_0
  10
207.31856
  20
280.6723
  0
VERTEX
  5
3f7
  8
Layer_0
  10
207.6317
  20
281.16983
  0
VERTEX
  5
3f8
  8
Layer_0
  10
207.79872
  20
281.44449
  0
VERTEX
  5
3f9
  8
Layer_0
  10
208.00533
  20
281.7926
  0
VERTEX
  5
3fa
  8
Layer_0
  10
208.20433
  20
282.14484
  0
VERTEX
  5
3fb
  8
Layer_0
  10
208.39601
  20
282.50165
  0
VERTEX
  5
3fc
  8
Layer_0
  10
208.57957
  20
282.86224
  0
VERTEX
  5
3fd
  8
Layer_0
  10
208.67882
  20
283.06503
  0
VERTEX
  5
3fe
  8
Layer_0
  10
208.81898
  20
283.35623
  0
VERTEX
  5
3ff
  8
Layer_0
  10
208.99062
  20
283.72278
  0
VERTEX
  5
400
  8
Layer_0
  10
209.15437
  20
284.0929
  0
VERTEX
  5
401
  8
Layer_0
  10
209.31001
  20
284.46625
  0
VERTEX
  5
402
  8
Layer_0
  10
209.45778
  20
284.84311
  0
VERTEX
  5
403
  8
Layer_0
  10
209.53316
  20
285.0451
  0
VERTEX
  5
404
  8
Layer_0
  10
209.6454
  20
285.3512
  0
VERTEX
  5
405
  8
Layer_0
  10
209.78069
  20
285.7327
  0
VERTEX
  5
406
  8
Layer_0
  10
209.90785
  20
286.11688
  0
VERTEX
  5
407
  8
Layer_0
  10
210.0266
  20
286.50378
  0
VERTEX
  5
408
  8
Layer_0
  10
210.13695
  20
286.89313
  0
VERTEX
  5
409
  8
Layer_0
  10
210.20827
  20
287.16266
  0
VERTEX
  5
40a
  8
Layer_0
  10
210.29015
  20
287.48203
  0
VERTEX
  5
40b
  8
Layer_0
  10
210.3864
  20
287.87518
  0
VERTEX
  5
40c
  8
Layer_0
  10
210.47423
  20
288.2702
  0
VERTEX
  5
40d
  8
Layer_0
  10
210.5537
  20
288.66714
  0
VERTEX
  5
40e
  8
Layer_0
  10
210.62444
  20
289.06543
  0
VERTEX
  5
40f
  8
Layer_0
  10
210.6635
  20
289.31
  0
VERTEX
  5
410
  8
Layer_0
  10
210.71419
  20
289.64078
  0
VERTEX
  5
411
  8
Layer_0
  10
210.77113
  20
290.0415
  0
VERTEX
  5
412
  8
Layer_0
  10
210.81966
  20
290.44333
  0
VERTEX
  5
413
  8
Layer_0
  10
210.85951
  20
290.84595
  0
VERTEX
  5
414
  8
Layer_0
  10
210.8907
  20
291.24966
  0
VERTEX
  5
415
  8
Layer_0
  10
210.90858
  20
291.55548
  0
VERTEX
  5
416
  8
Layer_0
  10
210.92567
  20
291.89606
  0
VERTEX
  5
417
  8
Layer_0
  10
210.94139
  20
292.30029
  0
VERTEX
  5
418
  8
Layer_0
  10
210.94872
  20
292.70508
  0
VERTEX
  5
419
  8
Layer_0
  10
210.94737
  20
293.10962
  0
VERTEX
  5
41a
  8
Layer_0
  10
210.93733
  20
293.5144
  0
VERTEX
  5
41b
  8
Layer_0
  10
210.92567
  20
293.78748
  0
VERTEX
  5
41c
  8
Layer_0
  10
210.90858
  20
294.12799
  0
VERTEX
  5
41d
  8
Layer_0
  10
210.88393
  20
294.53198
  0
VERTEX
  5
41e
  8
Layer_0
  10
210.85057
  20
294.93542
  0
VERTEX
  5
41f
  8
Layer_0
  10
210.80882
  20
295.33807
  0
VERTEX
  5
420
  8
Layer_0
  10
210.7581
  20
295.73959
  0
VERTEX
  5
421
  8
Layer_0
  10
210.71419
  20
296.04272
  0
VERTEX
  5
422
  8
Layer_0
  10
210.6635
  20
296.3735
  0
VERTEX
  5
423
  8
Layer_0
  10
210.59789
  20
296.77289
  0
VERTEX
  5
424
  8
Layer_0
  10
210.52385
  20
297.17062
  0
VERTEX
  5
425
  8
Layer_0
  10
210.44118
  20
297.56702
  0
VERTEX
  5
426
  8
Layer_0
  10
210.35005
  20
297.96124
  0
VERTEX
  5
427
  8
Layer_0
  10
210.29015
  20
298.20148
  0
VERTEX
  5
428
  8
Layer_0
  10
210.20827
  20
298.52087
  0
VERTEX
  5
429
  8
Layer_0
  10
210.10359
  20
298.91183
  0
VERTEX
  5
42a
  8
Layer_0
  10
209.99055
  20
299.30035
  0
VERTEX
  5
42b
  8
Layer_0
  10
209.86906
  20
299.68646
  0
VERTEX
  5
42c
  8
Layer_0
  10
209.73949
  20
300.06982
  0
VERTEX
  5
42d
  8
Layer_0
  10
209.6454
  20
300.33228
  0
VERTEX
  5
42e
  8
Layer_0
  10
209.53316
  20
300.6384
  0
VERTEX
  5
42f
  8
Layer_0
  10
209.38972
  20
301.01691
  0
VERTEX
  5
430
  8
Layer_0
  10
209.23842
  20
301.39215
  0
VERTEX
  5
431
  8
Layer_0
  10
209.07872
  20
301.76413
  0
VERTEX
  5
432
  8
Layer_0
  10
208.91145
  20
302.1326
  0
VERTEX
  5
433
  8
Layer_0
  10
208.81898
  20
302.32727
  0
VERTEX
  5
434
  8
Layer_0
  10
208.67882
  20
302.61847
  0
VERTEX
  5
435
  8
Layer_0
  10
208.49931
  20
302.98123
  0
VERTEX
  5
436
  8
Layer_0
  10
208.31224
  20
303.34021
  0
VERTEX
  5
437
  8
Layer_0
  10
208.11729
  20
303.69485
  0
VERTEX
  5
438
  8
Layer_0
  10
207.91502
  20
304.04541
  0
VERTEX
  5
439
  8
Layer_0
  10
207.79872
  20
304.23901
  0
VERTEX
  5
43a
  8
Layer_0
  10
207.6317
  20
304.51367
  0
VERTEX
  5
43b
  8
Layer_0
  10
207.41777
  20
304.85718
  0
VERTEX
  5
43c
  8
Layer_0
  10
207.19655
  20
305.19611
  0
VERTEX
  5
43d
  8
Layer_0
  10
206.96797
  20
305.53015
  0
VERTEX
  5
43e
  8
Layer_0
  10
206.62337
  20
306.00653
  0
VERTEX
  5
43f
  8
Layer_0
  10
206.43169
  20
306.263
  0
VERTEX
  5
440
  8
Layer_0
  10
206.18602
  20
306.58459
  0
VERTEX
  5
441
  8
Layer_0
  10
205.93333
  20
306.9007
  0
VERTEX
  5
442
  8
Layer_0
  10
205.67415
  20
307.21143
  0
VERTEX
  5
443
  8
Layer_0
  10
205.28371
  20
307.65497
  0
VERTEX
  5
444
  8
Layer_0
  10
205.06871
  20
307.89166
  0
VERTEX
  5
445
  8
Layer_0
  10
204.7935
  20
308.18829
  0
VERTEX
  5
446
  8
Layer_0
  10
204.5118
  20
308.47894
  0
VERTEX
  5
447
  8
Layer_0
  10
204.22414
  20
308.76367
  0
VERTEX
  5
448
  8
Layer_0
  10
203.78816
  20
309.17224
  0
VERTEX
  5
449
  8
Layer_0
  10
203.55147
  20
309.38727
  0
VERTEX
  5
44a
  8
Layer_0
  10
203.24886
  20
309.65619
  0
VERTEX
  5
44b
  8
Layer_0
  10
202.94087
  20
309.91864
  0
VERTEX
  5
44c
  8
Layer_0
  10
202.62718
  20
310.17432
  0
VERTEX
  5
44d
  8
Layer_0
  10
202.16707
  20
310.52954
  0
VERTEX
  5
44e
  8
Layer_0
  10
201.91084
  20
310.72119
  0
VERTEX
  5
44f
  8
Layer_0
  10
201.58412
  20
310.96008
  0
VERTEX
  5
450
  8
Layer_0
  10
201.25255
  20
311.19214
  0
VERTEX
  5
451
  8
Layer_0
  10
200.91606
  20
311.41693
  0
VERTEX
  5
452
  8
Layer_0
  10
200.40337
  20
311.73956
  0
VERTEX
  5
453
  8
Layer_0
  10
200.12843
  20
311.90662
  0
VERTEX
  5
454
  8
Layer_0
  10
199.78029
  20
312.11322
  0
VERTEX
  5
455
  8
Layer_0
  10
199.42781
  20
312.31195
  0
VERTEX
  5
456
  8
Layer_0
  10
199.071
  20
312.50336
  0
VERTEX
  5
457
  8
Layer_0
  10
198.7104
  20
312.68689
  0
VERTEX
  5
458
  8
Layer_0
  10
198.51494
  20
312.78235
  0
VERTEX
  5
459
  8
Layer_0
  10
198.22374
  20
312.92255
  0
VERTEX
  5
45a
  8
Layer_0
  10
197.85716
  20
313.09418
  0
VERTEX
  5
45b
  8
Layer_0
  10
197.48708
  20
313.25793
  0
VERTEX
  5
45c
  8
Layer_0
  10
197.11372
  20
313.41351
  0
VERTEX
  5
45d
  8
Layer_0
  10
196.73683
  20
313.56128
  0
VERTEX
  5
45e
  8
Layer_0
  10
196.53487
  20
313.63666
  0
VERTEX
  5
45f
  8
Layer_0
  10
196.22874
  20
313.7489
  0
VERTEX
  5
460
  8
Layer_0
  10
195.84727
  20
313.88422
  0
VERTEX
  5
461
  8
Layer_0
  10
195.46306
  20
314.01141
  0
VERTEX
  5
462
  8
Layer_0
  10
195.07616
  20
314.13013
  0
VERTEX
  5
463
  8
Layer_0
  10
194.68681
  20
314.24048
  0
VERTEX
  5
464
  8
Layer_0
  10
194.42113
  20
314.31073
  0
VERTEX
  5
465
  8
Layer_0
  10
194.10201
  20
314.39258
  0
VERTEX
  5
466
  8
Layer_0
  10
193.70885
  20
314.48914
  0
VERTEX
  5
467
  8
Layer_0
  10
193.31383
  20
314.57697
  0
VERTEX
  5
468
  8
Layer_0
  10
192.91689
  20
314.65643
  0
VERTEX
  5
469
  8
Layer_0
  10
192.5186
  20
314.72742
  0
VERTEX
  5
46a
  8
Layer_0
  10
192.26781
  20
314.76727
  0
VERTEX
  5
46b
  8
Layer_0
  10
191.93675
  20
314.81799
  0
VERTEX
  5
46c
  8
Layer_0
  10
191.53627
  20
314.87518
  0
VERTEX
  5
46d
  8
Layer_0
  10
191.13448
  20
314.92346
  0
VERTEX
  5
46e
  8
Layer_0
  10
190.73155
  20
314.96332
  0
VERTEX
  5
46f
  8
Layer_0
  10
190.32811
  20
314.99426
  0
VERTEX
  5
470
  8
Layer_0
  10
190.02446
  20
315.01215
  0
VERTEX
  5
471
  8
Layer_0
  10
189.68391
  20
315.02924
  0
VERTEX
  5
472
  8
Layer_0
  10
189.27965
  20
315.04492
  0
VERTEX
  5
473
  8
Layer_0
  10
188.87486
  20
315.05225
  0
VERTEX
  5
474
  8
Layer_0
  10
188.47032
  20
315.0509
  0
VERTEX
  5
475
  8
Layer_0
  10
188.06554
  20
315.04089
  0
VERTEX
  5
476
  8
Layer_0
  10
187.7925
  20
315.02924
  0
VERTEX
  5
477
  8
Layer_0
  10
187.45198
  20
315.01215
  0
VERTEX
  5
478
  8
Layer_0
  10
187.04799
  20
314.98743
  0
VERTEX
  5
479
  8
Layer_0
  10
186.64455
  20
314.9541
  0
VERTEX
  5
47a
  8
Layer_0
  10
186.2419
  20
314.91235
  0
VERTEX
  5
47b
  8
Layer_0
  10
185.84038
  20
314.86163
  0
VERTEX
  5
47c
  8
Layer_0
  10
185.53725
  20
314.81775
  0
VERTEX
  5
47d
  8
Layer_0
  10
185.20647
  20
314.76703
  0
VERTEX
  5
47e
  8
Layer_0
  10
184.80708
  20
314.70142
  0
VERTEX
  5
47f
  8
Layer_0
  10
184.40935
  20
314.62738
  0
VERTEX
  5
480
  8
Layer_0
  10
184.01295
  20
314.54468
  0
VERTEX
  5
481
  8
Layer_0
  10
183.61873
  20
314.45361
  0
VERTEX
  5
482
  8
Layer_0
  10
183.37849
  20
314.39368
  0
VERTEX
  5
483
  8
Layer_0
  10
183.0591
  20
314.31183
  0
VERTEX
  5
484
  8
Layer_0
  10
182.66814
  20
314.20715
  0
VERTEX
  5
485
  8
Layer_0
  10
182.27959
  20
314.09406
  0
VERTEX
  5
486
  8
Layer_0
  10
181.89351
  20
313.9726
  0
VERTEX
  5
487
  8
Layer_0
  10
181.51012
  20
313.84302
  0
VERTEX
  5
488
  8
Layer_0
  10
181.24767
  20
313.7489
  0
VERTEX
  5
489
  8
Layer_0
  10
180.94157
  20
313.63666
  0
VERTEX
  5
48a
  8
Layer_0
  10
180.56306
  20
313.49323
  0
VERTEX
  5
48b
  8
Layer_0
  10
180.18782
  20
313.34198
  0
VERTEX
  5
48c
  8
Layer_0
  10
179.81584
  20
313.18225
  0
VERTEX
  5
48d
  8
Layer_0
  10
179.44737
  20
313.01495
  0
VERTEX
  5
48e
  8
Layer_0
  10
179.2527
  20
312.92255
  0
VERTEX
  5
48f
  8
Layer_0
  10
178.9615
  20
312.78235
  0
VERTEX
  5
490
  8
Layer_0
  10
178.59874
  20
312.60284
  0
VERTEX
  5
491
  8
Layer_0
  10
178.23976
  20
312.41577
  0
VERTEX
  5
492
  8
Layer_0
  10
177.88512
  20
312.22083
  0
VERTEX
  5
493
  8
Layer_0
  10
177.53453
  20
312.01855
  0
VERTEX
  5
494
  8
Layer_0
  10
177.34096
  20
311.90228
  0
VERTEX
  5
495
  8
Layer_0
  10
177.0663
  20
311.73523
  0
VERTEX
  5
496
  8
Layer_0
  10
176.72276
  20
311.5213
  0
VERTEX
  5
497
  8
Layer_0
  10
176.38387
  20
311.30005
  0
VERTEX
  5
498
  8
Layer_0
  10
176.04982
  20
311.07153
  0
VERTEX
  5
499
  8
Layer_0
  10
175.57344
  20
310.72693
  0
VERTEX
  5
49a
  8
Layer_0
  10
175.31697
  20
310.53522
  0
VERTEX
  5
49b
  8
Layer_0
  10
174.99541
  20
310.28955
  0
VERTEX
  5
49c
  8
Layer_0
  10
174.67924
  20
310.03687
  0
VERTEX
  5
49d
  8
Layer_0
  10
174.36855
  20
309.77765
  0
VERTEX
  5
49e
  8
Layer_0
  10
173.92497
  20
309.38727
  0
VERTEX
  5
49f
  8
Layer_0
  10
173.68828
  20
309.17224
  0
VERTEX
  5
4a0
  8
Layer_0
  10
173.39165
  20
308.89703
  0
VERTEX
  5
4a1
  8
Layer_0
  10
173.101
  20
308.61536
  0
VERTEX
  5
4a2
  8
Layer_0
  10
172.8163
  20
308.32764
  0
VERTEX
  5
4a3
  8
Layer_0
  10
172.40773
  20
307.89166
  0
VERTEX
  5
4a4
  8
Layer_0
  10
172.1927
  20
307.65497
  0
VERTEX
  5
4a5
  8
Layer_0
  10
171.92375
  20
307.35242
  0
VERTEX
  5
4a6
  8
Layer_0
  10
171.6613
  20
307.04437
  0
VERTEX
  5
4a7
  8
Layer_0
  10
171.40562
  20
306.73071
  0
VERTEX
  5
4a8
  8
Layer_0
  10
171.04475
  20
306.263
  0
VERTEX
  5
4a9
  8
Layer_0
  10
170.85304
  20
306.00653
  0
VERTEX
  5
4aa
  8
Layer_0
  10
170.61418
  20
305.67981
  0
VERTEX
  5
4ab
  8
Layer_0
  10
170.38237
  20
305.34796
  0
VERTEX
  5
4ac
  8
Layer_0
  10
170.15788
  20
305.01117
  0
VERTEX
  5
4ad
  8
Layer_0
  10
169.84471
  20
304.51367
  0
VERTEX
  5
4ae
  8
Layer_0
  10
169.67769
  20
304.23901
  0
VERTEX
  5
4af
  8
Layer_0
  10
169.47112
  20
303.89087
  0
VERTEX
  5
4b0
  8
Layer_0
  10
169.27208
  20
303.5387
  0
VERTEX
  5
4b1
  8
Layer_0
  10
169.0804
  20
303.18188
  0
VERTEX
  5
4b2
  8
Layer_0
  10
168.89684
  20
302.82129
  0
VERTEX
  5
4b3
  8
Layer_0
  10
168.79762
  20
302.61847
  0
VERTEX
  5
4b4
  8
Layer_0
  10
168.65742
  20
302.32727
  0
VERTEX
  5
4b5
  8
Layer_0
  10
168.48582
  20
301.96069
  0
VERTEX
  5
4b6
  8
Layer_0
  10
168.32204
  20
301.59061
  0
VERTEX
  5
4b7
  8
Layer_0
  10
168.16643
  20
301.21725
  0
VERTEX
  5
4b8
  8
Layer_0
  10
168.01866
  20
300.84039
  0
VERTEX
  5
4b9
  8
Layer_0
  10
167.93813
  20
300.62457
  0
VERTEX
  5
4ba
  8
Layer_0
  10
167.82616
  20
300.31845
  0
VERTEX
  5
4bb
  8
Layer_0
  10
167.69112
  20
299.93698
  0
VERTEX
  5
4bc
  8
Layer_0
  10
167.5645
  20
299.55249
  0
VERTEX
  5
4bd
  8
Layer_0
  10
167.44603
  20
299.16559
  0
VERTEX
  5
4be
  8
Layer_0
  10
167.33595
  20
298.776
  0
VERTEX
  5
4bf
  8
Layer_0
  10
167.27223
  20
298.53549
  0
VERTEX
  5
4c0
  8
Layer_0
  10
167.19008
  20
298.21613
  0
VERTEX
  5
4c1
  8
Layer_0
  10
167.09355
  20
297.82297
  0
VERTEX
  5
4c2
  8
Layer_0
  10
167.00545
  20
297.42792
  0
VERTEX
  5
4c3
  8
Layer_0
  10
166.92574
  20
297.03125
  0
VERTEX
  5
4c4
  8
Layer_0
  10
166.85442
  20
296.63269
  0
VERTEX
  5
4c5
  8
Layer_0
  10
166.8105
  20
296.35858
  0
VERTEX
  5
4c6
  8
Layer_0
  10
166.76006
  20
296.0278
  0
VERTEX
  5
4c7
  8
Layer_0
  10
166.70338
  20
295.62708
  0
VERTEX
  5
4c8
  8
Layer_0
  10
166.65541
  20
295.22528
  0
VERTEX
  5
4c9
  8
Layer_0
  10
166.61583
  20
294.82236
  0
VERTEX
  5
4ca
  8
Layer_0
  10
166.58519
  20
294.41891
  0
VERTEX
  5
4cb
  8
Layer_0
  10
166.56892
  20
294.14319
  0
VERTEX
  5
4cc
  8
Layer_0
  10
166.55156
  20
293.80264
  0
VERTEX
  5
4cd
  8
Layer_0
  10
166.53529
  20
293.3981
  0
VERTEX
  5
4ce
  8
Layer_0
  10
166.52769
  20
292.99359
  0
VERTEX
  5
4cf
  8
Layer_0
  10
166.52879
  20
292.58878
  0
VERTEX
  5
4d0
  8
Layer_0
  10
166.53856
  20
292.18427
  0
VERTEX
  5
4d1
  8
Layer_0
  10
166.55156
  20
291.88086
  0
VERTEX
  5
4d2
  8
Layer_0
  10
166.56892
  20
291.54031
  0
VERTEX
  5
4d3
  8
Layer_0
  10
166.59386
  20
291.1366
  0
VERTEX
  5
4d4
  8
Layer_0
  10
166.62749
  20
290.73315
  0
VERTEX
  5
4d5
  8
Layer_0
  10
166.66978
  20
290.33054
  0
VERTEX
  5
4d6
  8
Layer_0
  10
166.72047
  20
289.92926
  0
VERTEX
  5
4d7
  8
Layer_0
  10
166.76006
  20
289.6557
  0
VERTEX
  5
4d8
  8
Layer_0
  10
166.8105
  20
289.32489
  0
VERTEX
  5
4d9
  8
Layer_0
  10
166.87584
  20
288.92554
  0
VERTEX
  5
4da
  8
Layer_0
  10
166.94957
  20
288.52753
  0
VERTEX
  5
4db
  8
Layer_0
  10
167.032
  20
288.13141
  0
VERTEX
  5
4dc
  8
Layer_0
  10
167.12285
  20
287.73688
  0
VERTEX
  5
4dd
  8
Layer_0
  10
167.19008
  20
287.46741
  0
VERTEX
  5
4de
  8
Layer_0
  10
167.27223
  20
287.14801
  0
VERTEX
  5
4df
  8
Layer_0
  10
167.37715
  20
286.75729
  0
VERTEX
  5
4e0
  8
Layer_0
  10
167.49077
  20
286.36877
  0
VERTEX
  5
4e1
  8
Layer_0
  10
167.61223
  20
285.98267
  0
VERTEX
  5
4e2
  8
Layer_0
  10
167.74211
  20
285.5993
  0
VERTEX
  5
4e3
  8
Layer_0
  10
167.82616
  20
285.36505
  0
VERTEX
  5
4e4
  8
Layer_0
  10
167.93813
  20
285.05893
  0
VERTEX
  5
4e5
  8
Layer_0
  10
168.08128
  20
284.68042
  0
VERTEX
  5
4e6
  8
Layer_0
  10
168.23256
  20
284.30493
  0
VERTEX
  5
4e7
  8
Layer_0
  10
168.39174
  20
283.93292
  0
VERTEX
  5
4e8
  8
Layer_0
  10
168.55873
  20
283.56421
  0
VERTEX
  5
4e9
  8
Layer_0
  10
168.65742
  20
283.35623
  0
VERTEX
  5
4ea
  8
Layer_0
  10
168.79762
  20
283.06503
  0
VERTEX
  5
4eb
  8
Layer_0
  10
168.9771
  20
282.70227
  0
VERTEX
  5
4ec
  8
Layer_0
  10
169.16417
  20
282.34329
  0
VERTEX
  5
4ed
  8
Layer_0
  10
169.35912
  20
281.98865
  0
VERTEX
  5
4ee
  8
Layer_0
  10
169.56139
  20
281.63806
  0
VERTEX
  5
4ef
  8
Layer_0
  10
169.67769
  20
281.44449
  0
VERTEX
  5
4f0
  8
Layer_0
  10
169.84471
  20
281.16983
  0
VERTEX
  5
4f1
  8
Layer_0
  10
170.05864
  20
280.82629
  0
VERTEX
  5
4f2
  8
Layer_0
  10
170.27989
  20
280.4874
  0
VERTEX
  5
4f3
  8
Layer_0
  10
170.50844
  20
280.15338
  0
VERTEX
  5
4f4
  8
Layer_0
  10
170.85304
  20
279.677
  0
VERTEX
  5
4f5
  8
Layer_0
  10
171.04475
  20
279.42047
  0
VERTEX
  5
4f6
  8
Layer_0
  10
171.29039
  20
279.09894
  0
VERTEX
  5
4f7
  8
Layer_0
  10
171.54308
  20
278.78278
  0
VERTEX
  5
4f8
  8
Layer_0
  10
171.80229
  20
278.47208
  0
VERTEX
  5
4f9
  8
Layer_0
  10
172.1927
  20
278.0285
  0
VERTEX
  5
4fa
  8
Layer_0
  10
172.40773
  20
277.79181
  0
VERTEX
  5
4fb
  8
Layer_0
  10
172.68291
  20
277.49518
  0
VERTEX
  5
4fc
  8
Layer_0
  10
172.96461
  20
277.20453
  0
VERTEX
  5
4fd
  8
Layer_0
  10
173.2523
  20
276.91986
  0
VERTEX
  5
4fe
  8
Layer_0
  10
173.68828
  20
276.51126
  0
VERTEX
  5
4ff
  8
Layer_0
  10
173.92497
  20
276.29626
  0
VERTEX
  5
500
  8
Layer_0
  10
174.22755
  20
276.02728
  0
VERTEX
  5
501
  8
Layer_0
  10
174.53557
  20
275.76483
  0
VERTEX
  5
502
  8
Layer_0
  10
174.84926
  20
275.50916
  0
VERTEX
  5
503
  8
Layer_0
  10
175.31697
  20
275.14828
  0
VERTEX
  5
504
  8
Layer_0
  10
175.57344
  20
274.9566
  0
VERTEX
  5
505
  8
Layer_0
  10
175.90016
  20
274.71771
  0
VERTEX
  5
506
  8
Layer_0
  10
176.23201
  20
274.4859
  0
VERTEX
  5
507
  8
Layer_0
  10
176.56877
  20
274.26141
  0
VERTEX
  5
508
  8
Layer_0
  10
177.0663
  20
273.94824
  0
VERTEX
  5
509
  8
Layer_0
  10
177.34096
  20
273.78125
  0
VERTEX
  5
50a
  8
Layer_0
  10
177.68907
  20
273.57465
  0
VERTEX
  5
50b
  8
Layer_0
  10
178.04128
  20
273.37561
  0
VERTEX
  5
50c
  8
Layer_0
  10
178.39809
  20
273.18396
  0
VERTEX
  5
50d
  8
Layer_0
  10
178.75868
  20
273.00037
  0
VERTEX
  5
50e
  8
Layer_0
  10
178.9615
  20
272.90115
  0
VERTEX
  5
50f
  8
Layer_0
  10
179.2527
  20
272.76099
  0
VERTEX
  5
510
  8
Layer_0
  10
179.61925
  20
272.58936
  0
VERTEX
  5
511
  8
Layer_0
  10
179.98936
  20
272.4256
  0
VERTEX
  5
512
  8
Layer_0
  10
180.36272
  20
272.26996
  0
VERTEX
  5
513
  8
Layer_0
  10
180.73958
  20
272.12219
  0
VERTEX
  5
514
  8
Layer_0
  10
180.94157
  20
272.04681
  0
VERTEX
  5
515
  8
Layer_0
  10
181.24767
  20
271.93457
  0
VERTEX
  5
516
  8
Layer_0
  10
181.62917
  20
271.79926
  0
VERTEX
  5
517
  8
Layer_0
  10
182.01335
  20
271.67212
  0
VERTEX
  5
518
  8
Layer_0
  10
182.40025
  20
271.55334
  0
VERTEX
  5
519
  8
Layer_0
  10
182.7896
  20
271.44299
  0
VERTEX
  5
51a
  8
Layer_0
  10
183.0591
  20
271.3717
  0
VERTEX
  5
51b
  8
Layer_0
  10
183.37849
  20
271.28979
  0
VERTEX
  5
51c
  8
Layer_0
  10
183.77162
  20
271.19354
  0
VERTEX
  5
51d
  8
Layer_0
  10
184.16667
  20
271.10571
  0
VERTEX
  5
51e
  8
Layer_0
  10
184.56361
  20
271.02628
  0
VERTEX
  5
51f
  8
Layer_0
  10
184.9619
  20
270.95551
  0
VERTEX
  5
520
  8
Layer_0
  10
185.22136
  20
270.91403
  0
VERTEX
  5
521
  8
Layer_0
  10
185.55214
  20
270.86359
  0
VERTEX
  5
522
  8
Layer_0
  10
185.9529
  20
270.80695
  0
VERTEX
  5
523
  8
Layer_0
  10
186.35469
  20
270.75894
  0
VERTEX
  5
524
  8
Layer_0
  10
186.75761
  20
270.71936
  0
VERTEX
  5
525
  8
Layer_0
  10
187.16106
  20
270.68872
  0
VERTEX
  5
526
  8
Layer_0
  10
187.43678
  20
270.67245
  0
VERTEX
  5
527
  8
Layer_0
  10
187.77733
  20
270.65509
  0
VERTEX
  5
528
  8
Layer_0
  10
188.18184
  20
270.63882
  0
VERTEX
  5
529
  8
Layer_0
  10
188.58638
  20
270.63123
  0
VERTEX
  5
52a
  8
Layer_0
  10
188.99117
  20
270.63232
  0
SEQEND
  0
CIRCLE
  5
52c
  8
Layer_0
  62
0
  10
97.675049
  20
292.84174
  30
0
  40
3.3316576
  0
POLYLINE
  5
52c
  8
Layer_0
  62
0
  66
1
  10
0
  20
0
  30
0
  0
VERTEX
  5
52c
  8
Layer_0
  10
97.807373
  20
279.84967
  0
VERTEX
  5
52d
  8
Layer_0
  10
98.01886
  20
279.85486
  0
VERTEX
  5
52e
  8
Layer_0
  10
98.210266
  20
279.86298
  0
VERTEX
  5
52f
  8
Layer_0
  10
98.465393
  20
279.87598
  0
VERTEX
  5
530
  8
Layer_0
  10
98.717285
  20
279.89145
  0
VERTEX
  5
531
  8
Layer_0
  10
98.911133
  20
279.90771
  0
VERTEX
  5
532
  8
Layer_0
  10
99.125061
  20
279.93024
  0
VERTEX
  5
533
  8
Layer_0
  10
99.340881
  20
279.95758
  0
VERTEX
  5
534
  8
Layer_0
  10
99.762482
  20
280.02023
  0
VERTEX
  5
535
  8
Layer_0
  10
100.00272
  20
280.05957
  0
VERTEX
  5
536
  8
Layer_0
  10
100.21637
  20
280.09912
  0
VERTEX
  5
537
  8
Layer_0
  10
100.40616
  20
280.13843
  0
VERTEX
  5
538
  8
Layer_0
  10
100.6152
  20
280.18671
  0
VERTEX
  5
539
  8
Layer_0
  10
101.02243
  20
280.28973
  0
VERTEX
  5
53a
  8
Layer_0
  10
101.26782
  20
280.35562
  0
VERTEX
  5
53b
  8
Layer_0
  10
101.47333
  20
280.41553
  0
VERTEX
  5
53c
  8
Layer_0
  10
101.66528
  20
280.47574
  0
VERTEX
  5
53d
  8
Layer_0
  10
101.85507
  20
280.53998
  0
VERTEX
  5
53e
  8
Layer_0
  10
102.2569
  20
280.68585
  0
VERTEX
  5
53f
  8
Layer_0
  10
102.49304
  20
280.77533
  0
VERTEX
  5
540
  8
Layer_0
  10
102.68204
  20
280.8515
  0
VERTEX
  5
541
  8
Layer_0
  10
102.87344
  20
280.93365
  0
VERTEX
  5
542
  8
Layer_0
  10
103.07654
  20
281.02588
  0
VERTEX
  5
543
  8
Layer_0
  10
103.41299
  20
281.18689
  0
VERTEX
  5
544
  8
Layer_0
  10
103.6402
  20
281.29944
  0
VERTEX
  5
545
  8
Layer_0
  10
103.82294
  20
281.39459
  0
VERTEX
  5
546
  8
Layer_0
  10
104.00162
  20
281.49274
  0
VERTEX
  5
547
  8
Layer_0
  10
104.1868
  20
281.59958
  0
VERTEX
  5
548
  8
Layer_0
  10
104.51462
  20
281.79779
  0
VERTEX
  5
549
  8
Layer_0
  10
104.72879
  20
281.93091
  0
VERTEX
  5
54a
  8
Layer_0
  10
104.90692
  20
282.04721
  0
VERTEX
  5
54b
  8
Layer_0
  10
105.05417
  20
282.14752
  0
VERTEX
  5
54c
  8
Layer_0
  10
105.37708
  20
282.38153
  0
VERTEX
  5
54d
  8
Layer_0
  10
105.55386
  20
282.51382
  0
VERTEX
  5
54e
  8
Layer_0
  10
105.74283
  20
282.65808
  0
VERTEX
  5
54f
  8
Layer_0
  10
105.91501
  20
282.79581
  0
VERTEX
  5
550
  8
Layer_0
  10
106.04785
  20
282.90668
  0
VERTEX
  5
551
  8
Layer_0
  10
106.33499
  20
283.15967
  0
VERTEX
  5
552
  8
Layer_0
  10
106.50009
  20
283.3096
  0
VERTEX
  5
553
  8
Layer_0
  10
106.67743
  20
283.47418
  0
VERTEX
  5
554
  8
Layer_0
  10
106.82764
  20
283.61975
  0
VERTEX
  5
555
  8
Layer_0
  10
106.95398
  20
283.74747
  0
VERTEX
  5
556
  8
Layer_0
  10
107.22998
  20
284.04193
  0
VERTEX
  5
557
  8
Layer_0
  10
107.36798
  20
284.19376
  0
VERTEX
  5
558
  8
Layer_0
  10
107.53067
  20
284.37677
  0
VERTEX
  5
559
  8
Layer_0
  10
107.6749
  20
284.54596
  0
VERTEX
  5
55a
  8
Layer_0
  10
107.78445
  20
284.68042
  0
VERTEX
  5
55b
  8
Layer_0
  10
108.02682
  20
284.99438
  0
VERTEX
  5
55c
  8
Layer_0
  10
108.14966
  20
285.15869
  0
VERTEX
  5
55d
  8
Layer_0
  10
108.29581
  20
285.35852
  0
VERTEX
  5
55e
  8
Layer_0
  10
108.41861
  20
285.53448
  0
VERTEX
  5
55f
  8
Layer_0
  10
108.51703
  20
285.68201
  0
VERTEX
  5
560
  8
Layer_0
  10
108.72934
  20
286.01901
  0
VERTEX
  5
561
  8
Layer_0
  10
108.84103
  20
286.20313
  0
VERTEX
  5
562
  8
Layer_0
  10
108.96387
  20
286.40997
  0
VERTEX
  5
563
  8
Layer_0
  10
109.065
  20
286.58865
  0
VERTEX
  5
564
  8
Layer_0
  10
109.16315
  20
286.77167
  0
VERTEX
  5
565
  8
Layer_0
  10
109.26401
  20
286.96985
  0
VERTEX
  5
566
  8
Layer_0
  10
109.43619
  20
287.32504
  0
VERTEX
  5
567
  8
Layer_0
  10
109.53296
  20
287.53137
  0
VERTEX
  5
568
  8
Layer_0
  10
109.61893
  20
287.72552
  0
VERTEX
  5
569
  8
Layer_0
  10
109.7027
  20
287.92639
  0
VERTEX
  5
56a
  8
Layer_0
  10
109.77914
  20
288.12164
  0
VERTEX
  5
56b
  8
Layer_0
  10
109.91797
  20
288.49744
  0
VERTEX
  5
56c
  8
Layer_0
  10
109.99661
  20
288.71921
  0
VERTEX
  5
56d
  8
Layer_0
  10
110.06302
  20
288.91956
  0
VERTEX
  5
56e
  8
Layer_0
  10
110.12375
  20
289.11749
  0
VERTEX
  5
56f
  8
Layer_0
  10
110.18069
  20
289.31842
  0
VERTEX
  5
570
  8
Layer_0
  10
110.22409
  20
289.48273
  0
VERTEX
  5
571
  8
Layer_0
  10
110.284
  20
289.71588
  0
VERTEX
  5
572
  8
Layer_0
  10
110.34854
  20
289.97998
  0
VERTEX
  5
573
  8
Layer_0
  10
110.39084
  20
290.17004
  0
VERTEX
  5
574
  8
Layer_0
  10
110.43231
  20
290.37744
  0
VERTEX
  5
575
  8
Layer_0
  10
110.46863
  20
290.58133
  0
VERTEX
  5
576
  8
Layer_0
  10
110.53452
  20
291.00458
  0
VERTEX
  5
577
  8
Layer_0
  10
110.56787
  20
291.23828
  0
VERTEX
  5
578
  8
Layer_0
  10
110.595
  20
291.46252
  0
VERTEX
  5
579
  8
Layer_0
  10
110.61316
  20
291.6474
  0
VERTEX
  5
57a
  8
Layer_0
  10
110.63049
  20
291.87219
  0
VERTEX
  5
57b
  8
Layer_0
  10
110.64191
  20
292.06793
  0
VERTEX
  5
57c
  8
Layer_0
  10
110.65384
  20
292.30627
  0
VERTEX
  5
57d
  8
Layer_0
  10
110.66385
  20
292.56439
  0
VERTEX
  5
57e
  8
Layer_0
  10
110.66766
  20
292.76501
  0
VERTEX
  5
57f
  8
Layer_0
  10
110.66684
  20
292.9895
  0
VERTEX
  5
580
  8
Layer_0
  10
110.66168
  20
293.19586
  0
VERTEX
  5
581
  8
Layer_0
  10
110.65436
  20
293.36908
  0
VERTEX
  5
582
  8
Layer_0
  10
110.6427
  20
293.60037
  0
VERTEX
  5
583
  8
Layer_0
  10
110.62589
  20
293.8761
  0
VERTEX
  5
584
  8
Layer_0
  10
110.60883
  20
294.08301
  0
VERTEX
  5
585
  8
Layer_0
  10
110.58847
  20
294.27954
  0
VERTEX
  5
586
  8
Layer_0
  10
110.55975
  20
294.50839
  0
VERTEX
  5
587
  8
Layer_0
  10
110.53506
  20
294.67865
  0
VERTEX
  5
588
  8
Layer_0
  10
110.49738
  20
294.92404
  0
VERTEX
  5
589
  8
Layer_0
  10
110.45535
  20
295.17999
  0
VERTEX
  5
58a
  8
Layer_0
  10
110.41632
  20
295.38983
  0
VERTEX
  5
58b
  8
Layer_0
  10
110.37564
  20
295.58423
  0
VERTEX
  5
58c
  8
Layer_0
  10
110.32739
  20
295.79355
  0
VERTEX
  5
58d
  8
Layer_0
  10
110.22815
  20
296.18481
  0
VERTEX
  5
58e
  8
Layer_0
  10
110.16119
  20
296.43506
  0
VERTEX
  5
58f
  8
Layer_0
  10
110.10803
  20
296.61804
  0
VERTEX
  5
590
  8
Layer_0
  10
110.03943
  20
296.83661
  0
VERTEX
  5
591
  8
Layer_0
  10
109.9798
  20
297.01257
  0
VERTEX
  5
592
  8
Layer_0
  10
109.82932
  20
297.42792
  0
VERTEX
  5
593
  8
Layer_0
  10
109.74146
  20
297.65973
  0
VERTEX
  5
594
  8
Layer_0
  10
109.66418
  20
297.85117
  0
VERTEX
  5
595
  8
Layer_0
  10
109.58286
  20
298.04095
  0
VERTEX
  5
596
  8
Layer_0
  10
109.49094
  20
298.24323
  0
VERTEX
  5
597
  8
Layer_0
  10
109.3299
  20
298.57971
  0
VERTEX
  5
598
  8
Layer_0
  10
109.22037
  20
298.80121
  0
VERTEX
  5
599
  8
Layer_0
  10
109.12219
  20
298.98962
  0
VERTEX
  5
59a
  8
Layer_0
  10
109.02405
  20
299.16833
  0
VERTEX
  5
59b
  8
Layer_0
  10
108.91562
  20
299.3562
  0
VERTEX
  5
59c
  8
Layer_0
  10
108.71985
  20
299.67969
  0
VERTEX
  5
59d
  8
Layer_0
  10
108.58401
  20
299.89819
  0
VERTEX
  5
59e
  8
Layer_0
  10
108.46634
  20
300.0788
  0
VERTEX
  5
59f
  8
Layer_0
  10
108.3671
  20
300.22357
  0
VERTEX
  5
5a0
  8
Layer_0
  10
108.13583
  20
300.54321
  0
VERTEX
  5
5a1
  8
Layer_0
  10
108.01544
  20
300.70428
  0
VERTEX
  5
5a2
  8
Layer_0
  10
107.86118
  20
300.90625
  0
VERTEX
  5
5a3
  8
Layer_0
  10
107.72995
  20
301.07056
  0
VERTEX
  5
5a4
  8
Layer_0
  10
107.60739
  20
301.21725
  0
VERTEX
  5
5a5
  8
Layer_0
  10
107.3577
  20
301.50113
  0
VERTEX
  5
5a6
  8
Layer_0
  10
107.20721
  20
301.66681
  0
VERTEX
  5
5a7
  8
Layer_0
  10
107.04291
  20
301.84384
  0
VERTEX
  5
5a8
  8
Layer_0
  10
106.89514
  20
301.99622
  0
VERTEX
  5
5a9
  8
Layer_0
  10
106.76932
  20
302.12067
  0
VERTEX
  5
5aa
  8
Layer_0
  10
106.47488
  20
302.39667
  0
VERTEX
  5
5ab
  8
Layer_0
  10
106.32306
  20
302.53467
  0
VERTEX
  5
5ac
  8
Layer_0
  10
106.1376
  20
302.69952
  0
VERTEX
  5
5ad
  8
Layer_0
  10
105.97086
  20
302.84161
  0
VERTEX
  5
5ae
  8
Layer_0
  10
105.83231
  20
302.95465
  0
VERTEX
  5
5af
  8
Layer_0
  10
105.53784
  20
303.18188
  0
VERTEX
  5
5b0
  8
Layer_0
  10
105.35675
  20
303.31744
  0
VERTEX
  5
5b1
  8
Layer_0
  10
105.15338
  20
303.466
  0
VERTEX
  5
5b2
  8
Layer_0
  10
104.99341
  20
303.578
  0
VERTEX
  5
5b3
  8
Layer_0
  10
104.83807
  20
303.68182
  0
VERTEX
  5
5b4
  8
Layer_0
  10
104.49292
  20
303.89902
  0
VERTEX
  5
5b5
  8
Layer_0
  10
104.30609
  20
304.01263
  0
VERTEX
  5
5b6
  8
Layer_0
  10
104.10791
  20
304.13
  0
VERTEX
  5
5b7
  8
Layer_0
  10
103.91867
  20
304.23685
  0
VERTEX
  5
5b8
  8
Layer_0
  10
103.74054
  20
304.33228
  0
VERTEX
  5
5b9
  8
Layer_0
  10
103.5491
  20
304.42987
  0
VERTEX
  5
5ba
  8
Layer_0
  10
103.18146
  20
304.60773
  0
VERTEX
  5
5bb
  8
Layer_0
  10
102.9819
  20
304.70129
  0
VERTEX
  5
5bc
  8
Layer_0
  10
102.79129
  20
304.78558
  0
VERTEX
  5
5bd
  8
Layer_0
  10
102.59039
  20
304.86938
  0
VERTEX
  5
5be
  8
Layer_0
  10
102.39517
  20
304.94586
  0
VERTEX
  5
5bf
  8
Layer_0
  10
102.01938
  20
305.08466
  0
VERTEX
  5
5c0
  8
Layer_0
  10
101.79761
  20
305.16327
  0
VERTEX
  5
5c1
  8
Layer_0
  10
101.59723
  20
305.22974
  0
VERTEX
  5
5c2
  8
Layer_0
  10
101.39932
  20
305.29047
  0
VERTEX
  5
5c3
  8
Layer_0
  10
101.20978
  20
305.34412
  0
VERTEX
  5
5c4
  8
Layer_0
  10
100.77979
  20
305.45612
  0
VERTEX
  5
5c5
  8
Layer_0
  10
100.54822
  20
305.51276
  0
VERTEX
  5
5c6
  8
Layer_0
  10
100.35086
  20
305.5567
  0
VERTEX
  5
5c7
  8
Layer_0
  10
100.13965
  20
305.599
  0
VERTEX
  5
5c8
  8
Layer_0
  10
99.928711
  20
305.63672
  0
VERTEX
  5
5c9
  8
Layer_0
  10
99.519836
  20
305.70013
  0
VERTEX
  5
5ca
  8
Layer_0
  10
99.270111
  20
305.7359
  0
VERTEX
  5
5cb
  8
Layer_0
  10
99.075439
  20
305.75922
  0
VERTEX
  5
5cc
  8
Layer_0
  10
98.85257
  20
305.78149
  0
VERTEX
  5
5cd
  8
Layer_0
  10
98.650055
  20
305.79694
  0
VERTEX
  5
5ce
  8
Layer_0
  10
98.453186
  20
305.80859
  0
VERTEX
  5
5cf
  8
Layer_0
  10
98.210541
  20
305.8205
  0
VERTEX
  5
5d0
  8
Layer_0
  10
97.952423
  20
305.83057
  0
VERTEX
  5
5d1
  8
Layer_0
  10
97.75177
  20
305.83435
  0
VERTEX
  5
5d2
  8
Layer_0
  10
97.527283
  20
305.83356
  0
VERTEX
  5
5d3
  8
Layer_0
  10
97.320953
  20
305.82837
  0
VERTEX
  5
5d4
  8
Layer_0
  10
97.147705
  20
305.82104
  0
VERTEX
  5
5d5
  8
Layer_0
  10
96.913452
  20
305.80939
  0
VERTEX
  5
5d6
  8
Layer_0
  10
96.637695
  20
305.7926
  0
VERTEX
  5
5d7
  8
Layer_0
  10
96.433807
  20
305.77551
  0
VERTEX
  5
5d8
  8
Layer_0
  10
96.237244
  20
305.75519
  0
VERTEX
  5
5d9
  8
Layer_0
  10
96.008423
  20
305.72644
  0
VERTEX
  5
5da
  8
Layer_0
  10
95.838135
  20
305.70178
  0
VERTEX
  5
5db
  8
Layer_0
  10
95.592773
  20
305.66406
  0
VERTEX
  5
5dc
  8
Layer_0
  10
95.336823
  20
305.62207
  0
VERTEX
  5
5dd
  8
Layer_0
  10
95.126953
  20
305.58301
  0
VERTEX
  5
5de
  8
Layer_0
  10
94.932556
  20
305.54236
  0
VERTEX
  5
5df
  8
Layer_0
  10
94.723267
  20
305.49408
  0
VERTEX
  5
5e0
  8
Layer_0
  10
94.332001
  20
305.39484
  0
VERTEX
  5
5e1
  8
Layer_0
  10
94.081757
  20
305.32788
  0
VERTEX
  5
5e2
  8
Layer_0
  10
93.889252
  20
305.27203
  0
VERTEX
  5
5e3
  8
Layer_0
  10
93.680206
  20
305.20612
  0
VERTEX
  5
5e4
  8
Layer_0
  10
93.504242
  20
305.14648
  0
VERTEX
  5
5e5
  8
Layer_0
  10
93.082367
  20
304.99359
  0
VERTEX
  5
5e6
  8
Layer_0
  10
92.857056
  20
304.90814
  0
VERTEX
  5
5e7
  8
Layer_0
  10
92.665649
  20
304.83087
  0
VERTEX
  5
5e8
  8
Layer_0
  10
92.475861
  20
304.74957
  0
VERTEX
  5
5e9
  8
Layer_0
  10
92.27359
  20
304.65765
  0
VERTEX
  5
5ea
  8
Layer_0
  10
91.937103
  20
304.49658
  0
VERTEX
  5
5eb
  8
Layer_0
  10
91.7099
  20
304.38406
  0
VERTEX
  5
5ec
  8
Layer_0
  10
91.526611
  20
304.28864
  0
VERTEX
  5
5ed
  8
Layer_0
  10
91.34848
  20
304.19073
  0
VERTEX
  5
5ee
  8
Layer_0
  10
91.155975
  20
304.07959
  0
VERTEX
  5
5ef
  8
Layer_0
  10
90.837128
  20
303.88654
  0
VERTEX
  5
5f0
  8
Layer_0
  10
90.614807
  20
303.74826
  0
VERTEX
  5
5f1
  8
Layer_0
  10
90.438019
  20
303.63303
  0
VERTEX
  5
5f2
  8
Layer_0
  10
90.293243
  20
303.53381
  0
VERTEX
  5
5f3
  8
Layer_0
  10
89.973572
  20
303.30252
  0
VERTEX
  5
5f4
  8
Layer_0
  10
89.812256
  20
303.18188
  0
VERTEX
  5
5f5
  8
Layer_0
  10
89.610535
  20
303.02786
  0
VERTEX
  5
5f6
  8
Layer_0
  10
89.446228
  20
302.89664
  0
VERTEX
  5
5f7
  8
Layer_0
  10
89.298737
  20
302.77356
  0
VERTEX
  5
5f8
  8
Layer_0
  10
89.015686
  20
302.52438
  0
VERTEX
  5
5f9
  8
Layer_0
  10
88.850006
  20
302.3739
  0
VERTEX
  5
5fa
  8
Layer_0
  10
88.672699
  20
302.20932
  0
VERTEX
  5
5fb
  8
Layer_0
  10
88.520599
  20
302.06183
  0
VERTEX
  5
5fc
  8
Layer_0
  10
88.396149
  20
301.93604
  0
VERTEX
  5
5fd
  8
Layer_0
  10
88.120117
  20
301.64157
  0
VERTEX
  5
5fe
  8
Layer_0
  10
87.982117
  20
301.48975
  0
VERTEX
  5
5ff
  8
Layer_0
  10
87.817261
  20
301.30429
  0
VERTEX
  5
600
  8
Layer_0
  10
87.675201
  20
301.13754
  0
VERTEX
  5
601
  8
Layer_0
  10
87.559967
  20
300.99603
  0
VERTEX
  5
602
  8
Layer_0
  10
87.323273
  20
300.68909
  0
VERTEX
  5
603
  8
Layer_0
  10
87.200439
  20
300.52478
  0
VERTEX
  5
604
  8
Layer_0
  10
87.049713
  20
300.31845
  0
VERTEX
  5
605
  8
Layer_0
  10
86.931488
  20
300.14899
  0
VERTEX
  5
606
  8
Layer_0
  10
86.833069
  20
300.00153
  0
VERTEX
  5
607
  8
Layer_0
  10
86.620758
  20
299.66449
  0
VERTEX
  5
608
  8
Layer_0
  10
86.509064
  20
299.48041
  0
VERTEX
  5
609
  8
Layer_0
  10
86.384888
  20
299.27106
  0
VERTEX
  5
60a
  8
Layer_0
  10
86.281586
  20
299.08832
  0
VERTEX
  5
60b
  8
Layer_0
  10
86.186432
  20
298.91077
  0
VERTEX
  5
60c
  8
Layer_0
  10
86.08609
  20
298.71362
  0
VERTEX
  5
60d
  8
Layer_0
  10
85.91394
  20
298.35846
  0
VERTEX
  5
60e
  8
Layer_0
  10
85.814148
  20
298.14563
  0
VERTEX
  5
60f
  8
Layer_0
  10
85.729309
  20
297.95367
  0
VERTEX
  5
610
  8
Layer_0
  10
85.646881
  20
297.75598
  0
VERTEX
  5
611
  8
Layer_0
  10
85.567963
  20
297.55426
  0
VERTEX
  5
612
  8
Layer_0
  10
85.437836
  20
297.20154
  0
VERTEX
  5
613
  8
Layer_0
  10
85.351868
  20
296.95886
  0
VERTEX
  5
614
  8
Layer_0
  10
85.28653
  20
296.76013
  0
VERTEX
  5
615
  8
Layer_0
  10
85.223907
  20
296.55624
  0
VERTEX
  5
616
  8
Layer_0
  10
85.170776
  20
296.36755
  0
VERTEX
  5
617
  8
Layer_0
  10
85.06015
  20
295.94348
  0
VERTEX
  5
618
  8
Layer_0
  10
85.005096
  20
295.71872
  0
VERTEX
  5
619
  8
Layer_0
  10
84.959839
  20
295.51617
  0
VERTEX
  5
61a
  8
Layer_0
  10
84.91861
  20
295.31122
  0
VERTEX
  5
61b
  8
Layer_0
  10
84.881744
  20
295.10486
  0
VERTEX
  5
61c
  8
Layer_0
  10
84.848938
  20
294.90018
  0
VERTEX
  5
61d
  8
Layer_0
  10
84.818573
  20
294.70062
  0
VERTEX
  5
61e
  8
Layer_0
  10
84.781158
  20
294.43573
  0
VERTEX
  5
61f
  8
Layer_0
  10
84.756195
  20
294.22723
  0
VERTEX
  5
620
  8
Layer_0
  10
84.735596
  20
294.01898
  0
VERTEX
  5
621
  8
Layer_0
  10
84.71933
  20
293.80264
  0
VERTEX
  5
622
  8
Layer_0
  10
84.709564
  20
293.63885
  0
VERTEX
  5
623
  8
Layer_0
  10
84.69574
  20
293.36801
  0
VERTEX
  5
624
  8
Layer_0
  10
84.686523
  20
293.13321
  0
VERTEX
  5
625
  8
Layer_0
  10
84.682465
  20
292.9212
  0
VERTEX
  5
626
  8
Layer_0
  10
84.683014
  20
292.70508
  0
VERTEX
  5
627
  8
Layer_0
  10
84.688141
  20
292.49796
  0
VERTEX
  5
628
  8
Layer_0
  10
84.696564
  20
292.30029
  0
VERTEX
  5
629
  8
Layer_0
  10
84.70929
  20
292.05139
  0
VERTEX
  5
62a
  8
Layer_0
  10
84.724762
  20
291.7995
  0
VERTEX
  5
62b
  8
Layer_0
  10
84.741028
  20
291.60565
  0
VERTEX
  5
62c
  8
Layer_0
  10
84.763519
  20
291.39172
  0
VERTEX
  5
62d
  8
Layer_0
  10
84.793365
  20
291.15613
  0
VERTEX
  5
62e
  8
Layer_0
  10
84.815033
  20
291.00647
  0
VERTEX
  5
62f
  8
Layer_0
  10
84.849487
  20
290.78033
  0
VERTEX
  5
630
  8
Layer_0
  10
84.893677
  20
290.50922
  0
VERTEX
  5
631
  8
Layer_0
  10
84.931366
  20
290.30585
  0
VERTEX
  5
632
  8
Layer_0
  10
84.973663
  20
290.10251
  0
VERTEX
  5
633
  8
Layer_0
  10
85.019196
  20
289.90567
  0
VERTEX
  5
634
  8
Layer_0
  10
85.129822
  20
289.46942
  0
VERTEX
  5
635
  8
Layer_0
  10
85.187317
  20
289.25494
  0
VERTEX
  5
636
  8
Layer_0
  10
85.24884
  20
289.04428
  0
VERTEX
  5
637
  8
Layer_0
  10
85.314178
  20
288.83685
  0
VERTEX
  5
638
  8
Layer_0
  10
85.375183
  20
288.65686
  0
VERTEX
  5
639
  8
Layer_0
  10
85.52243
  20
288.25098
  0
VERTEX
  5
63a
  8
Layer_0
  10
85.60376
  20
288.03622
  0
VERTEX
  5
63b
  8
Layer_0
  10
85.686462
  20
287.83099
  0
VERTEX
  5
63c
  8
Layer_0
  10
85.768616
  20
287.63956
  0
VERTEX
  5
63d
  8
Layer_0
  10
85.85321
  20
287.45276
  0
VERTEX
  5
63e
  8
Layer_0
  10
86.021851
  20
287.10083
  0
VERTEX
  5
63f
  8
Layer_0
  10
86.132751
  20
286.87659
  0
VERTEX
  5
640
  8
Layer_0
  10
86.227905
  20
286.69385
  0
VERTEX
  5
641
  8
Layer_0
  10
86.32605
  20
286.5152
  0
VERTEX
  5
642
  8
Layer_0
  10
86.437225
  20
286.32269
  0
VERTEX
  5
643
  8
Layer_0
  10
86.634338
  20
285.99704
  0
VERTEX
  5
644
  8
Layer_0
  10
86.768555
  20
285.78149
  0
VERTEX
  5
645
  8
Layer_0
  10
86.887573
  20
285.5993
  0
VERTEX
  5
646
  8
Layer_0
  10
86.983002
  20
285.45993
  0
VERTEX
  5
647
  8
Layer_0
  10
87.214264
  20
285.14026
  0
VERTEX
  5
648
  8
Layer_0
  10
87.334656
  20
284.97922
  0
VERTEX
  5
649
  8
Layer_0
  10
87.489746
  20
284.77612
  0
VERTEX
  5
64a
  8
Layer_0
  10
87.620148
  20
284.61292
  0
VERTEX
  5
64b
  8
Layer_0
  10
87.743256
  20
284.46542
  0
VERTEX
  5
64c
  8
Layer_0
  10
87.992432
  20
284.18237
  0
VERTEX
  5
64d
  8
Layer_0
  10
88.142914
  20
284.01672
  0
VERTEX
  5
64e
  8
Layer_0
  10
88.307465
  20
283.83939
  0
VERTEX
  5
64f
  8
Layer_0
  10
88.455231
  20
283.68701
  0
VERTEX
  5
650
  8
Layer_0
  10
88.58078
  20
283.56284
  0
VERTEX
  5
651
  8
Layer_0
  10
88.875214
  20
283.2868
  0
VERTEX
  5
652
  8
Layer_0
  10
89.027069
  20
283.1488
  0
VERTEX
  5
653
  8
Layer_0
  10
89.212524
  20
282.98395
  0
VERTEX
  5
654
  8
Layer_0
  10
89.379272
  20
282.84189
  0
VERTEX
  5
655
  8
Layer_0
  10
89.514832
  20
282.73157
  0
VERTEX
  5
656
  8
Layer_0
  10
89.827698
  20
282.48996
  0
VERTEX
  5
657
  8
Layer_0
  10
89.992004
  20
282.36713
  0
VERTEX
  5
658
  8
Layer_0
  10
90.19455
  20
282.21912
  0
VERTEX
  5
659
  8
Layer_0
  10
90.368896
  20
282.09735
  0
VERTEX
  5
65a
  8
Layer_0
  10
90.515289
  20
281.99976
  0
VERTEX
  5
65b
  8
Layer_0
  10
90.852325
  20
281.78748
  0
VERTEX
  5
65c
  8
Layer_0
  10
91.036407
  20
281.67578
  0
VERTEX
  5
65d
  8
Layer_0
  10
91.246552
  20
281.55103
  0
VERTEX
  5
65e
  8
Layer_0
  10
91.421967
  20
281.45181
  0
VERTEX
  5
65f
  8
Layer_0
  10
91.606049
  20
281.35312
  0
VERTEX
  5
660
  8
Layer_0
  10
91.803162
  20
281.25281
  0
VERTEX
  5
661
  8
Layer_0
  10
92.158356
  20
281.08063
  0
VERTEX
  5
662
  8
Layer_0
  10
92.371185
  20
280.98083
  0
VERTEX
  5
663
  8
Layer_0
  10
92.558807
  20
280.89789
  0
VERTEX
  5
664
  8
Layer_0
  10
92.759735
  20
280.81409
  0
VERTEX
  5
665
  8
Layer_0
  10
92.954926
  20
280.73764
  0
VERTEX
  5
666
  8
Layer_0
  10
93.330719
  20
280.59882
  0
VERTEX
  5
667
  8
Layer_0
  10
93.552521
  20
280.5202
  0
VERTEX
  5
668
  8
Layer_0
  10
93.752869
  20
280.45377
  0
VERTEX
  5
669
  8
Layer_0
  10
93.950806
  20
280.39304
  0
VERTEX
  5
66a
  8
Layer_0
  10
94.151703
  20
280.33612
  0
VERTEX
  5
66b
  8
Layer_0
  10
94.31601
  20
280.29272
  0
VERTEX
  5
66c
  8
Layer_0
  10
94.549194
  20
280.23279
  0
VERTEX
  5
66d
  8
Layer_0
  10
94.813263
  20
280.16827
  0
VERTEX
  5
66e
  8
Layer_0
  10
95.003326
  20
280.12598
  0
VERTEX
  5
66f
  8
Layer_0
  10
95.210754
  20
280.08447
  0
VERTEX
  5
670
  8
Layer_0
  10
95.418427
  20
280.04761
  0
VERTEX
  5
671
  8
Layer_0
  10
95.843018
  20
279.98145
  0
VERTEX
  5
672
  8
Layer_0
  10
96.081085
  20
279.94785
  0
VERTEX
  5
673
  8
Layer_0
  10
96.289581
  20
279.92291
  0
VERTEX
  5
674
  8
Layer_0
  10
96.497803
  20
279.90228
  0
VERTEX
  5
675
  8
Layer_0
  10
96.711731
  20
279.88629
  0
VERTEX
  5
676
  8
Layer_0
  10
96.87793
  20
279.87628
  0
VERTEX
  5
677
  8
Layer_0
  10
97.148804
  20
279.86243
  0
VERTEX
  5
678
  8
Layer_0
  10
97.383575
  20
279.85321
  0
VERTEX
  5
679
  8
Layer_0
  10
97.595612
  20
279.84915
  0
VERTEX
  5
67a
  8
Layer_0
  10
97.807373
  20
279.84967
  0
SEQEND
  0
CIRCLE
  5
67c
  8
Layer_0
  62
0
  10
143.20663
  20
292.84174
  30
0
  40
3.3316576
  0
POLYLINE
  5
67c
  8
Layer_0
  62
0
  66
1
  10
0
  20
0
  30
0
  0
VERTEX
  5
67c
  8
Layer_0
  10
143.33896
  20
279.84967
  0
VERTEX
  5
67d
  8
Layer_0
  10
143.55045
  20
279.85486
  0
VERTEX
  5
67e
  8
Layer_0
  10
143.74185
  20
279.86298
  0
VERTEX
  5
67f
  8
Layer_0
  10
143.99698
  20
279.87598
  0
VERTEX
  5
680
  8
Layer_0
  10
144.24887
  20
279.89145
  0
VERTEX
  5
681
  8
Layer_0
  10
144.44272
  20
279.90771
  0
VERTEX
  5
682
  8
Layer_0
  10
144.65665
  20
279.93024
  0
VERTEX
  5
683
  8
Layer_0
  10
144.87247
  20
279.95758
  0
VERTEX
  5
684
  8
Layer_0
  10
145.29407
  20
280.02023
  0
VERTEX
  5
685
  8
Layer_0
  10
145.5343
  20
280.05957
  0
VERTEX
  5
686
  8
Layer_0
  10
145.74796
  20
280.09912
  0
VERTEX
  5
687
  8
Layer_0
  10
145.93774
  20
280.13843
  0
VERTEX
  5
688
  8
Layer_0
  10
146.14679
  20
280.18671
  0
VERTEX
  5
689
  8
Layer_0
  10
146.55402
  20
280.28973
  0
VERTEX
  5
68a
  8
Layer_0
  10
146.79941
  20
280.35562
  0
VERTEX
  5
68b
  8
Layer_0
  10
147.00491
  20
280.41553
  0
VERTEX
  5
68c
  8
Layer_0
  10
147.19687
  20
280.47574
  0
VERTEX
  5
68d
  8
Layer_0
  10
147.38666
  20
280.53998
  0
VERTEX
  5
68e
  8
Layer_0
  10
147.78848
  20
280.68585
  0
VERTEX
  5
68f
  8
Layer_0
  10
148.02463
  20
280.77533
  0
VERTEX
  5
690
  8
Layer_0
  10
148.21362
  20
280.8515
  0
VERTEX
  5
691
  8
Layer_0
  10
148.40503
  20
280.93365
  0
VERTEX
  5
692
  8
Layer_0
  10
148.60812
  20
281.02588
  0
VERTEX
  5
693
  8
Layer_0
  10
148.94458
  20
281.18689
  0
VERTEX
  5
694
  8
Layer_0
  10
149.17178
  20
281.29944
  0
VERTEX
  5
695
  8
Layer_0
  10
149.35452
  20
281.39459
  0
VERTEX
  5
696
  8
Layer_0
  10
149.5332
  20
281.49274
  0
VERTEX
  5
697
  8
Layer_0
  10
149.71838
  20
281.59958
  0
VERTEX
  5
698
  8
Layer_0
  10
150.0462
  20
281.79779
  0
VERTEX
  5
699
  8
Layer_0
  10
150.26038
  20
281.93091
  0
VERTEX
  5
69a
  8
Layer_0
  10
150.43851
  20
282.04721
  0
VERTEX
  5
69b
  8
Layer_0
  10
150.58575
  20
282.14752
  0
VERTEX
  5
69c
  8
Layer_0
  10
150.90866
  20
282.38153
  0
VERTEX
  5
69d
  8
Layer_0
  10
151.08545
  20
282.51382
  0
VERTEX
  5
69e
  8
Layer_0
  10
151.27441
  20
282.65808
  0
VERTEX
  5
69f
  8
Layer_0
  10
151.44659
  20
282.79581
  0
VERTEX
  5
6a0
  8
Layer_0
  10
151.57944
  20
282.90668
  0
VERTEX
  5
6a1
  8
Layer_0
  10
151.86658
  20
283.15967
  0
VERTEX
  5
6a2
  8
Layer_0
  10
152.03168
  20
283.3096
  0
VERTEX
  5
6a3
  8
Layer_0
  10
152.20901
  20
283.47418
  0
VERTEX
  5
6a4
  8
Layer_0
  10
152.35922
  20
283.61975
  0
VERTEX
  5
6a5
  8
Layer_0
  10
152.48557
  20
283.74747
  0
VERTEX
  5
6a6
  8
Layer_0
  10
152.76157
  20
284.04193
  0
VERTEX
  5
6a7
  8
Layer_0
  10
152.89957
  20
284.19376
  0
VERTEX
  5
6a8
  8
Layer_0
  10
153.06226
  20
284.37677
  0
VERTEX
  5
6a9
  8
Layer_0
  10
153.20648
  20
284.54596
  0
VERTEX
  5
6aa
  8
Layer_0
  10
153.31604
  20
284.68042
  0
VERTEX
  5
6ab
  8
Layer_0
  10
153.55841
  20
284.99438
  0
VERTEX
  5
6ac
  8
Layer_0
  10
153.68124
  20
285.15869
  0
VERTEX
  5
6ad
  8
Layer_0
  10
153.82739
  20
285.35852
  0
VERTEX
  5
6ae
  8
Layer_0
  10
153.9502
  20
285.53448
  0
VERTEX
  5
6af
  8
Layer_0
  10
154.04861
  20
285.68201
  0
VERTEX
  5
6b0
  8
Layer_0
  10
154.26093
  20
286.01901
  0
VERTEX
  5
6b1
  8
Layer_0
  10
154.37262
  20
286.20313
  0
VERTEX
  5
6b2
  8
Layer_0
  10
154.49545
  20
286.40997
  0
VERTEX
  5
6b3
  8
Layer_0
  10
154.59659
  20
286.58865
  0
VERTEX
  5
6b4
  8
Layer_0
  10
154.69473
  20
286.77167
  0
VERTEX
  5
6b5
  8
Layer_0
  10
154.79559
  20
286.96985
  0
VERTEX
  5
6b6
  8
Layer_0
  10
154.96777
  20
287.32504
  0
VERTEX
  5
6b7
  8
Layer_0
  10
155.06454
  20
287.53137
  0
VERTEX
  5
6b8
  8
Layer_0
  10
155.15051
  20
287.72552
  0
VERTEX
  5
6b9
  8
Layer_0
  10
155.23428
  20
287.92639
  0
VERTEX
  5
6ba
  8
Layer_0
  10
155.31073
  20
288.12164
  0
VERTEX
  5
6bb
  8
Layer_0
  10
155.44955
  20
288.49744
  0
VERTEX
  5
6bc
  8
Layer_0
  10
155.5282
  20
288.71921
  0
VERTEX
  5
6bd
  8
Layer_0
  10
155.5946
  20
288.91956
  0
VERTEX
  5
6be
  8
Layer_0
  10
155.65533
  20
289.11749
  0
VERTEX
  5
6bf
  8
Layer_0
  10
155.71228
  20
289.31842
  0
VERTEX
  5
6c0
  8
Layer_0
  10
155.75568
  20
289.48273
  0
VERTEX
  5
6c1
  8
Layer_0
  10
155.81558
  20
289.71588
  0
VERTEX
  5
6c2
  8
Layer_0
  10
155.88013
  20
289.97998
  0
VERTEX
  5
6c3
  8
Layer_0
  10
155.92242
  20
290.17004
  0
VERTEX
  5
6c4
  8
Layer_0
  10
155.9639
  20
290.37744
  0
VERTEX
  5
6c5
  8
Layer_0
  10
156.00021
  20
290.58133
  0
VERTEX
  5
6c6
  8
Layer_0
  10
156.0661
  20
291.00458
  0
VERTEX
  5
6c7
  8
Layer_0
  10
156.09946
  20
291.23828
  0
VERTEX
  5
6c8
  8
Layer_0
  10
156.12659
  20
291.46252
  0
VERTEX
  5
6c9
  8
Layer_0
  10
156.14474
  20
291.6474
  0
VERTEX
  5
6ca
  8
Layer_0
  10
156.16208
  20
291.87219
  0
VERTEX
  5
6cb
  8
Layer_0
  10
156.17349
  20
292.06793
  0
VERTEX
  5
6cc
  8
Layer_0
  10
156.18542
  20
292.30627
  0
VERTEX
  5
6cd
  8
Layer_0
  10
156.19543
  20
292.56439
  0
VERTEX
  5
6ce
  8
Layer_0
  10
156.19925
  20
292.76501
  0
VERTEX
  5
6cf
  8
Layer_0
  10
156.19843
  20
292.9895
  0
VERTEX
  5
6d0
  8
Layer_0
  10
156.19327
  20
293.19586
  0
VERTEX
  5
6d1
  8
Layer_0
  10
156.18594
  20
293.36908
  0
VERTEX
  5
6d2
  8
Layer_0
  10
156.17429
  20
293.60037
  0
VERTEX
  5
6d3
  8
Layer_0
  10
156.15747
  20
293.8761
  0
VERTEX
  5
6d4
  8
Layer_0
  10
156.14041
  20
294.08301
  0
VERTEX
  5
6d5
  8
Layer_0
  10
156.12006
  20
294.27954
  0
VERTEX
  5
6d6
  8
Layer_0
  10
156.09134
  20
294.50839
  0
VERTEX
  5
6d7
  8
Layer_0
  10
156.06665
  20
294.67865
  0
VERTEX
  5
6d8
  8
Layer_0
  10
156.02896
  20
294.92404
  0
VERTEX
  5
6d9
  8
Layer_0
  10
155.98694
  20
295.17999
  0
VERTEX
  5
6da
  8
Layer_0
  10
155.94791
  20
295.38983
  0
VERTEX
  5
6db
  8
Layer_0
  10
155.90723
  20
295.58423
  0
VERTEX
  5
6dc
  8
Layer_0
  10
155.85898
  20
295.79355
  0
VERTEX
  5
6dd
  8
Layer_0
  10
155.75974
  20
296.18481
  0
VERTEX
  5
6de
  8
Layer_0
  10
155.69278
  20
296.43506
  0
VERTEX
  5
6df
  8
Layer_0
  10
155.63962
  20
296.61804
  0
VERTEX
  5
6e0
  8
Layer_0
  10
155.57101
  20
296.83661
  0
VERTEX
  5
6e1
  8
Layer_0
  10
155.51138
  20
297.01257
  0
VERTEX
  5
6e2
  8
Layer_0
  10
155.3609
  20
297.42792
  0
VERTEX
  5
6e3
  8
Layer_0
  10
155.27304
  20
297.65973
  0
VERTEX
  5
6e4
  8
Layer_0
  10
155.19577
  20
297.85117
  0
VERTEX
  5
6e5
  8
Layer_0
  10
155.11444
  20
298.04095
  0
VERTEX
  5
6e6
  8
Layer_0
  10
155.02252
  20
298.24323
  0
VERTEX
  5
6e7
  8
Layer_0
  10
154.86148
  20
298.57971
  0
VERTEX
  5
6e8
  8
Layer_0
  10
154.75195
  20
298.80121
  0
VERTEX
  5
6e9
  8
Layer_0
  10
154.65378
  20
298.98962
  0
VERTEX
  5
6ea
  8
Layer_0
  10
154.55563
  20
299.16833
  0
VERTEX
  5
6eb
  8
Layer_0
  10
154.4472
  20
299.3562
  0
VERTEX
  5
6ec
  8
Layer_0
  10
154.25143
  20
299.67969
  0
VERTEX
  5
6ed
  8
Layer_0
  10
154.1156
  20
299.89819
  0
VERTEX
  5
6ee
  8
Layer_0
  10
153.99792
  20
300.0788
  0
VERTEX
  5
6ef
  8
Layer_0
  10
153.89868
  20
300.22357
  0
VERTEX
  5
6f0
  8
Layer_0
  10
153.66742
  20
300.54321
  0
VERTEX
  5
6f1
  8
Layer_0
  10
153.54703
  20
300.70428
  0
VERTEX
  5
6f2
  8
Layer_0
  10
153.39276
  20
300.90625
  0
VERTEX
  5
6f3
  8
Layer_0
  10
153.26154
  20
301.07056
  0
VERTEX
  5
6f4
  8
Layer_0
  10
153.13898
  20
301.21725
  0
VERTEX
  5
6f5
  8
Layer_0
  10
152.88928
  20
301.50113
  0
VERTEX
  5
6f6
  8
Layer_0
  10
152.7388
  20
301.66681
  0
VERTEX
  5
6f7
  8
Layer_0
  10
152.57449
  20
301.84384
  0
VERTEX
  5
6f8
  8
Layer_0
  10
152.42673
  20
301.99622
  0
VERTEX
  5
6f9
  8
Layer_0
  10
152.3009
  20
302.12067
  0
VERTEX
  5
6fa
  8
Layer_0
  10
152.00647
  20
302.39667
  0
VERTEX
  5
6fb
  8
Layer_0
  10
151.85464
  20
302.53467
  0
VERTEX
  5
6fc
  8
Layer_0
  10
151.66919
  20
302.69952
  0
VERTEX
  5
6fd
  8
Layer_0
  10
151.50244
  20
302.84161
  0
VERTEX
  5
6fe
  8
Layer_0
  10
151.36389
  20
302.95465
  0
VERTEX
  5
6ff
  8
Layer_0
  10
151.06943
  20
303.18188
  0
VERTEX
  5
700
  8
Layer_0
  10
150.88834
  20
303.31744
  0
VERTEX
  5
701
  8
Layer_0
  10
150.68497
  20
303.466
  0
VERTEX
  5
702
  8
Layer_0
  10
150.52499
  20
303.578
  0
VERTEX
  5
703
  8
Layer_0
  10
150.36966
  20
303.68182
  0
VERTEX
  5
704
  8
Layer_0
  10
150.02451
  20
303.89902
  0
VERTEX
  5
705
  8
Layer_0
  10
149.83768
  20
304.01263
  0
VERTEX
  5
706
  8
Layer_0
  10
149.6395
  20
304.13
  0
VERTEX
  5
707
  8
Layer_0
  10
149.45026
  20
304.23685
  0
VERTEX
  5
708
  8
Layer_0
  10
149.27213
  20
304.33228
  0
VERTEX
  5
709
  8
Layer_0
  10
149.08069
  20
304.42987
  0
VERTEX
  5
70a
  8
Layer_0
  10
148.71304
  20
304.60773
  0
VERTEX
  5
70b
  8
Layer_0
  10
148.51349
  20
304.70129
  0
VERTEX
  5
70c
  8
Layer_0
  10
148.32288
  20
304.78558
  0
VERTEX
  5
70d
  8
Layer_0
  10
148.12198
  20
304.86938
  0
VERTEX
  5
70e
  8
Layer_0
  10
147.92676
  20
304.94586
  0
VERTEX
  5
70f
  8
Layer_0
  10
147.55096
  20
305.08466
  0
VERTEX
  5
710
  8
Layer_0
  10
147.32919
  20
305.16327
  0
VERTEX
  5
711
  8
Layer_0
  10
147.12881
  20
305.22974
  0
VERTEX
  5
712
  8
Layer_0
  10
146.93091
  20
305.29047
  0
VERTEX
  5
713
  8
Layer_0
  10
146.74136
  20
305.34412
  0
VERTEX
  5
714
  8
Layer_0
  10
146.31137
  20
305.45612
  0
VERTEX
  5
715
  8
Layer_0
  10
146.0798
  20
305.51276
  0
VERTEX
  5
716
  8
Layer_0
  10
145.88245
  20
305.5567
  0
VERTEX
  5
717
  8
Layer_0
  10
145.67123
  20
305.599
  0
VERTEX
  5
718
  8
Layer_0
  10
145.4603
  20
305.63672
  0
VERTEX
  5
719
  8
Layer_0
  10
145.05142
  20
305.70013
  0
VERTEX
  5
71a
  8
Layer_0
  10
144.8017
  20
305.7359
  0
VERTEX
  5
71b
  8
Layer_0
  10
144.60703
  20
305.75922
  0
VERTEX
  5
71c
  8
Layer_0
  10
144.38416
  20
305.78149
  0
VERTEX
  5
71d
  8
Layer_0
  10
144.18164
  20
305.79694
  0
VERTEX
  5
71e
  8
Layer_0
  10
143.98477
  20
305.80859
  0
VERTEX
  5
71f
  8
Layer_0
  10
143.74213
  20
305.8205
  0
VERTEX
  5
720
  8
Layer_0
  10
143.48401
  20
305.83057
  0
VERTEX
  5
721
  8
Layer_0
  10
143.28336
  20
305.83435
  0
VERTEX
  5
722
  8
Layer_0
  10
143.05887
  20
305.83356
  0
VERTEX
  5
723
  8
Layer_0
  10
142.85254
  20
305.82837
  0
VERTEX
  5
724
  8
Layer_0
  10
142.67929
  20
305.82104
  0
VERTEX
  5
725
  8
Layer_0
  10
142.44504
  20
305.80939
  0
VERTEX
  5
726
  8
Layer_0
  10
142.16928
  20
305.7926
  0
VERTEX
  5
727
  8
Layer_0
  10
141.96539
  20
305.77551
  0
VERTEX
  5
728
  8
Layer_0
  10
141.76883
  20
305.75519
  0
VERTEX
  5
729
  8
Layer_0
  10
141.54001
  20
305.72644
  0
VERTEX
  5
72a
  8
Layer_0
  10
141.36972
  20
305.70178
  0
VERTEX
  5
72b
  8
Layer_0
  10
141.12436
  20
305.66406
  0
VERTEX
  5
72c
  8
Layer_0
  10
140.86841
  20
305.62207
  0
VERTEX
  5
72d
  8
Layer_0
  10
140.65854
  20
305.58301
  0
VERTEX
  5
72e
  8
Layer_0
  10
140.46414
  20
305.54236
  0
VERTEX
  5
72f
  8
Layer_0
  10
140.25485
  20
305.49408
  0
VERTEX
  5
730
  8
Layer_0
  10
139.86359
  20
305.39484
  0
VERTEX
  5
731
  8
Layer_0
  10
139.61334
  20
305.32788
  0
VERTEX
  5
732
  8
Layer_0
  10
139.42084
  20
305.27203
  0
VERTEX
  5
733
  8
Layer_0
  10
139.21179
  20
305.20612
  0
VERTEX
  5
734
  8
Layer_0
  10
139.03583
  20
305.14648
  0
VERTEX
  5
735
  8
Layer_0
  10
138.61395
  20
304.99359
  0
VERTEX
  5
736
  8
Layer_0
  10
138.38864
  20
304.90814
  0
VERTEX
  5
737
  8
Layer_0
  10
138.19724
  20
304.83087
  0
VERTEX
  5
738
  8
Layer_0
  10
138.00745
  20
304.74957
  0
VERTEX
  5
739
  8
Layer_0
  10
137.80518
  20
304.65765
  0
VERTEX
  5
73a
  8
Layer_0
  10
137.46869
  20
304.49658
  0
VERTEX
  5
73b
  8
Layer_0
  10
137.24149
  20
304.38406
  0
VERTEX
  5
73c
  8
Layer_0
  10
137.0582
  20
304.28864
  0
VERTEX
  5
73d
  8
Layer_0
  10
136.88007
  20
304.19073
  0
VERTEX
  5
73e
  8
Layer_0
  10
136.68756
  20
304.07959
  0
VERTEX
  5
73f
  8
Layer_0
  10
136.36871
  20
303.88654
  0
VERTEX
  5
740
  8
Layer_0
  10
136.14639
  20
303.74826
  0
VERTEX
  5
741
  8
Layer_0
  10
135.9696
  20
303.63303
  0
VERTEX
  5
742
  8
Layer_0
  10
135.82483
  20
303.53381
  0
VERTEX
  5
743
  8
Layer_0
  10
135.50516
  20
303.30252
  0
VERTEX
  5
744
  8
Layer_0
  10
135.34384
  20
303.18188
  0
VERTEX
  5
745
  8
Layer_0
  10
135.14212
  20
303.02786
  0
VERTEX
  5
746
  8
Layer_0
  10
134.97781
  20
302.89664
  0
VERTEX
  5
747
  8
Layer_0
  10
134.83032
  20
302.77356
  0
VERTEX
  5
748
  8
Layer_0
  10
134.54727
  20
302.52438
  0
VERTEX
  5
749
  8
Layer_0
  10
134.38159
  20
302.3739
  0
VERTEX
  5
74a
  8
Layer_0
  10
134.20428
  20
302.20932
  0
VERTEX
  5
74b
  8
Layer_0
  10
134.05219
  20
302.06183
  0
VERTEX
  5
74c
  8
Layer_0
  10
133.92773
  20
301.93604
  0
VERTEX
  5
74d
  8
Layer_0
  10
133.6517
  20
301.64157
  0
VERTEX
  5
74e
  8
Layer_0
  10
133.5137
  20
301.48975
  0
VERTEX
  5
74f
  8
Layer_0
  10
133.34885
  20
301.30429
  0
VERTEX
  5
750
  8
Layer_0
  10
133.20679
  20
301.13754
  0
VERTEX
  5
751
  8
Layer_0
  10
133.09155
  20
300.99603
  0
VERTEX
  5
752
  8
Layer_0
  10
132.85486
  20
300.68909
  0
VERTEX
  5
753
  8
Layer_0
  10
132.73203
  20
300.52478
  0
VERTEX
  5
754
  8
Layer_0
  10
132.5813
  20
300.31845
  0
VERTEX
  5
755
  8
Layer_0
  10
132.46307
  20
300.14899
  0
VERTEX
  5
756
  8
Layer_0
  10
132.36465
  20
300.00153
  0
VERTEX
  5
757
  8
Layer_0
  10
132.15234
  20
299.66449
  0
VERTEX
  5
758
  8
Layer_0
  10
132.04065
  20
299.48041
  0
VERTEX
  5
759
  8
Layer_0
  10
131.91647
  20
299.27106
  0
VERTEX
  5
75a
  8
Layer_0
  10
131.81317
  20
299.08832
  0
VERTEX
  5
75b
  8
Layer_0
  10
131.71802
  20
298.91077
  0
VERTEX
  5
75c
  8
Layer_0
  10
131.61768
  20
298.71362
  0
VERTEX
  5
75d
  8
Layer_0
  10
131.44553
  20
298.35846
  0
VERTEX
  5
75e
  8
Layer_0
  10
131.34573
  20
298.14563
  0
VERTEX
  5
75f
  8
Layer_0
  10
131.26089
  20
297.95367
  0
VERTEX
  5
760
  8
Layer_0
  10
131.17847
  20
297.75598
  0
VERTEX
  5
761
  8
Layer_0
  10
131.09955
  20
297.55426
  0
VERTEX
  5
762
  8
Layer_0
  10
130.96942
  20
297.20154
  0
VERTEX
  5
763
  8
Layer_0
  10
130.88345
  20
296.95886
  0
VERTEX
  5
764
  8
Layer_0
  10
130.81812
  20
296.76013
  0
VERTEX
  5
765
  8
Layer_0
  10
130.75549
  20
296.55624
  0
VERTEX
  5
766
  8
Layer_0
  10
130.70236
  20
296.36755
  0
VERTEX
  5
767
  8
Layer_0
  10
130.59174
  20
295.94348
  0
VERTEX
  5
768
  8
Layer_0
  10
130.53668
  20
295.71872
  0
VERTEX
  5
769
  8
Layer_0
  10
130.49142
  20
295.51617
  0
VERTEX
  5
76a
  8
Layer_0
  10
130.4502
  20
295.31122
  0
VERTEX
  5
76b
  8
Layer_0
  10
130.41333
  20
295.10486
  0
VERTEX
  5
76c
  8
Layer_0
  10
130.38052
  20
294.90018
  0
VERTEX
  5
76d
  8
Layer_0
  10
130.35016
  20
294.70062
  0
VERTEX
  5
76e
  8
Layer_0
  10
130.31274
  20
294.43573
  0
VERTEX
  5
76f
  8
Layer_0
  10
130.28778
  20
294.22723
  0
VERTEX
  5
770
  8
Layer_0
  10
130.26718
  20
294.01898
  0
VERTEX
  5
771
  8
Layer_0
  10
130.25092
  20
293.80264
  0
VERTEX
  5
772
  8
Layer_0
  10
130.24115
  20
293.63885
  0
VERTEX
  5
773
  8
Layer_0
  10
130.22733
  20
293.36801
  0
VERTEX
  5
774
  8
Layer_0
  10
130.21811
  20
293.13321
  0
VERTEX
  5
775
  8
Layer_0
  10
130.21405
  20
292.9212
  0
VERTEX
  5
776
  8
Layer_0
  10
130.2146
  20
292.70508
  0
VERTEX
  5
777
  8
Layer_0
  10
130.21973
  20
292.49796
  0
VERTEX
  5
778
  8
Layer_0
  10
130.22815
  20
292.30029
  0
VERTEX
  5
779
  8
Layer_0
  10
130.24088
  20
292.05139
  0
VERTEX
  5
77a
  8
Layer_0
  10
130.25635
  20
291.7995
  0
VERTEX
  5
77b
  8
Layer_0
  10
130.27261
  20
291.60565
  0
VERTEX
  5
77c
  8
Layer_0
  10
130.2951
  20
291.39172
  0
VERTEX
  5
77d
  8
Layer_0
  10
130.32495
  20
291.15613
  0
VERTEX
  5
77e
  8
Layer_0
  10
130.34662
  20
291.00647
  0
VERTEX
  5
77f
  8
Layer_0
  10
130.38107
  20
290.78033
  0
VERTEX
  5
780
  8
Layer_0
  10
130.42526
  20
290.50922
  0
VERTEX
  5
781
  8
Layer_0
  10
130.46295
  20
290.30585
  0
VERTEX
  5
782
  8
Layer_0
  10
130.50525
  20
290.10251
  0
VERTEX
  5
783
  8
Layer_0
  10
130.55078
  20
289.90567
  0
VERTEX
  5
784
  8
Layer_0
  10
130.66141
  20
289.46942
  0
VERTEX
  5
785
  8
Layer_0
  10
130.7189
  20
289.25494
  0
VERTEX
  5
786
  8
Layer_0
  10
130.78043
  20
289.04428
  0
VERTEX
  5
787
  8
Layer_0
  10
130.84576
  20
288.83685
  0
VERTEX
  5
788
  8
Layer_0
  10
130.90677
  20
288.65686
  0
VERTEX
  5
789
  8
Layer_0
  10
131.05402
  20
288.25098
  0
VERTEX
  5
78a
  8
Layer_0
  10
131.13535
  20
288.03622
  0
VERTEX
  5
78b
  8
Layer_0
  10
131.21805
  20
287.83099
  0
VERTEX
  5
78c
  8
Layer_0
  10
131.3002
  20
287.63956
  0
VERTEX
  5
78d
  8
Layer_0
  10
131.3848
  20
287.45276
  0
VERTEX
  5
78e
  8
Layer_0
  10
131.55344
  20
287.10083
  0
VERTEX
  5
78f
  8
Layer_0
  10
131.66434
  20
286.87659
  0
VERTEX
  5
790
  8
Layer_0
  10
131.75949
  20
286.69385
  0
VERTEX
  5
791
  8
Layer_0
  10
131.85764
  20
286.5152
  0
VERTEX
  5
792
  8
Layer_0
  10
131.96881
  20
286.32269
  0
VERTEX
  5
793
  8
Layer_0
  10
132.16592
  20
285.99704
  0
VERTEX
  5
794
  8
Layer_0
  10
132.30014
  20
285.78149
  0
VERTEX
  5
795
  8
Layer_0
  10
132.41916
  20
285.5993
  0
VERTEX
  5
796
  8
Layer_0
  10
132.51459
  20
285.45993
  0
VERTEX
  5
797
  8
Layer_0
  10
132.74585
  20
285.14026
  0
VERTEX
  5
798
  8
Layer_0
  10
132.86624
  20
284.97922
  0
VERTEX
  5
799
  8
Layer_0
  10
133.02133
  20
284.77612
  0
VERTEX
  5
79a
  8
Layer_0
  10
133.15173
  20
284.61292
  0
VERTEX
  5
79b
  8
Layer_0
  10
133.27484
  20
284.46542
  0
VERTEX
  5
79c
  8
Layer_0
  10
133.52402
  20
284.18237
  0
VERTEX
  5
79d
  8
Layer_0
  10
133.6745
  20
284.01672
  0
VERTEX
  5
79e
  8
Layer_0
  10
133.83905
  20
283.83939
  0
VERTEX
  5
79f
  8
Layer_0
  10
133.98682
  20
283.68701
  0
VERTEX
  5
7a0
  8
Layer_0
  10
134.11237
  20
283.56284
  0
VERTEX
  5
7a1
  8
Layer_0
  10
134.4068
  20
283.2868
  0
VERTEX
  5
7a2
  8
Layer_0
  10
134.55865
  20
283.1488
  0
VERTEX
  5
7a3
  8
Layer_0
  10
134.74411
  20
282.98395
  0
VERTEX
  5
7a4
  8
Layer_0
  10
134.91086
  20
282.84189
  0
VERTEX
  5
7a5
  8
Layer_0
  10
135.04642
  20
282.73157
  0
VERTEX
  5
7a6
  8
Layer_0
  10
135.35928
  20
282.48996
  0
VERTEX
  5
7a7
  8
Layer_0
  10
135.52359
  20
282.36713
  0
VERTEX
  5
7a8
  8
Layer_0
  10
135.72614
  20
282.21912
  0
VERTEX
  5
7a9
  8
Layer_0
  10
135.90048
  20
282.09735
  0
VERTEX
  5
7aa
  8
Layer_0
  10
136.04688
  20
281.99976
  0
VERTEX
  5
7ab
  8
Layer_0
  10
136.38391
  20
281.78748
  0
VERTEX
  5
7ac
  8
Layer_0
  10
136.56799
  20
281.67578
  0
VERTEX
  5
7ad
  8
Layer_0
  10
136.77814
  20
281.55103
  0
VERTEX
  5
7ae
  8
Layer_0
  10
136.95355
  20
281.45181
  0
VERTEX
  5
7af
  8
Layer_0
  10
137.13763
  20
281.35312
  0
VERTEX
  5
7b0
  8
Layer_0
  10
137.33475
  20
281.25281
  0
VERTEX
  5
7b1
  8
Layer_0
  10
137.68994
  20
281.08063
  0
VERTEX
  5
7b2
  8
Layer_0
  10
137.90277
  20
280.98083
  0
VERTEX
  5
7b3
  8
Layer_0
  10
138.09039
  20
280.89789
  0
VERTEX
  5
7b4
  8
Layer_0
  10
138.29132
  20
280.81409
  0
VERTEX
  5
7b5
  8
Layer_0
  10
138.48651
  20
280.73764
  0
VERTEX
  5
7b6
  8
Layer_0
  10
138.8623
  20
280.59882
  0
VERTEX
  5
7b7
  8
Layer_0
  10
139.08411
  20
280.5202
  0
VERTEX
  5
7b8
  8
Layer_0
  10
139.28445
  20
280.45377
  0
VERTEX
  5
7b9
  8
Layer_0
  10
139.48239
  20
280.39304
  0
VERTEX
  5
7ba
  8
Layer_0
  10
139.68329
  20
280.33612
  0
VERTEX
  5
7bb
  8
Layer_0
  10
139.8476
  20
280.29272
  0
VERTEX
  5
7bc
  8
Layer_0
  10
140.08078
  20
280.23279
  0
VERTEX
  5
7bd
  8
Layer_0
  10
140.34485
  20
280.16827
  0
VERTEX
  5
7be
  8
Layer_0
  10
140.53491
  20
280.12598
  0
VERTEX
  5
7bf
  8
Layer_0
  10
140.74234
  20
280.08447
  0
VERTEX
  5
7c0
  8
Layer_0
  10
140.95001
  20
280.04761
  0
VERTEX
  5
7c1
  8
Layer_0
  10
141.3746
  20
279.98145
  0
VERTEX
  5
7c2
  8
Layer_0
  10
141.61267
  20
279.94785
  0
VERTEX
  5
7c3
  8
Layer_0
  10
141.82117
  20
279.92291
  0
VERTEX
  5
7c4
  8
Layer_0
  10
142.02939
  20
279.90228
  0
VERTEX
  5
7c5
  8
Layer_0
  10
142.24332
  20
279.88629
  0
VERTEX
  5
7c6
  8
Layer_0
  10
142.40952
  20
279.87628
  0
VERTEX
  5
7c7
  8
Layer_0
  10
142.68039
  20
279.86243
  0
VERTEX
  5
7c8
  8
Layer_0
  10
142.91516
  20
279.85321
  0
VERTEX
  5
7c9
  8
Layer_0
  10
143.1272
  20
279.84915
  0
VERTEX
  5
7ca
  8
Layer_0
  10
143.33896
  20
279.84967
  0
SEQEND
  0
CIRCLE
  5
7cc
  8
Layer_0
  62
0
  10
188.73819
  20
292.84174
  30
0
  40
3.3316576
  0
POLYLINE
  5
7cc
  8
Layer_0
  62
0
  66
1
  10
0
  20
0
  30
0
  0
VERTEX
  5
7cc
  8
Layer_0
  10
188.87053
  20
279.84967
  0
VERTEX
  5
7cd
  8
Layer_0
  10
189.08202
  20
279.85486
  0
VERTEX
  5
7ce
  8
Layer_0
  10
189.27342
  20
279.86298
  0
VERTEX
  5
7cf
  8
Layer_0
  10
189.52855
  20
279.87598
  0
VERTEX
  5
7d0
  8
Layer_0
  10
189.78044
  20
279.89145
  0
VERTEX
  5
7d1
  8
Layer_0
  10
189.97429
  20
279.90771
  0
VERTEX
  5
7d2
  8
Layer_0
  10
190.18822
  20
279.93024
  0
VERTEX
  5
7d3
  8
Layer_0
  10
190.40404
  20
279.95758
  0
VERTEX
  5
7d4
  8
Layer_0
  10
190.82564
  20
280.02023
  0
VERTEX
  5
7d5
  8
Layer_0
  10
191.06587
  20
280.05957
  0
VERTEX
  5
7d6
  8
Layer_0
  10
191.27953
  20
280.09912
  0
VERTEX
  5
7d7
  8
Layer_0
  10
191.46931
  20
280.13843
  0
VERTEX
  5
7d8
  8
Layer_0
  10
191.67836
  20
280.18671
  0
VERTEX
  5
7d9
  8
Layer_0
  10
192.08559
  20
280.28973
  0
VERTEX
  5
7da
  8
Layer_0
  10
192.33098
  20
280.35562
  0
VERTEX
  5
7db
  8
Layer_0
  10
192.53648
  20
280.41553
  0
VERTEX
  5
7dc
  8
Layer_0
  10
192.72844
  20
280.47574
  0
VERTEX
  5
7dd
  8
Layer_0
  10
192.91823
  20
280.53998
  0
VERTEX
  5
7de
  8
Layer_0
  10
193.32005
  20
280.68585
  0
VERTEX
  5
7df
  8
Layer_0
  10
193.5562
  20
280.77533
  0
VERTEX
  5
7e0
  8
Layer_0
  10
193.74519
  20
280.8515
  0
VERTEX
  5
7e1
  8
Layer_0
  10
193.9366
  20
280.93365
  0
VERTEX
  5
7e2
  8
Layer_0
  10
194.13969
  20
281.02588
  0
VERTEX
  5
7e3
  8
Layer_0
  10
194.47615
  20
281.18689
  0
VERTEX
  5
7e4
  8
Layer_0
  10
194.70335
  20
281.29944
  0
VERTEX
  5
7e5
  8
Layer_0
  10
194.88609
  20
281.39459
  0
VERTEX
  5
7e6
  8
Layer_0
  10
195.06477
  20
281.49274
  0
VERTEX
  5
7e7
  8
Layer_0
  10
195.24995
  20
281.59958
  0
VERTEX
  5
7e8
  8
Layer_0
  10
195.57777
  20
281.79779
  0
VERTEX
  5
7e9
  8
Layer_0
  10
195.79195
  20
281.93091
  0
VERTEX
  5
7ea
  8
Layer_0
  10
195.97008
  20
282.04721
  0
VERTEX
  5
7eb
  8
Layer_0
  10
196.11732
  20
282.14752
  0
VERTEX
  5
7ec
  8
Layer_0
  10
196.44023
  20
282.38153
  0
VERTEX
  5
7ed
  8
Layer_0
  10
196.61702
  20
282.51382
  0
VERTEX
  5
7ee
  8
Layer_0
  10
196.80598
  20
282.65808
  0
VERTEX
  5
7ef
  8
Layer_0
  10
196.97816
  20
282.79581
  0
VERTEX
  5
7f0
  8
Layer_0
  10
197.11101
  20
282.90668
  0
VERTEX
  5
7f1
  8
Layer_0
  10
197.39815
  20
283.15967
  0
VERTEX
  5
7f2
  8
Layer_0
  10
197.56325
  20
283.3096
  0
VERTEX
  5
7f3
  8
Layer_0
  10
197.74059
  20
283.47418
  0
VERTEX
  5
7f4
  8
Layer_0
  10
197.89079
  20
283.61975
  0
VERTEX
  5
7f5
  8
Layer_0
  10
198.01714
  20
283.74747
  0
VERTEX
  5
7f6
  8
Layer_0
  10
198.29314
  20
284.04193
  0
VERTEX
  5
7f7
  8
Layer_0
  10
198.43114
  20
284.19376
  0
VERTEX
  5
7f8
  8
Layer_0
  10
198.59383
  20
284.37677
  0
VERTEX
  5
7f9
  8
Layer_0
  10
198.73805
  20
284.54596
  0
VERTEX
  5
7fa
  8
Layer_0
  10
198.84761
  20
284.68042
  0
VERTEX
  5
7fb
  8
Layer_0
  10
199.08998
  20
284.99438
  0
VERTEX
  5
7fc
  8
Layer_0
  10
199.21281
  20
285.15869
  0
VERTEX
  5
7fd
  8
Layer_0
  10
199.35896
  20
285.35852
  0
VERTEX
  5
7fe
  8
Layer_0
  10
199.48177
  20
285.53448
  0
VERTEX
  5
7ff
  8
Layer_0
  10
199.58018
  20
285.68201
  0
VERTEX
  5
800
  8
Layer_0
  10
199.7925
  20
286.01901
  0
VERTEX
  5
801
  8
Layer_0
  10
199.90419
  20
286.20313
  0
VERTEX
  5
802
  8
Layer_0
  10
200.02702
  20
286.40997
  0
VERTEX
  5
803
  8
Layer_0
  10
200.12816
  20
286.58865
  0
VERTEX
  5
804
  8
Layer_0
  10
200.2263
  20
286.77167
  0
VERTEX
  5
805
  8
Layer_0
  10
200.32716
  20
286.96985
  0
VERTEX
  5
806
  8
Layer_0
  10
200.49934
  20
287.32504
  0
VERTEX
  5
807
  8
Layer_0
  10
200.59612
  20
287.53137
  0
VERTEX
  5
808
  8
Layer_0
  10
200.68208
  20
287.72552
  0
VERTEX
  5
809
  8
Layer_0
  10
200.76585
  20
287.92639
  0
VERTEX
  5
80a
  8
Layer_0
  10
200.8423
  20
288.12164
  0
VERTEX
  5
80b
  8
Layer_0
  10
200.98112
  20
288.49744
  0
VERTEX
  5
80c
  8
Layer_0
  10
201.05977
  20
288.71921
  0
VERTEX
  5
80d
  8
Layer_0
  10
201.12617
  20
288.91956
  0
VERTEX
  5
80e
  8
Layer_0
  10
201.1869
  20
289.11749
  0
VERTEX
  5
80f
  8
Layer_0
  10
201.24385
  20
289.31842
  0
VERTEX
  5
810
  8
Layer_0
  10
201.28725
  20
289.48273
  0
VERTEX
  5
811
  8
Layer_0
  10
201.34715
  20
289.71588
  0
VERTEX
  5
812
  8
Layer_0
  10
201.4117
  20
289.97998
  0
VERTEX
  5
813
  8
Layer_0
  10
201.45399
  20
290.17004
  0
VERTEX
  5
814
  8
Layer_0
  10
201.49547
  20
290.37744
  0
VERTEX
  5
815
  8
Layer_0
  10
201.53178
  20
290.58133
  0
VERTEX
  5
816
  8
Layer_0
  10
201.59767
  20
291.00458
  0
VERTEX
  5
817
  8
Layer_0
  10
201.63103
  20
291.23828
  0
VERTEX
  5
818
  8
Layer_0
  10
201.65816
  20
291.46252
  0
VERTEX
  5
819
  8
Layer_0
  10
201.67632
  20
291.6474
  0
VERTEX
  5
81a
  8
Layer_0
  10
201.69365
  20
291.87219
  0
VERTEX
  5
81b
  8
Layer_0
  10
201.70506
  20
292.06793
  0
VERTEX
  5
81c
  8
Layer_0
  10
201.717
  20
292.30627
  0
VERTEX
  5
81d
  8
Layer_0
  10
201.72701
  20
292.56439
  0
VERTEX
  5
81e
  8
Layer_0
  10
201.73082
  20
292.76501
  0
VERTEX
  5
81f
  8
Layer_0
  10
201.73
  20
292.9895
  0
VERTEX
  5
820
  8
Layer_0
  10
201.72484
  20
293.19586
  0
VERTEX
  5
821
  8
Layer_0
  10
201.71751
  20
293.36908
  0
VERTEX
  5
822
  8
Layer_0
  10
201.70586
  20
293.60037
  0
VERTEX
  5
823
  8
Layer_0
  10
201.68904
  20
293.8761
  0
VERTEX
  5
824
  8
Layer_0
  10
201.67198
  20
294.08301
  0
VERTEX
  5
825
  8
Layer_0
  10
201.65163
  20
294.27954
  0
VERTEX
  5
826
  8
Layer_0
  10
201.62291
  20
294.50839
  0
VERTEX
  5
827
  8
Layer_0
  10
201.59822
  20
294.67865
  0
VERTEX
  5
828
  8
Layer_0
  10
201.56053
  20
294.92404
  0
VERTEX
  5
829
  8
Layer_0
  10
201.51851
  20
295.17999
  0
VERTEX
  5
82a
  8
Layer_0
  10
201.47948
  20
295.38983
  0
VERTEX
  5
82b
  8
Layer_0
  10
201.4388
  20
295.58423
  0
VERTEX
  5
82c
  8
Layer_0
  10
201.39055
  20
295.79355
  0
VERTEX
  5
82d
  8
Layer_0
  10
201.29131
  20
296.18481
  0
VERTEX
  5
82e
  8
Layer_0
  10
201.22435
  20
296.43506
  0
VERTEX
  5
82f
  8
Layer_0
  10
201.17119
  20
296.61804
  0
VERTEX
  5
830
  8
Layer_0
  10
201.10258
  20
296.83661
  0
VERTEX
  5
831
  8
Layer_0
  10
201.04295
  20
297.01257
  0
VERTEX
  5
832
  8
Layer_0
  10
200.89247
  20
297.42792
  0
VERTEX
  5
833
  8
Layer_0
  10
200.80461
  20
297.65973
  0
VERTEX
  5
834
  8
Layer_0
  10
200.72734
  20
297.85117
  0
VERTEX
  5
835
  8
Layer_0
  10
200.64601
  20
298.04095
  0
VERTEX
  5
836
  8
Layer_0
  10
200.55409
  20
298.24323
  0
VERTEX
  5
837
  8
Layer_0
  10
200.39305
  20
298.57971
  0
VERTEX
  5
838
  8
Layer_0
  10
200.28352
  20
298.80121
  0
VERTEX
  5
839
  8
Layer_0
  10
200.18535
  20
298.98962
  0
VERTEX
  5
83a
  8
Layer_0
  10
200.0872
  20
299.16833
  0
VERTEX
  5
83b
  8
Layer_0
  10
199.97878
  20
299.3562
  0
VERTEX
  5
83c
  8
Layer_0
  10
199.783
  20
299.67969
  0
VERTEX
  5
83d
  8
Layer_0
  10
199.64717
  20
299.89819
  0
VERTEX
  5
83e
  8
Layer_0
  10
199.5295
  20
300.0788
  0
VERTEX
  5
83f
  8
Layer_0
  10
199.43025
  20
300.22357
  0
VERTEX
  5
840
  8
Layer_0
  10
199.19899
  20
300.54321
  0
VERTEX
  5
841
  8
Layer_0
  10
199.0786
  20
300.70428
  0
VERTEX
  5
842
  8
Layer_0
  10
198.92433
  20
300.90625
  0
VERTEX
  5
843
  8
Layer_0
  10
198.79311
  20
301.07056
  0
VERTEX
  5
844
  8
Layer_0
  10
198.67055
  20
301.21725
  0
VERTEX
  5
845
  8
Layer_0
  10
198.42085
  20
301.50113
  0
VERTEX
  5
846
  8
Layer_0
  10
198.27037
  20
301.66681
  0
VERTEX
  5
847
  8
Layer_0
  10
198.10606
  20
301.84384
  0
VERTEX
  5
848
  8
Layer_0
  10
197.9583
  20
301.99622
  0
VERTEX
  5
849
  8
Layer_0
  10
197.83247
  20
302.12067
  0
VERTEX
  5
84a
  8
Layer_0
  10
197.53804
  20
302.39667
  0
VERTEX
  5
84b
  8
Layer_0
  10
197.38622
  20
302.53467
  0
VERTEX
  5
84c
  8
Layer_0
  10
197.20076
  20
302.69952
  0
VERTEX
  5
84d
  8
Layer_0
  10
197.03401
  20
302.84161
  0
VERTEX
  5
84e
  8
Layer_0
  10
196.89546
  20
302.95465
  0
VERTEX
  5
84f
  8
Layer_0
  10
196.601
  20
303.18188
  0
VERTEX
  5
850
  8
Layer_0
  10
196.41991
  20
303.31744
  0
VERTEX
  5
851
  8
Layer_0
  10
196.21654
  20
303.466
  0
VERTEX
  5
852
  8
Layer_0
  10
196.05656
  20
303.578
  0
VERTEX
  5
853
  8
Layer_0
  10
195.90123
  20
303.68182
  0
VERTEX
  5
854
  8
Layer_0
  10
195.55608
  20
303.89902
  0
VERTEX
  5
855
  8
Layer_0
  10
195.36925
  20
304.01263
  0
VERTEX
  5
856
  8
Layer_0
  10
195.17107
  20
304.13
  0
VERTEX
  5
857
  8
Layer_0
  10
194.98183
  20
304.23685
  0
VERTEX
  5
858
  8
Layer_0
  10
194.8037
  20
304.33228
  0
VERTEX
  5
859
  8
Layer_0
  10
194.61226
  20
304.42987
  0
VERTEX
  5
85a
  8
Layer_0
  10
194.24461
  20
304.60773
  0
VERTEX
  5
85b
  8
Layer_0
  10
194.04506
  20
304.70129
  0
VERTEX
  5
85c
  8
Layer_0
  10
193.85445
  20
304.78558
  0
VERTEX
  5
85d
  8
Layer_0
  10
193.65355
  20
304.86938
  0
VERTEX
  5
85e
  8
Layer_0
  10
193.45833
  20
304.94586
  0
VERTEX
  5
85f
  8
Layer_0
  10
193.08253
  20
305.08466
  0
VERTEX
  5
860
  8
Layer_0
  10
192.86076
  20
305.16327
  0
VERTEX
  5
861
  8
Layer_0
  10
192.66039
  20
305.22974
  0
VERTEX
  5
862
  8
Layer_0
  10
192.46248
  20
305.29047
  0
VERTEX
  5
863
  8
Layer_0
  10
192.27293
  20
305.34412
  0
VERTEX
  5
864
  8
Layer_0
  10
191.84294
  20
305.45612
  0
VERTEX
  5
865
  8
Layer_0
  10
191.61137
  20
305.51276
  0
VERTEX
  5
866
  8
Layer_0
  10
191.41402
  20
305.5567
  0
VERTEX
  5
867
  8
Layer_0
  10
191.2028
  20
305.599
  0
VERTEX
  5
868
  8
Layer_0
  10
190.99187
  20
305.63672
  0
VERTEX
  5
869
  8
Layer_0
  10
190.58299
  20
305.70013
  0
VERTEX
  5
86a
  8
Layer_0
  10
190.33327
  20
305.7359
  0
VERTEX
  5
86b
  8
Layer_0
  10
190.1386
  20
305.75922
  0
VERTEX
  5
86c
  8
Layer_0
  10
189.91573
  20
305.78149
  0
VERTEX
  5
86d
  8
Layer_0
  10
189.71321
  20
305.79694
  0
VERTEX
  5
86e
  8
Layer_0
  10
189.51634
  20
305.80859
  0
VERTEX
  5
86f
  8
Layer_0
  10
189.2737
  20
305.8205
  0
VERTEX
  5
870
  8
Layer_0
  10
189.01558
  20
305.83057
  0
VERTEX
  5
871
  8
Layer_0
  10
188.81493
  20
305.83435
  0
VERTEX
  5
872
  8
Layer_0
  10
188.59044
  20
305.83356
  0
VERTEX
  5
873
  8
Layer_0
  10
188.38411
  20
305.82837
  0
VERTEX
  5
874
  8
Layer_0
  10
188.21086
  20
305.82104
  0
VERTEX
  5
875
  8
Layer_0
  10
187.97661
  20
305.80939
  0
VERTEX
  5
876
  8
Layer_0
  10
187.70085
  20
305.7926
  0
VERTEX
  5
877
  8
Layer_0
  10
187.49696
  20
305.77551
  0
VERTEX
  5
878
  8
Layer_0
  10
187.3004
  20
305.75519
  0
VERTEX
  5
879
  8
Layer_0
  10
187.07158
  20
305.72644
  0
VERTEX
  5
87a
  8
Layer_0
  10
186.90129
  20
305.70178
  0
VERTEX
  5
87b
  8
Layer_0
  10
186.65593
  20
305.66406
  0
VERTEX
  5
87c
  8
Layer_0
  10
186.39998
  20
305.62207
  0
VERTEX
  5
87d
  8
Layer_0
  10
186.19011
  20
305.58301
  0
VERTEX
  5
87e
  8
Layer_0
  10
185.99571
  20
305.54236
  0
VERTEX
  5
87f
  8
Layer_0
  10
185.78642
  20
305.49408
  0
VERTEX
  5
880
  8
Layer_0
  10
185.39516
  20
305.39484
  0
VERTEX
  5
881
  8
Layer_0
  10
185.14491
  20
305.32788
  0
VERTEX
  5
882
  8
Layer_0
  10
184.95241
  20
305.27203
  0
VERTEX
  5
883
  8
Layer_0
  10
184.74336
  20
305.20612
  0
VERTEX
  5
884
  8
Layer_0
  10
184.5674
  20
305.14648
  0
VERTEX
  5
885
  8
Layer_0
  10
184.14552
  20
304.99359
  0
VERTEX
  5
886
  8
Layer_0
  10
183.92021
  20
304.90814
  0
VERTEX
  5
887
  8
Layer_0
  10
183.72881
  20
304.83087
  0
VERTEX
  5
888
  8
Layer_0
  10
183.53902
  20
304.74957
  0
VERTEX
  5
889
  8
Layer_0
  10
183.33675
  20
304.65765
  0
VERTEX
  5
88a
  8
Layer_0
  10
183.00026
  20
304.49658
  0
VERTEX
  5
88b
  8
Layer_0
  10
182.77306
  20
304.38406
  0
VERTEX
  5
88c
  8
Layer_0
  10
182.58977
  20
304.28864
  0
VERTEX
  5
88d
  8
Layer_0
  10
182.41164
  20
304.19073
  0
VERTEX
  5
88e
  8
Layer_0
  10
182.21913
  20
304.07959
  0
VERTEX
  5
88f
  8
Layer_0
  10
181.90028
  20
303.88654
  0
VERTEX
  5
890
  8
Layer_0
  10
181.67796
  20
303.74826
  0
VERTEX
  5
891
  8
Layer_0
  10
181.50117
  20
303.63303
  0
VERTEX
  5
892
  8
Layer_0
  10
181.3564
  20
303.53381
  0
VERTEX
  5
893
  8
Layer_0
  10
181.03673
  20
303.30252
  0
VERTEX
  5
894
  8
Layer_0
  10
180.87541
  20
303.18188
  0
VERTEX
  5
895
  8
Layer_0
  10
180.67369
  20
303.02786
  0
VERTEX
  5
896
  8
Layer_0
  10
180.50938
  20
302.89664
  0
VERTEX
  5
897
  8
Layer_0
  10
180.36189
  20
302.77356
  0
VERTEX
  5
898
  8
Layer_0
  10
180.07884
  20
302.52438
  0
VERTEX
  5
899
  8
Layer_0
  10
179.91316
  20
302.3739
  0
VERTEX
  5
89a
  8
Layer_0
  10
179.73586
  20
302.20932
  0
VERTEX
  5
89b
  8
Layer_0
  10
179.58376
  20
302.06183
  0
VERTEX
  5
89c
  8
Layer_0
  10
179.4593
  20
301.93604
  0
VERTEX
  5
89d
  8
Layer_0
  10
179.18327
  20
301.64157
  0
VERTEX
  5
89e
  8
Layer_0
  10
179.04527
  20
301.48975
  0
VERTEX
  5
89f
  8
Layer_0
  10
178.88042
  20
301.30429
  0
VERTEX
  5
8a0
  8
Layer_0
  10
178.73836
  20
301.13754
  0
VERTEX
  5
8a1
  8
Layer_0
  10
178.62312
  20
300.99603
  0
VERTEX
  5
8a2
  8
Layer_0
  10
178.38643
  20
300.68909
  0
VERTEX
  5
8a3
  8
Layer_0
  10
178.2636
  20
300.52478
  0
VERTEX
  5
8a4
  8
Layer_0
  10
178.11287
  20
300.31845
  0
VERTEX
  5
8a5
  8
Layer_0
  10
177.99464
  20
300.14899
  0
VERTEX
  5
8a6
  8
Layer_0
  10
177.89622
  20
300.00153
  0
VERTEX
  5
8a7
  8
Layer_0
  10
177.68391
  20
299.66449
  0
VERTEX
  5
8a8
  8
Layer_0
  10
177.57222
  20
299.48041
  0
VERTEX
  5
8a9
  8
Layer_0
  10
177.44804
  20
299.27106
  0
VERTEX
  5
8aa
  8
Layer_0
  10
177.34474
  20
299.08832
  0
VERTEX
  5
8ab
  8
Layer_0
  10
177.24959
  20
298.91077
  0
VERTEX
  5
8ac
  8
Layer_0
  10
177.14925
  20
298.71362
  0
VERTEX
  5
8ad
  8
Layer_0
  10
176.9771
  20
298.35846
  0
VERTEX
  5
8ae
  8
Layer_0
  10
176.8773
  20
298.14563
  0
VERTEX
  5
8af
  8
Layer_0
  10
176.79247
  20
297.95367
  0
VERTEX
  5
8b0
  8
Layer_0
  10
176.71004
  20
297.75598
  0
VERTEX
  5
8b1
  8
Layer_0
  10
176.63112
  20
297.55426
  0
VERTEX
  5
8b2
  8
Layer_0
  10
176.50099
  20
297.20154
  0
VERTEX
  5
8b3
  8
Layer_0
  10
176.41502
  20
296.95886
  0
VERTEX
  5
8b4
  8
Layer_0
  10
176.34969
  20
296.76013
  0
VERTEX
  5
8b5
  8
Layer_0
  10
176.28706
  20
296.55624
  0
VERTEX
  5
8b6
  8
Layer_0
  10
176.23393
  20
296.36755
  0
VERTEX
  5
8b7
  8
Layer_0
  10
176.12331
  20
295.94348
  0
VERTEX
  5
8b8
  8
Layer_0
  10
176.06825
  20
295.71872
  0
VERTEX
  5
8b9
  8
Layer_0
  10
176.02299
  20
295.51617
  0
VERTEX
  5
8ba
  8
Layer_0
  10
175.98177
  20
295.31122
  0
VERTEX
  5
8bb
  8
Layer_0
  10
175.9449
  20
295.10486
  0
VERTEX
  5
8bc
  8
Layer_0
  10
175.91209
  20
294.90018
  0
VERTEX
  5
8bd
  8
Layer_0
  10
175.88173
  20
294.70062
  0
VERTEX
  5
8be
  8
Layer_0
  10
175.84431
  20
294.43573
  0
VERTEX
  5
8bf
  8
Layer_0
  10
175.81935
  20
294.22723
  0
VERTEX
  5
8c0
  8
Layer_0
  10
175.79875
  20
294.01898
  0
VERTEX
  5
8c1
  8
Layer_0
  10
175.78249
  20
293.80264
  0
VERTEX
  5
8c2
  8
Layer_0
  10
175.77272
  20
293.63885
  0
VERTEX
  5
8c3
  8
Layer_0
  10
175.7589
  20
293.36801
  0
VERTEX
  5
8c4
  8
Layer_0
  10
175.74968
  20
293.13321
  0
VERTEX
  5
8c5
  8
Layer_0
  10
175.74562
  20
292.9212
  0
VERTEX
  5
8c6
  8
Layer_0
  10
175.74617
  20
292.70508
  0
VERTEX
  5
8c7
  8
Layer_0
  10
175.7513
  20
292.49796
  0
VERTEX
  5
8c8
  8
Layer_0
  10
175.75972
  20
292.30029
  0
VERTEX
  5
8c9
  8
Layer_0
  10
175.77245
  20
292.05139
  0
VERTEX
  5
8ca
  8
Layer_0
  10
175.78792
  20
291.7995
  0
VERTEX
  5
8cb
  8
Layer_0
  10
175.80418
  20
291.60565
  0
VERTEX
  5
8cc
  8
Layer_0
  10
175.82668
  20
291.39172
  0
VERTEX
  5
8cd
  8
Layer_0
  10
175.85652
  20
291.15613
  0
VERTEX
  5
8ce
  8
Layer_0
  10
175.87819
  20
291.00647
  0
VERTEX
  5
8cf
  8
Layer_0
  10
175.91264
  20
290.78033
  0
VERTEX
  5
8d0
  8
Layer_0
  10
175.95683
  20
290.50922
  0
VERTEX
  5
8d1
  8
Layer_0
  10
175.99452
  20
290.30585
  0
VERTEX
  5
8d2
  8
Layer_0
  10
176.03682
  20
290.10251
  0
VERTEX
  5
8d3
  8
Layer_0
  10
176.08235
  20
289.90567
  0
VERTEX
  5
8d4
  8
Layer_0
  10
176.19298
  20
289.46942
  0
VERTEX
  5
8d5
  8
Layer_0
  10
176.25047
  20
289.25494
  0
VERTEX
  5
8d6
  8
Layer_0
  10
176.312
  20
289.04428
  0
VERTEX
  5
8d7
  8
Layer_0
  10
176.37733
  20
288.83685
  0
VERTEX
  5
8d8
  8
Layer_0
  10
176.43834
  20
288.65686
  0
VERTEX
  5
8d9
  8
Layer_0
  10
176.58559
  20
288.25098
  0
VERTEX
  5
8da
  8
Layer_0
  10
176.66692
  20
288.03622
  0
VERTEX
  5
8db
  8
Layer_0
  10
176.74962
  20
287.83099
  0
VERTEX
  5
8dc
  8
Layer_0
  10
176.83177
  20
287.63956
  0
VERTEX
  5
8dd
  8
Layer_0
  10
176.91637
  20
287.45276
  0
VERTEX
  5
8de
  8
Layer_0
  10
177.08501
  20
287.10083
  0
VERTEX
  5
8df
  8
Layer_0
  10
177.19591
  20
286.87659
  0
VERTEX
  5
8e0
  8
Layer_0
  10
177.29106
  20
286.69385
  0
VERTEX
  5
8e1
  8
Layer_0
  10
177.38921
  20
286.5152
  0
VERTEX
  5
8e2
  8
Layer_0
  10
177.50038
  20
286.32269
  0
VERTEX
  5
8e3
  8
Layer_0
  10
177.69749
  20
285.99704
  0
VERTEX
  5
8e4
  8
Layer_0
  10
177.83171
  20
285.78149
  0
VERTEX
  5
8e5
  8
Layer_0
  10
177.95073
  20
285.5993
  0
VERTEX
  5
8e6
  8
Layer_0
  10
178.04616
  20
285.45993
  0
VERTEX
  5
8e7
  8
Layer_0
  10
178.27742
  20
285.14026
  0
VERTEX
  5
8e8
  8
Layer_0
  10
178.39781
  20
284.97922
  0
VERTEX
  5
8e9
  8
Layer_0
  10
178.5529
  20
284.77612
  0
VERTEX
  5
8ea
  8
Layer_0
  10
178.6833
  20
284.61292
  0
VERTEX
  5
8eb
  8
Layer_0
  10
178.80641
  20
284.46542
  0
VERTEX
  5
8ec
  8
Layer_0
  10
179.05559
  20
284.18237
  0
VERTEX
  5
8ed
  8
Layer_0
  10
179.20607
  20
284.01672
  0
VERTEX
  5
8ee
  8
Layer_0
  10
179.37062
  20
283.83939
  0
VERTEX
  5
8ef
  8
Layer_0
  10
179.51839
  20
283.68701
  0
VERTEX
  5
8f0
  8
Layer_0
  10
179.64394
  20
283.56284
  0
VERTEX
  5
8f1
  8
Layer_0
  10
179.93837
  20
283.2868
  0
VERTEX
  5
8f2
  8
Layer_0
  10
180.09023
  20
283.1488
  0
VERTEX
  5
8f3
  8
Layer_0
  10
180.27568
  20
282.98395
  0
VERTEX
  5
8f4
  8
Layer_0
  10
180.44243
  20
282.84189
  0
VERTEX
  5
8f5
  8
Layer_0
  10
180.57799
  20
282.73157
  0
VERTEX
  5
8f6
  8
Layer_0
  10
180.89085
  20
282.48996
  0
VERTEX
  5
8f7
  8
Layer_0
  10
181.05516
  20
282.36713
  0
VERTEX
  5
8f8
  8
Layer_0
  10
181.25771
  20
282.21912
  0
VERTEX
  5
8f9
  8
Layer_0
  10
181.43205
  20
282.09735
  0
VERTEX
  5
8fa
  8
Layer_0
  10
181.57845
  20
281.99976
  0
VERTEX
  5
8fb
  8
Layer_0
  10
181.91548
  20
281.78748
  0
VERTEX
  5
8fc
  8
Layer_0
  10
182.09956
  20
281.67578
  0
VERTEX
  5
8fd
  8
Layer_0
  10
182.30971
  20
281.55103
  0
VERTEX
  5
8fe
  8
Layer_0
  10
182.48512
  20
281.45181
  0
VERTEX
  5
8ff
  8
Layer_0
  10
182.6692
  20
281.35312
  0
VERTEX
  5
900
  8
Layer_0
  10
182.86632
  20
281.25281
  0
VERTEX
  5
901
  8
Layer_0
  10
183.22151
  20
281.08063
  0
VERTEX
  5
902
  8
Layer_0
  10
183.43434
  20
280.98083
  0
VERTEX
  5
903
  8
Layer_0
  10
183.62196
  20
280.89789
  0
VERTEX
  5
904
  8
Layer_0
  10
183.82289
  20
280.81409
  0
VERTEX
  5
905
  8
Layer_0
  10
184.01808
  20
280.73764
  0
VERTEX
  5
906
  8
Layer_0
  10
184.39388
  20
280.59882
  0
VERTEX
  5
907
  8
Layer_0
  10
184.61568
  20
280.5202
  0
VERTEX
  5
908
  8
Layer_0
  10
184.81602
  20
280.45377
  0
VERTEX
  5
909
  8
Layer_0
  10
185.01396
  20
280.39304
  0
VERTEX
  5
90a
  8
Layer_0
  10
185.21486
  20
280.33612
  0
VERTEX
  5
90b
  8
Layer_0
  10
185.37917
  20
280.29272
  0
VERTEX
  5
90c
  8
Layer_0
  10
185.61235
  20
280.23279
  0
VERTEX
  5
90d
  8
Layer_0
  10
185.87642
  20
280.16827
  0
VERTEX
  5
90e
  8
Layer_0
  10
186.06648
  20
280.12598
  0
VERTEX
  5
90f
  8
Layer_0
  10
186.27391
  20
280.08447
  0
VERTEX
  5
910
  8
Layer_0
  10
186.48158
  20
280.04761
  0
VERTEX
  5
911
  8
Layer_0
  10
186.90617
  20
279.98145
  0
VERTEX
  5
912
  8
Layer_0
  10
187.14424
  20
279.94785
  0
VERTEX
  5
913
  8
Layer_0
  10
187.35274
  20
279.92291
  0
VERTEX
  5
914
  8
Layer_0
  10
187.56096
  20
279.90228
  0
VERTEX
  5
915
  8
Layer_0
  10
187.77489
  20
279.88629
  0
VERTEX
  5
916
  8
Layer_0
  10
187.94109
  20
279.87628
  0
VERTEX
  5
917
  8
Layer_0
  10
188.21196
  20
279.86243
  0
VERTEX
  5
918
  8
Layer_0
  10
188.44673
  20
279.85321
  0
VERTEX
  5
919
  8
Layer_0
  10
188.65877
  20
279.84915
  0
VERTEX
  5
91a
  8
Layer_0
  10
188.87053
  20
279.84967
  0
SEQEND
  0
CIRCLE
  5
91c
  8
Layer_0
  62
0
  10
207.89948
  20
109.96103
  30
0
  40
3.3316576
  0
POLYLINE
  5
91c
  8
Layer_0
  62
0
  66
1
  10
0
  20
0
  30
0
  0
VERTEX
  5
91c
  8
Layer_0
  10
35.742645
  20
156.6086
  0
VERTEX
  5
91d
  8
Layer_0
  10
35.573181
  20
156.6216
  0
VERTEX
  5
91e
  8
Layer_0
  10
35.404541
  20
156.6433
  0
VERTEX
  5
91f
  8
Layer_0
  10
35.237244
  20
156.67339
  0
VERTEX
  5
920
  8
Layer_0
  10
35.071594
  20
156.71217
  0
VERTEX
  5
921
  8
Layer_0
  10
34.908386
  20
156.75932
  0
VERTEX
  5
922
  8
Layer_0
  10
34.747589
  20
156.81465
  0
VERTEX
  5
923
  8
Layer_0
  10
34.590057
  20
156.8781
  0
VERTEX
  5
924
  8
Layer_0
  10
34.435791
  20
156.94939
  0
VERTEX
  5
925
  8
Layer_0
  10
34.285309
  20
157.02885
  0
VERTEX
  5
926
  8
Layer_0
  10
34.13916
  20
157.11562
  0
VERTEX
  5
927
  8
Layer_0
  10
33.99765
  20
157.20967
  0
VERTEX
  5
928
  8
Layer_0
  10
33.860992
  20
157.31081
  0
VERTEX
  5
929
  8
Layer_0
  10
33.729767
  20
157.41899
  0
VERTEX
  5
92a
  8
Layer_0
  10
33.604218
  20
157.53368
  0
VERTEX
  5
92b
  8
Layer_0
  10
33.48465
  20
157.65462
  0
VERTEX
  5
92c
  8
Layer_0
  10
33.371338
  20
157.78123
  0
VERTEX
  5
92d
  8
Layer_0
  10
33.264771
  20
157.9138
  0
VERTEX
  5
92e
  8
Layer_0
  10
33.165009
  20
158.05156
  0
VERTEX
  5
92f
  8
Layer_0
  10
33.07254
  20
158.19417
  0
VERTEX
  5
930
  8
Layer_0
  10
32.987396
  20
158.34111
  0
VERTEX
  5
931
  8
Layer_0
  10
32.909851
  20
158.49242
  0
VERTEX
  5
932
  8
Layer_0
  10
32.840179
  20
158.64751
  0
VERTEX
  5
933
  8
Layer_0
  10
32.778381
  20
158.80583
  0
VERTEX
  5
934
  8
Layer_0
  10
32.724945
  20
158.96742
  0
VERTEX
  5
935
  8
Layer_0
  10
32.679688
  20
159.13118
  0
VERTEX
  5
936
  8
Layer_0
  10
32.642792
  20
159.29713
  0
VERTEX
  5
937
  8
Layer_0
  10
32.614319
  20
159.46468
  0
VERTEX
  5
938
  8
Layer_0
  10
32.594818
  20
159.63359
  0
VERTEX
  5
939
  8
Layer_0
  10
32.58371
  20
159.80333
  0
VERTEX
  5
93a
  8
Layer_0
  10
32.581268
  20
159.97331
  0
VERTEX
  5
93b
  8
Layer_0
  10
32.587494
  20
160.14305
  0
VERTEX
  5
93c
  8
Layer_0
  10
32.602417
  20
160.31252
  0
VERTEX
  5
93d
  8
Layer_0
  10
32.625732
  20
160.48088
  0
VERTEX
  5
93e
  8
Layer_0
  10
32.65799
  20
160.6479
  0
VERTEX
  5
93f
  8
Layer_0
  10
32.698395
  20
160.813
  0
VERTEX
  5
940
  8
Layer_0
  10
32.747467
  20
160.97569
  0
VERTEX
  5
941
  8
Layer_0
  10
32.804657
  20
161.13594
  0
VERTEX
  5
942
  8
Layer_0
  10
32.869751
  20
161.29292
  0
VERTEX
  5
943
  8
Layer_0
  10
32.942932
  20
161.44637
  0
VERTEX
  5
944
  8
Layer_0
  10
33.024017
  20
161.59578
  0
VERTEX
  5
945
  8
Layer_0
  10
33.112396
  20
161.7411
  0
VERTEX
  5
946
  8
Layer_0
  10
33.208099
  20
161.88155
  0
VERTEX
  5
947
  8
Layer_0
  10
33.310883
  20
162.01683
  0
VERTEX
  5
948
  8
Layer_0
  10
33.385162
  20
162.10658
  0
VERTEX
  5
949
  8
Layer_0
  10
56.276489
  20
188.75984
  0
VERTEX
  5
94a
  8
Layer_0
  10
56.390625
  20
188.88591
  0
VERTEX
  5
94b
  8
Layer_0
  10
56.510742
  20
189.00603
  0
VERTEX
  5
94c
  8
Layer_0
  10
56.637085
  20
189.11992
  0
VERTEX
  5
94d
  8
Layer_0
  10
56.769135
  20
189.22728
  0
VERTEX
  5
94e
  8
Layer_0
  10
56.906311
  20
189.32759
  0
VERTEX
  5
94f
  8
Layer_0
  10
57.048401
  20
189.42085
  0
VERTEX
  5
950
  8
Layer_0
  10
57.195068
  20
189.50655
  0
VERTEX
  5
951
  8
Layer_0
  10
57.3461
  20
189.58488
  0
VERTEX
  5
952
  8
Layer_0
  10
57.500641
  20
189.65538
  0
VERTEX
  5
953
  8
Layer_0
  10
57.658966
  20
189.71776
  0
VERTEX
  5
954
  8
Layer_0
  10
57.820038
  20
189.77223
  0
VERTEX
  5
955
  8
Layer_0
  10
57.983521
  20
189.81834
  0
VERTEX
  5
956
  8
Layer_0
  10
58.149445
  20
189.85576
  0
VERTEX
  5
957
  8
Layer_0
  10
58.316742
  20
189.88503
  0
VERTEX
  5
958
  8
Layer_0
  10
58.485657
  20
189.90565
  0
VERTEX
  5
959
  8
Layer_0
  10
58.655121
  20
189.91756
  0
VERTEX
  5
95a
  8
Layer_0
  10
58.803955
  20
189.92082
  0
VERTEX
  5
95b
  8
Layer_0
  10
91.291412
  20
189.92082
  0
VERTEX
  5
95c
  8
Layer_0
  10
91.461426
  20
189.91649
  0
VERTEX
  5
95d
  8
Layer_0
  10
91.630859
  20
189.90346
  0
VERTEX
  5
95e
  8
Layer_0
  10
91.79953
  20
189.88179
  0
VERTEX
  5
95f
  8
Layer_0
  10
91.966797
  20
189.8517
  0
VERTEX
  5
960
  8
Layer_0
  10
92.132477
  20
189.81291
  0
VERTEX
  5
961
  8
Layer_0
  10
92.295685
  20
189.76573
  0
VERTEX
  5
962
  8
Layer_0
  10
92.456482
  20
189.71043
  0
VERTEX
  5
963
  8
Layer_0
  10
92.613983
  20
189.64699
  0
VERTEX
  5
964
  8
Layer_0
  10
92.76828
  20
189.57567
  0
VERTEX
  5
965
  8
Layer_0
  10
92.918732
  20
189.49623
  0
VERTEX
  5
966
  8
Layer_0
  10
93.06488
  20
189.40947
  0
VERTEX
  5
967
  8
Layer_0
  10
93.206421
  20
189.31538
  0
VERTEX
  5
968
  8
Layer_0
  10
93.343079
  20
189.21425
  0
VERTEX
  5
969
  8
Layer_0
  10
93.474304
  20
189.10606
  0
VERTEX
  5
96a
  8
Layer_0
  10
93.599823
  20
188.99138
  0
VERTEX
  5
96b
  8
Layer_0
  10
93.719391
  20
188.87047
  0
VERTEX
  5
96c
  8
Layer_0
  10
93.832733
  20
188.74385
  0
VERTEX
  5
96d
  8
Layer_0
  10
93.93927
  20
188.61125
  0
VERTEX
  5
96e
  8
Layer_0
  10
94.039063
  20
188.47353
  0
VERTEX
  5
96f
  8
Layer_0
  10
94.1315
  20
188.33092
  0
VERTEX
  5
970
  8
Layer_0
  10
94.216644
  20
188.18394
  0
VERTEX
  5
971
  8
Layer_0
  10
94.294189
  20
188.03267
  0
VERTEX
  5
972
  8
Layer_0
  10
94.363861
  20
187.87758
  0
VERTEX
  5
973
  8
Layer_0
  10
94.42569
  20
187.71925
  0
VERTEX
  5
974
  8
Layer_0
  10
94.479095
  20
187.55763
  0
VERTEX
  5
975
  8
Layer_0
  10
94.524384
  20
187.39388
  0
VERTEX
  5
976
  8
Layer_0
  10
94.561249
  20
187.22795
  0
VERTEX
  5
977
  8
Layer_0
  10
94.589722
  20
187.06038
  0
VERTEX
  5
978
  8
Layer_0
  10
94.609253
  20
186.89146
  0
VERTEX
  5
979
  8
Layer_0
  10
94.620361
  20
186.72176
  0
VERTEX
  5
97a
  8
Layer_0
  10
94.623077
  20
186.58916
  0
VERTEX
  5
97b
  8
Layer_0
  10
94.623077
  20
159.9359
  0
VERTEX
  5
97c
  8
Layer_0
  10
94.618744
  20
159.76591
  0
VERTEX
  5
97d
  8
Layer_0
  10
94.605713
  20
159.59645
  0
VERTEX
  5
97e
  8
Layer_0
  10
94.584045
  20
159.42781
  0
VERTEX
  5
97f
  8
Layer_0
  10
94.553925
  20
159.26051
  0
VERTEX
  5
980
  8
Layer_0
  10
94.515167
  20
159.09486
  0
VERTEX
  5
981
  8
Layer_0
  10
94.467987
  20
158.93163
  0
VERTEX
  5
982
  8
Layer_0
  10
94.412689
  20
158.77086
  0
VERTEX
  5
983
  8
Layer_0
  10
94.349243
  20
158.61333
  0
VERTEX
  5
984
  8
Layer_0
  10
94.277924
  20
158.45906
  0
VERTEX
  5
985
  8
Layer_0
  10
94.198486
  20
158.30858
  0
VERTEX
  5
986
  8
Layer_0
  10
94.111725
  20
158.16243
  0
VERTEX
  5
987
  8
Layer_0
  10
94.017639
  20
158.02092
  0
VERTEX
  5
988
  8
Layer_0
  10
93.916504
  20
157.88426
  0
VERTEX
  5
989
  8
Layer_0
  10
93.808319
  20
157.75304
  0
VERTEX
  5
98a
  8
Layer_0
  10
93.693634
  20
157.62749
  0
VERTEX
  5
98b
  8
Layer_0
  10
93.572723
  20
157.50792
  0
VERTEX
  5
98c
  8
Layer_0
  10
93.446106
  20
157.39461
  0
VERTEX
  5
98d
  8
Layer_0
  10
93.313507
  20
157.28804
  0
VERTEX
  5
98e
  8
Layer_0
  10
93.175781
  20
157.18828
  0
VERTEX
  5
98f
  8
Layer_0
  10
93.033173
  20
157.09581
  0
VERTEX
  5
990
  8
Layer_0
  10
92.8862
  20
157.01067
  0
VERTEX
  5
991
  8
Layer_0
  10
92.734924
  20
156.93312
  0
VERTEX
  5
992
  8
Layer_0
  10
92.579834
  20
156.86345
  0
VERTEX
  5
993
  8
Layer_0
  10
92.421478
  20
156.80162
  0
VERTEX
  5
994
  8
Layer_0
  10
92.259888
  20
156.74821
  0
VERTEX
  5
995
  8
Layer_0
  10
92.09613
  20
156.70293
  0
VERTEX
  5
996
  8
Layer_0
  10
91.930206
  20
156.66606
  0
VERTEX
  5
997
  8
Layer_0
  10
91.762634
  20
156.63759
  0
VERTEX
  5
998
  8
Layer_0
  10
91.593719
  20
156.61809
  0
VERTEX
  5
999
  8
Layer_0
  10
91.424011
  20
156.60695
  0
VERTEX
  5
99a
  8
Layer_0
  10
91.291412
  20
156.60426
  0
VERTEX
  5
99b
  8
Layer_0
  10
35.912628
  20
156.60426
  0
VERTEX
  5
99c
  8
Layer_0
  10
35.742645
  20
156.6086
  0
SEQEND
  0
POLYLINE
  5
99e
  8
Layer_0
  62
0
  66
1
  10
0
  20
0
  30
0
  0
VERTEX
  5
99e
  8
Layer_0
  10
111.11136
  20
156.6086
  0
VERTEX
  5
99f
  8
Layer_0
  10
110.94189
  20
156.6216
  0
VERTEX
  5
9a0
  8
Layer_0
  10
110.77325
  20
156.6433
  0
VERTEX
  5
9a1
  8
Layer_0
  10
110.60599
  20
156.67339
  0
VERTEX
  5
9a2
  8
Layer_0
  10
110.44031
  20
156.71217
  0
VERTEX
  5
9a3
  8
Layer_0
  10
110.2771
  20
156.75932
  0
VERTEX
  5
9a4
  8
Layer_0
  10
110.1163
  20
156.81465
  0
VERTEX
  5
9a5
  8
Layer_0
  10
109.9588
  20
156.8781
  0
VERTEX
  5
9a6
  8
Layer_0
  10
109.8045
  20
156.94939
  0
VERTEX
  5
9a7
  8
Layer_0
  10
109.65402
  20
157.02885
  0
VERTEX
  5
9a8
  8
Layer_0
  10
109.5079
  20
157.11562
  0
VERTEX
  5
9a9
  8
Layer_0
  10
109.36636
  20
157.20967
  0
VERTEX
  5
9aa
  8
Layer_0
  10
109.22971
  20
157.31081
  0
VERTEX
  5
9ab
  8
Layer_0
  10
109.09848
  20
157.41899
  0
VERTEX
  5
9ac
  8
Layer_0
  10
108.97296
  20
157.53368
  0
VERTEX
  5
9ad
  8
Layer_0
  10
108.85339
  20
157.65462
  0
VERTEX
  5
9ae
  8
Layer_0
  10
108.74005
  20
157.78123
  0
VERTEX
  5
9af
  8
Layer_0
  10
108.63348
  20
157.9138
  0
VERTEX
  5
9b0
  8
Layer_0
  10
108.53372
  20
158.05156
  0
VERTEX
  5
9b1
  8
Layer_0
  10
108.44125
  20
158.19417
  0
VERTEX
  5
9b2
  8
Layer_0
  10
108.35614
  20
158.34111
  0
VERTEX
  5
9b3
  8
Layer_0
  10
108.27859
  20
158.49242
  0
VERTEX
  5
9b4
  8
Layer_0
  10
108.20889
  20
158.64751
  0
VERTEX
  5
9b5
  8
Layer_0
  10
108.14709
  20
158.80583
  0
VERTEX
  5
9b6
  8
Layer_0
  10
108.09369
  20
158.96742
  0
VERTEX
  5
9b7
  8
Layer_0
  10
108.0484
  20
159.13118
  0
VERTEX
  5
9b8
  8
Layer_0
  10
108.01154
  20
159.29713
  0
VERTEX
  5
9b9
  8
Layer_0
  10
107.98306
  20
159.46468
  0
VERTEX
  5
9ba
  8
Layer_0
  10
107.96353
  20
159.63359
  0
VERTEX
  5
9bb
  8
Layer_0
  10
107.95242
  20
159.80333
  0
VERTEX
  5
9bc
  8
Layer_0
  10
107.94971
  20
159.9359
  0
VERTEX
  5
9bd
  8
Layer_0
  10
107.94971
  20
186.58916
  0
VERTEX
  5
9be
  8
Layer_0
  10
107.95404
  20
186.75917
  0
VERTEX
  5
9bf
  8
Layer_0
  10
107.96707
  20
186.92863
  0
VERTEX
  5
9c0
  8
Layer_0
  10
107.98874
  20
187.09727
  0
VERTEX
  5
9c1
  8
Layer_0
  10
108.01883
  20
187.26454
  0
VERTEX
  5
9c2
  8
Layer_0
  10
108.05762
  20
187.43022
  0
VERTEX
  5
9c3
  8
Layer_0
  10
108.1048
  20
187.59343
  0
VERTEX
  5
9c4
  8
Layer_0
  10
108.1601
  20
187.75423
  0
VERTEX
  5
9c5
  8
Layer_0
  10
108.22354
  20
187.91176
  0
VERTEX
  5
9c6
  8
Layer_0
  10
108.29486
  20
188.06602
  0
VERTEX
  5
9c7
  8
Layer_0
  10
108.3743
  20
188.21651
  0
VERTEX
  5
9c8
  8
Layer_0
  10
108.46106
  20
188.36263
  0
VERTEX
  5
9c9
  8
Layer_0
  10
108.55515
  20
188.50417
  0
VERTEX
  5
9ca
  8
Layer_0
  10
108.65628
  20
188.64082
  0
VERTEX
  5
9cb
  8
Layer_0
  10
108.76447
  20
188.77205
  0
VERTEX
  5
9cc
  8
Layer_0
  10
108.87915
  20
188.89757
  0
VERTEX
  5
9cd
  8
Layer_0
  10
109.00006
  20
189.01714
  0
VERTEX
  5
9ce
  8
Layer_0
  10
109.12668
  20
189.13048
  0
VERTEX
  5
9cf
  8
Layer_0
  10
109.25928
  20
189.23705
  0
VERTEX
  5
9d0
  8
Layer_0
  10
109.397
  20
189.33681
  0
VERTEX
  5
9d1
  8
Layer_0
  10
109.53961
  20
189.42928
  0
VERTEX
  5
9d2
  8
Layer_0
  10
109.68658
  20
189.51439
  0
VERTEX
  5
9d3
  8
Layer_0
  10
109.83786
  20
189.59193
  0
VERTEX
  5
9d4
  8
Layer_0
  10
109.99295
  20
189.66164
  0
VERTEX
  5
9d5
  8
Layer_0
  10
110.15128
  20
189.72343
  0
VERTEX
  5
9d6
  8
Layer_0
  10
110.3129
  20
189.77684
  0
VERTEX
  5
9d7
  8
Layer_0
  10
110.47665
  20
189.82213
  0
VERTEX
  5
9d8
  8
Layer_0
  10
110.64258
  20
189.85899
  0
VERTEX
  5
9d9
  8
Layer_0
  10
110.81015
  20
189.88747
  0
VERTEX
  5
9da
  8
Layer_0
  10
110.97906
  20
189.907
  0
VERTEX
  5
9db
  8
Layer_0
  10
111.14877
  20
189.91811
  0
VERTEX
  5
9dc
  8
Layer_0
  10
111.28137
  20
189.92082
  0
VERTEX
  5
9dd
  8
Layer_0
  10
165.69844
  20
189.92082
  0
VERTEX
  5
9de
  8
Layer_0
  10
165.86844
  20
189.91649
  0
VERTEX
  5
9df
  8
Layer_0
  10
166.03789
  20
189.90346
  0
VERTEX
  5
9e0
  8
Layer_0
  10
166.20654
  20
189.88179
  0
VERTEX
  5
9e1
  8
Layer_0
  10
166.37383
  20
189.8517
  0
VERTEX
  5
9e2
  8
Layer_0
  10
166.53949
  20
189.81291
  0
VERTEX
  5
9e3
  8
Layer_0
  10
166.70271
  20
189.76573
  0
VERTEX
  5
9e4
  8
Layer_0
  10
166.86349
  20
189.71043
  0
VERTEX
  5
9e5
  8
Layer_0
  10
167.02101
  20
189.64699
  0
VERTEX
  5
9e6
  8
Layer_0
  10
167.17529
  20
189.57567
  0
VERTEX
  5
9e7
  8
Layer_0
  10
167.32576
  20
189.49623
  0
VERTEX
  5
9e8
  8
Layer_0
  10
167.47191
  20
189.40947
  0
VERTEX
  5
9e9
  8
Layer_0
  10
167.61343
  20
189.31538
  0
VERTEX
  5
9ea
  8
Layer_0
  10
167.75009
  20
189.21425
  0
VERTEX
  5
9eb
  8
Layer_0
  10
167.88132
  20
189.10606
  0
VERTEX
  5
9ec
  8
Layer_0
  10
168.00685
  20
188.99138
  0
VERTEX
  5
9ed
  8
Layer_0
  10
168.12642
  20
188.87047
  0
VERTEX
  5
9ee
  8
Layer_0
  10
168.23975
  20
188.74385
  0
VERTEX
  5
9ef
  8
Layer_0
  10
168.3463
  20
188.61125
  0
VERTEX
  5
9f0
  8
Layer_0
  10
168.44608
  20
188.47353
  0
VERTEX
  5
9f1
  8
Layer_0
  10
168.53853
  20
188.33092
  0
VERTEX
  5
9f2
  8
Layer_0
  10
168.62367
  20
188.18394
  0
VERTEX
  5
9f3
  8
Layer_0
  10
168.70122
  20
188.03267
  0
VERTEX
  5
9f4
  8
Layer_0
  10
168.77089
  20
187.87758
  0
VERTEX
  5
9f5
  8
Layer_0
  10
168.83272
  20
187.71925
  0
VERTEX
  5
9f6
  8
Layer_0
  10
168.88612
  20
187.55763
  0
VERTEX
  5
9f7
  8
Layer_0
  10
168.93141
  20
187.39388
  0
VERTEX
  5
9f8
  8
Layer_0
  10
168.96828
  20
187.22795
  0
VERTEX
  5
9f9
  8
Layer_0
  10
168.99675
  20
187.06038
  0
VERTEX
  5
9fa
  8
Layer_0
  10
169.01627
  20
186.89146
  0
VERTEX
  5
9fb
  8
Layer_0
  10
169.02739
  20
186.72176
  0
VERTEX
  5
9fc
  8
Layer_0
  10
169.03009
  20
186.58916
  0
VERTEX
  5
9fd
  8
Layer_0
  10
169.03009
  20
159.9359
  0
VERTEX
  5
9fe
  8
Layer_0
  10
169.02576
  20
159.76591
  0
VERTEX
  5
9ff
  8
Layer_0
  10
169.01274
  20
159.59645
  0
VERTEX
  5
a00
  8
Layer_0
  10
168.99106
  20
159.42781
  0
VERTEX
  5
a01
  8
Layer_0
  10
168.96095
  20
159.26051
  0
VERTEX
  5
a02
  8
Layer_0
  10
168.92218
  20
159.09486
  0
VERTEX
  5
a03
  8
Layer_0
  10
168.87502
  20
158.93163
  0
VERTEX
  5
a04
  8
Layer_0
  10
168.8197
  20
158.77086
  0
VERTEX
  5
a05
  8
Layer_0
  10
168.75626
  20
158.61333
  0
VERTEX
  5
a06
  8
Layer_0
  10
168.68495
  20
158.45906
  0
VERTEX
  5
a07
  8
Layer_0
  10
168.6055
  20
158.30858
  0
VERTEX
  5
a08
  8
Layer_0
  10
168.51874
  20
158.16243
  0
VERTEX
  5
a09
  8
Layer_0
  10
168.42467
  20
158.02092
  0
VERTEX
  5
a0a
  8
Layer_0
  10
168.32353
  20
157.88426
  0
VERTEX
  5
a0b
  8
Layer_0
  10
168.21535
  20
157.75304
  0
VERTEX
  5
a0c
  8
Layer_0
  10
168.10066
  20
157.62749
  0
VERTEX
  5
a0d
  8
Layer_0
  10
167.97974
  20
157.50792
  0
VERTEX
  5
a0e
  8
Layer_0
  10
167.85312
  20
157.39461
  0
VERTEX
  5
a0f
  8
Layer_0
  10
167.72054
  20
157.28804
  0
VERTEX
  5
a10
  8
Layer_0
  10
167.58279
  20
157.18828
  0
VERTEX
  5
a11
  8
Layer_0
  10
167.44019
  20
157.09581
  0
VERTEX
  5
a12
  8
Layer_0
  10
167.29323
  20
157.01067
  0
VERTEX
  5
a13
  8
Layer_0
  10
167.14194
  20
156.93312
  0
VERTEX
  5
a14
  8
Layer_0
  10
166.98685
  20
156.86345
  0
VERTEX
  5
a15
  8
Layer_0
  10
166.82851
  20
156.80162
  0
VERTEX
  5
a16
  8
Layer_0
  10
166.66692
  20
156.74821
  0
VERTEX
  5
a17
  8
Layer_0
  10
166.50316
  20
156.70293
  0
VERTEX
  5
a18
  8
Layer_0
  10
166.33722
  20
156.66606
  0
VERTEX
  5
a19
  8
Layer_0
  10
166.16966
  20
156.63759
  0
VERTEX
  5
a1a
  8
Layer_0
  10
166.00075
  20
156.61809
  0
VERTEX
  5
a1b
  8
Layer_0
  10
165.83102
  20
156.60695
  0
VERTEX
  5
a1c
  8
Layer_0
  10
165.69844
  20
156.60426
  0
VERTEX
  5
a1d
  8
Layer_0
  10
111.28137
  20
156.60426
  0
VERTEX
  5
a1e
  8
Layer_0
  10
111.11136
  20
156.6086
  0
SEQEND
  0
POLYLINE
  5
a20
  8
Layer_0
  62
0
  66
1
  10
0
  20
0
  30
0
  0
VERTEX
  5
a20
  8
Layer_0
  10
185.51839
  20
156.6086
  0
VERTEX
  5
a21
  8
Layer_0
  10
185.34892
  20
156.6216
  0
VERTEX
  5
a22
  8
Layer_0
  10
185.18028
  20
156.6433
  0
VERTEX
  5
a23
  8
Layer_0
  10
185.013
  20
156.67339
  0
VERTEX
  5
a24
  8
Layer_0
  10
184.84734
  20
156.71217
  0
VERTEX
  5
a25
  8
Layer_0
  10
184.68411
  20
156.75932
  0
VERTEX
  5
a26
  8
Layer_0
  10
184.52333
  20
156.81465
  0
VERTEX
  5
a27
  8
Layer_0
  10
184.36581
  20
156.8781
  0
VERTEX
  5
a28
  8
Layer_0
  10
184.21153
  20
156.94939
  0
VERTEX
  5
a29
  8
Layer_0
  10
184.06105
  20
157.02885
  0
VERTEX
  5
a2a
  8
Layer_0
  10
183.91492
  20
157.11562
  0
VERTEX
  5
a2b
  8
Layer_0
  10
183.77339
  20
157.20967
  0
VERTEX
  5
a2c
  8
Layer_0
  10
183.63673
  20
157.31081
  0
VERTEX
  5
a2d
  8
Layer_0
  10
183.50551
  20
157.41899
  0
VERTEX
  5
a2e
  8
Layer_0
  10
183.37997
  20
157.53368
  0
VERTEX
  5
a2f
  8
Layer_0
  10
183.26041
  20
157.65462
  0
VERTEX
  5
a30
  8
Layer_0
  10
183.14708
  20
157.78123
  0
VERTEX
  5
a31
  8
Layer_0
  10
183.04051
  20
157.9138
  0
VERTEX
  5
a32
  8
Layer_0
  10
182.94075
  20
158.05156
  0
VERTEX
  5
a33
  8
Layer_0
  10
182.84828
  20
158.19417
  0
VERTEX
  5
a34
  8
Layer_0
  10
182.76315
  20
158.34111
  0
VERTEX
  5
a35
  8
Layer_0
  10
182.68561
  20
158.49242
  0
VERTEX
  5
a36
  8
Layer_0
  10
182.61592
  20
158.64751
  0
VERTEX
  5
a37
  8
Layer_0
  10
182.55411
  20
158.80583
  0
VERTEX
  5
a38
  8
Layer_0
  10
182.5007
  20
158.96742
  0
VERTEX
  5
a39
  8
Layer_0
  10
182.45541
  20
159.13118
  0
VERTEX
  5
a3a
  8
Layer_0
  10
182.41855
  20
159.29713
  0
VERTEX
  5
a3b
  8
Layer_0
  10
182.39008
  20
159.46468
  0
VERTEX
  5
a3c
  8
Layer_0
  10
182.37056
  20
159.63359
  0
VERTEX
  5
a3d
  8
Layer_0
  10
182.35944
  20
159.80333
  0
VERTEX
  5
a3e
  8
Layer_0
  10
182.35672
  20
159.9359
  0
VERTEX
  5
a3f
  8
Layer_0
  10
182.35672
  20
186.58916
  0
VERTEX
  5
a40
  8
Layer_0
  10
182.36107
  20
186.75917
  0
VERTEX
  5
a41
  8
Layer_0
  10
182.37408
  20
186.92863
  0
VERTEX
  5
a42
  8
Layer_0
  10
182.39577
  20
187.09727
  0
VERTEX
  5
a43
  8
Layer_0
  10
182.42586
  20
187.26454
  0
VERTEX
  5
a44
  8
Layer_0
  10
182.46463
  20
187.43022
  0
VERTEX
  5
a45
  8
Layer_0
  10
182.51181
  20
187.59343
  0
VERTEX
  5
a46
  8
Layer_0
  10
182.56712
  20
187.75423
  0
VERTEX
  5
a47
  8
Layer_0
  10
182.63057
  20
187.91176
  0
VERTEX
  5
a48
  8
Layer_0
  10
182.70187
  20
188.06602
  0
VERTEX
  5
a49
  8
Layer_0
  10
182.78131
  20
188.21651
  0
VERTEX
  5
a4a
  8
Layer_0
  10
182.86807
  20
188.36263
  0
VERTEX
  5
a4b
  8
Layer_0
  10
182.96216
  20
188.50417
  0
VERTEX
  5
a4c
  8
Layer_0
  10
183.06329
  20
188.64082
  0
VERTEX
  5
a4d
  8
Layer_0
  10
183.17148
  20
188.77205
  0
VERTEX
  5
a4e
  8
Layer_0
  10
183.28616
  20
188.89757
  0
VERTEX
  5
a4f
  8
Layer_0
  10
183.40709
  20
189.01714
  0
VERTEX
  5
a50
  8
Layer_0
  10
183.53371
  20
189.13048
  0
VERTEX
  5
a51
  8
Layer_0
  10
183.66629
  20
189.23705
  0
VERTEX
  5
a52
  8
Layer_0
  10
183.80403
  20
189.33681
  0
VERTEX
  5
a53
  8
Layer_0
  10
183.94664
  20
189.42928
  0
VERTEX
  5
a54
  8
Layer_0
  10
184.0936
  20
189.51439
  0
VERTEX
  5
a55
  8
Layer_0
  10
184.24489
  20
189.59193
  0
VERTEX
  5
a56
  8
Layer_0
  10
184.39996
  20
189.66164
  0
VERTEX
  5
a57
  8
Layer_0
  10
184.5583
  20
189.72343
  0
VERTEX
  5
a58
  8
Layer_0
  10
184.71991
  20
189.77684
  0
VERTEX
  5
a59
  8
Layer_0
  10
184.88367
  20
189.82213
  0
VERTEX
  5
a5a
  8
Layer_0
  10
185.04961
  20
189.85899
  0
VERTEX
  5
a5b
  8
Layer_0
  10
185.21716
  20
189.88747
  0
VERTEX
  5
a5c
  8
Layer_0
  10
185.38608
  20
189.907
  0
VERTEX
  5
a5d
  8
Layer_0
  10
185.5558
  20
189.91811
  0
VERTEX
  5
a5e
  8
Layer_0
  10
185.68839
  20
189.92082
  0
VERTEX
  5
a5f
  8
Layer_0
  10
214.84039
  20
189.92082
  0
VERTEX
  5
a60
  8
Layer_0
  10
215.01039
  20
189.91649
  0
VERTEX
  5
a61
  8
Layer_0
  10
215.17984
  20
189.90346
  0
VERTEX
  5
a62
  8
Layer_0
  10
215.3485
  20
189.88179
  0
VERTEX
  5
a63
  8
Layer_0
  10
215.51578
  20
189.8517
  0
VERTEX
  5
a64
  8
Layer_0
  10
215.68144
  20
189.81291
  0
VERTEX
  5
a65
  8
Layer_0
  10
215.84467
  20
189.76573
  0
VERTEX
  5
a66
  8
Layer_0
  10
216.00543
  20
189.71043
  0
VERTEX
  5
a67
  8
Layer_0
  10
216.16296
  20
189.64699
  0
VERTEX
  5
a68
  8
Layer_0
  10
216.31725
  20
189.57567
  0
VERTEX
  5
a69
  8
Layer_0
  10
216.46771
  20
189.49623
  0
VERTEX
  5
a6a
  8
Layer_0
  10
216.61386
  20
189.40947
  0
VERTEX
  5
a6b
  8
Layer_0
  10
216.75539
  20
189.31538
  0
VERTEX
  5
a6c
  8
Layer_0
  10
216.89204
  20
189.21425
  0
VERTEX
  5
a6d
  8
Layer_0
  10
217.02327
  20
189.10606
  0
VERTEX
  5
a6e
  8
Layer_0
  10
217.1488
  20
188.99138
  0
VERTEX
  5
a6f
  8
Layer_0
  10
217.26837
  20
188.87047
  0
VERTEX
  5
a70
  8
Layer_0
  10
217.3817
  20
188.74385
  0
VERTEX
  5
a71
  8
Layer_0
  10
217.48825
  20
188.61125
  0
VERTEX
  5
a72
  8
Layer_0
  10
217.58803
  20
188.47353
  0
VERTEX
  5
a73
  8
Layer_0
  10
217.68048
  20
188.33092
  0
VERTEX
  5
a74
  8
Layer_0
  10
217.76563
  20
188.18394
  0
VERTEX
  5
a75
  8
Layer_0
  10
217.84317
  20
188.03267
  0
VERTEX
  5
a76
  8
Layer_0
  10
217.91284
  20
187.87758
  0
VERTEX
  5
a77
  8
Layer_0
  10
217.97467
  20
187.71925
  0
VERTEX
  5
a78
  8
Layer_0
  10
218.02808
  20
187.55763
  0
VERTEX
  5
a79
  8
Layer_0
  10
218.07335
  20
187.39388
  0
VERTEX
  5
a7a
  8
Layer_0
  10
218.11023
  20
187.22795
  0
VERTEX
  5
a7b
  8
Layer_0
  10
218.1387
  20
187.06038
  0
VERTEX
  5
a7c
  8
Layer_0
  10
218.15822
  20
186.89146
  0
VERTEX
  5
a7d
  8
Layer_0
  10
218.16934
  20
186.72176
  0
VERTEX
  5
a7e
  8
Layer_0
  10
218.17204
  20
186.58916
  0
VERTEX
  5
a7f
  8
Layer_0
  10
218.17204
  20
159.9359
  0
VERTEX
  5
a80
  8
Layer_0
  10
218.16771
  20
159.76591
  0
VERTEX
  5
a81
  8
Layer_0
  10
218.15469
  20
159.59645
  0
VERTEX
  5
a82
  8
Layer_0
  10
218.13301
  20
159.42781
  0
VERTEX
  5
a83
  8
Layer_0
  10
218.10291
  20
159.26051
  0
VERTEX
  5
a84
  8
Layer_0
  10
218.06413
  20
159.09486
  0
VERTEX
  5
a85
  8
Layer_0
  10
218.01695
  20
158.93163
  0
VERTEX
  5
a86
  8
Layer_0
  10
217.96165
  20
158.77086
  0
VERTEX
  5
a87
  8
Layer_0
  10
217.89821
  20
158.61333
  0
VERTEX
  5
a88
  8
Layer_0
  10
217.82689
  20
158.45906
  0
VERTEX
  5
a89
  8
Layer_0
  10
217.74745
  20
158.30858
  0
VERTEX
  5
a8a
  8
Layer_0
  10
217.66069
  20
158.16243
  0
VERTEX
  5
a8b
  8
Layer_0
  10
217.5666
  20
158.02092
  0
VERTEX
  5
a8c
  8
Layer_0
  10
217.46548
  20
157.88426
  0
VERTEX
  5
a8d
  8
Layer_0
  10
217.3573
  20
157.75304
  0
VERTEX
  5
a8e
  8
Layer_0
  10
217.24261
  20
157.62749
  0
VERTEX
  5
a8f
  8
Layer_0
  10
217.12169
  20
157.50792
  0
VERTEX
  5
a90
  8
Layer_0
  10
216.99507
  20
157.39461
  0
VERTEX
  5
a91
  8
Layer_0
  10
216.86249
  20
157.28804
  0
VERTEX
  5
a92
  8
Layer_0
  10
216.72475
  20
157.18828
  0
VERTEX
  5
a93
  8
Layer_0
  10
216.58214
  20
157.09581
  0
VERTEX
  5
a94
  8
Layer_0
  10
216.43518
  20
157.01067
  0
VERTEX
  5
a95
  8
Layer_0
  10
216.28389
  20
156.93312
  0
VERTEX
  5
a96
  8
Layer_0
  10
216.1288
  20
156.86345
  0
VERTEX
  5
a97
  8
Layer_0
  10
215.97046
  20
156.80162
  0
VERTEX
  5
a98
  8
Layer_0
  10
215.80887
  20
156.74821
  0
VERTEX
  5
a99
  8
Layer_0
  10
215.64511
  20
156.70293
  0
VERTEX
  5
a9a
  8
Layer_0
  10
215.47917
  20
156.66606
  0
VERTEX
  5
a9b
  8
Layer_0
  10
215.31161
  20
156.63759
  0
VERTEX
  5
a9c
  8
Layer_0
  10
215.1427
  20
156.61809
  0
VERTEX
  5
a9d
  8
Layer_0
  10
214.97298
  20
156.60695
  0
VERTEX
  5
a9e
  8
Layer_0
  10
214.84039
  20
156.60426
  0
VERTEX
  5
a9f
  8
Layer_0
  10
185.68839
  20
156.60426
  0
VERTEX
  5
aa0
  8
Layer_0
  10
185.51839
  20
156.6086
  0
SEQEND
  0
POLYLINE
  5
aa2
  8
Layer_0
  62
0
  66
1
  10
0
  20
0
  30
0
  0
VERTEX
  5
aa2
  8
Layer_0
  10
234.66032
  20
156.6086
  0
VERTEX
  5
aa3
  8
Layer_0
  10
234.49089
  20
156.6216
  0
VERTEX
  5
aa4
  8
Layer_0
  10
234.32224
  20
156.6433
  0
VERTEX
  5
aa5
  8
Layer_0
  10
234.15495
  20
156.67339
  0
VERTEX
  5
aa6
  8
Layer_0
  10
233.98929
  20
156.71217
  0
VERTEX
  5
aa7
  8
Layer_0
  10
233.82607
  20
156.75932
  0
VERTEX
  5
aa8
  8
Layer_0
  10
233.66528
  20
156.81465
  0
VERTEX
  5
aa9
  8
Layer_0
  10
233.50775
  20
156.8781
  0
VERTEX
  5
aaa
  8
Layer_0
  10
233.35349
  20
156.94939
  0
VERTEX
  5
aab
  8
Layer_0
  10
233.203
  20
157.02885
  0
VERTEX
  5
aac
  8
Layer_0
  10
233.05687
  20
157.11562
  0
VERTEX
  5
aad
  8
Layer_0
  10
232.91533
  20
157.20967
  0
VERTEX
  5
aae
  8
Layer_0
  10
232.77869
  20
157.31081
  0
VERTEX
  5
aaf
  8
Layer_0
  10
232.64745
  20
157.41899
  0
VERTEX
  5
ab0
  8
Layer_0
  10
232.52193
  20
157.53368
  0
VERTEX
  5
ab1
  8
Layer_0
  10
232.40236
  20
157.65462
  0
VERTEX
  5
ab2
  8
Layer_0
  10
232.28902
  20
157.78123
  0
VERTEX
  5
ab3
  8
Layer_0
  10
232.18246
  20
157.9138
  0
VERTEX
  5
ab4
  8
Layer_0
  10
232.08269
  20
158.05156
  0
VERTEX
  5
ab5
  8
Layer_0
  10
231.99023
  20
158.19417
  0
VERTEX
  5
ab6
  8
Layer_0
  10
231.90511
  20
158.34111
  0
VERTEX
  5
ab7
  8
Layer_0
  10
231.82756
  20
158.49242
  0
VERTEX
  5
ab8
  8
Layer_0
  10
231.75787
  20
158.64751
  0
VERTEX
  5
ab9
  8
Layer_0
  10
231.69604
  20
158.80583
  0
VERTEX
  5
aba
  8
Layer_0
  10
231.64265
  20
158.96742
  0
VERTEX
  5
abb
  8
Layer_0
  10
231.59737
  20
159.13118
  0
VERTEX
  5
abc
  8
Layer_0
  10
231.56049
  20
159.29713
  0
VERTEX
  5
abd
  8
Layer_0
  10
231.53203
  20
159.46468
  0
VERTEX
  5
abe
  8
Layer_0
  10
231.51251
  20
159.63359
  0
VERTEX
  5
abf
  8
Layer_0
  10
231.50139
  20
159.80333
  0
VERTEX
  5
ac0
  8
Layer_0
  10
231.49867
  20
159.9359
  0
VERTEX
  5
ac1
  8
Layer_0
  10
231.49867
  20
182.88307
  0
VERTEX
  5
ac2
  8
Layer_0
  10
231.50302
  20
183.05309
  0
VERTEX
  5
ac3
  8
Layer_0
  10
231.51602
  20
183.22252
  0
VERTEX
  5
ac4
  8
Layer_0
  10
231.53772
  20
183.39119
  0
VERTEX
  5
ac5
  8
Layer_0
  10
231.56783
  20
183.55846
  0
VERTEX
  5
ac6
  8
Layer_0
  10
231.60658
  20
183.72414
  0
VERTEX
  5
ac7
  8
Layer_0
  10
231.65376
  20
183.88734
  0
VERTEX
  5
ac8
  8
Layer_0
  10
231.70908
  20
184.04814
  0
VERTEX
  5
ac9
  8
Layer_0
  10
231.77252
  20
184.20564
  0
VERTEX
  5
aca
  8
Layer_0
  10
231.84383
  20
184.35994
  0
VERTEX
  5
acb
  8
Layer_0
  10
231.92326
  20
184.51039
  0
VERTEX
  5
acc
  8
Layer_0
  10
232.01003
  20
184.65654
  0
VERTEX
  5
acd
  8
Layer_0
  10
232.10413
  20
184.79808
  0
VERTEX
  5
ace
  8
Layer_0
  10
232.20525
  20
184.93474
  0
VERTEX
  5
acf
  8
Layer_0
  10
232.31343
  20
185.06596
  0
VERTEX
  5
ad0
  8
Layer_0
  10
232.4281
  20
185.19148
  0
VERTEX
  5
ad1
  8
Layer_0
  10
232.54904
  20
185.31105
  0
VERTEX
  5
ad2
  8
Layer_0
  10
232.67564
  20
185.42439
  0
VERTEX
  5
ad3
  8
Layer_0
  10
232.80824
  20
185.53093
  0
VERTEX
  5
ad4
  8
Layer_0
  10
232.94597
  20
185.63072
  0
VERTEX
  5
ad5
  8
Layer_0
  10
233.08859
  20
185.72316
  0
VERTEX
  5
ad6
  8
Layer_0
  10
233.23553
  20
185.8083
  0
VERTEX
  5
ad7
  8
Layer_0
  10
233.38684
  20
185.88585
  0
VERTEX
  5
ad8
  8
Layer_0
  10
233.54192
  20
185.95552
  0
VERTEX
  5
ad9
  8
Layer_0
  10
233.70026
  20
186.01735
  0
VERTEX
  5
ada
  8
Layer_0
  10
233.86186
  20
186.07076
  0
VERTEX
  5
adb
  8
Layer_0
  10
234.02562
  20
186.11604
  0
VERTEX
  5
adc
  8
Layer_0
  10
234.19154
  20
186.15291
  0
VERTEX
  5
add
  8
Layer_0
  10
234.35912
  20
186.18138
  0
VERTEX
  5
ade
  8
Layer_0
  10
234.52803
  20
186.20091
  0
VERTEX
  5
adf
  8
Layer_0
  10
234.69775
  20
186.21202
  0
VERTEX
  5
ae0
  8
Layer_0
  10
234.86775
  20
186.21446
  0
VERTEX
  5
ae1
  8
Layer_0
  10
235.03748
  20
186.20824
  0
VERTEX
  5
ae2
  8
Layer_0
  10
235.20694
  20
186.19331
  0
VERTEX
  5
ae3
  8
Layer_0
  10
235.37531
  20
186.17
  0
VERTEX
  5
ae4
  8
Layer_0
  10
235.54233
  20
186.13774
  0
VERTEX
  5
ae5
  8
Layer_0
  10
235.70743
  20
186.09734
  0
VERTEX
  5
ae6
  8
Layer_0
  10
235.87012
  20
186.04826
  0
VERTEX
  5
ae7
  8
Layer_0
  10
236.03036
  20
185.99104
  0
VERTEX
  5
ae8
  8
Layer_0
  10
236.18733
  20
185.92598
  0
VERTEX
  5
ae9
  8
Layer_0
  10
236.34081
  20
185.85277
  0
VERTEX
  5
aea
  8
Layer_0
  10
236.4902
  20
185.77171
  0
VERTEX
  5
aeb
  8
Layer_0
  10
236.63553
  20
185.6833
  0
VERTEX
  5
aec
  8
Layer_0
  10
236.77597
  20
185.5876
  0
VERTEX
  5
aed
  8
Layer_0
  10
236.91127
  20
185.48485
  0
VERTEX
  5
aee
  8
Layer_0
  10
237.04141
  20
185.37532
  0
VERTEX
  5
aef
  8
Layer_0
  10
237.16559
  20
185.25926
  0
VERTEX
  5
af0
  8
Layer_0
  10
237.2838
  20
185.13698
  0
VERTEX
  5
af1
  8
Layer_0
  10
237.39549
  20
185.00902
  0
VERTEX
  5
af2
  8
Layer_0
  10
237.5007
  20
184.87535
  0
VERTEX
  5
af3
  8
Layer_0
  10
237.59885
  20
184.73653
  0
VERTEX
  5
af4
  8
Layer_0
  10
237.68968
  20
184.59309
  0
VERTEX
  5
af5
  8
Layer_0
  10
237.77319
  20
184.44478
  0
VERTEX
  5
af6
  8
Layer_0
  10
237.84911
  20
184.29268
  0
VERTEX
  5
af7
  8
Layer_0
  10
237.9158
  20
184.1403
  0
VERTEX
  5
af8
  8
Layer_0
  10
247.26602
  20
161.19313
  0
VERTEX
  5
af9
  8
Layer_0
  10
247.32596
  20
161.03398
  0
VERTEX
  5
afa
  8
Layer_0
  10
247.37799
  20
160.87212
  0
VERTEX
  5
afb
  8
Layer_0
  10
247.42166
  20
160.70781
  0
VERTEX
  5
afc
  8
Layer_0
  10
247.45663
  20
160.54161
  0
VERTEX
  5
afd
  8
Layer_0
  10
247.48322
  20
160.37352
  0
VERTEX
  5
afe
  8
Layer_0
  10
247.50137
  20
160.20461
  0
VERTEX
  5
aff
  8
Layer_0
  10
247.51086
  20
160.03487
  0
VERTEX
  5
b00
  8
Layer_0
  10
247.51141
  20
159.86488
  0
VERTEX
  5
b01
  8
Layer_0
  10
247.50354
  20
159.69514
  0
VERTEX
  5
b02
  8
Layer_0
  10
247.487
  20
159.52596
  0
VERTEX
  5
b03
  8
Layer_0
  10
247.46179
  20
159.35759
  0
VERTEX
  5
b04
  8
Layer_0
  10
247.4279
  20
159.19112
  0
VERTEX
  5
b05
  8
Layer_0
  10
247.38559
  20
159.02654
  0
VERTEX
  5
b06
  8
Layer_0
  10
247.33517
  20
158.86412
  0
VERTEX
  5
b07
  8
Layer_0
  10
247.27634
  20
158.7047
  0
VERTEX
  5
b08
  8
Layer_0
  10
247.20937
  20
158.54826
  0
VERTEX
  5
b09
  8
Layer_0
  10
247.1348
  20
158.39561
  0
VERTEX
  5
b0a
  8
Layer_0
  10
247.05237
  20
158.24675
  0
VERTEX
  5
b0b
  8
Layer_0
  10
246.96237
  20
158.10252
  0
VERTEX
  5
b0c
  8
Layer_0
  10
246.8653
  20
157.96315
  0
VERTEX
  5
b0d
  8
Layer_0
  10
246.76117
  20
157.82869
  0
VERTEX
  5
b0e
  8
Layer_0
  10
246.6503
  20
157.69987
  0
VERTEX
  5
b0f
  8
Layer_0
  10
246.53317
  20
157.5768
  0
VERTEX
  5
b10
  8
Layer_0
  10
246.40952
  20
157.45967
  0
VERTEX
  5
b11
  8
Layer_0
  10
246.28046
  20
157.34932
  0
VERTEX
  5
b12
  8
Layer_0
  10
246.14571
  20
157.24547
  0
VERTEX
  5
b13
  8
Layer_0
  10
246.00607
  20
157.14894
  0
VERTEX
  5
b14
  8
Layer_0
  10
245.8613
  20
157.05922
  0
VERTEX
  5
b15
  8
Layer_0
  10
245.71245
  20
156.97731
  0
VERTEX
  5
b16
  8
Layer_0
  10
245.55954
  20
156.90303
  0
VERTEX
  5
b17
  8
Layer_0
  10
245.40309
  20
156.83659
  0
VERTEX
  5
b18
  8
Layer_0
  10
245.24338
  20
156.77831
  0
VERTEX
  5
b19
  8
Layer_0
  10
245.08098
  20
156.72816
  0
VERTEX
  5
b1a
  8
Layer_0
  10
244.91614
  20
156.68639
  0
VERTEX
  5
b1b
  8
Layer_0
  10
244.74939
  20
156.65306
  0
VERTEX
  5
b1c
  8
Layer_0
  10
244.58128
  20
156.62837
  0
VERTEX
  5
b1d
  8
Layer_0
  10
244.41211
  20
156.61238
  0
VERTEX
  5
b1e
  8
Layer_0
  10
244.18056
  20
156.60426
  0
VERTEX
  5
b1f
  8
Layer_0
  10
234.83034
  20
156.60426
  0
VERTEX
  5
b20
  8
Layer_0
  10
234.66032
  20
156.6086
  0
SEQEND
  0
POLYLINE
  5
b22
  8
Layer_0
  62
0
  66
1
  10
0
  20
0
  30
0
  0
VERTEX
  5
b22
  8
Layer_0
  10
265.64816
  20
87.749985
  0
VERTEX
  5
b23
  8
Layer_0
  10
7.9999695
  20
87.749985
  0
VERTEX
  5
b24
  8
Layer_0
  10
7.9999695
  20
154.35558
  42
-0.17928641
  0
VERTEX
  5
b25
  8
Layer_0
  10
9.340332
  20
157.97346
  0
VERTEX
  5
b26
  8
Layer_0
  10
51.331787
  20
206.86531
  42
-0.21868077
  0
VERTEX
  5
b27
  8
Layer_0
  10
55.544189
  20
208.80022
  0
VERTEX
  5
b28
  8
Layer_0
  10
94.597595
  20
208.80022
  0
VERTEX
  5
b29
  8
Layer_0
  10
108.05881
  20
267.61902
  42
-0.22617348
  0
VERTEX
  5
b2a
  8
Layer_0
  10
109.83911
  20
269.86688
  42
-0.22617239
  0
VERTEX
  5
b2b
  8
Layer_0
  10
112.70642
  20
269.89905
  0
VERTEX
  5
b2c
  8
Layer_0
  10
244.65666
  20
208.80022
  0
VERTEX
  5
b2d
  8
Layer_0
  10
265.23767
  20
158.2906
  42
-0.097036452
  0
VERTEX
  5
b2e
  8
Layer_0
  10
265.64816
  20
156.19533
  0
VERTEX
  5
b2f
  8
Layer_0
  10
265.64816
  20
87.749985
  0
SEQEND
  0
POLYLINE
  5
b31
  8
Layer_0
  62
0
  66
1
  10
0
  20
0
  30
0
  0
VERTEX
  5
b31
  8
Layer_0
  10
7.9999695
  20
141.2021
  0
VERTEX
  5
b32
  8
Layer_0
  10
265.64816
  20
141.2021
  0
VERTEX
  5
b33
  8
Layer_0
  10
265.64816
  20
95.498108
  0
VERTEX
  5
b34
  8
Layer_0
  10
224.7532
  20
95.498108
  0
VERTEX
  5
b35
  8
Layer_0
  10
224.83536
  20
95.59137
  42
0.40647354
  0
VERTEX
  5
b36
  8
Layer_0
  10
222.71268
  20
126.50655
  42
0.41431417
  0
VERTEX
  5
b37
  8
Layer_0
  10
191.35394
  20
124.77428
  42
0.37635953
  0
VERTEX
  5
b38
  8
Layer_0
  10
191.04431
  20
95.498108
  0
VERTEX
  5
b39
  8
Layer_0
  10
90.376343
  20
95.498108
  0
VERTEX
  5
b3a
  8
Layer_0
  10
90.458496
  20
95.59137
  42
0.40647485
  0
VERTEX
  5
b3b
  8
Layer_0
  10
88.335815
  20
126.50655
  42
0.41431327
  0
VERTEX
  5
b3c
  8
Layer_0
  10
56.977081
  20
124.77428
  42
0.37636137
  0
VERTEX
  5
b3d
  8
Layer_0
  10
56.66745
  20
95.498108
  0
VERTEX
  5
b3e
  8
Layer_0
  10
7.9999695
  20
95.498108
  0
VERTEX
  5
b3f
  8
Layer_0
  10
7.9999695
  20
141.2021
  0
SEQEND
  0
POLYLINE
  5
b41
  8
Layer_0
  62
0
  66
1
  10
0
  20
0
  30
0
  0
VERTEX
  5
b41
  8
Layer_0
  10
244.65666
  20
208.80022
  0
VERTEX
  5
b42
  8
Layer_0
  10
94.597595
  20
208.80022
  0
SEQEND
  0
POLYLINE
  5
b44
  8
Layer_0
  62
0
  66
1
  10
0
  20
0
  30
0
  0
VERTEX
  5
b44
  8
Layer_0
  10
207.64647
  20
87.751617
  0
VERTEX
  5
b45
  8
Layer_0
  10
207.24194
  20
87.761383
  0
VERTEX
  5
b46
  8
Layer_0
  10
206.93855
  20
87.774399
  0
VERTEX
  5
b47
  8
Layer_0
  10
206.59801
  20
87.791748
  0
VERTEX
  5
b48
  8
Layer_0
  10
206.19429
  20
87.816696
  0
VERTEX
  5
b49
  8
Layer_0
  10
205.79085
  20
87.850311
  0
VERTEX
  5
b4a
  8
Layer_0
  10
205.38821
  20
87.892609
  0
VERTEX
  5
b4b
  8
Layer_0
  10
204.98695
  20
87.943314
  0
VERTEX
  5
b4c
  8
Layer_0
  10
204.71338
  20
87.982895
  0
VERTEX
  5
b4d
  8
Layer_0
  10
204.3826
  20
88.033325
  0
VERTEX
  5
b4e
  8
Layer_0
  10
203.98322
  20
88.098663
  0
VERTEX
  5
b4f
  8
Layer_0
  10
203.58521
  20
88.172409
  0
VERTEX
  5
b50
  8
Layer_0
  10
203.18907
  20
88.254837
  0
VERTEX
  5
b51
  8
Layer_0
  10
202.79459
  20
88.345673
  0
VERTEX
  5
b52
  8
Layer_0
  10
202.53972
  20
88.409103
  0
VERTEX
  5
b53
  8
Layer_0
  10
202.22032
  20
88.490997
  0
VERTEX
  5
b54
  8
Layer_0
  10
201.82936
  20
88.595642
  0
VERTEX
  5
b55
  8
Layer_0
  10
201.44083
  20
88.70871
  0
VERTEX
  5
b56
  8
Layer_0
  10
201.05473
  20
88.83017
  0
VERTEX
  5
b57
  8
Layer_0
  10
200.67136
  20
88.959778
  0
VERTEX
  5
b58
  8
Layer_0
  10
200.40891
  20
89.053864
  0
VERTEX
  5
b59
  8
Layer_0
  10
200.1028
  20
89.166107
  0
VERTEX
  5
b5a
  8
Layer_0
  10
199.72429
  20
89.30954
  0
VERTEX
  5
b5b
  8
Layer_0
  10
199.34904
  20
89.460831
  0
VERTEX
  5
b5c
  8
Layer_0
  10
198.97705
  20
89.620529
  0
VERTEX
  5
b5d
  8
Layer_0
  10
198.6086
  20
89.787811
  0
VERTEX
  5
b5e
  8
Layer_0
  10
198.41391
  20
89.880264
  0
VERTEX
  5
b5f
  8
Layer_0
  10
198.12273
  20
90.020447
  0
VERTEX
  5
b60
  8
Layer_0
  10
197.75995
  20
90.199936
  0
VERTEX
  5
b61
  8
Layer_0
  10
197.40097
  20
90.387009
  0
VERTEX
  5
b62
  8
Layer_0
  10
197.04633
  20
90.581955
  0
VERTEX
  5
b63
  8
Layer_0
  10
196.69576
  20
90.78421
  0
VERTEX
  5
b64
  8
Layer_0
  10
196.50217
  20
90.900528
  0
VERTEX
  5
b65
  8
Layer_0
  10
196.22752
  20
91.067551
  0
VERTEX
  5
b66
  8
Layer_0
  10
195.88399
  20
91.281479
  0
VERTEX
  5
b67
  8
Layer_0
  10
195.54507
  20
91.502716
  0
VERTEX
  5
b68
  8
Layer_0
  10
195.21104
  20
91.731277
  0
VERTEX
  5
b69
  8
Layer_0
  10
194.73466
  20
92.075882
  0
VERTEX
  5
b6a
  8
Layer_0
  10
194.47818
  20
92.267578
  0
VERTEX
  5
b6b
  8
Layer_0
  10
194.15662
  20
92.513214
  0
VERTEX
  5
b6c
  8
Layer_0
  10
193.84048
  20
92.765915
  0
VERTEX
  5
b6d
  8
Layer_0
  10
193.52977
  20
93.025116
  0
VERTEX
  5
b6e
  8
Layer_0
  10
193.0862
  20
93.415543
  0
VERTEX
  5
b6f
  8
Layer_0
  10
192.8495
  20
93.630554
  0
VERTEX
  5
b70
  8
Layer_0
  10
192.55287
  20
93.905746
  0
VERTEX
  5
b71
  8
Layer_0
  10
192.26222
  20
94.187454
  0
VERTEX
  5
b72
  8
Layer_0
  10
191.97754
  20
94.475128
  0
VERTEX
  5
b73
  8
Layer_0
  10
191.56894
  20
94.911102
  0
VERTEX
  5
b74
  8
Layer_0
  10
191.35394
  20
95.147797
  0
VERTEX
  5
b75
  8
Layer_0
  10
191.08498
  20
95.450378
  0
VERTEX
  5
b76
  8
Layer_0
  10
190.82253
  20
95.758392
  0
VERTEX
  5
b77
  8
Layer_0
  10
190.56685
  20
96.072083
  0
VERTEX
  5
b78
  8
Layer_0
  10
190.20596
  20
96.53978
  0
VERTEX
  5
b79
  8
Layer_0
  10
190.01428
  20
96.79628
  0
VERTEX
  5
b7a
  8
Layer_0
  10
189.77541
  20
97.122986
  0
VERTEX
  5
b7b
  8
Layer_0
  10
189.54359
  20
97.454849
  0
VERTEX
  5
b7c
  8
Layer_0
  10
189.31911
  20
97.791595
  0
VERTEX
  5
b7d
  8
Layer_0
  10
189.00594
  20
98.289124
  0
VERTEX
  5
b7e
  8
Layer_0
  10
188.83893
  20
98.563782
  0
VERTEX
  5
b7f
  8
Layer_0
  10
188.63232
  20
98.911911
  0
VERTEX
  5
b80
  8
Layer_0
  10
188.43332
  20
99.264114
  0
VERTEX
  5
b81
  8
Layer_0
  10
188.24162
  20
99.620926
  0
VERTEX
  5
b82
  8
Layer_0
  10
188.05807
  20
99.981522
  0
VERTEX
  5
b83
  8
Layer_0
  10
187.95883
  20
100.18433
  0
VERTEX
  5
b84
  8
Layer_0
  10
187.81866
  20
100.47552
  0
VERTEX
  5
b85
  8
Layer_0
  10
187.64703
  20
100.84209
  0
VERTEX
  5
b86
  8
Layer_0
  10
187.48328
  20
101.21219
  0
VERTEX
  5
b87
  8
Layer_0
  10
187.32764
  20
101.58554
  0
VERTEX
  5
b88
  8
Layer_0
  10
187.17987
  20
101.9624
  0
VERTEX
  5
b89
  8
Layer_0
  10
187.10451
  20
102.1644
  0
VERTEX
  5
b8a
  8
Layer_0
  10
186.99225
  20
102.4705
  0
VERTEX
  5
b8b
  8
Layer_0
  10
186.85696
  20
102.85199
  0
VERTEX
  5
b8c
  8
Layer_0
  10
186.7298
  20
103.23618
  0
VERTEX
  5
b8d
  8
Layer_0
  10
186.61104
  20
103.62308
  0
VERTEX
  5
b8e
  8
Layer_0
  10
186.50069
  20
104.01242
  0
VERTEX
  5
b8f
  8
Layer_0
  10
186.42938
  20
104.28194
  0
VERTEX
  5
b90
  8
Layer_0
  10
186.3475
  20
104.60132
  0
VERTEX
  5
b91
  8
Layer_0
  10
186.25125
  20
104.99446
  0
VERTEX
  5
b92
  8
Layer_0
  10
186.16341
  20
105.3895
  0
VERTEX
  5
b93
  8
Layer_0
  10
186.08397
  20
105.78644
  0
VERTEX
  5
b94
  8
Layer_0
  10
186.0132
  20
106.18472
  0
VERTEX
  5
b95
  8
Layer_0
  10
185.97415
  20
106.42929
  0
VERTEX
  5
b96
  8
Layer_0
  10
185.92346
  20
106.76007
  0
VERTEX
  5
b97
  8
Layer_0
  10
185.86652
  20
107.1608
  0
VERTEX
  5
b98
  8
Layer_0
  10
185.81798
  20
107.56262
  0
VERTEX
  5
b99
  8
Layer_0
  10
185.77812
  20
107.96524
  0
VERTEX
  5
b9a
  8
Layer_0
  10
185.74695
  20
108.36896
  0
VERTEX
  5
b9b
  8
Layer_0
  10
185.72905
  20
108.67479
  0
VERTEX
  5
b9c
  8
Layer_0
  10
185.71198
  20
109.01534
  0
VERTEX
  5
b9d
  8
Layer_0
  10
185.69624
  20
109.41959
  0
VERTEX
  5
b9e
  8
Layer_0
  10
185.68892
  20
109.82439
  0
VERTEX
  5
b9f
  8
Layer_0
  10
185.69028
  20
110.22891
  0
VERTEX
  5
ba0
  8
Layer_0
  10
185.70032
  20
110.63371
  0
VERTEX
  5
ba1
  8
Layer_0
  10
185.71198
  20
110.90675
  0
VERTEX
  5
ba2
  8
Layer_0
  10
185.72905
  20
111.24728
  0
VERTEX
  5
ba3
  8
Layer_0
  10
185.75372
  20
111.65128
  0
VERTEX
  5
ba4
  8
Layer_0
  10
185.78708
  20
112.05472
  0
VERTEX
  5
ba5
  8
Layer_0
  10
185.82883
  20
112.45735
  0
VERTEX
  5
ba6
  8
Layer_0
  10
185.87953
  20
112.85889
  0
VERTEX
  5
ba7
  8
Layer_0
  10
185.92346
  20
113.16202
  0
VERTEX
  5
ba8
  8
Layer_0
  10
185.97415
  20
113.4928
  0
VERTEX
  5
ba9
  8
Layer_0
  10
186.03976
  20
113.89217
  0
VERTEX
  5
baa
  8
Layer_0
  10
186.11378
  20
114.28992
  0
VERTEX
  5
bab
  8
Layer_0
  10
186.19649
  20
114.68631
  0
VERTEX
  5
bac
  8
Layer_0
  10
186.28758
  20
115.08054
  0
VERTEX
  5
bad
  8
Layer_0
  10
186.3475
  20
115.32076
  0
VERTEX
  5
bae
  8
Layer_0
  10
186.42938
  20
115.64015
  0
VERTEX
  5
baf
  8
Layer_0
  10
186.53404
  20
116.03113
  0
VERTEX
  5
bb0
  8
Layer_0
  10
186.64711
  20
116.41965
  0
VERTEX
  5
bb1
  8
Layer_0
  10
186.76857
  20
116.80574
  0
VERTEX
  5
bb2
  8
Layer_0
  10
186.89818
  20
117.18912
  0
VERTEX
  5
bb3
  8
Layer_0
  10
186.99225
  20
117.45158
  0
VERTEX
  5
bb4
  8
Layer_0
  10
187.10451
  20
117.75769
  0
VERTEX
  5
bb5
  8
Layer_0
  10
187.24792
  20
118.13618
  0
VERTEX
  5
bb6
  8
Layer_0
  10
187.39922
  20
118.51143
  0
VERTEX
  5
bb7
  8
Layer_0
  10
187.55891
  20
118.88342
  0
VERTEX
  5
bb8
  8
Layer_0
  10
187.72621
  20
119.25189
  0
VERTEX
  5
bb9
  8
Layer_0
  10
187.81866
  20
119.44656
  0
VERTEX
  5
bba
  8
Layer_0
  10
187.95883
  20
119.73775
  0
VERTEX
  5
bbb
  8
Layer_0
  10
188.13832
  20
120.10052
  0
VERTEX
  5
bbc
  8
Layer_0
  10
188.32541
  20
120.4595
  0
VERTEX
  5
bbd
  8
Layer_0
  10
188.52034
  20
120.81415
  0
VERTEX
  5
bbe
  8
Layer_0
  10
188.72261
  20
121.16472
  0
VERTEX
  5
bbf
  8
Layer_0
  10
188.83893
  20
121.35831
  0
VERTEX
  5
bc0
  8
Layer_0
  10
189.00594
  20
121.63297
  0
VERTEX
  5
bc1
  8
Layer_0
  10
189.21986
  20
121.97649
  0
VERTEX
  5
bc2
  8
Layer_0
  10
189.4411
  20
122.31538
  0
VERTEX
  5
bc3
  8
Layer_0
  10
189.66968
  20
122.64943
  0
VERTEX
  5
bc4
  8
Layer_0
  10
190.01428
  20
123.12581
  0
VERTEX
  5
bc5
  8
Layer_0
  10
190.20596
  20
123.38231
  0
VERTEX
  5
bc6
  8
Layer_0
  10
190.45161
  20
123.70387
  0
VERTEX
  5
bc7
  8
Layer_0
  10
190.70432
  20
124.02
  0
VERTEX
  5
bc8
  8
Layer_0
  10
190.96352
  20
124.3307
  0
VERTEX
  5
bc9
  8
Layer_0
  10
191.35394
  20
124.77428
  0
VERTEX
  5
bca
  8
Layer_0
  10
191.56894
  20
125.01097
  0
VERTEX
  5
bcb
  8
Layer_0
  10
191.84415
  20
125.3076
  0
VERTEX
  5
bcc
  8
Layer_0
  10
192.12585
  20
125.59825
  0
VERTEX
  5
bcd
  8
Layer_0
  10
192.41351
  20
125.88295
  0
VERTEX
  5
bce
  8
Layer_0
  10
192.8495
  20
126.29152
  0
VERTEX
  5
bcf
  8
Layer_0
  10
193.0862
  20
126.50655
  0
VERTEX
  5
bd0
  8
Layer_0
  10
193.38878
  20
126.7755
  0
VERTEX
  5
bd1
  8
Layer_0
  10
193.69678
  20
127.03795
  0
VERTEX
  5
bd2
  8
Layer_0
  10
194.01048
  20
127.29362
  0
VERTEX
  5
bd3
  8
Layer_0
  10
194.47818
  20
127.6545
  0
VERTEX
  5
bd4
  8
Layer_0
  10
194.73466
  20
127.84621
  0
VERTEX
  5
bd5
  8
Layer_0
  10
195.06139
  20
128.08507
  0
VERTEX
  5
bd6
  8
Layer_0
  10
195.39325
  20
128.31688
  0
VERTEX
  5
bd7
  8
Layer_0
  10
195.73
  20
128.54137
  0
VERTEX
  5
bd8
  8
Layer_0
  10
196.22752
  20
128.85454
  0
VERTEX
  5
bd9
  8
Layer_0
  10
196.50217
  20
129.02156
  0
VERTEX
  5
bda
  8
Layer_0
  10
196.85031
  20
129.22816
  0
VERTEX
  5
bdb
  8
Layer_0
  10
197.2025
  20
129.42717
  0
VERTEX
  5
bdc
  8
Layer_0
  10
197.55931
  20
129.61885
  0
VERTEX
  5
bdd
  8
Layer_0
  10
197.91992
  20
129.80241
  0
VERTEX
  5
bde
  8
Layer_0
  10
198.12273
  20
129.90163
  0
VERTEX
  5
bdf
  8
Layer_0
  10
198.41391
  20
130.04182
  0
VERTEX
  5
be0
  8
Layer_0
  10
198.78049
  20
130.21346
  0
VERTEX
  5
be1
  8
Layer_0
  10
199.15057
  20
130.37721
  0
VERTEX
  5
be2
  8
Layer_0
  10
199.52393
  20
130.53282
  0
VERTEX
  5
be3
  8
Layer_0
  10
199.9008
  20
130.68059
  0
VERTEX
  5
be4
  8
Layer_0
  10
200.1028
  20
130.75597
  0
VERTEX
  5
be5
  8
Layer_0
  10
200.40891
  20
130.86821
  0
VERTEX
  5
be6
  8
Layer_0
  10
200.79037
  20
131.00352
  0
VERTEX
  5
be7
  8
Layer_0
  10
201.17458
  20
131.13069
  0
VERTEX
  5
be8
  8
Layer_0
  10
201.56148
  20
131.24944
  0
VERTEX
  5
be9
  8
Layer_0
  10
201.95082
  20
131.35979
  0
VERTEX
  5
bea
  8
Layer_0
  10
202.22032
  20
131.43111
  0
VERTEX
  5
beb
  8
Layer_0
  10
202.53972
  20
131.51299
  0
VERTEX
  5
bec
  8
Layer_0
  10
202.93286
  20
131.60924
  0
VERTEX
  5
bed
  8
Layer_0
  10
203.3279
  20
131.69707
  0
VERTEX
  5
bee
  8
Layer_0
  10
203.72484
  20
131.7765
  0
VERTEX
  5
bef
  8
Layer_0
  10
204.12312
  20
131.84727
  0
VERTEX
  5
bf0
  8
Layer_0
  10
204.36768
  20
131.88631
  0
VERTEX
  5
bf1
  8
Layer_0
  10
204.69846
  20
131.93703
  0
VERTEX
  5
bf2
  8
Layer_0
  10
205.0992
  20
131.99397
  0
VERTEX
  5
bf3
  8
Layer_0
  10
205.50101
  20
132.0425
  0
VERTEX
  5
bf4
  8
Layer_0
  10
205.90364
  20
132.08235
  0
VERTEX
  5
bf5
  8
Layer_0
  10
206.30736
  20
132.11354
  0
VERTEX
  5
bf6
  8
Layer_0
  10
206.61319
  20
132.13142
  0
VERTEX
  5
bf7
  8
Layer_0
  10
206.95374
  20
132.14851
  0
VERTEX
  5
bf8
  8
Layer_0
  10
207.35799
  20
132.16423
  0
VERTEX
  5
bf9
  8
Layer_0
  10
207.76279
  20
132.17155
  0
VERTEX
  5
bfa
  8
Layer_0
  10
208.16731
  20
132.17018
  0
VERTEX
  5
bfb
  8
Layer_0
  10
208.57211
  20
132.16017
  0
VERTEX
  5
bfc
  8
Layer_0
  10
208.84514
  20
132.14851
  0
VERTEX
  5
bfd
  8
Layer_0
  10
209.18568
  20
132.13142
  0
VERTEX
  5
bfe
  8
Layer_0
  10
209.58966
  20
132.10674
  0
VERTEX
  5
bff
  8
Layer_0
  10
209.9931
  20
132.07341
  0
VERTEX
  5
c00
  8
Layer_0
  10
210.39574
  20
132.03163
  0
VERTEX
  5
c01
  8
Layer_0
  10
210.79729
  20
131.98094
  0
VERTEX
  5
c02
  8
Layer_0
  10
211.1004
  20
131.93703
  0
VERTEX
  5
c03
  8
Layer_0
  10
211.43118
  20
131.88631
  0
VERTEX
  5
c04
  8
Layer_0
  10
211.83057
  20
131.82069
  0
VERTEX
  5
c05
  8
Layer_0
  10
212.22832
  20
131.74669
  0
VERTEX
  5
c06
  8
Layer_0
  10
212.62471
  20
131.66399
  0
VERTEX
  5
c07
  8
Layer_0
  10
213.01894
  20
131.57289
  0
VERTEX
  5
c08
  8
Layer_0
  10
213.25916
  20
131.51299
  0
VERTEX
  5
c09
  8
Layer_0
  10
213.57855
  20
131.43111
  0
VERTEX
  5
c0a
  8
Layer_0
  10
213.96951
  20
131.32643
  0
VERTEX
  5
c0b
  8
Layer_0
  10
214.35805
  20
131.21336
  0
VERTEX
  5
c0c
  8
Layer_0
  10
214.74414
  20
131.0919
  0
VERTEX
  5
c0d
  8
Layer_0
  10
215.12752
  20
130.9623
  0
VERTEX
  5
c0e
  8
Layer_0
  10
215.38997
  20
130.86821
  0
VERTEX
  5
c0f
  8
Layer_0
  10
215.69608
  20
130.75597
  0
VERTEX
  5
c10
  8
Layer_0
  10
216.07457
  20
130.61253
  0
VERTEX
  5
c11
  8
Layer_0
  10
216.44983
  20
130.46126
  0
VERTEX
  5
c12
  8
Layer_0
  10
216.82181
  20
130.30156
  0
VERTEX
  5
c13
  8
Layer_0
  10
217.19028
  20
130.13426
  0
VERTEX
  5
c14
  8
Layer_0
  10
217.38495
  20
130.04182
  0
VERTEX
  5
c15
  8
Layer_0
  10
217.67615
  20
129.90163
  0
VERTEX
  5
c16
  8
Layer_0
  10
218.03893
  20
129.72215
  0
VERTEX
  5
c17
  8
Layer_0
  10
218.3979
  20
129.53508
  0
VERTEX
  5
c18
  8
Layer_0
  10
218.75253
  20
129.34013
  0
VERTEX
  5
c19
  8
Layer_0
  10
219.1031
  20
129.13786
  0
VERTEX
  5
c1a
  8
Layer_0
  10
219.29669
  20
129.02156
  0
VERTEX
  5
c1b
  8
Layer_0
  10
219.57135
  20
128.85454
  0
VERTEX
  5
c1c
  8
Layer_0
  10
219.91487
  20
128.64061
  0
VERTEX
  5
c1d
  8
Layer_0
  10
220.25378
  20
128.41936
  0
VERTEX
  5
c1e
  8
Layer_0
  10
220.58783
  20
128.19081
  0
VERTEX
  5
c1f
  8
Layer_0
  10
221.06419
  20
127.84621
  0
VERTEX
  5
c20
  8
Layer_0
  10
221.32069
  20
127.6545
  0
VERTEX
  5
c21
  8
Layer_0
  10
221.64226
  20
127.40886
  0
VERTEX
  5
c22
  8
Layer_0
  10
221.95839
  20
127.15617
  0
VERTEX
  5
c23
  8
Layer_0
  10
222.2691
  20
126.89696
  0
VERTEX
  5
c24
  8
Layer_0
  10
222.71268
  20
126.50655
  0
VERTEX
  5
c25
  8
Layer_0
  10
222.94937
  20
126.29152
  0
VERTEX
  5
c26
  8
Layer_0
  10
223.24599
  20
126.01634
  0
VERTEX
  5
c27
  8
Layer_0
  10
223.53665
  20
125.73463
  0
VERTEX
  5
c28
  8
Layer_0
  10
223.82133
  20
125.44695
  0
VERTEX
  5
c29
  8
Layer_0
  10
224.22992
  20
125.01097
  0
VERTEX
  5
c2a
  8
Layer_0
  10
224.44493
  20
124.77428
  0
VERTEX
  5
c2b
  8
Layer_0
  10
224.7139
  20
124.47169
  0
VERTEX
  5
c2c
  8
Layer_0
  10
224.97635
  20
124.16368
  0
VERTEX
  5
c2d
  8
Layer_0
  10
225.23203
  20
123.84999
  0
VERTEX
  5
c2e
  8
Layer_0
  10
225.5929
  20
123.38231
  0
VERTEX
  5
c2f
  8
Layer_0
  10
225.78459
  20
123.12581
  0
VERTEX
  5
c30
  8
Layer_0
  10
226.02345
  20
122.79909
  0
VERTEX
  5
c31
  8
Layer_0
  10
226.25528
  20
122.46724
  0
VERTEX
  5
c32
  8
Layer_0
  10
226.47977
  20
122.13048
  0
VERTEX
  5
c33
  8
Layer_0
  10
226.79292
  20
121.63297
  0
VERTEX
  5
c34
  8
Layer_0
  10
226.95995
  20
121.35831
  0
VERTEX
  5
c35
  8
Layer_0
  10
227.16655
  20
121.01018
  0
VERTEX
  5
c36
  8
Layer_0
  10
227.36555
  20
120.65797
  0
VERTEX
  5
c37
  8
Layer_0
  10
227.55725
  20
120.30116
  0
VERTEX
  5
c38
  8
Layer_0
  10
227.7408
  20
119.94057
  0
VERTEX
  5
c39
  8
Layer_0
  10
227.84004
  20
119.73775
  0
VERTEX
  5
c3a
  8
Layer_0
  10
227.98021
  20
119.44656
  0
VERTEX
  5
c3b
  8
Layer_0
  10
228.15184
  20
119.07999
  0
VERTEX
  5
c3c
  8
Layer_0
  10
228.3156
  20
118.7099
  0
VERTEX
  5
c3d
  8
Layer_0
  10
228.47122
  20
118.33655
  0
VERTEX
  5
c3e
  8
Layer_0
  10
228.61899
  20
117.95967
  0
VERTEX
  5
c3f
  8
Layer_0
  10
228.69437
  20
117.75769
  0
VERTEX
  5
c40
  8
Layer_0
  10
228.80661
  20
117.45158
  0
VERTEX
  5
c41
  8
Layer_0
  10
228.94191
  20
117.0701
  0
VERTEX
  5
c42
  8
Layer_0
  10
229.06908
  20
116.6859
  0
VERTEX
  5
c43
  8
Layer_0
  10
229.18782
  20
116.299
  0
VERTEX
  5
c44
  8
Layer_0
  10
229.29817
  20
115.90965
  0
VERTEX
  5
c45
  8
Layer_0
  10
229.36949
  20
115.64015
  0
VERTEX
  5
c46
  8
Layer_0
  10
229.45137
  20
115.32076
  0
VERTEX
  5
c47
  8
Layer_0
  10
229.54762
  20
114.92761
  0
VERTEX
  5
c48
  8
Layer_0
  10
229.63547
  20
114.53258
  0
VERTEX
  5
c49
  8
Layer_0
  10
229.7149
  20
114.13565
  0
VERTEX
  5
c4a
  8
Layer_0
  10
229.78568
  20
113.73735
  0
VERTEX
  5
c4b
  8
Layer_0
  10
229.82715
  20
113.47787
  0
VERTEX
  5
c4c
  8
Layer_0
  10
229.87758
  20
113.14709
  0
VERTEX
  5
c4d
  8
Layer_0
  10
229.93425
  20
112.74637
  0
VERTEX
  5
c4e
  8
Layer_0
  10
229.98224
  20
112.34456
  0
VERTEX
  5
c4f
  8
Layer_0
  10
230.02182
  20
111.94165
  0
VERTEX
  5
c50
  8
Layer_0
  10
230.05246
  20
111.53821
  0
VERTEX
  5
c51
  8
Layer_0
  10
230.06873
  20
111.26247
  0
VERTEX
  5
c52
  8
Layer_0
  10
230.08609
  20
110.92194
  0
VERTEX
  5
c53
  8
Layer_0
  10
230.10236
  20
110.5174
  0
VERTEX
  5
c54
  8
Layer_0
  10
230.10994
  20
110.11287
  0
VERTEX
  5
c55
  8
Layer_0
  10
230.10886
  20
109.70807
  0
VERTEX
  5
c56
  8
Layer_0
  10
230.09911
  20
109.30354
  0
VERTEX
  5
c57
  8
Layer_0
  10
230.08609
  20
109.00015
  0
VERTEX
  5
c58
  8
Layer_0
  10
230.06873
  20
108.65961
  0
VERTEX
  5
c59
  8
Layer_0
  10
230.04379
  20
108.25591
  0
VERTEX
  5
c5a
  8
Layer_0
  10
230.01016
  20
107.85246
  0
VERTEX
  5
c5b
  8
Layer_0
  10
229.96786
  20
107.44983
  0
VERTEX
  5
c5c
  8
Layer_0
  10
229.91718
  20
107.04855
  0
VERTEX
  5
c5d
  8
Layer_0
  10
229.87758
  20
106.77498
  0
VERTEX
  5
c5e
  8
Layer_0
  10
229.82715
  20
106.4442
  0
VERTEX
  5
c5f
  8
Layer_0
  10
229.76181
  20
106.04483
  0
VERTEX
  5
c60
  8
Layer_0
  10
229.68806
  20
105.6468
  0
VERTEX
  5
c61
  8
Layer_0
  10
229.60564
  20
105.25069
  0
VERTEX
  5
c62
  8
Layer_0
  10
229.51482
  20
104.85619
  0
VERTEX
  5
c63
  8
Layer_0
  10
229.45137
  20
104.60132
  0
VERTEX
  5
c64
  8
Layer_0
  10
229.36949
  20
104.28194
  0
VERTEX
  5
c65
  8
Layer_0
  10
229.26483
  20
103.89096
  0
VERTEX
  5
c66
  8
Layer_0
  10
229.15176
  20
103.50243
  0
VERTEX
  5
c67
  8
Layer_0
  10
229.0303
  20
103.11633
  0
VERTEX
  5
c68
  8
Layer_0
  10
228.9007
  20
102.73296
  0
VERTEX
  5
c69
  8
Layer_0
  10
228.80661
  20
102.4705
  0
VERTEX
  5
c6a
  8
Layer_0
  10
228.69437
  20
102.1644
  0
VERTEX
  5
c6b
  8
Layer_0
  10
228.55093
  20
101.7859
  0
VERTEX
  5
c6c
  8
Layer_0
  10
228.39964
  20
101.41066
  0
VERTEX
  5
c6d
  8
Layer_0
  10
228.23996
  20
101.03867
  0
VERTEX
  5
c6e
  8
Layer_0
  10
228.07266
  20
100.6702
  0
VERTEX
  5
c6f
  8
Layer_0
  10
227.98021
  20
100.47552
  0
VERTEX
  5
c70
  8
Layer_0
  10
227.84004
  20
100.18433
  0
VERTEX
  5
c71
  8
Layer_0
  10
227.66055
  20
99.821548
  0
VERTEX
  5
c72
  8
Layer_0
  10
227.47346
  20
99.462585
  0
VERTEX
  5
c73
  8
Layer_0
  10
227.27852
  20
99.107941
  0
VERTEX
  5
c74
  8
Layer_0
  10
227.07626
  20
98.75737
  0
VERTEX
  5
c75
  8
Layer_0
  10
226.95995
  20
98.563782
  0
VERTEX
  5
c76
  8
Layer_0
  10
226.79292
  20
98.289124
  0
VERTEX
  5
c77
  8
Layer_0
  10
226.57901
  20
97.945602
  0
VERTEX
  5
c78
  8
Layer_0
  10
226.35776
  20
97.606689
  0
VERTEX
  5
c79
  8
Layer_0
  10
226.1292
  20
97.272659
  0
VERTEX
  5
c7a
  8
Layer_0
  10
225.78459
  20
96.79628
  0
VERTEX
  5
c7b
  8
Layer_0
  10
225.5929
  20
96.53978
  0
VERTEX
  5
c7c
  8
Layer_0
  10
225.34726
  20
96.218231
  0
VERTEX
  5
c7d
  8
Layer_0
  10
225.09456
  20
95.902084
  0
VERTEX
  5
c7e
  8
Layer_0
  10
224.83536
  20
95.59137
  0
VERTEX
  5
c7f
  8
Layer_0
  10
224.44493
  20
95.147797
  0
VERTEX
  5
c80
  8
Layer_0
  10
224.22992
  20
94.911102
  0
VERTEX
  5
c81
  8
Layer_0
  10
223.95473
  20
94.614487
  0
VERTEX
  5
c82
  8
Layer_0
  10
223.67302
  20
94.323837
  0
VERTEX
  5
c83
  8
Layer_0
  10
223.38536
  20
94.039139
  0
VERTEX
  5
c84
  8
Layer_0
  10
222.94937
  20
93.630554
  0
VERTEX
  5
c85
  8
Layer_0
  10
222.71268
  20
93.415543
  0
VERTEX
  5
c86
  8
Layer_0
  10
222.4101
  20
93.146576
  0
VERTEX
  5
c87
  8
Layer_0
  10
222.1021
  20
92.884125
  0
VERTEX
  5
c88
  8
Layer_0
  10
221.78839
  20
92.628448
  0
VERTEX
  5
c89
  8
Layer_0
  10
221.32069
  20
92.267578
  0
VERTEX
  5
c8a
  8
Layer_0
  10
221.06419
  20
92.075882
  0
VERTEX
  5
c8b
  8
Layer_0
  10
220.73749
  20
91.837021
  0
VERTEX
  5
c8c
  8
Layer_0
  10
220.40562
  20
91.605209
  0
VERTEX
  5
c8d
  8
Layer_0
  10
220.06888
  20
91.380707
  0
VERTEX
  5
c8e
  8
Layer_0
  10
219.57135
  20
91.067551
  0
VERTEX
  5
c8f
  8
Layer_0
  10
219.29669
  20
90.900528
  0
VERTEX
  5
c90
  8
Layer_0
  10
218.94856
  20
90.693924
  0
VERTEX
  5
c91
  8
Layer_0
  10
218.59636
  20
90.494919
  0
VERTEX
  5
c92
  8
Layer_0
  10
218.23956
  20
90.303238
  0
VERTEX
  5
c93
  8
Layer_0
  10
217.87895
  20
90.119675
  0
VERTEX
  5
c94
  8
Layer_0
  10
217.67615
  20
90.020447
  0
VERTEX
  5
c95
  8
Layer_0
  10
217.38495
  20
89.880264
  0
VERTEX
  5
c96
  8
Layer_0
  10
217.01839
  20
89.708633
  0
VERTEX
  5
c97
  8
Layer_0
  10
216.64828
  20
89.544876
  0
VERTEX
  5
c98
  8
Layer_0
  10
216.27495
  20
89.389252
  0
VERTEX
  5
c99
  8
Layer_0
  10
215.89807
  20
89.241486
  0
VERTEX
  5
c9a
  8
Layer_0
  10
215.69608
  20
89.166107
  0
VERTEX
  5
c9b
  8
Layer_0
  10
215.38997
  20
89.053864
  0
VERTEX
  5
c9c
  8
Layer_0
  10
215.00848
  20
88.918564
  0
VERTEX
  5
c9d
  8
Layer_0
  10
214.6243
  20
88.791397
  0
VERTEX
  5
c9e
  8
Layer_0
  10
214.2374
  20
88.672653
  0
VERTEX
  5
c9f
  8
Layer_0
  10
213.84805
  20
88.562302
  0
VERTEX
  5
ca0
  8
Layer_0
  10
213.57855
  20
88.490997
  0
VERTEX
  5
ca1
  8
Layer_0
  10
213.25916
  20
88.409103
  0
VERTEX
  5
ca2
  8
Layer_0
  10
212.86601
  20
88.312851
  0
VERTEX
  5
ca3
  8
Layer_0
  10
212.47098
  20
88.225006
  0
VERTEX
  5
ca4
  8
Layer_0
  10
212.07404
  20
88.145569
  0
VERTEX
  5
ca5
  8
Layer_0
  10
211.67575
  20
88.074799
  0
VERTEX
  5
ca6
  8
Layer_0
  10
211.41628
  20
88.033325
  0
VERTEX
  5
ca7
  8
Layer_0
  10
211.08549
  20
87.982895
  0
VERTEX
  5
ca8
  8
Layer_0
  10
210.68477
  20
87.926224
  0
VERTEX
  5
ca9
  8
Layer_0
  10
210.28294
  20
87.878235
  0
VERTEX
  5
caa
  8
Layer_0
  10
209.88005
  20
87.838654
  0
VERTEX
  5
cab
  8
Layer_0
  10
209.47661
  20
87.808014
  0
VERTEX
  5
cac
  8
Layer_0
  10
209.20087
  20
87.791748
  0
VERTEX
  5
cad
  8
Layer_0
  10
208.86032
  20
87.774399
  0
VERTEX
  5
cae
  8
Layer_0
  10
208.4558
  20
87.758118
  0
VERTEX
  5
caf
  8
Layer_0
  10
208.05127
  20
87.750534
  0
VERTEX
  5
cb0
  8
Layer_0
  10
207.64647
  20
87.751617
  0
SEQEND
  0
POLYLINE
  5
cb2
  8
Layer_0
  62
0
  66
1
  10
0
  20
0
  30
0
  0
VERTEX
  5
cb2
  8
Layer_0
  10
207.76712
  20
96.968979
  0
VERTEX
  5
cb3
  8
Layer_0
  10
207.55565
  20
96.974136
  0
VERTEX
  5
cb4
  8
Layer_0
  10
207.36423
  20
96.982269
  0
VERTEX
  5
cb5
  8
Layer_0
  10
207.10909
  20
96.995285
  0
VERTEX
  5
cb6
  8
Layer_0
  10
206.85721
  20
97.010742
  0
VERTEX
  5
cb7
  8
Layer_0
  10
206.66335
  20
97.027008
  0
VERTEX
  5
cb8
  8
Layer_0
  10
206.44943
  20
97.049515
  0
VERTEX
  5
cb9
  8
Layer_0
  10
206.21382
  20
97.07933
  0
VERTEX
  5
cba
  8
Layer_0
  10
206.06415
  20
97.101028
  0
VERTEX
  5
cbb
  8
Layer_0
  10
205.83803
  20
97.135468
  0
VERTEX
  5
cbc
  8
Layer_0
  10
205.56689
  20
97.179657
  0
VERTEX
  5
cbd
  8
Layer_0
  10
205.36354
  20
97.217346
  0
VERTEX
  5
cbe
  8
Layer_0
  10
205.1602
  20
97.259644
  0
VERTEX
  5
cbf
  8
Layer_0
  10
204.96309
  20
97.305191
  0
VERTEX
  5
cc0
  8
Layer_0
  10
204.54608
  20
97.41066
  0
VERTEX
  5
cc1
  8
Layer_0
  10
204.30614
  20
97.474915
  0
VERTEX
  5
cc2
  8
Layer_0
  10
204.11363
  20
97.530777
  0
VERTEX
  5
cc3
  8
Layer_0
  10
203.90459
  20
97.596649
  0
VERTEX
  5
cc4
  8
Layer_0
  10
203.72862
  20
97.656311
  0
VERTEX
  5
cc5
  8
Layer_0
  10
203.30675
  20
97.809219
  0
VERTEX
  5
cc6
  8
Layer_0
  10
203.08144
  20
97.894623
  0
VERTEX
  5
cc7
  8
Layer_0
  10
202.89246
  20
97.97081
  0
VERTEX
  5
cc8
  8
Layer_0
  10
202.70103
  20
98.052963
  0
VERTEX
  5
cc9
  8
Layer_0
  10
202.49797
  20
98.145157
  0
VERTEX
  5
cca
  8
Layer_0
  10
202.16148
  20
98.306198
  0
VERTEX
  5
ccb
  8
Layer_0
  10
201.93428
  20
98.418716
  0
VERTEX
  5
ccc
  8
Layer_0
  10
201.75154
  20
98.513885
  0
VERTEX
  5
ccd
  8
Layer_0
  10
201.57286
  20
98.612045
  0
VERTEX
  5
cce
  8
Layer_0
  10
201.38036
  20
98.723206
  0
VERTEX
  5
ccf
  8
Layer_0
  10
201.06151
  20
98.916245
  0
VERTEX
  5
cd0
  8
Layer_0
  10
200.83919
  20
99.05452
  0
VERTEX
  5
cd1
  8
Layer_0
  10
200.6624
  20
99.169754
  0
VERTEX
  5
cd2
  8
Layer_0
  10
200.51762
  20
99.268997
  0
VERTEX
  5
cd3
  8
Layer_0
  10
200.19795
  20
99.500259
  0
VERTEX
  5
cd4
  8
Layer_0
  10
200.03691
  20
99.620651
  0
VERTEX
  5
cd5
  8
Layer_0
  10
199.83492
  20
99.774918
  0
VERTEX
  5
cd6
  8
Layer_0
  10
199.67061
  20
99.906143
  0
VERTEX
  5
cd7
  8
Layer_0
  10
199.52312
  20
100.02924
  0
VERTEX
  5
cd8
  8
Layer_0
  10
199.24005
  20
100.27841
  0
VERTEX
  5
cd9
  8
Layer_0
  10
199.07439
  20
100.42889
  0
VERTEX
  5
cda
  8
Layer_0
  10
198.89708
  20
100.59346
  0
VERTEX
  5
cdb
  8
Layer_0
  10
198.74687
  20
100.73906
  0
VERTEX
  5
cdc
  8
Layer_0
  10
198.62051
  20
100.86676
  0
VERTEX
  5
cdd
  8
Layer_0
  10
198.34451
  20
101.16121
  0
VERTEX
  5
cde
  8
Layer_0
  10
198.2065
  20
101.31305
  0
VERTEX
  5
cdf
  8
Layer_0
  10
198.04382
  20
101.49606
  0
VERTEX
  5
ce0
  8
Layer_0
  10
197.89958
  20
101.66525
  0
VERTEX
  5
ce1
  8
Layer_0
  10
197.79004
  20
101.79973
  0
VERTEX
  5
ce2
  8
Layer_0
  10
197.54765
  20
102.11369
  0
VERTEX
  5
ce3
  8
Layer_0
  10
197.42484
  20
102.278
  0
VERTEX
  5
ce4
  8
Layer_0
  10
197.27869
  20
102.47783
  0
VERTEX
  5
ce5
  8
Layer_0
  10
197.15587
  20
102.65379
  0
VERTEX
  5
ce6
  8
Layer_0
  10
197.05745
  20
102.80128
  0
VERTEX
  5
ce7
  8
Layer_0
  10
196.84515
  20
103.13831
  0
VERTEX
  5
ce8
  8
Layer_0
  10
196.73344
  20
103.3224
  0
VERTEX
  5
ce9
  8
Layer_0
  10
196.61063
  20
103.52927
  0
VERTEX
  5
cea
  8
Layer_0
  10
196.50949
  20
103.70795
  0
VERTEX
  5
ceb
  8
Layer_0
  10
196.41135
  20
103.89096
  0
VERTEX
  5
cec
  8
Layer_0
  10
196.31049
  20
104.08916
  0
VERTEX
  5
ced
  8
Layer_0
  10
196.13832
  20
104.44434
  0
VERTEX
  5
cee
  8
Layer_0
  10
196.04152
  20
104.65067
  0
VERTEX
  5
cef
  8
Layer_0
  10
195.95557
  20
104.8448
  0
VERTEX
  5
cf0
  8
Layer_0
  10
195.8718
  20
105.0457
  0
VERTEX
  5
cf1
  8
Layer_0
  10
195.79533
  20
105.24092
  0
VERTEX
  5
cf2
  8
Layer_0
  10
195.65651
  20
105.61671
  0
VERTEX
  5
cf3
  8
Layer_0
  10
195.57788
  20
105.8385
  0
VERTEX
  5
cf4
  8
Layer_0
  10
195.51146
  20
106.03886
  0
VERTEX
  5
cf5
  8
Layer_0
  10
195.45073
  20
106.23679
  0
VERTEX
  5
cf6
  8
Layer_0
  10
195.39378
  20
106.4377
  0
VERTEX
  5
cf7
  8
Layer_0
  10
195.3504
  20
106.60201
  0
VERTEX
  5
cf8
  8
Layer_0
  10
195.29048
  20
106.83517
  0
VERTEX
  5
cf9
  8
Layer_0
  10
195.22595
  20
107.09926
  0
VERTEX
  5
cfa
  8
Layer_0
  10
195.18367
  20
107.28932
  0
VERTEX
  5
cfb
  8
Layer_0
  10
195.14218
  20
107.49673
  0
VERTEX
  5
cfc
  8
Layer_0
  10
195.10585
  20
107.70062
  0
VERTEX
  5
cfd
  8
Layer_0
  10
195.03996
  20
108.12386
  0
VERTEX
  5
cfe
  8
Layer_0
  10
195.00661
  20
108.35757
  0
VERTEX
  5
cff
  8
Layer_0
  10
194.97951
  20
108.5818
  0
VERTEX
  5
d00
  8
Layer_0
  10
194.96133
  20
108.76671
  0
VERTEX
  5
d01
  8
Layer_0
  10
194.94398
  20
108.99147
  0
VERTEX
  5
d02
  8
Layer_0
  10
194.9326
  20
109.18724
  0
VERTEX
  5
d03
  8
Layer_0
  10
194.92067
  20
109.42555
  0
VERTEX
  5
d04
  8
Layer_0
  10
194.91063
  20
109.68367
  0
VERTEX
  5
d05
  8
Layer_0
  10
194.90685
  20
109.88431
  0
VERTEX
  5
d06
  8
Layer_0
  10
194.90765
  20
110.10881
  0
VERTEX
  5
d07
  8
Layer_0
  10
194.9128
  20
110.31514
  0
VERTEX
  5
d08
  8
Layer_0
  10
194.92012
  20
110.48839
  0
VERTEX
  5
d09
  8
Layer_0
  10
194.93178
  20
110.71967
  0
VERTEX
  5
d0a
  8
Layer_0
  10
194.94859
  20
110.99541
  0
VERTEX
  5
d0b
  8
Layer_0
  10
194.96567
  20
111.20229
  0
VERTEX
  5
d0c
  8
Layer_0
  10
194.98601
  20
111.39885
  0
VERTEX
  5
d0d
  8
Layer_0
  10
195.01476
  20
111.62769
  0
VERTEX
  5
d0e
  8
Layer_0
  10
195.03943
  20
111.79796
  0
VERTEX
  5
d0f
  8
Layer_0
  10
195.0771
  20
112.04333
  0
VERTEX
  5
d10
  8
Layer_0
  10
195.11914
  20
112.29927
  0
VERTEX
  5
d11
  8
Layer_0
  10
195.15817
  20
112.50912
  0
VERTEX
  5
d12
  8
Layer_0
  10
195.19885
  20
112.70354
  0
VERTEX
  5
d13
  8
Layer_0
  10
195.2471
  20
112.91284
  0
VERTEX
  5
d14
  8
Layer_0
  10
195.34634
  20
113.30409
  0
VERTEX
  5
d15
  8
Layer_0
  10
195.41331
  20
113.55434
  0
VERTEX
  5
d16
  8
Layer_0
  10
195.46645
  20
113.73735
  0
VERTEX
  5
d17
  8
Layer_0
  10
195.53505
  20
113.95589
  0
VERTEX
  5
d18
  8
Layer_0
  10
195.5947
  20
114.13185
  0
VERTEX
  5
d19
  8
Layer_0
  10
195.74518
  20
114.54723
  0
VERTEX
  5
d1a
  8
Layer_0
  10
195.83302
  20
114.77904
  0
VERTEX
  5
d1b
  8
Layer_0
  10
195.91029
  20
114.97046
  0
VERTEX
  5
d1c
  8
Layer_0
  10
195.99164
  20
115.16025
  0
VERTEX
  5
d1d
  8
Layer_0
  10
196.08354
  20
115.36252
  0
VERTEX
  5
d1e
  8
Layer_0
  10
196.2446
  20
115.69899
  0
VERTEX
  5
d1f
  8
Layer_0
  10
196.35414
  20
115.9205
  0
VERTEX
  5
d20
  8
Layer_0
  10
196.45229
  20
116.10893
  0
VERTEX
  5
d21
  8
Layer_0
  10
196.55043
  20
116.28761
  0
VERTEX
  5
d22
  8
Layer_0
  10
196.65889
  20
116.47551
  0
VERTEX
  5
d23
  8
Layer_0
  10
196.85464
  20
116.79897
  0
VERTEX
  5
d24
  8
Layer_0
  10
196.99048
  20
117.0175
  0
VERTEX
  5
d25
  8
Layer_0
  10
197.10815
  20
117.19807
  0
VERTEX
  5
d26
  8
Layer_0
  10
197.20738
  20
117.34285
  0
VERTEX
  5
d27
  8
Layer_0
  10
197.43866
  20
117.66252
  0
VERTEX
  5
d28
  8
Layer_0
  10
197.55904
  20
117.82356
  0
VERTEX
  5
d29
  8
Layer_0
  10
197.71332
  20
118.02556
  0
VERTEX
  5
d2a
  8
Layer_0
  10
197.84454
  20
118.18987
  0
VERTEX
  5
d2b
  8
Layer_0
  10
197.96709
  20
118.33655
  0
VERTEX
  5
d2c
  8
Layer_0
  10
198.21681
  20
118.62042
  0
VERTEX
  5
d2d
  8
Layer_0
  10
198.36728
  20
118.78609
  0
VERTEX
  5
d2e
  8
Layer_0
  10
198.53159
  20
118.96313
  0
VERTEX
  5
d2f
  8
Layer_0
  10
198.67935
  20
119.11551
  0
VERTEX
  5
d30
  8
Layer_0
  10
198.80516
  20
119.23996
  0
VERTEX
  5
d31
  8
Layer_0
  10
199.09961
  20
119.51598
  0
VERTEX
  5
d32
  8
Layer_0
  10
199.25143
  20
119.65398
  0
VERTEX
  5
d33
  8
Layer_0
  10
199.43689
  20
119.81882
  0
VERTEX
  5
d34
  8
Layer_0
  10
199.60364
  20
119.96089
  0
VERTEX
  5
d35
  8
Layer_0
  10
199.73921
  20
120.07124
  0
VERTEX
  5
d36
  8
Layer_0
  10
200.05209
  20
120.31282
  0
VERTEX
  5
d37
  8
Layer_0
  10
200.2164
  20
120.43564
  0
VERTEX
  5
d38
  8
Layer_0
  10
200.41866
  20
120.5834
  0
VERTEX
  5
d39
  8
Layer_0
  10
200.59218
  20
120.70461
  0
VERTEX
  5
d3a
  8
Layer_0
  10
200.73969
  20
120.80302
  0
VERTEX
  5
d3b
  8
Layer_0
  10
201.07669
  20
121.01532
  0
VERTEX
  5
d3c
  8
Layer_0
  10
201.26079
  20
121.12703
  0
VERTEX
  5
d3d
  8
Layer_0
  10
201.47011
  20
121.25121
  0
VERTEX
  5
d3e
  8
Layer_0
  10
201.64635
  20
121.35098
  0
VERTEX
  5
d3f
  8
Layer_0
  10
201.83044
  20
121.44968
  0
VERTEX
  5
d40
  8
Layer_0
  10
202.02756
  20
121.54999
  0
VERTEX
  5
d41
  8
Layer_0
  10
202.38274
  20
121.72215
  0
VERTEX
  5
d42
  8
Layer_0
  10
202.59259
  20
121.82057
  0
VERTEX
  5
d43
  8
Layer_0
  10
202.78319
  20
121.90489
  0
VERTEX
  5
d44
  8
Layer_0
  10
202.9841
  20
121.98869
  0
VERTEX
  5
d45
  8
Layer_0
  10
203.17932
  20
122.06514
  0
VERTEX
  5
d46
  8
Layer_0
  10
203.5551
  20
122.20396
  0
VERTEX
  5
d47
  8
Layer_0
  10
203.77689
  20
122.28258
  0
VERTEX
  5
d48
  8
Layer_0
  10
203.97725
  20
122.34901
  0
VERTEX
  5
d49
  8
Layer_0
  10
204.17519
  20
122.40974
  0
VERTEX
  5
d4a
  8
Layer_0
  10
204.37608
  20
122.46669
  0
VERTEX
  5
d4b
  8
Layer_0
  10
204.54039
  20
122.51006
  0
VERTEX
  5
d4c
  8
Layer_0
  10
204.77356
  20
122.56999
  0
VERTEX
  5
d4d
  8
Layer_0
  10
205.03764
  20
122.63451
  0
VERTEX
  5
d4e
  8
Layer_0
  10
205.22771
  20
122.6768
  0
VERTEX
  5
d4f
  8
Layer_0
  10
205.43512
  20
122.71831
  0
VERTEX
  5
d50
  8
Layer_0
  10
205.63902
  20
122.75462
  0
VERTEX
  5
d51
  8
Layer_0
  10
206.06226
  20
122.82051
  0
VERTEX
  5
d52
  8
Layer_0
  10
206.29596
  20
122.85387
  0
VERTEX
  5
d53
  8
Layer_0
  10
206.52019
  20
122.88097
  0
VERTEX
  5
d54
  8
Layer_0
  10
206.70511
  20
122.89915
  0
VERTEX
  5
d55
  8
Layer_0
  10
206.92987
  20
122.91649
  0
VERTEX
  5
d56
  8
Layer_0
  10
207.12563
  20
122.92787
  0
VERTEX
  5
d57
  8
Layer_0
  10
207.36395
  20
122.9398
  0
VERTEX
  5
d58
  8
Layer_0
  10
207.62207
  20
122.94984
  0
VERTEX
  5
d59
  8
Layer_0
  10
207.82271
  20
122.95363
  0
VERTEX
  5
d5a
  8
Layer_0
  10
208.0472
  20
122.95284
  0
VERTEX
  5
d5b
  8
Layer_0
  10
208.25352
  20
122.94768
  0
VERTEX
  5
d5c
  8
Layer_0
  10
208.42679
  20
122.94035
  0
VERTEX
  5
d5d
  8
Layer_0
  10
208.66104
  20
122.9287
  0
VERTEX
  5
d5e
  8
Layer_0
  10
208.93678
  20
122.91188
  0
VERTEX
  5
d5f
  8
Layer_0
  10
209.14067
  20
122.89479
  0
VERTEX
  5
d60
  8
Layer_0
  10
209.33725
  20
122.87447
  0
VERTEX
  5
d61
  8
Layer_0
  10
209.56607
  20
122.84572
  0
VERTEX
  5
d62
  8
Layer_0
  10
209.73634
  20
122.82106
  0
VERTEX
  5
d63
  8
Layer_0
  10
209.98172
  20
122.78337
  0
VERTEX
  5
d64
  8
Layer_0
  10
210.23767
  20
122.74135
  0
VERTEX
  5
d65
  8
Layer_0
  10
210.44753
  20
122.70229
  0
VERTEX
  5
d66
  8
Layer_0
  10
210.64192
  20
122.66164
  0
VERTEX
  5
d67
  8
Layer_0
  10
210.85124
  20
122.61336
  0
VERTEX
  5
d68
  8
Layer_0
  10
211.24248
  20
122.51414
  0
VERTEX
  5
d69
  8
Layer_0
  10
211.49274
  20
122.44716
  0
VERTEX
  5
d6a
  8
Layer_0
  10
211.68524
  20
122.39131
  0
VERTEX
  5
d6b
  8
Layer_0
  10
211.89427
  20
122.32542
  0
VERTEX
  5
d6c
  8
Layer_0
  10
212.07024
  20
122.26579
  0
VERTEX
  5
d6d
  8
Layer_0
  10
212.49213
  20
122.11287
  0
VERTEX
  5
d6e
  8
Layer_0
  10
212.71744
  20
122.02745
  0
VERTEX
  5
d6f
  8
Layer_0
  10
212.90884
  20
121.95018
  0
VERTEX
  5
d70
  8
Layer_0
  10
213.09865
  20
121.86885
  0
VERTEX
  5
d71
  8
Layer_0
  10
213.3009
  20
121.77693
  0
VERTEX
  5
d72
  8
Layer_0
  10
213.63737
  20
121.61588
  0
VERTEX
  5
d73
  8
Layer_0
  10
213.86459
  20
121.50336
  0
VERTEX
  5
d74
  8
Layer_0
  10
214.04787
  20
121.40793
  0
VERTEX
  5
d75
  8
Layer_0
  10
214.22601
  20
121.31004
  0
VERTEX
  5
d76
  8
Layer_0
  10
214.4185
  20
121.19888
  0
VERTEX
  5
d77
  8
Layer_0
  10
214.73737
  20
121.00583
  0
VERTEX
  5
d78
  8
Layer_0
  10
214.95969
  20
120.86755
  0
VERTEX
  5
d79
  8
Layer_0
  10
215.13646
  20
120.75232
  0
VERTEX
  5
d7a
  8
Layer_0
  10
215.28125
  20
120.65309
  0
VERTEX
  5
d7b
  8
Layer_0
  10
215.60091
  20
120.42181
  0
VERTEX
  5
d7c
  8
Layer_0
  10
215.76224
  20
120.30116
  0
VERTEX
  5
d7d
  8
Layer_0
  10
215.96396
  20
120.14716
  0
VERTEX
  5
d7e
  8
Layer_0
  10
216.12827
  20
120.01593
  0
VERTEX
  5
d7f
  8
Layer_0
  10
216.27576
  20
119.89284
  0
VERTEX
  5
d80
  8
Layer_0
  10
216.55882
  20
119.64368
  0
VERTEX
  5
d81
  8
Layer_0
  10
216.72447
  20
119.49319
  0
VERTEX
  5
d82
  8
Layer_0
  10
216.90179
  20
119.32861
  0
VERTEX
  5
d83
  8
Layer_0
  10
217.05391
  20
119.18112
  0
VERTEX
  5
d84
  8
Layer_0
  10
217.17834
  20
119.05531
  0
VERTEX
  5
d85
  8
Layer_0
  10
217.45436
  20
118.76086
  0
VERTEX
  5
d86
  8
Layer_0
  10
217.59236
  20
118.60904
  0
VERTEX
  5
d87
  8
Layer_0
  10
217.75722
  20
118.42358
  0
VERTEX
  5
d88
  8
Layer_0
  10
217.89929
  20
118.25684
  0
VERTEX
  5
d89
  8
Layer_0
  10
218.01453
  20
118.11531
  0
VERTEX
  5
d8a
  8
Layer_0
  10
218.25122
  20
117.80838
  0
VERTEX
  5
d8b
  8
Layer_0
  10
218.37404
  20
117.64407
  0
VERTEX
  5
d8c
  8
Layer_0
  10
218.52478
  20
117.43774
  0
VERTEX
  5
d8d
  8
Layer_0
  10
218.64301
  20
117.2683
  0
VERTEX
  5
d8e
  8
Layer_0
  10
218.74142
  20
117.1208
  0
VERTEX
  5
d8f
  8
Layer_0
  10
218.95372
  20
116.78378
  0
VERTEX
  5
d90
  8
Layer_0
  10
219.06543
  20
116.59969
  0
VERTEX
  5
d91
  8
Layer_0
  10
219.18961
  20
116.39037
  0
VERTEX
  5
d92
  8
Layer_0
  10
219.29291
  20
116.20763
  0
VERTEX
  5
d93
  8
Layer_0
  10
219.38806
  20
116.03004
  0
VERTEX
  5
d94
  8
Layer_0
  10
219.48839
  20
115.83293
  0
VERTEX
  5
d95
  8
Layer_0
  10
219.66055
  20
115.47774
  0
VERTEX
  5
d96
  8
Layer_0
  10
219.76033
  20
115.26491
  0
VERTEX
  5
d97
  8
Layer_0
  10
219.8452
  20
115.07295
  0
VERTEX
  5
d98
  8
Layer_0
  10
219.92761
  20
114.87529
  0
VERTEX
  5
d99
  8
Layer_0
  10
220.00354
  20
114.68117
  0
VERTEX
  5
d9a
  8
Layer_0
  10
220.14235
  20
114.30537
  0
VERTEX
  5
d9b
  8
Layer_0
  10
220.22098
  20
114.08359
  0
VERTEX
  5
d9c
  8
Layer_0
  10
220.28741
  20
113.88322
  0
VERTEX
  5
d9d
  8
Layer_0
  10
220.34814
  20
113.6853
  0
VERTEX
  5
d9e
  8
Layer_0
  10
220.40508
  20
113.48439
  0
VERTEX
  5
d9f
  8
Layer_0
  10
220.44846
  20
113.32008
  0
VERTEX
  5
da0
  8
Layer_0
  10
220.50838
  20
113.08691
  0
VERTEX
  5
da1
  8
Layer_0
  10
220.57454
  20
112.81631
  0
VERTEX
  5
da2
  8
Layer_0
  10
220.6152
  20
112.63277
  0
VERTEX
  5
da3
  8
Layer_0
  10
220.65669
  20
112.42535
  0
VERTEX
  5
da4
  8
Layer_0
  10
220.69356
  20
112.21767
  0
VERTEX
  5
da5
  8
Layer_0
  10
220.75972
  20
111.79308
  0
VERTEX
  5
da6
  8
Layer_0
  10
220.79333
  20
111.55502
  0
VERTEX
  5
da7
  8
Layer_0
  10
220.81828
  20
111.34653
  0
VERTEX
  5
da8
  8
Layer_0
  10
220.8389
  20
111.13829
  0
VERTEX
  5
da9
  8
Layer_0
  10
220.85516
  20
110.92194
  0
VERTEX
  5
daa
  8
Layer_0
  10
220.86491
  20
110.75816
  0
VERTEX
  5
dab
  8
Layer_0
  10
220.87875
  20
110.4873
  0
VERTEX
  5
dac
  8
Layer_0
  10
220.88797
  20
110.2525
  0
VERTEX
  5
dad
  8
Layer_0
  10
220.89203
  20
110.04048
  0
VERTEX
  5
dae
  8
Layer_0
  10
220.89149
  20
109.82439
  0
VERTEX
  5
daf
  8
Layer_0
  10
220.88634
  20
109.61725
  0
VERTEX
  5
db0
  8
Layer_0
  10
220.87793
  20
109.41959
  0
VERTEX
  5
db1
  8
Layer_0
  10
220.86519
  20
109.1707
  0
VERTEX
  5
db2
  8
Layer_0
  10
220.84973
  20
108.91881
  0
VERTEX
  5
db3
  8
Layer_0
  10
220.83347
  20
108.72496
  0
VERTEX
  5
db4
  8
Layer_0
  10
220.81096
  20
108.51103
  0
VERTEX
  5
db5
  8
Layer_0
  10
220.78114
  20
108.27542
  0
VERTEX
  5
db6
  8
Layer_0
  10
220.75945
  20
108.12576
  0
VERTEX
  5
db7
  8
Layer_0
  10
220.72502
  20
107.89963
  0
VERTEX
  5
db8
  8
Layer_0
  10
220.68082
  20
107.62849
  0
VERTEX
  5
db9
  8
Layer_0
  10
220.64313
  20
107.42516
  0
VERTEX
  5
dba
  8
Layer_0
  10
220.60085
  20
107.2218
  0
VERTEX
  5
dbb
  8
Layer_0
  10
220.55528
  20
107.02469
  0
VERTEX
  5
dbc
  8
Layer_0
  10
220.44981
  20
106.6077
  0
VERTEX
  5
dbd
  8
Layer_0
  10
220.38556
  20
106.36774
  0
VERTEX
  5
dbe
  8
Layer_0
  10
220.32971
  20
106.17523
  0
VERTEX
  5
dbf
  8
Layer_0
  10
220.26382
  20
105.9662
  0
VERTEX
  5
dc0
  8
Layer_0
  10
220.20418
  20
105.79024
  0
VERTEX
  5
dc1
  8
Layer_0
  10
220.05125
  20
105.36835
  0
VERTEX
  5
dc2
  8
Layer_0
  10
219.96585
  20
105.14305
  0
VERTEX
  5
dc3
  8
Layer_0
  10
219.88803
  20
104.95027
  0
VERTEX
  5
dc4
  8
Layer_0
  10
219.80588
  20
104.75885
  0
VERTEX
  5
dc5
  8
Layer_0
  10
219.71532
  20
104.55957
  0
VERTEX
  5
dc6
  8
Layer_0
  10
219.55428
  20
104.2231
  0
VERTEX
  5
dc7
  8
Layer_0
  10
219.44176
  20
103.9959
  0
VERTEX
  5
dc8
  8
Layer_0
  10
219.34659
  20
103.81314
  0
VERTEX
  5
dc9
  8
Layer_0
  10
219.24844
  20
103.63448
  0
VERTEX
  5
dca
  8
Layer_0
  10
219.13727
  20
103.44197
  0
VERTEX
  5
dcb
  8
Layer_0
  10
218.94016
  20
103.11633
  0
VERTEX
  5
dcc
  8
Layer_0
  10
218.80595
  20
102.90079
  0
VERTEX
  5
dcd
  8
Layer_0
  10
218.68692
  20
102.7186
  0
VERTEX
  5
dce
  8
Layer_0
  10
218.59149
  20
102.57922
  0
VERTEX
  5
dcf
  8
Layer_0
  10
218.36021
  20
102.25957
  0
VERTEX
  5
dd0
  8
Layer_0
  10
218.23982
  20
102.09851
  0
VERTEX
  5
dd1
  8
Layer_0
  10
218.08475
  20
101.89543
  0
VERTEX
  5
dd2
  8
Layer_0
  10
217.95433
  20
101.73221
  0
VERTEX
  5
dd3
  8
Layer_0
  10
217.83124
  20
101.58472
  0
VERTEX
  5
dd4
  8
Layer_0
  10
217.58206
  20
101.30167
  0
VERTEX
  5
dd5
  8
Layer_0
  10
217.43159
  20
101.136
  0
VERTEX
  5
dd6
  8
Layer_0
  10
217.26701
  20
100.95868
  0
VERTEX
  5
dd7
  8
Layer_0
  10
217.11925
  20
100.8063
  0
VERTEX
  5
dd8
  8
Layer_0
  10
216.99371
  20
100.68213
  0
VERTEX
  5
dd9
  8
Layer_0
  10
216.69926
  20
100.40611
  0
VERTEX
  5
dda
  8
Layer_0
  10
216.54742
  20
100.26811
  0
VERTEX
  5
ddb
  8
Layer_0
  10
216.36197
  20
100.10326
  0
VERTEX
  5
ddc
  8
Layer_0
  10
216.19524
  20
99.961182
  0
VERTEX
  5
ddd
  8
Layer_0
  10
216.05966
  20
99.850845
  0
VERTEX
  5
dde
  8
Layer_0
  10
215.74678
  20
99.609253
  0
VERTEX
  5
ddf
  8
Layer_0
  10
215.58247
  20
99.486435
  0
VERTEX
  5
de0
  8
Layer_0
  10
215.37994
  20
99.338394
  0
VERTEX
  5
de1
  8
Layer_0
  10
215.2056
  20
99.21666
  0
VERTEX
  5
de2
  8
Layer_0
  10
215.05919
  20
99.119049
  0
VERTEX
  5
de3
  8
Layer_0
  10
214.72218
  20
98.906754
  0
VERTEX
  5
de4
  8
Layer_0
  10
214.53807
  20
98.795059
  0
VERTEX
  5
de5
  8
Layer_0
  10
214.32796
  20
98.670334
  0
VERTEX
  5
de6
  8
Layer_0
  10
214.15253
  20
98.571106
  0
VERTEX
  5
de7
  8
Layer_0
  10
213.96843
  20
98.472412
  0
VERTEX
  5
de8
  8
Layer_0
  10
213.77132
  20
98.372086
  0
VERTEX
  5
de9
  8
Layer_0
  10
213.41614
  20
98.199921
  0
VERTEX
  5
dea
  8
Layer_0
  10
213.20329
  20
98.100143
  0
VERTEX
  5
deb
  8
Layer_0
  10
213.01567
  20
98.017181
  0
VERTEX
  5
dec
  8
Layer_0
  10
212.81477
  20
97.933395
  0
VERTEX
  5
ded
  8
Layer_0
  10
212.61955
  20
97.856934
  0
VERTEX
  5
dee
  8
Layer_0
  10
212.24377
  20
97.718124
  0
VERTEX
  5
def
  8
Layer_0
  10
212.02199
  20
97.639496
  0
VERTEX
  5
df0
  8
Layer_0
  10
211.82161
  20
97.573059
  0
VERTEX
  5
df1
  8
Layer_0
  10
211.62369
  20
97.512329
  0
VERTEX
  5
df2
  8
Layer_0
  10
211.42278
  20
97.455399
  0
VERTEX
  5
df3
  8
Layer_0
  10
211.25848
  20
97.412018
  0
VERTEX
  5
df4
  8
Layer_0
  10
211.0253
  20
97.352097
  0
VERTEX
  5
df5
  8
Layer_0
  10
210.76123
  20
97.287567
  0
VERTEX
  5
df6
  8
Layer_0
  10
210.57117
  20
97.24527
  0
VERTEX
  5
df7
  8
Layer_0
  10
210.36374
  20
97.203781
  0
VERTEX
  5
df8
  8
Layer_0
  10
210.15605
  20
97.166916
  0
VERTEX
  5
df9
  8
Layer_0
  10
209.73146
  20
97.100754
  0
VERTEX
  5
dfa
  8
Layer_0
  10
209.49341
  20
97.067139
  0
VERTEX
  5
dfb
  8
Layer_0
  10
209.28491
  20
97.042191
  0
VERTEX
  5
dfc
  8
Layer_0
  10
209.07669
  20
97.021591
  0
VERTEX
  5
dfd
  8
Layer_0
  10
208.86276
  20
97.005585
  0
VERTEX
  5
dfe
  8
Layer_0
  10
208.69656
  20
96.99556
  0
VERTEX
  5
dff
  8
Layer_0
  10
208.4257
  20
96.981735
  0
VERTEX
  5
e00
  8
Layer_0
  10
208.1909
  20
96.972504
  0
VERTEX
  5
e01
  8
Layer_0
  10
207.97888
  20
96.968445
  0
VERTEX
  5
e02
  8
Layer_0
  10
207.76712
  20
96.968979
  0
SEQEND
  0
CIRCLE
  5
e04
  8
Layer_0
  62
0
  10
73.522583
  20
109.96104
  30
0
  40
3.3316576
  0
POLYLINE
  5
e04
  8
Layer_0
  62
0
  66
1
  10
0
  20
0
  30
0
  0
VERTEX
  5
e04
  8
Layer_0
  10
73.390259
  20
96.968979
  0
VERTEX
  5
e05
  8
Layer_0
  10
73.178772
  20
96.974136
  0
VERTEX
  5
e06
  8
Layer_0
  10
72.987366
  20
96.982269
  0
VERTEX
  5
e07
  8
Layer_0
  10
72.732239
  20
96.995285
  0
VERTEX
  5
e08
  8
Layer_0
  10
72.480347
  20
97.010742
  0
VERTEX
  5
e09
  8
Layer_0
  10
72.286499
  20
97.027008
  0
VERTEX
  5
e0a
  8
Layer_0
  10
72.072571
  20
97.049515
  0
VERTEX
  5
e0b
  8
Layer_0
  10
71.85675
  20
97.076889
  0
VERTEX
  5
e0c
  8
Layer_0
  10
71.43515
  20
97.139526
  0
VERTEX
  5
e0d
  8
Layer_0
  10
71.194916
  20
97.178848
  0
VERTEX
  5
e0e
  8
Layer_0
  10
70.981262
  20
97.21843
  0
VERTEX
  5
e0f
  8
Layer_0
  10
70.791473
  20
97.257736
  0
VERTEX
  5
e10
  8
Layer_0
  10
70.582428
  20
97.306
  0
VERTEX
  5
e11
  8
Layer_0
  10
70.175201
  20
97.409027
  0
VERTEX
  5
e12
  8
Layer_0
  10
69.92981
  20
97.474915
  0
VERTEX
  5
e13
  8
Layer_0
  10
69.724304
  20
97.534836
  0
VERTEX
  5
e14
  8
Layer_0
  10
69.532349
  20
97.595032
  0
VERTEX
  5
e15
  8
Layer_0
  10
69.34256
  20
97.659286
  0
VERTEX
  5
e16
  8
Layer_0
  10
68.940735
  20
97.805161
  0
VERTEX
  5
e17
  8
Layer_0
  10
68.70459
  20
97.894623
  0
VERTEX
  5
e18
  8
Layer_0
  10
68.515594
  20
97.97081
  0
VERTEX
  5
e19
  8
Layer_0
  10
68.324188
  20
98.052963
  0
VERTEX
  5
e1a
  8
Layer_0
  10
68.121094
  20
98.145157
  0
VERTEX
  5
e1b
  8
Layer_0
  10
67.784637
  20
98.306198
  0
VERTEX
  5
e1c
  8
Layer_0
  10
67.557434
  20
98.418716
  0
VERTEX
  5
e1d
  8
Layer_0
  10
67.374695
  20
98.513885
  0
VERTEX
  5
e1e
  8
Layer_0
  10
67.196014
  20
98.612045
  0
VERTEX
  5
e1f
  8
Layer_0
  10
67.010834
  20
98.718872
  0
VERTEX
  5
e20
  8
Layer_0
  10
66.683014
  20
98.917068
  0
VERTEX
  5
e21
  8
Layer_0
  10
66.468842
  20
99.050186
  0
VERTEX
  5
e22
  8
Layer_0
  10
66.29071
  20
99.166504
  0
VERTEX
  5
e23
  8
Layer_0
  10
66.143463
  20
99.266815
  0
VERTEX
  5
e24
  8
Layer_0
  10
65.820557
  20
99.500809
  0
VERTEX
  5
e25
  8
Layer_0
  10
65.643768
  20
99.633118
  0
VERTEX
  5
e26
  8
Layer_0
  10
65.454803
  20
99.777359
  0
VERTEX
  5
e27
  8
Layer_0
  10
65.282623
  20
99.9151
  0
VERTEX
  5
e28
  8
Layer_0
  10
65.14978
  20
100.02599
  0
VERTEX
  5
e29
  8
Layer_0
  10
64.86264
  20
100.27896
  0
VERTEX
  5
e2a
  8
Layer_0
  10
64.69754
  20
100.42889
  0
VERTEX
  5
e2b
  8
Layer_0
  10
64.520203
  20
100.59346
  0
VERTEX
  5
e2c
  8
Layer_0
  10
64.369995
  20
100.73906
  0
VERTEX
  5
e2d
  8
Layer_0
  10
64.243652
  20
100.86676
  0
VERTEX
  5
e2e
  8
Layer_0
  10
63.967651
  20
101.16121
  0
VERTEX
  5
e2f
  8
Layer_0
  10
63.829651
  20
101.31305
  0
VERTEX
  5
e30
  8
Layer_0
  10
63.666962
  20
101.49606
  0
VERTEX
  5
e31
  8
Layer_0
  10
63.522736
  20
101.66525
  0
VERTEX
  5
e32
  8
Layer_0
  10
63.413177
  20
101.79973
  0
VERTEX
  5
e33
  8
Layer_0
  10
63.170807
  20
102.11369
  0
VERTEX
  5
e34
  8
Layer_0
  10
63.047974
  20
102.278
  0
VERTEX
  5
e35
  8
Layer_0
  10
62.901825
  20
102.47783
  0
VERTEX
  5
e36
  8
Layer_0
  10
62.779022
  20
102.65379
  0
VERTEX
  5
e37
  8
Layer_0
  10
62.680603
  20
102.80128
  0
VERTEX
  5
e38
  8
Layer_0
  10
62.468292
  20
103.13831
  0
VERTEX
  5
e39
  8
Layer_0
  10
62.356598
  20
103.3224
  0
VERTEX
  5
e3a
  8
Layer_0
  10
62.233765
  20
103.52927
  0
VERTEX
  5
e3b
  8
Layer_0
  10
62.132629
  20
103.70795
  0
VERTEX
  5
e3c
  8
Layer_0
  10
62.034485
  20
103.89096
  0
VERTEX
  5
e3d
  8
Layer_0
  10
61.933624
  20
104.08916
  0
VERTEX
  5
e3e
  8
Layer_0
  10
61.761444
  20
104.44434
  0
VERTEX
  5
e3f
  8
Layer_0
  10
61.664673
  20
104.65067
  0
VERTEX
  5
e40
  8
Layer_0
  10
61.578705
  20
104.8448
  0
VERTEX
  5
e41
  8
Layer_0
  10
61.494934
  20
105.0457
  0
VERTEX
  5
e42
  8
Layer_0
  10
61.418488
  20
105.24092
  0
VERTEX
  5
e43
  8
Layer_0
  10
61.279663
  20
105.61671
  0
VERTEX
  5
e44
  8
Layer_0
  10
61.201019
  20
105.8385
  0
VERTEX
  5
e45
  8
Layer_0
  10
61.134613
  20
106.03886
  0
VERTEX
  5
e46
  8
Layer_0
  10
61.073883
  20
106.23679
  0
VERTEX
  5
e47
  8
Layer_0
  10
61.016937
  20
106.4377
  0
VERTEX
  5
e48
  8
Layer_0
  10
60.973541
  20
106.60201
  0
VERTEX
  5
e49
  8
Layer_0
  10
60.913635
  20
106.83517
  0
VERTEX
  5
e4a
  8
Layer_0
  10
60.849091
  20
107.09926
  0
VERTEX
  5
e4b
  8
Layer_0
  10
60.806793
  20
107.28932
  0
VERTEX
  5
e4c
  8
Layer_0
  10
60.76532
  20
107.49673
  0
VERTEX
  5
e4d
  8
Layer_0
  10
60.729004
  20
107.70062
  0
VERTEX
  5
e4e
  8
Layer_0
  10
60.663116
  20
108.12386
  0
VERTEX
  5
e4f
  8
Layer_0
  10
60.629761
  20
108.35757
  0
VERTEX
  5
e50
  8
Layer_0
  10
60.602631
  20
108.5818
  0
VERTEX
  5
e51
  8
Layer_0
  10
60.584473
  20
108.76671
  0
VERTEX
  5
e52
  8
Layer_0
  10
60.567139
  20
108.99147
  0
VERTEX
  5
e53
  8
Layer_0
  10
60.555725
  20
109.18724
  0
VERTEX
  5
e54
  8
Layer_0
  10
60.543793
  20
109.42555
  0
VERTEX
  5
e55
  8
Layer_0
  10
60.533783
  20
109.68367
  0
VERTEX
  5
e56
  8
Layer_0
  10
60.529968
  20
109.88431
  0
VERTEX
  5
e57
  8
Layer_0
  10
60.530792
  20
110.10881
  0
VERTEX
  5
e58
  8
Layer_0
  10
60.53595
  20
110.31514
  0
VERTEX
  5
e59
  8
Layer_0
  10
60.543274
  20
110.48839
  0
VERTEX
  5
e5a
  8
Layer_0
  10
60.554932
  20
110.71967
  0
VERTEX
  5
e5b
  8
Layer_0
  10
60.571747
  20
110.99541
  0
VERTEX
  5
e5c
  8
Layer_0
  10
60.588806
  20
111.20229
  0
VERTEX
  5
e5d
  8
Layer_0
  10
60.609161
  20
111.39885
  0
VERTEX
  5
e5e
  8
Layer_0
  10
60.637878
  20
111.62769
  0
VERTEX
  5
e5f
  8
Layer_0
  10
60.662567
  20
111.79796
  0
VERTEX
  5
e60
  8
Layer_0
  10
60.700256
  20
112.04333
  0
VERTEX
  5
e61
  8
Layer_0
  10
60.742279
  20
112.29927
  0
VERTEX
  5
e62
  8
Layer_0
  10
60.781311
  20
112.50912
  0
VERTEX
  5
e63
  8
Layer_0
  10
60.821991
  20
112.70354
  0
VERTEX
  5
e64
  8
Layer_0
  10
60.870239
  20
112.91284
  0
VERTEX
  5
e65
  8
Layer_0
  10
60.969482
  20
113.30409
  0
VERTEX
  5
e66
  8
Layer_0
  10
61.036438
  20
113.55434
  0
VERTEX
  5
e67
  8
Layer_0
  10
61.0896
  20
113.73735
  0
VERTEX
  5
e68
  8
Layer_0
  10
61.158203
  20
113.95589
  0
VERTEX
  5
e69
  8
Layer_0
  10
61.217834
  20
114.13185
  0
VERTEX
  5
e6a
  8
Layer_0
  10
61.368317
  20
114.54723
  0
VERTEX
  5
e6b
  8
Layer_0
  10
61.456177
  20
114.77904
  0
VERTEX
  5
e6c
  8
Layer_0
  10
61.533447
  20
114.97046
  0
VERTEX
  5
e6d
  8
Layer_0
  10
61.614777
  20
115.16025
  0
VERTEX
  5
e6e
  8
Layer_0
  10
61.706696
  20
115.36252
  0
VERTEX
  5
e6f
  8
Layer_0
  10
61.867737
  20
115.69899
  0
VERTEX
  5
e70
  8
Layer_0
  10
61.977264
  20
115.9205
  0
VERTEX
  5
e71
  8
Layer_0
  10
62.075439
  20
116.10893
  0
VERTEX
  5
e72
  8
Layer_0
  10
62.173584
  20
116.28761
  0
VERTEX
  5
e73
  8
Layer_0
  10
62.282013
  20
116.47551
  0
VERTEX
  5
e74
  8
Layer_0
  10
62.477783
  20
116.79897
  0
VERTEX
  5
e75
  8
Layer_0
  10
62.613617
  20
117.0175
  0
VERTEX
  5
e76
  8
Layer_0
  10
62.731293
  20
117.19807
  0
VERTEX
  5
e77
  8
Layer_0
  10
62.830536
  20
117.34285
  0
VERTEX
  5
e78
  8
Layer_0
  10
63.061798
  20
117.66252
  0
VERTEX
  5
e79
  8
Layer_0
  10
63.18219
  20
117.82356
  0
VERTEX
  5
e7a
  8
Layer_0
  10
63.336456
  20
118.02556
  0
VERTEX
  5
e7b
  8
Layer_0
  10
63.467682
  20
118.18987
  0
VERTEX
  5
e7c
  8
Layer_0
  10
63.59024
  20
118.33655
  0
VERTEX
  5
e7d
  8
Layer_0
  10
63.839935
  20
118.62042
  0
VERTEX
  5
e7e
  8
Layer_0
  10
63.990417
  20
118.78609
  0
VERTEX
  5
e7f
  8
Layer_0
  10
64.154724
  20
118.96313
  0
VERTEX
  5
e80
  8
Layer_0
  10
64.30249
  20
119.11551
  0
VERTEX
  5
e81
  8
Layer_0
  10
64.428314
  20
119.23996
  0
VERTEX
  5
e82
  8
Layer_0
  10
64.722748
  20
119.51598
  0
VERTEX
  5
e83
  8
Layer_0
  10
64.874573
  20
119.65398
  0
VERTEX
  5
e84
  8
Layer_0
  10
65.060028
  20
119.81882
  0
VERTEX
  5
e85
  8
Layer_0
  10
65.226776
  20
119.96089
  0
VERTEX
  5
e86
  8
Layer_0
  10
65.365326
  20
120.07396
  0
VERTEX
  5
e87
  8
Layer_0
  10
65.65979
  20
120.30116
  0
VERTEX
  5
e88
  8
Layer_0
  10
65.840881
  20
120.43674
  0
VERTEX
  5
e89
  8
Layer_0
  10
66.04425
  20
120.58531
  0
VERTEX
  5
e8a
  8
Layer_0
  10
66.204224
  20
120.69728
  0
VERTEX
  5
e8b
  8
Layer_0
  10
66.359558
  20
120.80113
  0
VERTEX
  5
e8c
  8
Layer_0
  10
66.704712
  20
121.01831
  0
VERTEX
  5
e8d
  8
Layer_0
  10
66.891541
  20
121.13191
  0
VERTEX
  5
e8e
  8
Layer_0
  10
67.089722
  20
121.24931
  0
VERTEX
  5
e8f
  8
Layer_0
  10
67.278961
  20
121.35614
  0
VERTEX
  5
e90
  8
Layer_0
  10
67.457092
  20
121.45157
  0
VERTEX
  5
e91
  8
Layer_0
  10
67.648529
  20
121.54918
  0
VERTEX
  5
e92
  8
Layer_0
  10
68.016174
  20
121.72704
  0
VERTEX
  5
e93
  8
Layer_0
  10
68.215729
  20
121.82057
  0
VERTEX
  5
e94
  8
Layer_0
  10
68.406342
  20
121.90489
  0
VERTEX
  5
e95
  8
Layer_0
  10
68.607239
  20
121.98869
  0
VERTEX
  5
e96
  8
Layer_0
  10
68.80246
  20
122.06514
  0
VERTEX
  5
e97
  8
Layer_0
  10
69.178253
  20
122.20396
  0
VERTEX
  5
e98
  8
Layer_0
  10
69.400024
  20
122.28258
  0
VERTEX
  5
e99
  8
Layer_0
  10
69.600403
  20
122.34901
  0
VERTEX
  5
e9a
  8
Layer_0
  10
69.798309
  20
122.40974
  0
VERTEX
  5
e9b
  8
Layer_0
  10
69.987854
  20
122.46342
  0
VERTEX
  5
e9c
  8
Layer_0
  10
70.417847
  20
122.57542
  0
VERTEX
  5
e9d
  8
Layer_0
  10
70.649414
  20
122.63206
  0
VERTEX
  5
e9e
  8
Layer_0
  10
70.846771
  20
122.67601
  0
VERTEX
  5
e9f
  8
Layer_0
  10
71.057983
  20
122.71831
  0
VERTEX
  5
ea0
  8
Layer_0
  10
71.268921
  20
122.756
  0
VERTEX
  5
ea1
  8
Layer_0
  10
71.677795
  20
122.81944
  0
VERTEX
  5
ea2
  8
Layer_0
  10
71.927521
  20
122.85521
  0
VERTEX
  5
ea3
  8
Layer_0
  10
72.122192
  20
122.87852
  0
VERTEX
  5
ea4
  8
Layer_0
  10
72.345062
  20
122.90077
  0
VERTEX
  5
ea5
  8
Layer_0
  10
72.547577
  20
122.91621
  0
VERTEX
  5
ea6
  8
Layer_0
  10
72.744446
  20
122.92787
  0
VERTEX
  5
ea7
  8
Layer_0
  10
72.987091
  20
122.9398
  0
VERTEX
  5
ea8
  8
Layer_0
  10
73.245209
  20
122.94984
  0
VERTEX
  5
ea9
  8
Layer_0
  10
73.445862
  20
122.95363
  0
VERTEX
  5
eaa
  8
Layer_0
  10
73.670349
  20
122.95284
  0
VERTEX
  5
eab
  8
Layer_0
  10
73.876678
  20
122.94768
  0
VERTEX
  5
eac
  8
Layer_0
  10
74.049927
  20
122.94035
  0
VERTEX
  5
ead
  8
Layer_0
  10
74.28418
  20
122.9287
  0
VERTEX
  5
eae
  8
Layer_0
  10
74.559937
  20
122.91188
  0
VERTEX
  5
eaf
  8
Layer_0
  10
74.763824
  20
122.89479
  0
VERTEX
  5
eb0
  8
Layer_0
  10
74.960388
  20
122.87447
  0
VERTEX
  5
eb1
  8
Layer_0
  10
75.189209
  20
122.84572
  0
VERTEX
  5
eb2
  8
Layer_0
  10
75.359497
  20
122.82106
  0
VERTEX
  5
eb3
  8
Layer_0
  10
75.604858
  20
122.78337
  0
VERTEX
  5
eb4
  8
Layer_0
  10
75.860809
  20
122.74135
  0
VERTEX
  5
eb5
  8
Layer_0
  10
76.070679
  20
122.70229
  0
VERTEX
  5
eb6
  8
Layer_0
  10
76.265076
  20
122.66164
  0
VERTEX
  5
eb7
  8
Layer_0
  10
76.474365
  20
122.61336
  0
VERTEX
  5
eb8
  8
Layer_0
  10
76.865631
  20
122.51414
  0
VERTEX
  5
eb9
  8
Layer_0
  10
77.115875
  20
122.44716
  0
VERTEX
  5
eba
  8
Layer_0
  10
77.30838
  20
122.39131
  0
VERTEX
  5
ebb
  8
Layer_0
  10
77.517426
  20
122.32542
  0
VERTEX
  5
ebc
  8
Layer_0
  10
77.69339
  20
122.26579
  0
VERTEX
  5
ebd
  8
Layer_0
  10
78.115265
  20
122.11287
  0
VERTEX
  5
ebe
  8
Layer_0
  10
78.340576
  20
122.02745
  0
VERTEX
  5
ebf
  8
Layer_0
  10
78.531982
  20
121.95018
  0
VERTEX
  5
ec0
  8
Layer_0
  10
78.721771
  20
121.86885
  0
VERTEX
  5
ec1
  8
Layer_0
  10
78.924042
  20
121.77693
  0
VERTEX
  5
ec2
  8
Layer_0
  10
79.260529
  20
121.61588
  0
VERTEX
  5
ec3
  8
Layer_0
  10
79.487732
  20
121.50336
  0
VERTEX
  5
ec4
  8
Layer_0
  10
79.671021
  20
121.40793
  0
VERTEX
  5
ec5
  8
Layer_0
  10
79.849152
  20
121.31004
  0
VERTEX
  5
ec6
  8
Layer_0
  10
80.041656
  20
121.19888
  0
VERTEX
  5
ec7
  8
Layer_0
  10
80.360504
  20
121.00583
  0
VERTEX
  5
ec8
  8
Layer_0
  10
80.582825
  20
120.86755
  0
VERTEX
  5
ec9
  8
Layer_0
  10
80.759613
  20
120.75232
  0
VERTEX
  5
eca
  8
Layer_0
  10
80.904388
  20
120.65309
  0
VERTEX
  5
ecb
  8
Layer_0
  10
81.22406
  20
120.42181
  0
VERTEX
  5
ecc
  8
Layer_0
  10
81.385376
  20
120.30116
  0
VERTEX
  5
ecd
  8
Layer_0
  10
81.587097
  20
120.14716
  0
VERTEX
  5
ece
  8
Layer_0
  10
81.751404
  20
120.01593
  0
VERTEX
  5
ecf
  8
Layer_0
  10
81.898895
  20
119.89284
  0
VERTEX
  5
ed0
  8
Layer_0
  10
82.181946
  20
119.64368
  0
VERTEX
  5
ed1
  8
Layer_0
  10
82.347626
  20
119.49319
  0
VERTEX
  5
ed2
  8
Layer_0
  10
82.524933
  20
119.32861
  0
VERTEX
  5
ed3
  8
Layer_0
  10
82.677032
  20
119.18112
  0
VERTEX
  5
ed4
  8
Layer_0
  10
82.801483
  20
119.05531
  0
VERTEX
  5
ed5
  8
Layer_0
  10
83.077515
  20
118.76086
  0
VERTEX
  5
ed6
  8
Layer_0
  10
83.215515
  20
118.60904
  0
VERTEX
  5
ed7
  8
Layer_0
  10
83.380371
  20
118.42358
  0
VERTEX
  5
ed8
  8
Layer_0
  10
83.52243
  20
118.25684
  0
VERTEX
  5
ed9
  8
Layer_0
  10
83.637665
  20
118.11531
  0
VERTEX
  5
eda
  8
Layer_0
  10
83.874359
  20
117.80838
  0
VERTEX
  5
edb
  8
Layer_0
  10
83.997192
  20
117.64407
  0
VERTEX
  5
edc
  8
Layer_0
  10
84.147919
  20
117.43774
  0
VERTEX
  5
edd
  8
Layer_0
  10
84.266144
  20
117.2683
  0
VERTEX
  5
ede
  8
Layer_0
  10
84.364563
  20
117.1208
  0
VERTEX
  5
edf
  8
Layer_0
  10
84.576874
  20
116.78378
  0
VERTEX
  5
ee0
  8
Layer_0
  10
84.688568
  20
116.59969
  0
VERTEX
  5
ee1
  8
Layer_0
  10
84.812744
  20
116.39037
  0
VERTEX
  5
ee2
  8
Layer_0
  10
84.916046
  20
116.20763
  0
VERTEX
  5
ee3
  8
Layer_0
  10
85.0112
  20
116.03004
  0
VERTEX
  5
ee4
  8
Layer_0
  10
85.111542
  20
115.83293
  0
VERTEX
  5
ee5
  8
Layer_0
  10
85.283691
  20
115.47774
  0
VERTEX
  5
ee6
  8
Layer_0
  10
85.383484
  20
115.26491
  0
VERTEX
  5
ee7
  8
Layer_0
  10
85.468323
  20
115.07295
  0
VERTEX
  5
ee8
  8
Layer_0
  10
85.550751
  20
114.87529
  0
VERTEX
  5
ee9
  8
Layer_0
  10
85.629669
  20
114.67357
  0
VERTEX
  5
eea
  8
Layer_0
  10
85.759796
  20
114.32083
  0
VERTEX
  5
eeb
  8
Layer_0
  10
85.845764
  20
114.07817
  0
VERTEX
  5
eec
  8
Layer_0
  10
85.911102
  20
113.87943
  0
VERTEX
  5
eed
  8
Layer_0
  10
85.973724
  20
113.67554
  0
VERTEX
  5
eee
  8
Layer_0
  10
86.026855
  20
113.48683
  0
VERTEX
  5
eef
  8
Layer_0
  10
86.137482
  20
113.06277
  0
VERTEX
  5
ef0
  8
Layer_0
  10
86.192535
  20
112.83801
  0
VERTEX
  5
ef1
  8
Layer_0
  10
86.237793
  20
112.63548
  0
VERTEX
  5
ef2
  8
Layer_0
  10
86.279022
  20
112.4305
  0
VERTEX
  5
ef3
  8
Layer_0
  10
86.315887
  20
112.22417
  0
VERTEX
  5
ef4
  8
Layer_0
  10
86.348694
  20
112.01947
  0
VERTEX
  5
ef5
  8
Layer_0
  10
86.379059
  20
111.81992
  0
VERTEX
  5
ef6
  8
Layer_0
  10
86.416473
  20
111.55502
  0
VERTEX
  5
ef7
  8
Layer_0
  10
86.441437
  20
111.34653
  0
VERTEX
  5
ef8
  8
Layer_0
  10
86.462036
  20
111.13829
  0
VERTEX
  5
ef9
  8
Layer_0
  10
86.478302
  20
110.92194
  0
VERTEX
  5
efa
  8
Layer_0
  10
86.488068
  20
110.75816
  0
VERTEX
  5
efb
  8
Layer_0
  10
86.501892
  20
110.4873
  0
VERTEX
  5
efc
  8
Layer_0
  10
86.511108
  20
110.2525
  0
VERTEX
  5
efd
  8
Layer_0
  10
86.515167
  20
110.04048
  0
VERTEX
  5
efe
  8
Layer_0
  10
86.514618
  20
109.82439
  0
VERTEX
  5
eff
  8
Layer_0
  10
86.509491
  20
109.61725
  0
VERTEX
  5
f00
  8
Layer_0
  10
86.501068
  20
109.41959
  0
VERTEX
  5
f01
  8
Layer_0
  10
86.488342
  20
109.1707
  0
VERTEX
  5
f02
  8
Layer_0
  10
86.47287
  20
108.91881
  0
VERTEX
  5
f03
  8
Layer_0
  10
86.456604
  20
108.72496
  0
VERTEX
  5
f04
  8
Layer_0
  10
86.434113
  20
108.51103
  0
VERTEX
  5
f05
  8
Layer_0
  10
86.404266
  20
108.27542
  0
VERTEX
  5
f06
  8
Layer_0
  10
86.382599
  20
108.12576
  0
VERTEX
  5
f07
  8
Layer_0
  10
86.348145
  20
107.89963
  0
VERTEX
  5
f08
  8
Layer_0
  10
86.303955
  20
107.62849
  0
VERTEX
  5
f09
  8
Layer_0
  10
86.266266
  20
107.42516
  0
VERTEX
  5
f0a
  8
Layer_0
  10
86.223969
  20
107.2218
  0
VERTEX
  5
f0b
  8
Layer_0
  10
86.178436
  20
107.02496
  0
VERTEX
  5
f0c
  8
Layer_0
  10
86.06781
  20
106.58871
  0
VERTEX
  5
f0d
  8
Layer_0
  10
86.010315
  20
106.37425
  0
VERTEX
  5
f0e
  8
Layer_0
  10
85.948792
  20
106.16357
  0
VERTEX
  5
f0f
  8
Layer_0
  10
85.883453
  20
105.95616
  0
VERTEX
  5
f10
  8
Layer_0
  10
85.822449
  20
105.77614
  0
VERTEX
  5
f11
  8
Layer_0
  10
85.675201
  20
105.37025
  0
VERTEX
  5
f12
  8
Layer_0
  10
85.593872
  20
105.15552
  0
VERTEX
  5
f13
  8
Layer_0
  10
85.511169
  20
104.95027
  0
VERTEX
  5
f14
  8
Layer_0
  10
85.429016
  20
104.75885
  0
VERTEX
  5
f15
  8
Layer_0
  10
85.344421
  20
104.57204
  0
VERTEX
  5
f16
  8
Layer_0
  10
85.175781
  20
104.22011
  0
VERTEX
  5
f17
  8
Layer_0
  10
85.06488
  20
103.9959
  0
VERTEX
  5
f18
  8
Layer_0
  10
84.969727
  20
103.81314
  0
VERTEX
  5
f19
  8
Layer_0
  10
84.871582
  20
103.63448
  0
VERTEX
  5
f1a
  8
Layer_0
  10
84.760406
  20
103.44197
  0
VERTEX
  5
f1b
  8
Layer_0
  10
84.563293
  20
103.11633
  0
VERTEX
  5
f1c
  8
Layer_0
  10
84.429077
  20
102.90079
  0
VERTEX
  5
f1d
  8
Layer_0
  10
84.310059
  20
102.7186
  0
VERTEX
  5
f1e
  8
Layer_0
  10
84.21463
  20
102.57922
  0
VERTEX
  5
f1f
  8
Layer_0
  10
83.983368
  20
102.25957
  0
VERTEX
  5
f20
  8
Layer_0
  10
83.862976
  20
102.09851
  0
VERTEX
  5
f21
  8
Layer_0
  10
83.707886
  20
101.89543
  0
VERTEX
  5
f22
  8
Layer_0
  10
83.577484
  20
101.73221
  0
VERTEX
  5
f23
  8
Layer_0
  10
83.454376
  20
101.58472
  0
VERTEX
  5
f24
  8
Layer_0
  10
83.2052
  20
101.30167
  0
VERTEX
  5
f25
  8
Layer_0
  10
83.054718
  20
101.136
  0
VERTEX
  5
f26
  8
Layer_0
  10
82.890167
  20
100.95868
  0
VERTEX
  5
f27
  8
Layer_0
  10
82.742401
  20
100.8063
  0
VERTEX
  5
f28
  8
Layer_0
  10
82.616852
  20
100.68213
  0
VERTEX
  5
f29
  8
Layer_0
  10
82.322418
  20
100.40611
  0
VERTEX
  5
f2a
  8
Layer_0
  10
82.170563
  20
100.26811
  0
VERTEX
  5
f2b
  8
Layer_0
  10
81.985107
  20
100.10326
  0
VERTEX
  5
f2c
  8
Layer_0
  10
81.818359
  20
99.961182
  0
VERTEX
  5
f2d
  8
Layer_0
  10
81.6828
  20
99.850845
  0
VERTEX
  5
f2e
  8
Layer_0
  10
81.369934
  20
99.609253
  0
VERTEX
  5
f2f
  8
Layer_0
  10
81.205627
  20
99.486435
  0
VERTEX
  5
f30
  8
Layer_0
  10
81.003082
  20
99.338394
  0
VERTEX
  5
f31
  8
Layer_0
  10
80.828735
  20
99.21666
  0
VERTEX
  5
f32
  8
Layer_0
  10
80.682343
  20
99.119049
  0
VERTEX
  5
f33
  8
Layer_0
  10
80.345306
  20
98.906754
  0
VERTEX
  5
f34
  8
Layer_0
  10
80.161224
  20
98.795059
  0
VERTEX
  5
f35
  8
Layer_0
  10
79.95108
  20
98.670334
  0
VERTEX
  5
f36
  8
Layer_0
  10
79.775665
  20
98.571106
  0
VERTEX
  5
f37
  8
Layer_0
  10
79.591583
  20
98.472412
  0
VERTEX
  5
f38
  8
Layer_0
  10
79.39447
  20
98.372086
  0
VERTEX
  5
f39
  8
Layer_0
  10
79.039276
  20
98.199921
  0
VERTEX
  5
f3a
  8
Layer_0
  10
78.826447
  20
98.100143
  0
VERTEX
  5
f3b
  8
Layer_0
  10
78.638824
  20
98.017181
  0
VERTEX
  5
f3c
  8
Layer_0
  10
78.437897
  20
97.933395
  0
VERTEX
  5
f3d
  8
Layer_0
  10
78.242706
  20
97.856934
  0
VERTEX
  5
f3e
  8
Layer_0
  10
77.866913
  20
97.718124
  0
VERTEX
  5
f3f
  8
Layer_0
  10
77.645111
  20
97.639496
  0
VERTEX
  5
f40
  8
Layer_0
  10
77.444763
  20
97.573059
  0
VERTEX
  5
f41
  8
Layer_0
  10
77.246826
  20
97.512329
  0
VERTEX
  5
f42
  8
Layer_0
  10
77.045929
  20
97.455399
  0
VERTEX
  5
f43
  8
Layer_0
  10
76.881622
  20
97.412018
  0
VERTEX
  5
f44
  8
Layer_0
  10
76.648438
  20
97.352097
  0
VERTEX
  5
f45
  8
Layer_0
  10
76.384369
  20
97.287567
  0
VERTEX
  5
f46
  8
Layer_0
  10
76.194305
  20
97.24527
  0
VERTEX
  5
f47
  8
Layer_0
  10
75.986877
  20
97.203781
  0
VERTEX
  5
f48
  8
Layer_0
  10
75.779205
  20
97.166916
  0
VERTEX
  5
f49
  8
Layer_0
  10
75.354614
  20
97.100754
  0
VERTEX
  5
f4a
  8
Layer_0
  10
75.116547
  20
97.067139
  0
VERTEX
  5
f4b
  8
Layer_0
  10
74.908051
  20
97.042191
  0
VERTEX
  5
f4c
  8
Layer_0
  10
74.699829
  20
97.021591
  0
VERTEX
  5
f4d
  8
Layer_0
  10
74.485901
  20
97.005585
  0
VERTEX
  5
f4e
  8
Layer_0
  10
74.319702
  20
96.99556
  0
VERTEX
  5
f4f
  8
Layer_0
  10
74.048828
  20
96.981735
  0
VERTEX
  5
f50
  8
Layer_0
  10
73.814056
  20
96.972504
  0
VERTEX
  5
f51
  8
Layer_0
  10
73.60202
  20
96.968445
  0
VERTEX
  5
f52
  8
Layer_0
  10
73.390259
  20
96.968979
  0
SEQEND
  0
POLYLINE
  5
f54
  8
Layer_0
  62
0
  66
1
  10
0
  20
0
  30
0
  0
VERTEX
  5
f54
  8
Layer_0
  10
73.269623
  20
87.751617
  0
VERTEX
  5
f55
  8
Layer_0
  10
72.865082
  20
87.761383
  0
VERTEX
  5
f56
  8
Layer_0
  10
72.561676
  20
87.774399
  0
VERTEX
  5
f57
  8
Layer_0
  10
72.221161
  20
87.791748
  0
VERTEX
  5
f58
  8
Layer_0
  10
71.817444
  20
87.816696
  0
VERTEX
  5
f59
  8
Layer_0
  10
71.414001
  20
87.850311
  0
VERTEX
  5
f5a
  8
Layer_0
  10
71.011353
  20
87.892609
  0
VERTEX
  5
f5b
  8
Layer_0
  10
70.610077
  20
87.943314
  0
VERTEX
  5
f5c
  8
Layer_0
  10
70.338959
  20
87.98262
  0
VERTEX
  5
f5d
  8
Layer_0
  10
70.007904
  20
88.033051
  0
VERTEX
  5
f5e
  8
Layer_0
  10
69.608246
  20
88.098389
  0
VERTEX
  5
f5f
  8
Layer_0
  10
69.21051
  20
88.172134
  0
VERTEX
  5
f60
  8
Layer_0
  10
68.814117
  20
88.254288
  0
VERTEX
  5
f61
  8
Layer_0
  10
68.419891
  20
88.345123
  0
VERTEX
  5
f62
  8
Layer_0
  10
68.158783
  20
88.410202
  0
VERTEX
  5
f63
  8
Layer_0
  10
67.839661
  20
88.492081
  0
VERTEX
  5
f64
  8
Layer_0
  10
67.4487
  20
88.596725
  0
VERTEX
  5
f65
  8
Layer_0
  10
67.060181
  20
88.710068
  0
VERTEX
  5
f66
  8
Layer_0
  10
66.674072
  20
88.831268
  0
VERTEX
  5
f67
  8
Layer_0
  10
66.29071
  20
88.961136
  0
VERTEX
  5
f68
  8
Layer_0
  10
66.032043
  20
89.053864
  0
VERTEX
  5
f69
  8
Layer_0
  10
65.725922
  20
89.166107
  0
VERTEX
  5
f6a
  8
Layer_0
  10
65.347443
  20
89.30954
  0
VERTEX
  5
f6b
  8
Layer_0
  10
64.972198
  20
89.460831
  0
VERTEX
  5
f6c
  8
Layer_0
  10
64.600189
  20
89.620529
  0
VERTEX
  5
f6d
  8
Layer_0
  10
64.23172
  20
89.787811
  0
VERTEX
  5
f6e
  8
Layer_0
  10
64.037048
  20
89.880264
  0
VERTEX
  5
f6f
  8
Layer_0
  10
63.74585
  20
90.020447
  0
VERTEX
  5
f70
  8
Layer_0
  10
63.383087
  20
90.199936
  0
VERTEX
  5
f71
  8
Layer_0
  10
63.024109
  20
90.387009
  0
VERTEX
  5
f72
  8
Layer_0
  10
62.669464
  20
90.581955
  0
VERTEX
  5
f73
  8
Layer_0
  10
62.318909
  20
90.78421
  0
VERTEX
  5
f74
  8
Layer_0
  10
62.132355
  20
90.896194
  0
VERTEX
  5
f75
  8
Layer_0
  10
61.857422
  20
91.063217
  0
VERTEX
  5
f76
  8
Layer_0
  10
61.513916
  20
91.276855
  0
VERTEX
  5
f77
  8
Layer_0
  10
61.174988
  20
91.498108
  0
VERTEX
  5
f78
  8
Layer_0
  10
60.840698
  20
91.726395
  0
VERTEX
  5
f79
  8
Layer_0
  10
60.349945
  20
92.081573
  0
VERTEX
  5
f7a
  8
Layer_0
  10
60.093719
  20
92.27327
  0
VERTEX
  5
f7b
  8
Layer_0
  10
59.772156
  20
92.51918
  0
VERTEX
  5
f7c
  8
Layer_0
  10
59.456024
  20
92.771881
  0
VERTEX
  5
f7d
  8
Layer_0
  10
59.145599
  20
93.031357
  0
VERTEX
  5
f7e
  8
Layer_0
  10
58.70932
  20
93.415543
  0
VERTEX
  5
f7f
  8
Layer_0
  10
58.472626
  20
93.630554
  0
VERTEX
  5
f80
  8
Layer_0
  10
58.176025
  20
93.905746
  0
VERTEX
  5
f81
  8
Layer_0
  10
57.885376
  20
94.187454
  0
VERTEX
  5
f82
  8
Layer_0
  10
57.600677
  20
94.475128
  0
VERTEX
  5
f83
  8
Layer_0
  10
57.192078
  20
94.911102
  0
VERTEX
  5
f84
  8
Layer_0
  10
56.977081
  20
95.147797
  0
VERTEX
  5
f85
  8
Layer_0
  10
56.70813
  20
95.450378
  0
VERTEX
  5
f86
  8
Layer_0
  10
56.445648
  20
95.758392
  0
VERTEX
  5
f87
  8
Layer_0
  10
56.189972
  20
96.072083
  0
VERTEX
  5
f88
  8
Layer_0
  10
55.829102
  20
96.53978
  0
VERTEX
  5
f89
  8
Layer_0
  10
55.637421
  20
96.79628
  0
VERTEX
  5
f8a
  8
Layer_0
  10
55.39856
  20
97.122986
  0
VERTEX
  5
f8b
  8
Layer_0
  10
55.166748
  20
97.454849
  0
VERTEX
  5
f8c
  8
Layer_0
  10
54.94223
  20
97.791595
  0
VERTEX
  5
f8d
  8
Layer_0
  10
54.629089
  20
98.289124
  0
VERTEX
  5
f8e
  8
Layer_0
  10
54.462067
  20
98.563782
  0
VERTEX
  5
f8f
  8
Layer_0
  10
54.255463
  20
98.911911
  0
VERTEX
  5
f90
  8
Layer_0
  10
54.056458
  20
99.264114
  0
VERTEX
  5
f91
  8
Layer_0
  10
53.864777
  20
99.620926
  0
VERTEX
  5
f92
  8
Layer_0
  10
53.681213
  20
99.981522
  0
VERTEX
  5
f93
  8
Layer_0
  10
53.58197
  20
100.18433
  0
VERTEX
  5
f94
  8
Layer_0
  10
53.441803
  20
100.47552
  0
VERTEX
  5
f95
  8
Layer_0
  10
53.270172
  20
100.84209
  0
VERTEX
  5
f96
  8
Layer_0
  10
53.106415
  20
101.21219
  0
VERTEX
  5
f97
  8
Layer_0
  10
52.950775
  20
101.58554
  0
VERTEX
  5
f98
  8
Layer_0
  10
52.803009
  20
101.9624
  0
VERTEX
  5
f99
  8
Layer_0
  10
52.727631
  20
102.1644
  0
VERTEX
  5
f9a
  8
Layer_0
  10
52.615387
  20
102.4705
  0
VERTEX
  5
f9b
  8
Layer_0
  10
52.480103
  20
102.85199
  0
VERTEX
  5
f9c
  8
Layer_0
  10
52.352936
  20
103.23618
  0
VERTEX
  5
f9d
  8
Layer_0
  10
52.234192
  20
103.62308
  0
VERTEX
  5
f9e
  8
Layer_0
  10
52.12384
  20
104.01242
  0
VERTEX
  5
f9f
  8
Layer_0
  10
52.052521
  20
104.28194
  0
VERTEX
  5
fa0
  8
Layer_0
  10
51.970642
  20
104.60132
  0
VERTEX
  5
fa1
  8
Layer_0
  10
51.87439
  20
104.99446
  0
VERTEX
  5
fa2
  8
Layer_0
  10
51.78656
  20
105.3895
  0
VERTEX
  5
fa3
  8
Layer_0
  10
51.707092
  20
105.78644
  0
VERTEX
  5
fa4
  8
Layer_0
  10
51.636353
  20
106.18472
  0
VERTEX
  5
fa5
  8
Layer_0
  10
51.59729
  20
106.42929
  0
VERTEX
  5
fa6
  8
Layer_0
  10
51.5466
  20
106.76007
  0
VERTEX
  5
fa7
  8
Layer_0
  10
51.489655
  20
107.1608
  0
VERTEX
  5
fa8
  8
Layer_0
  10
51.441132
  20
107.56262
  0
VERTEX
  5
fa9
  8
Layer_0
  10
51.401276
  20
107.96524
  0
VERTEX
  5
faa
  8
Layer_0
  10
51.370087
  20
108.36896
  0
VERTEX
  5
fab
  8
Layer_0
  10
51.352203
  20
108.67479
  0
VERTEX
  5
fac
  8
Layer_0
  10
51.335114
  20
109.01534
  0
VERTEX
  5
fad
  8
Layer_0
  10
51.319397
  20
109.41959
  0
VERTEX
  5
fae
  8
Layer_0
  10
51.312073
  20
109.82439
  0
VERTEX
  5
faf
  8
Layer_0
  10
51.313416
  20
110.22891
  0
VERTEX
  5
fb0
  8
Layer_0
  10
51.323456
  20
110.63371
  0
VERTEX
  5
fb1
  8
Layer_0
  10
51.335114
  20
110.90675
  0
VERTEX
  5
fb2
  8
Layer_0
  10
51.352203
  20
111.24728
  0
VERTEX
  5
fb3
  8
Layer_0
  10
51.376862
  20
111.65128
  0
VERTEX
  5
fb4
  8
Layer_0
  10
51.410217
  20
112.05472
  0
VERTEX
  5
fb5
  8
Layer_0
  10
51.451965
  20
112.45735
  0
VERTEX
  5
fb6
  8
Layer_0
  10
51.502686
  20
112.85889
  0
VERTEX
  5
fb7
  8
Layer_0
  10
51.5466
  20
113.16202
  0
VERTEX
  5
fb8
  8
Layer_0
  10
51.59729
  20
113.4928
  0
VERTEX
  5
fb9
  8
Layer_0
  10
51.662903
  20
113.89217
  0
VERTEX
  5
fba
  8
Layer_0
  10
51.736938
  20
114.28992
  0
VERTEX
  5
fbb
  8
Layer_0
  10
51.819611
  20
114.68631
  0
VERTEX
  5
fbc
  8
Layer_0
  10
51.910736
  20
115.08054
  0
VERTEX
  5
fbd
  8
Layer_0
  10
51.970642
  20
115.32076
  0
VERTEX
  5
fbe
  8
Layer_0
  10
52.052521
  20
115.64015
  0
VERTEX
  5
fbf
  8
Layer_0
  10
52.157196
  20
116.03113
  0
VERTEX
  5
fc0
  8
Layer_0
  10
52.270233
  20
116.41965
  0
VERTEX
  5
fc1
  8
Layer_0
  10
52.391724
  20
116.80574
  0
VERTEX
  5
fc2
  8
Layer_0
  10
52.521301
  20
117.18912
  0
VERTEX
  5
fc3
  8
Layer_0
  10
52.615387
  20
117.45158
  0
VERTEX
  5
fc4
  8
Layer_0
  10
52.727631
  20
117.75769
  0
VERTEX
  5
fc5
  8
Layer_0
  10
52.871063
  20
118.13618
  0
VERTEX
  5
fc6
  8
Layer_0
  10
53.022369
  20
118.51143
  0
VERTEX
  5
fc7
  8
Layer_0
  10
53.182068
  20
118.88342
  0
VERTEX
  5
fc8
  8
Layer_0
  10
53.349335
  20
119.25189
  0
VERTEX
  5
fc9
  8
Layer_0
  10
53.441803
  20
119.44656
  0
VERTEX
  5
fca
  8
Layer_0
  10
53.58197
  20
119.73775
  0
VERTEX
  5
fcb
  8
Layer_0
  10
53.761475
  20
120.10052
  0
VERTEX
  5
fcc
  8
Layer_0
  10
53.948547
  20
120.4595
  0
VERTEX
  5
fcd
  8
Layer_0
  10
54.143494
  20
120.81415
  0
VERTEX
  5
fce
  8
Layer_0
  10
54.345764
  20
121.16472
  0
VERTEX
  5
fcf
  8
Layer_0
  10
54.462067
  20
121.35831
  0
VERTEX
  5
fd0
  8
Layer_0
  10
54.629089
  20
121.63297
  0
VERTEX
  5
fd1
  8
Layer_0
  10
54.843018
  20
121.97649
  0
VERTEX
  5
fd2
  8
Layer_0
  10
55.06424
  20
122.31538
  0
VERTEX
  5
fd3
  8
Layer_0
  10
55.292816
  20
122.64943
  0
VERTEX
  5
fd4
  8
Layer_0
  10
55.637421
  20
123.12581
  0
VERTEX
  5
fd5
  8
Layer_0
  10
55.829102
  20
123.38231
  0
VERTEX
  5
fd6
  8
Layer_0
  10
56.074768
  20
123.70387
  0
VERTEX
  5
fd7
  8
Layer_0
  10
56.327454
  20
124.02
  0
VERTEX
  5
fd8
  8
Layer_0
  10
56.586639
  20
124.3307
  0
VERTEX
  5
fd9
  8
Layer_0
  10
56.977081
  20
124.77428
  0
VERTEX
  5
fda
  8
Layer_0
  10
57.192078
  20
125.01097
  0
VERTEX
  5
fdb
  8
Layer_0
  10
57.467285
  20
125.3076
  0
VERTEX
  5
fdc
  8
Layer_0
  10
57.748993
  20
125.59825
  0
VERTEX
  5
fdd
  8
Layer_0
  10
58.036652
  20
125.88295
  0
VERTEX
  5
fde
  8
Layer_0
  10
58.472626
  20
126.29152
  0
VERTEX
  5
fdf
  8
Layer_0
  10
58.70932
  20
126.50655
  0
VERTEX
  5
fe0
  8
Layer_0
  10
59.011932
  20
126.7755
  0
VERTEX
  5
fe1
  8
Layer_0
  10
59.319916
  20
127.03795
  0
VERTEX
  5
fe2
  8
Layer_0
  10
59.633606
  20
127.29362
  0
VERTEX
  5
fe3
  8
Layer_0
  10
60.093719
  20
127.64882
  0
VERTEX
  5
fe4
  8
Layer_0
  10
60.349945
  20
127.8405
  0
VERTEX
  5
fe5
  8
Layer_0
  10
60.676666
  20
128.07936
  0
VERTEX
  5
fe6
  8
Layer_0
  10
61.00824
  20
128.31145
  0
VERTEX
  5
fe7
  8
Layer_0
  10
61.344727
  20
128.53624
  0
VERTEX
  5
fe8
  8
Layer_0
  10
61.857422
  20
128.85887
  0
VERTEX
  5
fe9
  8
Layer_0
  10
62.132355
  20
129.02589
  0
VERTEX
  5
fea
  8
Layer_0
  10
62.480499
  20
129.2325
  0
VERTEX
  5
feb
  8
Layer_0
  10
62.832977
  20
129.43123
  0
VERTEX
  5
fec
  8
Layer_0
  10
63.189789
  20
129.62263
  0
VERTEX
  5
fed
  8
Layer_0
  10
63.550385
  20
129.8062
  0
VERTEX
  5
fee
  8
Layer_0
  10
63.74585
  20
129.90163
  0
VERTEX
  5
fef
  8
Layer_0
  10
64.037048
  20
130.04182
  0
VERTEX
  5
ff0
  8
Layer_0
  10
64.403625
  20
130.21346
  0
VERTEX
  5
ff1
  8
Layer_0
  10
64.773712
  20
130.37721
  0
VERTEX
  5
ff2
  8
Layer_0
  10
65.147064
  20
130.53282
  0
VERTEX
  5
ff3
  8
Layer_0
  10
65.523956
  20
130.68059
  0
VERTEX
  5
ff4
  8
Layer_0
  10
65.725922
  20
130.75597
  0
VERTEX
  5
ff5
  8
Layer_0
  10
66.032043
  20
130.86821
  0
VERTEX
  5
ff6
  8
Layer_0
  10
66.413513
  20
131.00352
  0
VERTEX
  5
ff7
  8
Layer_0
  10
66.797729
  20
131.13069
  0
VERTEX
  5
ff8
  8
Layer_0
  10
67.184631
  20
131.24944
  0
VERTEX
  5
ff9
  8
Layer_0
  10
67.573975
  20
131.35979
  0
VERTEX
  5
ffa
  8
Layer_0
  10
67.839661
  20
131.43001
  0
VERTEX
  5
ffb
  8
Layer_0
  10
68.158783
  20
131.51189
  0
VERTEX
  5
ffc
  8
Layer_0
  10
68.551941
  20
131.60841
  0
VERTEX
  5
ffd
  8
Layer_0
  10
68.94696
  20
131.69624
  0
VERTEX
  5
ffe
  8
Layer_0
  10
69.343903
  20
131.77571
  0
VERTEX
  5
fff
  8
Layer_0
  10
69.742188
  20
131.84673
  0
VERTEX
  5
1000
  8
Layer_0
  10
69.992981
  20
131.88658
  0
VERTEX
  5
1001
  8
Layer_0
  10
70.324036
  20
131.9373
  0
VERTEX
  5
1002
  8
Layer_0
  10
70.724518
  20
131.99449
  0
VERTEX
  5
1003
  8
Layer_0
  10
71.126312
  20
132.04277
  0
VERTEX
  5
1004
  8
Layer_0
  10
71.529236
  20
132.08263
  0
VERTEX
  5
1005
  8
Layer_0
  10
71.932678
  20
132.11354
  0
VERTEX
  5
1006
  8
Layer_0
  10
72.236328
  20
132.13142
  0
VERTEX
  5
1007
  8
Layer_0
  10
72.576874
  20
132.14851
  0
VERTEX
  5
1008
  8
Layer_0
  10
72.98114
  20
132.16423
  0
VERTEX
  5
1009
  8
Layer_0
  10
73.385925
  20
132.17155
  0
VERTEX
  5
100a
  8
Layer_0
  10
73.790466
  20
132.17018
  0
VERTEX
  5
100b
  8
Layer_0
  10
74.195251
  20
132.16017
  0
VERTEX
  5
100c
  8
Layer_0
  10
74.468292
  20
132.14851
  0
VERTEX
  5
100d
  8
Layer_0
  10
74.808807
  20
132.13142
  0
VERTEX
  5
100e
  8
Layer_0
  10
75.212799
  20
132.10674
  0
VERTEX
  5
100f
  8
Layer_0
  10
75.616241
  20
132.07341
  0
VERTEX
  5
1010
  8
Layer_0
  10
76.01889
  20
132.03163
  0
VERTEX
  5
1011
  8
Layer_0
  10
76.42041
  20
131.98094
  0
VERTEX
  5
1012
  8
Layer_0
  10
76.723541
  20
131.93703
  0
VERTEX
  5
1013
  8
Layer_0
  10
77.054321
  20
131.88631
  0
VERTEX
  5
1014
  8
Layer_0
  10
77.453705
  20
131.82069
  0
VERTEX
  5
1015
  8
Layer_0
  10
77.85144
  20
131.74669
  0
VERTEX
  5
1016
  8
Layer_0
  10
78.247833
  20
131.66399
  0
VERTEX
  5
1017
  8
Layer_0
  10
78.642059
  20
131.57289
  0
VERTEX
  5
1018
  8
Layer_0
  10
78.882294
  20
131.51299
  0
VERTEX
  5
1019
  8
Layer_0
  10
79.201691
  20
131.43111
  0
VERTEX
  5
101a
  8
Layer_0
  10
79.592651
  20
131.32643
  0
VERTEX
  5
101b
  8
Layer_0
  10
79.981201
  20
131.21336
  0
VERTEX
  5
101c
  8
Layer_0
  10
80.367279
  20
131.0919
  0
VERTEX
  5
101d
  8
Layer_0
  10
80.750671
  20
130.9623
  0
VERTEX
  5
101e
  8
Layer_0
  10
81.013123
  20
130.86821
  0
VERTEX
  5
101f
  8
Layer_0
  10
81.319214
  20
130.75597
  0
VERTEX
  5
1020
  8
Layer_0
  10
81.697723
  20
130.61253
  0
VERTEX
  5
1021
  8
Layer_0
  10
82.072968
  20
130.46126
  0
VERTEX
  5
1022
  8
Layer_0
  10
82.444946
  20
130.30156
  0
VERTEX
  5
1023
  8
Layer_0
  10
82.813416
  20
130.13426
  0
VERTEX
  5
1024
  8
Layer_0
  10
83.008087
  20
130.04182
  0
VERTEX
  5
1025
  8
Layer_0
  10
83.299286
  20
129.90163
  0
VERTEX
  5
1026
  8
Layer_0
  10
83.662048
  20
129.72215
  0
VERTEX
  5
1027
  8
Layer_0
  10
84.021027
  20
129.53508
  0
VERTEX
  5
1028
  8
Layer_0
  10
84.375671
  20
129.34013
  0
VERTEX
  5
1029
  8
Layer_0
  10
84.726257
  20
129.13786
  0
VERTEX
  5
102a
  8
Layer_0
  10
84.91983
  20
129.02156
  0
VERTEX
  5
102b
  8
Layer_0
  10
85.194489
  20
128.85454
  0
VERTEX
  5
102c
  8
Layer_0
  10
85.538025
  20
128.64061
  0
VERTEX
  5
102d
  8
Layer_0
  10
85.876923
  20
128.41936
  0
VERTEX
  5
102e
  8
Layer_0
  10
86.210968
  20
128.19081
  0
VERTEX
  5
102f
  8
Layer_0
  10
86.687347
  20
127.84621
  0
VERTEX
  5
1030
  8
Layer_0
  10
86.943817
  20
127.6545
  0
VERTEX
  5
1031
  8
Layer_0
  10
87.265381
  20
127.40886
  0
VERTEX
  5
1032
  8
Layer_0
  10
87.581543
  20
127.15617
  0
VERTEX
  5
1033
  8
Layer_0
  10
87.892242
  20
126.89696
  0
VERTEX
  5
1034
  8
Layer_0
  10
88.335815
  20
126.50655
  0
VERTEX
  5
1035
  8
Layer_0
  10
88.57251
  20
126.29152
  0
VERTEX
  5
1036
  8
Layer_0
  10
88.869141
  20
126.01634
  0
VERTEX
  5
1037
  8
Layer_0
  10
89.15979
  20
125.73463
  0
VERTEX
  5
1038
  8
Layer_0
  10
89.444489
  20
125.44695
  0
VERTEX
  5
1039
  8
Layer_0
  10
89.853058
  20
125.01097
  0
VERTEX
  5
103a
  8
Layer_0
  10
90.068085
  20
124.77428
  0
VERTEX
  5
103b
  8
Layer_0
  10
90.337036
  20
124.47169
  0
VERTEX
  5
103c
  8
Layer_0
  10
90.599487
  20
124.16368
  0
VERTEX
  5
103d
  8
Layer_0
  10
90.855164
  20
123.84999
  0
VERTEX
  5
103e
  8
Layer_0
  10
91.216034
  20
123.38231
  0
VERTEX
  5
103f
  8
Layer_0
  10
91.407745
  20
123.12581
  0
VERTEX
  5
1040
  8
Layer_0
  10
91.646606
  20
122.79909
  0
VERTEX
  5
1041
  8
Layer_0
  10
91.878418
  20
122.46724
  0
VERTEX
  5
1042
  8
Layer_0
  10
92.102905
  20
122.13048
  0
VERTEX
  5
1043
  8
Layer_0
  10
92.416077
  20
121.63297
  0
VERTEX
  5
1044
  8
Layer_0
  10
92.583099
  20
121.35831
  0
VERTEX
  5
1045
  8
Layer_0
  10
92.789673
  20
121.01018
  0
VERTEX
  5
1046
  8
Layer_0
  10
92.988708
  20
120.65797
  0
VERTEX
  5
1047
  8
Layer_0
  10
93.180389
  20
120.30116
  0
VERTEX
  5
1048
  8
Layer_0
  10
93.363953
  20
119.94057
  0
VERTEX
  5
1049
  8
Layer_0
  10
93.463165
  20
119.73775
  0
VERTEX
  5
104a
  8
Layer_0
  10
93.603363
  20
119.44656
  0
VERTEX
  5
104b
  8
Layer_0
  10
93.774963
  20
119.07999
  0
VERTEX
  5
104c
  8
Layer_0
  10
93.938751
  20
118.7099
  0
VERTEX
  5
104d
  8
Layer_0
  10
94.09436
  20
118.33655
  0
VERTEX
  5
104e
  8
Layer_0
  10
94.242126
  20
117.95967
  0
VERTEX
  5
104f
  8
Layer_0
  10
94.322662
  20
117.74385
  0
VERTEX
  5
1050
  8
Layer_0
  10
94.434631
  20
117.43774
  0
VERTEX
  5
1051
  8
Layer_0
  10
94.569672
  20
117.05627
  0
VERTEX
  5
1052
  8
Layer_0
  10
94.696289
  20
116.6718
  0
VERTEX
  5
1053
  8
Layer_0
  10
94.814758
  20
116.2849
  0
VERTEX
  5
1054
  8
Layer_0
  10
94.924835
  20
115.89528
  0
VERTEX
  5
1055
  8
Layer_0
  10
94.988556
  20
115.65479
  0
VERTEX
  5
1056
  8
Layer_0
  10
95.070709
  20
115.3354
  0
VERTEX
  5
1057
  8
Layer_0
  10
95.167236
  20
114.94226
  0
VERTEX
  5
1058
  8
Layer_0
  10
95.255341
  20
114.54723
  0
VERTEX
  5
1059
  8
Layer_0
  10
95.335052
  20
114.15056
  0
VERTEX
  5
105a
  8
Layer_0
  10
95.406372
  20
113.752
  0
VERTEX
  5
105b
  8
Layer_0
  10
95.450287
  20
113.47787
  0
VERTEX
  5
105c
  8
Layer_0
  10
95.500732
  20
113.14709
  0
VERTEX
  5
105d
  8
Layer_0
  10
95.557404
  20
112.74637
  0
VERTEX
  5
105e
  8
Layer_0
  10
95.605377
  20
112.34456
  0
VERTEX
  5
105f
  8
Layer_0
  10
95.644958
  20
111.94165
  0
VERTEX
  5
1060
  8
Layer_0
  10
95.675598
  20
111.53821
  0
VERTEX
  5
1061
  8
Layer_0
  10
95.691864
  20
111.26247
  0
VERTEX
  5
1062
  8
Layer_0
  10
95.709229
  20
110.92194
  0
VERTEX
  5
1063
  8
Layer_0
  10
95.725494
  20
110.5174
  0
VERTEX
  5
1064
  8
Layer_0
  10
95.733093
  20
110.11287
  0
VERTEX
  5
1065
  8
Layer_0
  10
95.731995
  20
109.70807
  0
VERTEX
  5
1066
  8
Layer_0
  10
95.722229
  20
109.30354
  0
VERTEX
  5
1067
  8
Layer_0
  10
95.709229
  20
109.00015
  0
VERTEX
  5
1068
  8
Layer_0
  10
95.691864
  20
108.65961
  0
VERTEX
  5
1069
  8
Layer_0
  10
95.666931
  20
108.25591
  0
VERTEX
  5
106a
  8
Layer_0
  10
95.633301
  20
107.85246
  0
VERTEX
  5
106b
  8
Layer_0
  10
95.591003
  20
107.44983
  0
VERTEX
  5
106c
  8
Layer_0
  10
95.540314
  20
107.04855
  0
VERTEX
  5
106d
  8
Layer_0
  10
95.500732
  20
106.77498
  0
VERTEX
  5
106e
  8
Layer_0
  10
95.450287
  20
106.4442
  0
VERTEX
  5
106f
  8
Layer_0
  10
95.384949
  20
106.04483
  0
VERTEX
  5
1070
  8
Layer_0
  10
95.311218
  20
105.6468
  0
VERTEX
  5
1071
  8
Layer_0
  10
95.22879
  20
105.25069
  0
VERTEX
  5
1072
  8
Layer_0
  10
95.137939
  20
104.85619
  0
VERTEX
  5
1073
  8
Layer_0
  10
95.070709
  20
104.58669
  0
VERTEX
  5
1074
  8
Layer_0
  10
94.988556
  20
104.26729
  0
VERTEX
  5
1075
  8
Layer_0
  10
94.883636
  20
103.87659
  0
VERTEX
  5
1076
  8
Layer_0
  10
94.77002
  20
103.48807
  0
VERTEX
  5
1077
  8
Layer_0
  10
94.64856
  20
103.10197
  0
VERTEX
  5
1078
  8
Layer_0
  10
94.518677
  20
102.7186
  0
VERTEX
  5
1079
  8
Layer_0
  10
94.434631
  20
102.48433
  0
VERTEX
  5
107a
  8
Layer_0
  10
94.322662
  20
102.17822
  0
VERTEX
  5
107b
  8
Layer_0
  10
94.179504
  20
101.79973
  0
VERTEX
  5
107c
  8
Layer_0
  10
94.028229
  20
101.42421
  0
VERTEX
  5
107d
  8
Layer_0
  10
93.869049
  20
101.05222
  0
VERTEX
  5
107e
  8
Layer_0
  10
93.702057
  20
100.68349
  0
VERTEX
  5
107f
  8
Layer_0
  10
93.603363
  20
100.47552
  0
VERTEX
  5
1080
  8
Layer_0
  10
93.463165
  20
100.18433
  0
VERTEX
  5
1081
  8
Layer_0
  10
93.283691
  20
99.821548
  0
VERTEX
  5
1082
  8
Layer_0
  10
93.096619
  20
99.462585
  0
VERTEX
  5
1083
  8
Layer_0
  10
92.901672
  20
99.107941
  0
VERTEX
  5
1084
  8
Layer_0
  10
92.699402
  20
98.75737
  0
VERTEX
  5
1085
  8
Layer_0
  10
92.583099
  20
98.563782
  0
VERTEX
  5
1086
  8
Layer_0
  10
92.416077
  20
98.289124
  0
VERTEX
  5
1087
  8
Layer_0
  10
92.202148
  20
97.945602
  0
VERTEX
  5
1088
  8
Layer_0
  10
91.980896
  20
97.606689
  0
VERTEX
  5
1089
  8
Layer_0
  10
91.75235
  20
97.272659
  0
VERTEX
  5
108a
  8
Layer_0
  10
91.407745
  20
96.79628
  0
VERTEX
  5
108b
  8
Layer_0
  10
91.216034
  20
96.53978
  0
VERTEX
  5
108c
  8
Layer_0
  10
90.970398
  20
96.218231
  0
VERTEX
  5
108d
  8
Layer_0
  10
90.717712
  20
95.902084
  0
VERTEX
  5
108e
  8
Layer_0
  10
90.458496
  20
95.59137
  0
VERTEX
  5
108f
  8
Layer_0
  10
90.068085
  20
95.147797
  0
VERTEX
  5
1090
  8
Layer_0
  10
89.853058
  20
94.911102
  0
VERTEX
  5
1091
  8
Layer_0
  10
89.577881
  20
94.614487
  0
VERTEX
  5
1092
  8
Layer_0
  10
89.296173
  20
94.323837
  0
VERTEX
  5
1093
  8
Layer_0
  10
89.008484
  20
94.039139
  0
VERTEX
  5
1094
  8
Layer_0
  10
88.57251
  20
93.630554
  0
VERTEX
  5
1095
  8
Layer_0
  10
88.335815
  20
93.415543
  0
VERTEX
  5
1096
  8
Layer_0
  10
88.033234
  20
93.146576
  0
VERTEX
  5
1097
  8
Layer_0
  10
87.72522
  20
92.884125
  0
VERTEX
  5
1098
  8
Layer_0
  10
87.41153
  20
92.628448
  0
VERTEX
  5
1099
  8
Layer_0
  10
86.943817
  20
92.267578
  0
VERTEX
  5
109a
  8
Layer_0
  10
86.687347
  20
92.075882
  0
VERTEX
  5
109b
  8
Layer_0
  10
86.360626
  20
91.837021
  0
VERTEX
  5
109c
  8
Layer_0
  10
86.028778
  20
91.605209
  0
VERTEX
  5
109d
  8
Layer_0
  10
85.692017
  20
91.380707
  0
VERTEX
  5
109e
  8
Layer_0
  10
85.194489
  20
91.067551
  0
VERTEX
  5
109f
  8
Layer_0
  10
84.91983
  20
90.900528
  0
VERTEX
  5
10a0
  8
Layer_0
  10
84.571716
  20
90.693924
  0
VERTEX
  5
10a1
  8
Layer_0
  10
84.219513
  20
90.494919
  0
VERTEX
  5
10a2
  8
Layer_0
  10
83.862701
  20
90.303238
  0
VERTEX
  5
10a3
  8
Layer_0
  10
83.502106
  20
90.119675
  0
VERTEX
  5
10a4
  8
Layer_0
  10
83.299286
  20
90.020447
  0
VERTEX
  5
10a5
  8
Layer_0
  10
83.008087
  20
89.880264
  0
VERTEX
  5
10a6
  8
Layer_0
  10
82.641541
  20
89.708633
  0
VERTEX
  5
10a7
  8
Layer_0
  10
82.271423
  20
89.544876
  0
VERTEX
  5
10a8
  8
Layer_0
  10
81.898071
  20
89.389252
  0
VERTEX
  5
10a9
  8
Layer_0
  10
81.52121
  20
89.241486
  0
VERTEX
  5
10aa
  8
Layer_0
  10
81.319214
  20
89.166107
  0
VERTEX
  5
10ab
  8
Layer_0
  10
81.013123
  20
89.053864
  0
VERTEX
  5
10ac
  8
Layer_0
  10
80.631622
  20
88.918564
  0
VERTEX
  5
10ad
  8
Layer_0
  10
80.247437
  20
88.791397
  0
VERTEX
  5
10ae
  8
Layer_0
  10
79.860535
  20
88.672653
  0
VERTEX
  5
10af
  8
Layer_0
  10
79.471191
  20
88.562302
  0
VERTEX
  5
10b0
  8
Layer_0
  10
79.201691
  20
88.490997
  0
VERTEX
  5
10b1
  8
Layer_0
  10
78.882294
  20
88.409103
  0
VERTEX
  5
10b2
  8
Layer_0
  10
78.489166
  20
88.312851
  0
VERTEX
  5
10b3
  8
Layer_0
  10
78.094116
  20
88.225006
  0
VERTEX
  5
10b4
  8
Layer_0
  10
77.697174
  20
88.145569
  0
VERTEX
  5
10b5
  8
Layer_0
  10
77.298889
  20
88.074799
  0
VERTEX
  5
10b6
  8
Layer_0
  10
77.039429
  20
88.033325
  0
VERTEX
  5
10b7
  8
Layer_0
  10
76.708649
  20
87.982895
  0
VERTEX
  5
10b8
  8
Layer_0
  10
76.307892
  20
87.926224
  0
VERTEX
  5
10b9
  8
Layer_0
  10
75.906097
  20
87.878235
  0
VERTEX
  5
10ba
  8
Layer_0
  10
75.503174
  20
87.838654
  0
VERTEX
  5
10bb
  8
Layer_0
  10
75.099731
  20
87.808014
  0
VERTEX
  5
10bc
  8
Layer_0
  10
74.824005
  20
87.791748
  0
VERTEX
  5
10bd
  8
Layer_0
  10
74.483459
  20
87.774399
  0
VERTEX
  5
10be
  8
Layer_0
  10
74.078949
  20
87.758118
  0
VERTEX
  5
10bf
  8
Layer_0
  10
73.674408
  20
87.750534
  0
VERTEX
  5
10c0
  8
Layer_0
  10
73.269623
  20
87.751617
  0
SEQEND
  0
POLYLINE
  5
10c2
  8
Layer_0
  62
0
  66
1
  10
0
  20
0
  30
0
  0
VERTEX
  5
10c2
  8
Layer_0
  10
18.559484
  20
308.85199
  42
-0.41421356
  0
VERTEX
  5
10c3
  8
Layer_0
  10
21.891142
  20
305.52032
  0
VERTEX
  5
10c4
  8
Layer_0
  10
21.891148
  20
192.24396
  42
-0.41421356
  0
VERTEX
  5
10c5
  8
Layer_0
  10
18.55949
  20
188.91231
  0
VERTEX
  5
10c6
  8
Layer_0
  10
13.198687
  20
188.91231
  42
-0.41421356
  0
VERTEX
  5
10c7
  8
Layer_0
  10
9.8670292
  20
192.24396
  0
VERTEX
  5
10c8
  8
Layer_0
  10
9.8670244
  20
305.52032
  42
-0.41421356
  0
VERTEX
  5
10c9
  8
Layer_0
  10
13.198682
  20
308.85199
  0
VERTEX
  5
10ca
  8
Layer_0
  10
18.559484
  20
308.85199
  0
SEQEND
  0
POLYLINE
  5
10cc
  8
Layer_0
  62
0
  66
1
  10
0
  20
0
  30
0
  0
VERTEX
  5
10cc
  8
Layer_0
  10
51.088642
  20
259.13657
  42
-0.41421356
  0
VERTEX
  5
10cd
  8
Layer_0
  10
52.199196
  20
258.02603
  0
VERTEX
  5
10ce
  8
Layer_0
  10
52.199196
  20
251.3627
  42
-0.41421356
  0
VERTEX
  5
10cf
  8
Layer_0
  10
51.088642
  20
250.25215
  0
VERTEX
  5
10d0
  8
Layer_0
  10
44.425327
  20
250.25215
  42
-0.41421356
  0
VERTEX
  5
10d1
  8
Layer_0
  10
43.314774
  20
251.3627
  0
VERTEX
  5
10d2
  8
Layer_0
  10
43.314774
  20
258.02603
  42
-0.41421356
  0
VERTEX
  5
10d3
  8
Layer_0
  10
44.425327
  20
259.13657
  0
VERTEX
  5
10d4
  8
Layer_0
  10
51.088642
  20
259.13657
  0
SEQEND
  0
POLYLINE
  5
10d6
  8
Layer_0
  62
0
  66
1
  10
0
  20
0
  30
0
  0
VERTEX
  5
10d6
  8
Layer_0
  10
51.088638
  20
279.12656
  42
-0.41421356
  0
VERTEX
  5
10d7
  8
Layer_0
  10
52.199192
  20
278.01602
  0
VERTEX
  5
10d8
  8
Layer_0
  10
52.199192
  20
271.35269
  42
-0.41421356
  0
VERTEX
  5
10d9
  8
Layer_0
  10
51.088638
  20
270.24216
  0
VERTEX
  5
10da
  8
Layer_0
  10
44.425323
  20
270.24216
  42
-0.41421356
  0
VERTEX
  5
10db
  8
Layer_0
  10
43.31477
  20
271.35269
  0
VERTEX
  5
10dc
  8
Layer_0
  10
43.31477
  20
278.01602
  42
-0.41421356
  0
VERTEX
  5
10dd
  8
Layer_0
  10
44.425323
  20
279.12656
  0
VERTEX
  5
10de
  8
Layer_0
  10
51.088638
  20
279.12656
  0
SEQEND
  0
POLYLINE
  5
10e0
  8
Layer_0
  62
0
  66
1
  10
0
  20
0
  30
0
  0
VERTEX
  5
10e0
  8
Layer_0
  10
51.088638
  20
299.11642
  42
-0.41421356
  0
VERTEX
  5
10e1
  8
Layer_0
  10
52.199192
  20
298.00589
  0
VERTEX
  5
10e2
  8
Layer_0
  10
52.199192
  20
291.34256
  42
-0.41421356
  0
VERTEX
  5
10e3
  8
Layer_0
  10
51.088638
  20
290.23203
  0
VERTEX
  5
10e4
  8
Layer_0
  10
44.425323
  20
290.23203
  42
-0.41421356
  0
VERTEX
  5
10e5
  8
Layer_0
  10
43.31477
  20
291.34256
  0
VERTEX
  5
10e6
  8
Layer_0
  10
43.31477
  20
298.00589
  42
-0.41421356
  0
VERTEX
  5
10e7
  8
Layer_0
  10
44.425323
  20
299.11642
  0
VERTEX
  5
10e8
  8
Layer_0
  10
51.088638
  20
299.11642
  0
SEQEND
  0
POLYLINE
  5
10ea
  8
Layer_0
  62
0
  66
1
  10
0
  20
0
  30
0
  0
VERTEX
  5
10ea
  8
Layer_0
  10
30.583593
  20
308.85199
  42
-0.41421356
  0
VERTEX
  5
10eb
  8
Layer_0
  10
33.915253
  20
305.52032
  0
VERTEX
  5
10ec
  8
Layer_0
  10
33.915257
  20
192.24396
  42
-0.41421356
  0
VERTEX
  5
10ed
  8
Layer_0
  10
30.583599
  20
188.91231
  0
VERTEX
  5
10ee
  8
Layer_0
  10
25.222795
  20
188.91231
  42
-0.41421356
  0
VERTEX
  5
10ef
  8
Layer_0
  10
21.891138
  20
192.24396
  0
VERTEX
  5
10f0
  8
Layer_0
  10
21.891132
  20
305.52032
  42
-0.41421356
  0
VERTEX
  5
10f1
  8
Layer_0
  10
25.22279
  20
308.85199
  0
VERTEX
  5
10f2
  8
Layer_0
  10
30.583593
  20
308.85199
  0
SEQEND
  0
POLYLINE
  5
10f4
  8
Layer_0
  62
0
  66
1
  10
0
  20
0
  30
0
  0
VERTEX
  5
10f4
  8
Layer_0
  10
234.52274
  20
270.63232
  0
VERTEX
  5
10f5
  8
Layer_0
  10
234.92728
  20
270.64209
  0
VERTEX
  5
10f6
  8
Layer_0
  10
235.23068
  20
270.65509
  0
VERTEX
  5
10f7
  8
Layer_0
  10
235.5712
  20
270.67245
  0
VERTEX
  5
10f8
  8
Layer_0
  10
235.97491
  20
270.69739
  0
VERTEX
  5
10f9
  8
Layer_0
  10
236.37836
  20
270.73102
  0
VERTEX
  5
10fa
  8
Layer_0
  10
236.78101
  20
270.77332
  0
VERTEX
  5
10fb
  8
Layer_0
  10
237.18228
  20
270.82404
  0
VERTEX
  5
10fc
  8
Layer_0
  10
237.4534
  20
270.86334
  0
VERTEX
  5
10fd
  8
Layer_0
  10
237.78445
  20
270.91376
  0
VERTEX
  5
10fe
  8
Layer_0
  10
238.18411
  20
270.9791
  0
VERTEX
  5
10ff
  8
Layer_0
  10
238.58185
  20
271.05286
  0
VERTEX
  5
1100
  8
Layer_0
  10
238.97824
  20
271.13501
  0
VERTEX
  5
1101
  8
Layer_0
  10
239.37247
  20
271.22583
  0
VERTEX
  5
1102
  8
Layer_0
  10
239.63358
  20
271.29089
  0
VERTEX
  5
1103
  8
Layer_0
  10
239.9527
  20
271.3728
  0
VERTEX
  5
1104
  8
Layer_0
  10
240.34366
  20
271.47742
  0
VERTEX
  5
1105
  8
Layer_0
  10
240.73218
  20
271.59076
  0
VERTEX
  5
1106
  8
Layer_0
  10
241.11829
  20
271.71198
  0
VERTEX
  5
1107
  8
Layer_0
  10
241.50165
  20
271.84186
  0
VERTEX
  5
1108
  8
Layer_0
  10
241.76031
  20
271.93457
  0
VERTEX
  5
1109
  8
Layer_0
  10
242.06644
  20
272.04681
  0
VERTEX
  5
110a
  8
Layer_0
  10
242.44492
  20
272.19025
  0
VERTEX
  5
110b
  8
Layer_0
  10
242.82016
  20
272.34155
  0
VERTEX
  5
110c
  8
Layer_0
  10
243.19217
  20
272.50122
  0
VERTEX
  5
110d
  8
Layer_0
  10
243.56064
  20
272.66852
  0
VERTEX
  5
110e
  8
Layer_0
  10
243.75531
  20
272.76099
  0
VERTEX
  5
110f
  8
Layer_0
  10
244.04651
  20
272.90115
  0
VERTEX
  5
1110
  8
Layer_0
  10
244.40927
  20
273.08063
  0
VERTEX
  5
1111
  8
Layer_0
  10
244.76825
  20
273.2677
  0
VERTEX
  5
1112
  8
Layer_0
  10
245.12289
  20
273.46265
  0
VERTEX
  5
1113
  8
Layer_0
  10
245.47345
  20
273.66492
  0
VERTEX
  5
1114
  8
Layer_0
  10
245.66
  20
273.77692
  0
VERTEX
  5
1115
  8
Layer_0
  10
245.93494
  20
273.94391
  0
VERTEX
  5
1116
  8
Layer_0
  10
246.27844
  20
274.15756
  0
VERTEX
  5
1117
  8
Layer_0
  10
246.61737
  20
274.37881
  0
VERTEX
  5
1118
  8
Layer_0
  10
246.95166
  20
274.60712
  0
VERTEX
  5
1119
  8
Layer_0
  10
247.44241
  20
274.96228
  0
VERTEX
  5
111a
  8
Layer_0
  10
247.69864
  20
275.15399
  0
VERTEX
  5
111b
  8
Layer_0
  10
248.0202
  20
275.3999
  0
VERTEX
  5
111c
  8
Layer_0
  10
248.33633
  20
275.65259
  0
VERTEX
  5
111d
  8
Layer_0
  10
248.64676
  20
275.91205
  0
VERTEX
  5
111e
  8
Layer_0
  10
249.08304
  20
276.29626
  0
VERTEX
  5
111f
  8
Layer_0
  10
249.31973
  20
276.51126
  0
VERTEX
  5
1120
  8
Layer_0
  10
249.61633
  20
276.78644
  0
VERTEX
  5
1121
  8
Layer_0
  10
249.90698
  20
277.06818
  0
VERTEX
  5
1122
  8
Layer_0
  10
250.19168
  20
277.35583
  0
VERTEX
  5
1123
  8
Layer_0
  10
250.60028
  20
277.79181
  0
VERTEX
  5
1124
  8
Layer_0
  10
250.81528
  20
278.0285
  0
VERTEX
  5
1125
  8
Layer_0
  10
251.08423
  20
278.33109
  0
VERTEX
  5
1126
  8
Layer_0
  10
251.34671
  20
278.6391
  0
VERTEX
  5
1127
  8
Layer_0
  10
251.60239
  20
278.95279
  0
VERTEX
  5
1128
  8
Layer_0
  10
251.96326
  20
279.42047
  0
VERTEX
  5
1129
  8
Layer_0
  10
252.15494
  20
279.677
  0
VERTEX
  5
112a
  8
Layer_0
  10
252.3938
  20
280.00369
  0
VERTEX
  5
112b
  8
Layer_0
  10
252.62561
  20
280.33557
  0
VERTEX
  5
112c
  8
Layer_0
  10
252.85013
  20
280.6723
  0
VERTEX
  5
112d
  8
Layer_0
  10
253.16327
  20
281.16983
  0
VERTEX
  5
112e
  8
Layer_0
  10
253.33029
  20
281.44449
  0
VERTEX
  5
112f
  8
Layer_0
  10
253.5369
  20
281.7926
  0
VERTEX
  5
1130
  8
Layer_0
  10
253.7359
  20
282.14484
  0
VERTEX
  5
1131
  8
Layer_0
  10
253.92758
  20
282.50165
  0
VERTEX
  5
1132
  8
Layer_0
  10
254.11115
  20
282.86224
  0
VERTEX
  5
1133
  8
Layer_0
  10
254.21039
  20
283.06503
  0
VERTEX
  5
1134
  8
Layer_0
  10
254.35056
  20
283.35623
  0
VERTEX
  5
1135
  8
Layer_0
  10
254.52219
  20
283.72278
  0
VERTEX
  5
1136
  8
Layer_0
  10
254.68594
  20
284.0929
  0
VERTEX
  5
1137
  8
Layer_0
  10
254.84158
  20
284.46625
  0
VERTEX
  5
1138
  8
Layer_0
  10
254.98935
  20
284.84311
  0
VERTEX
  5
1139
  8
Layer_0
  10
255.06473
  20
285.0451
  0
VERTEX
  5
113a
  8
Layer_0
  10
255.17697
  20
285.3512
  0
VERTEX
  5
113b
  8
Layer_0
  10
255.31226
  20
285.7327
  0
VERTEX
  5
113c
  8
Layer_0
  10
255.43942
  20
286.11688
  0
VERTEX
  5
113d
  8
Layer_0
  10
255.55817
  20
286.50378
  0
VERTEX
  5
113e
  8
Layer_0
  10
255.66852
  20
286.89313
  0
VERTEX
  5
113f
  8
Layer_0
  10
255.73984
  20
287.16266
  0
VERTEX
  5
1140
  8
Layer_0
  10
255.82172
  20
287.48203
  0
VERTEX
  5
1141
  8
Layer_0
  10
255.91797
  20
287.87518
  0
VERTEX
  5
1142
  8
Layer_0
  10
256.0058
  20
288.2702
  0
VERTEX
  5
1143
  8
Layer_0
  10
256.08527
  20
288.66714
  0
VERTEX
  5
1144
  8
Layer_0
  10
256.15601
  20
289.06543
  0
VERTEX
  5
1145
  8
Layer_0
  10
256.19507
  20
289.31
  0
VERTEX
  5
1146
  8
Layer_0
  10
256.24576
  20
289.64078
  0
VERTEX
  5
1147
  8
Layer_0
  10
256.3027
  20
290.0415
  0
VERTEX
  5
1148
  8
Layer_0
  10
256.35123
  20
290.44333
  0
VERTEX
  5
1149
  8
Layer_0
  10
256.39108
  20
290.84595
  0
VERTEX
  5
114a
  8
Layer_0
  10
256.42227
  20
291.24966
  0
VERTEX
  5
114b
  8
Layer_0
  10
256.44016
  20
291.55548
  0
VERTEX
  5
114c
  8
Layer_0
  10
256.45724
  20
291.89606
  0
VERTEX
  5
114d
  8
Layer_0
  10
256.47296
  20
292.30029
  0
VERTEX
  5
114e
  8
Layer_0
  10
256.48029
  20
292.70508
  0
VERTEX
  5
114f
  8
Layer_0
  10
256.47894
  20
293.10962
  0
VERTEX
  5
1150
  8
Layer_0
  10
256.4689
  20
293.5144
  0
VERTEX
  5
1151
  8
Layer_0
  10
256.45724
  20
293.78748
  0
VERTEX
  5
1152
  8
Layer_0
  10
256.44016
  20
294.12799
  0
VERTEX
  5
1153
  8
Layer_0
  10
256.4155
  20
294.53198
  0
VERTEX
  5
1154
  8
Layer_0
  10
256.38214
  20
294.93542
  0
VERTEX
  5
1155
  8
Layer_0
  10
256.34039
  20
295.33807
  0
VERTEX
  5
1156
  8
Layer_0
  10
256.28967
  20
295.73959
  0
VERTEX
  5
1157
  8
Layer_0
  10
256.24576
  20
296.04272
  0
VERTEX
  5
1158
  8
Layer_0
  10
256.19507
  20
296.3735
  0
VERTEX
  5
1159
  8
Layer_0
  10
256.12946
  20
296.77289
  0
VERTEX
  5
115a
  8
Layer_0
  10
256.05542
  20
297.17062
  0
VERTEX
  5
115b
  8
Layer_0
  10
255.97275
  20
297.56702
  0
VERTEX
  5
115c
  8
Layer_0
  10
255.88162
  20
297.96124
  0
VERTEX
  5
115d
  8
Layer_0
  10
255.82172
  20
298.20148
  0
VERTEX
  5
115e
  8
Layer_0
  10
255.73984
  20
298.52087
  0
VERTEX
  5
115f
  8
Layer_0
  10
255.63516
  20
298.91183
  0
VERTEX
  5
1160
  8
Layer_0
  10
255.52213
  20
299.30035
  0
VERTEX
  5
1161
  8
Layer_0
  10
255.40063
  20
299.68646
  0
VERTEX
  5
1162
  8
Layer_0
  10
255.27106
  20
300.06982
  0
VERTEX
  5
1163
  8
Layer_0
  10
255.17697
  20
300.33228
  0
VERTEX
  5
1164
  8
Layer_0
  10
255.06473
  20
300.6384
  0
VERTEX
  5
1165
  8
Layer_0
  10
254.9213
  20
301.01691
  0
VERTEX
  5
1166
  8
Layer_0
  10
254.76999
  20
301.39215
  0
VERTEX
  5
1167
  8
Layer_0
  10
254.61029
  20
301.76413
  0
VERTEX
  5
1168
  8
Layer_0
  10
254.44302
  20
302.1326
  0
VERTEX
  5
1169
  8
Layer_0
  10
254.35056
  20
302.32727
  0
VERTEX
  5
116a
  8
Layer_0
  10
254.21039
  20
302.61847
  0
VERTEX
  5
116b
  8
Layer_0
  10
254.03088
  20
302.98123
  0
VERTEX
  5
116c
  8
Layer_0
  10
253.84381
  20
303.34021
  0
VERTEX
  5
116d
  8
Layer_0
  10
253.64886
  20
303.69485
  0
VERTEX
  5
116e
  8
Layer_0
  10
253.44659
  20
304.04541
  0
VERTEX
  5
116f
  8
Layer_0
  10
253.33029
  20
304.23901
  0
VERTEX
  5
1170
  8
Layer_0
  10
253.16327
  20
304.51367
  0
VERTEX
  5
1171
  8
Layer_0
  10
252.94934
  20
304.85718
  0
VERTEX
  5
1172
  8
Layer_0
  10
252.72812
  20
305.19611
  0
VERTEX
  5
1173
  8
Layer_0
  10
252.49954
  20
305.53015
  0
VERTEX
  5
1174
  8
Layer_0
  10
252.15494
  20
306.00653
  0
VERTEX
  5
1175
  8
Layer_0
  10
251.96326
  20
306.263
  0
VERTEX
  5
1176
  8
Layer_0
  10
251.71759
  20
306.58459
  0
VERTEX
  5
1177
  8
Layer_0
  10
251.4649
  20
306.9007
  0
VERTEX
  5
1178
  8
Layer_0
  10
251.20572
  20
307.21143
  0
VERTEX
  5
1179
  8
Layer_0
  10
250.81528
  20
307.65497
  0
VERTEX
  5
117a
  8
Layer_0
  10
250.60028
  20
307.89166
  0
VERTEX
  5
117b
  8
Layer_0
  10
250.32507
  20
308.18829
  0
VERTEX
  5
117c
  8
Layer_0
  10
250.04337
  20
308.47894
  0
VERTEX
  5
117d
  8
Layer_0
  10
249.75571
  20
308.76367
  0
VERTEX
  5
117e
  8
Layer_0
  10
249.31973
  20
309.17224
  0
VERTEX
  5
117f
  8
Layer_0
  10
249.08304
  20
309.38727
  0
VERTEX
  5
1180
  8
Layer_0
  10
248.78043
  20
309.65619
  0
VERTEX
  5
1181
  8
Layer_0
  10
248.47244
  20
309.91864
  0
VERTEX
  5
1182
  8
Layer_0
  10
248.15875
  20
310.17432
  0
VERTEX
  5
1183
  8
Layer_0
  10
247.69864
  20
310.52954
  0
VERTEX
  5
1184
  8
Layer_0
  10
247.44241
  20
310.72119
  0
VERTEX
  5
1185
  8
Layer_0
  10
247.11569
  20
310.96008
  0
VERTEX
  5
1186
  8
Layer_0
  10
246.78412
  20
311.19214
  0
VERTEX
  5
1187
  8
Layer_0
  10
246.44763
  20
311.41693
  0
VERTEX
  5
1188
  8
Layer_0
  10
245.93494
  20
311.73956
  0
VERTEX
  5
1189
  8
Layer_0
  10
245.66
  20
311.90662
  0
VERTEX
  5
118a
  8
Layer_0
  10
245.31186
  20
312.11322
  0
VERTEX
  5
118b
  8
Layer_0
  10
244.95938
  20
312.31195
  0
VERTEX
  5
118c
  8
Layer_0
  10
244.60257
  20
312.50336
  0
VERTEX
  5
118d
  8
Layer_0
  10
244.24197
  20
312.68689
  0
VERTEX
  5
118e
  8
Layer_0
  10
244.04651
  20
312.78235
  0
VERTEX
  5
118f
  8
Layer_0
  10
243.75531
  20
312.92255
  0
VERTEX
  5
1190
  8
Layer_0
  10
243.38873
  20
313.09418
  0
VERTEX
  5
1191
  8
Layer_0
  10
243.01865
  20
313.25793
  0
VERTEX
  5
1192
  8
Layer_0
  10
242.64529
  20
313.41351
  0
VERTEX
  5
1193
  8
Layer_0
  10
242.2684
  20
313.56128
  0
VERTEX
  5
1194
  8
Layer_0
  10
242.06644
  20
313.63666
  0
VERTEX
  5
1195
  8
Layer_0
  10
241.76031
  20
313.7489
  0
VERTEX
  5
1196
  8
Layer_0
  10
241.37885
  20
313.88422
  0
VERTEX
  5
1197
  8
Layer_0
  10
240.99463
  20
314.01141
  0
VERTEX
  5
1198
  8
Layer_0
  10
240.60773
  20
314.13013
  0
VERTEX
  5
1199
  8
Layer_0
  10
240.21838
  20
314.24048
  0
VERTEX
  5
119a
  8
Layer_0
  10
239.9527
  20
314.31073
  0
VERTEX
  5
119b
  8
Layer_0
  10
239.63358
  20
314.39258
  0
VERTEX
  5
119c
  8
Layer_0
  10
239.24042
  20
314.48914
  0
VERTEX
  5
119d
  8
Layer_0
  10
238.8454
  20
314.57697
  0
VERTEX
  5
119e
  8
Layer_0
  10
238.44846
  20
314.65643
  0
VERTEX
  5
119f
  8
Layer_0
  10
238.05017
  20
314.72742
  0
VERTEX
  5
11a0
  8
Layer_0
  10
237.79938
  20
314.76727
  0
VERTEX
  5
11a1
  8
Layer_0
  10
237.46832
  20
314.81799
  0
VERTEX
  5
11a2
  8
Layer_0
  10
237.06784
  20
314.87518
  0
VERTEX
  5
11a3
  8
Layer_0
  10
236.66605
  20
314.92346
  0
VERTEX
  5
11a4
  8
Layer_0
  10
236.26312
  20
314.96332
  0
VERTEX
  5
11a5
  8
Layer_0
  10
235.85968
  20
314.99426
  0
VERTEX
  5
11a6
  8
Layer_0
  10
235.55603
  20
315.01215
  0
VERTEX
  5
11a7
  8
Layer_0
  10
235.21548
  20
315.02924
  0
VERTEX
  5
11a8
  8
Layer_0
  10
234.81122
  20
315.04492
  0
VERTEX
  5
11a9
  8
Layer_0
  10
234.40643
  20
315.05225
  0
VERTEX
  5
11aa
  8
Layer_0
  10
234.00189
  20
315.0509
  0
VERTEX
  5
11ab
  8
Layer_0
  10
233.59711
  20
315.04089
  0
VERTEX
  5
11ac
  8
Layer_0
  10
233.32407
  20
315.02924
  0
VERTEX
  5
11ad
  8
Layer_0
  10
232.98355
  20
315.01215
  0
VERTEX
  5
11ae
  8
Layer_0
  10
232.57956
  20
314.98743
  0
VERTEX
  5
11af
  8
Layer_0
  10
232.17612
  20
314.9541
  0
VERTEX
  5
11b0
  8
Layer_0
  10
231.77347
  20
314.91235
  0
VERTEX
  5
11b1
  8
Layer_0
  10
231.37195
  20
314.86163
  0
VERTEX
  5
11b2
  8
Layer_0
  10
231.06882
  20
314.81775
  0
VERTEX
  5
11b3
  8
Layer_0
  10
230.73804
  20
314.76703
  0
VERTEX
  5
11b4
  8
Layer_0
  10
230.33865
  20
314.70142
  0
VERTEX
  5
11b5
  8
Layer_0
  10
229.94092
  20
314.62738
  0
VERTEX
  5
11b6
  8
Layer_0
  10
229.54453
  20
314.54468
  0
VERTEX
  5
11b7
  8
Layer_0
  10
229.1503
  20
314.45361
  0
VERTEX
  5
11b8
  8
Layer_0
  10
228.91006
  20
314.39368
  0
VERTEX
  5
11b9
  8
Layer_0
  10
228.59067
  20
314.31183
  0
VERTEX
  5
11ba
  8
Layer_0
  10
228.19971
  20
314.20715
  0
VERTEX
  5
11bb
  8
Layer_0
  10
227.81116
  20
314.09406
  0
VERTEX
  5
11bc
  8
Layer_0
  10
227.42508
  20
313.9726
  0
VERTEX
  5
11bd
  8
Layer_0
  10
227.04169
  20
313.84302
  0
VERTEX
  5
11be
  8
Layer_0
  10
226.77924
  20
313.7489
  0
VERTEX
  5
11bf
  8
Layer_0
  10
226.47314
  20
313.63666
  0
VERTEX
  5
11c0
  8
Layer_0
  10
226.09464
  20
313.49323
  0
VERTEX
  5
11c1
  8
Layer_0
  10
225.71939
  20
313.34198
  0
VERTEX
  5
11c2
  8
Layer_0
  10
225.34741
  20
313.18225
  0
VERTEX
  5
11c3
  8
Layer_0
  10
224.97894
  20
313.01495
  0
VERTEX
  5
11c4
  8
Layer_0
  10
224.78427
  20
312.92255
  0
VERTEX
  5
11c5
  8
Layer_0
  10
224.49307
  20
312.78235
  0
VERTEX
  5
11c6
  8
Layer_0
  10
224.13031
  20
312.60284
  0
VERTEX
  5
11c7
  8
Layer_0
  10
223.77133
  20
312.41577
  0
VERTEX
  5
11c8
  8
Layer_0
  10
223.41669
  20
312.22083
  0
VERTEX
  5
11c9
  8
Layer_0
  10
223.0661
  20
312.01855
  0
VERTEX
  5
11ca
  8
Layer_0
  10
222.87253
  20
311.90228
  0
VERTEX
  5
11cb
  8
Layer_0
  10
222.59787
  20
311.73523
  0
VERTEX
  5
11cc
  8
Layer_0
  10
222.25433
  20
311.5213
  0
VERTEX
  5
11cd
  8
Layer_0
  10
221.91544
  20
311.30005
  0
VERTEX
  5
11ce
  8
Layer_0
  10
221.58139
  20
311.07153
  0
VERTEX
  5
11cf
  8
Layer_0
  10
221.10501
  20
310.72693
  0
VERTEX
  5
11d0
  8
Layer_0
  10
220.84854
  20
310.53522
  0
VERTEX
  5
11d1
  8
Layer_0
  10
220.52698
  20
310.28955
  0
VERTEX
  5
11d2
  8
Layer_0
  10
220.21082
  20
310.03687
  0
VERTEX
  5
11d3
  8
Layer_0
  10
219.90012
  20
309.77765
  0
VERTEX
  5
11d4
  8
Layer_0
  10
219.45654
  20
309.38727
  0
VERTEX
  5
11d5
  8
Layer_0
  10
219.21985
  20
309.17224
  0
VERTEX
  5
11d6
  8
Layer_0
  10
218.92322
  20
308.89703
  0
VERTEX
  5
11d7
  8
Layer_0
  10
218.63257
  20
308.61536
  0
VERTEX
  5
11d8
  8
Layer_0
  10
218.34787
  20
308.32764
  0
VERTEX
  5
11d9
  8
Layer_0
  10
217.9393
  20
307.89166
  0
VERTEX
  5
11da
  8
Layer_0
  10
217.72427
  20
307.65497
  0
VERTEX
  5
11db
  8
Layer_0
  10
217.45532
  20
307.35242
  0
VERTEX
  5
11dc
  8
Layer_0
  10
217.19287
  20
307.04437
  0
VERTEX
  5
11dd
  8
Layer_0
  10
216.93719
  20
306.73071
  0
VERTEX
  5
11de
  8
Layer_0
  10
216.57632
  20
306.263
  0
VERTEX
  5
11df
  8
Layer_0
  10
216.38461
  20
306.00653
  0
VERTEX
  5
11e0
  8
Layer_0
  10
216.14575
  20
305.67981
  0
VERTEX
  5
11e1
  8
Layer_0
  10
215.91394
  20
305.34796
  0
VERTEX
  5
11e2
  8
Layer_0
  10
215.68945
  20
305.01117
  0
VERTEX
  5
11e3
  8
Layer_0
  10
215.37628
  20
304.51367
  0
VERTEX
  5
11e4
  8
Layer_0
  10
215.20926
  20
304.23901
  0
VERTEX
  5
11e5
  8
Layer_0
  10
215.00269
  20
303.89087
  0
VERTEX
  5
11e6
  8
Layer_0
  10
214.80365
  20
303.5387
  0
VERTEX
  5
11e7
  8
Layer_0
  10
214.61197
  20
303.18188
  0
VERTEX
  5
11e8
  8
Layer_0
  10
214.42841
  20
302.82129
  0
VERTEX
  5
11e9
  8
Layer_0
  10
214.32919
  20
302.61847
  0
VERTEX
  5
11ea
  8
Layer_0
  10
214.189
  20
302.32727
  0
VERTEX
  5
11eb
  8
Layer_0
  10
214.0174
  20
301.96069
  0
VERTEX
  5
11ec
  8
Layer_0
  10
213.85361
  20
301.59061
  0
VERTEX
  5
11ed
  8
Layer_0
  10
213.698
  20
301.21725
  0
VERTEX
  5
11ee
  8
Layer_0
  10
213.55023
  20
300.84039
  0
VERTEX
  5
11ef
  8
Layer_0
  10
213.4697
  20
300.62457
  0
VERTEX
  5
11f0
  8
Layer_0
  10
213.35773
  20
300.31845
  0
VERTEX
  5
11f1
  8
Layer_0
  10
213.22269
  20
299.93698
  0
VERTEX
  5
11f2
  8
Layer_0
  10
213.09607
  20
299.55249
  0
VERTEX
  5
11f3
  8
Layer_0
  10
212.9776
  20
299.16559
  0
VERTEX
  5
11f4
  8
Layer_0
  10
212.86752
  20
298.776
  0
VERTEX
  5
11f5
  8
Layer_0
  10
212.8038
  20
298.53549
  0
VERTEX
  5
11f6
  8
Layer_0
  10
212.72165
  20
298.21613
  0
VERTEX
  5
11f7
  8
Layer_0
  10
212.62512
  20
297.82297
  0
VERTEX
  5
11f8
  8
Layer_0
  10
212.53702
  20
297.42792
  0
VERTEX
  5
11f9
  8
Layer_0
  10
212.45731
  20
297.03125
  0
VERTEX
  5
11fa
  8
Layer_0
  10
212.38599
  20
296.63269
  0
VERTEX
  5
11fb
  8
Layer_0
  10
212.34207
  20
296.35858
  0
VERTEX
  5
11fc
  8
Layer_0
  10
212.29163
  20
296.0278
  0
VERTEX
  5
11fd
  8
Layer_0
  10
212.23495
  20
295.62708
  0
VERTEX
  5
11fe
  8
Layer_0
  10
212.18698
  20
295.22528
  0
VERTEX
  5
11ff
  8
Layer_0
  10
212.1474
  20
294.82236
  0
VERTEX
  5
1200
  8
Layer_0
  10
212.11676
  20
294.41891
  0
VERTEX
  5
1201
  8
Layer_0
  10
212.10049
  20
294.14319
  0
VERTEX
  5
1202
  8
Layer_0
  10
212.08313
  20
293.80264
  0
VERTEX
  5
1203
  8
Layer_0
  10
212.06686
  20
293.3981
  0
VERTEX
  5
1204
  8
Layer_0
  10
212.05927
  20
292.99359
  0
VERTEX
  5
1205
  8
Layer_0
  10
212.06036
  20
292.58878
  0
VERTEX
  5
1206
  8
Layer_0
  10
212.07013
  20
292.18427
  0
VERTEX
  5
1207
  8
Layer_0
  10
212.08313
  20
291.88086
  0
VERTEX
  5
1208
  8
Layer_0
  10
212.10049
  20
291.54031
  0
VERTEX
  5
1209
  8
Layer_0
  10
212.12543
  20
291.1366
  0
VERTEX
  5
120a
  8
Layer_0
  10
212.15906
  20
290.73315
  0
VERTEX
  5
120b
  8
Layer_0
  10
212.20135
  20
290.33054
  0
VERTEX
  5
120c
  8
Layer_0
  10
212.25204
  20
289.92926
  0
VERTEX
  5
120d
  8
Layer_0
  10
212.29163
  20
289.6557
  0
VERTEX
  5
120e
  8
Layer_0
  10
212.34207
  20
289.32489
  0
VERTEX
  5
120f
  8
Layer_0
  10
212.40741
  20
288.92554
  0
VERTEX
  5
1210
  8
Layer_0
  10
212.48114
  20
288.52753
  0
VERTEX
  5
1211
  8
Layer_0
  10
212.56357
  20
288.13141
  0
VERTEX
  5
1212
  8
Layer_0
  10
212.65442
  20
287.73688
  0
VERTEX
  5
1213
  8
Layer_0
  10
212.72165
  20
287.46741
  0
VERTEX
  5
1214
  8
Layer_0
  10
212.8038
  20
287.14801
  0
VERTEX
  5
1215
  8
Layer_0
  10
212.90872
  20
286.75729
  0
VERTEX
  5
1216
  8
Layer_0
  10
213.02234
  20
286.36877
  0
VERTEX
  5
1217
  8
Layer_0
  10
213.1438
  20
285.98267
  0
VERTEX
  5
1218
  8
Layer_0
  10
213.27368
  20
285.5993
  0
VERTEX
  5
1219
  8
Layer_0
  10
213.35773
  20
285.36505
  0
VERTEX
  5
121a
  8
Layer_0
  10
213.4697
  20
285.05893
  0
VERTEX
  5
121b
  8
Layer_0
  10
213.61285
  20
284.68042
  0
VERTEX
  5
121c
  8
Layer_0
  10
213.76413
  20
284.30493
  0
VERTEX
  5
121d
  8
Layer_0
  10
213.92331
  20
283.93292
  0
VERTEX
  5
121e
  8
Layer_0
  10
214.0903
  20
283.56421
  0
VERTEX
  5
121f
  8
Layer_0
  10
214.189
  20
283.35623
  0
VERTEX
  5
1220
  8
Layer_0
  10
214.32919
  20
283.06503
  0
VERTEX
  5
1221
  8
Layer_0
  10
214.50867
  20
282.70227
  0
VERTEX
  5
1222
  8
Layer_0
  10
214.69574
  20
282.34329
  0
VERTEX
  5
1223
  8
Layer_0
  10
214.89069
  20
281.98865
  0
VERTEX
  5
1224
  8
Layer_0
  10
215.09296
  20
281.63806
  0
VERTEX
  5
1225
  8
Layer_0
  10
215.20926
  20
281.44449
  0
VERTEX
  5
1226
  8
Layer_0
  10
215.37628
  20
281.16983
  0
VERTEX
  5
1227
  8
Layer_0
  10
215.59021
  20
280.82629
  0
VERTEX
  5
1228
  8
Layer_0
  10
215.81146
  20
280.4874
  0
VERTEX
  5
1229
  8
Layer_0
  10
216.04001
  20
280.15338
  0
VERTEX
  5
122a
  8
Layer_0
  10
216.38461
  20
279.677
  0
VERTEX
  5
122b
  8
Layer_0
  10
216.57632
  20
279.42047
  0
VERTEX
  5
122c
  8
Layer_0
  10
216.82196
  20
279.09894
  0
VERTEX
  5
122d
  8
Layer_0
  10
217.07465
  20
278.78278
  0
VERTEX
  5
122e
  8
Layer_0
  10
217.33386
  20
278.47208
  0
VERTEX
  5
122f
  8
Layer_0
  10
217.72427
  20
278.0285
  0
VERTEX
  5
1230
  8
Layer_0
  10
217.9393
  20
277.79181
  0
VERTEX
  5
1231
  8
Layer_0
  10
218.21448
  20
277.49518
  0
VERTEX
  5
1232
  8
Layer_0
  10
218.49619
  20
277.20453
  0
VERTEX
  5
1233
  8
Layer_0
  10
218.78387
  20
276.91986
  0
VERTEX
  5
1234
  8
Layer_0
  10
219.21985
  20
276.51126
  0
VERTEX
  5
1235
  8
Layer_0
  10
219.45654
  20
276.29626
  0
VERTEX
  5
1236
  8
Layer_0
  10
219.75912
  20
276.02728
  0
VERTEX
  5
1237
  8
Layer_0
  10
220.06714
  20
275.76483
  0
VERTEX
  5
1238
  8
Layer_0
  10
220.38083
  20
275.50916
  0
VERTEX
  5
1239
  8
Layer_0
  10
220.84854
  20
275.14828
  0
VERTEX
  5
123a
  8
Layer_0
  10
221.10501
  20
274.9566
  0
VERTEX
  5
123b
  8
Layer_0
  10
221.43173
  20
274.71771
  0
VERTEX
  5
123c
  8
Layer_0
  10
221.76358
  20
274.4859
  0
VERTEX
  5
123d
  8
Layer_0
  10
222.10034
  20
274.26141
  0
VERTEX
  5
123e
  8
Layer_0
  10
222.59787
  20
273.94824
  0
VERTEX
  5
123f
  8
Layer_0
  10
222.87253
  20
273.78125
  0
VERTEX
  5
1240
  8
Layer_0
  10
223.22064
  20
273.57465
  0
VERTEX
  5
1241
  8
Layer_0
  10
223.57285
  20
273.37561
  0
VERTEX
  5
1242
  8
Layer_0
  10
223.92966
  20
273.18396
  0
VERTEX
  5
1243
  8
Layer_0
  10
224.29025
  20
273.00037
  0
VERTEX
  5
1244
  8
Layer_0
  10
224.49307
  20
272.90115
  0
VERTEX
  5
1245
  8
Layer_0
  10
224.78427
  20
272.76099
  0
VERTEX
  5
1246
  8
Layer_0
  10
225.15082
  20
272.58936
  0
VERTEX
  5
1247
  8
Layer_0
  10
225.52094
  20
272.4256
  0
VERTEX
  5
1248
  8
Layer_0
  10
225.89429
  20
272.26996
  0
VERTEX
  5
1249
  8
Layer_0
  10
226.27115
  20
272.12219
  0
VERTEX
  5
124a
  8
Layer_0
  10
226.47314
  20
272.04681
  0
VERTEX
  5
124b
  8
Layer_0
  10
226.77924
  20
271.93457
  0
VERTEX
  5
124c
  8
Layer_0
  10
227.16074
  20
271.79926
  0
VERTEX
  5
124d
  8
Layer_0
  10
227.54492
  20
271.67212
  0
VERTEX
  5
124e
  8
Layer_0
  10
227.93182
  20
271.55334
  0
VERTEX
  5
124f
  8
Layer_0
  10
228.32117
  20
271.44299
  0
VERTEX
  5
1250
  8
Layer_0
  10
228.59067
  20
271.3717
  0
VERTEX
  5
1251
  8
Layer_0
  10
228.91006
  20
271.28979
  0
VERTEX
  5
1252
  8
Layer_0
  10
229.30319
  20
271.19354
  0
VERTEX
  5
1253
  8
Layer_0
  10
229.69824
  20
271.10571
  0
VERTEX
  5
1254
  8
Layer_0
  10
230.09518
  20
271.02628
  0
VERTEX
  5
1255
  8
Layer_0
  10
230.49347
  20
270.95551
  0
VERTEX
  5
1256
  8
Layer_0
  10
230.75293
  20
270.91403
  0
VERTEX
  5
1257
  8
Layer_0
  10
231.08371
  20
270.86359
  0
VERTEX
  5
1258
  8
Layer_0
  10
231.48447
  20
270.80695
  0
VERTEX
  5
1259
  8
Layer_0
  10
231.88626
  20
270.75894
  0
VERTEX
  5
125a
  8
Layer_0
  10
232.28918
  20
270.71936
  0
VERTEX
  5
125b
  8
Layer_0
  10
232.69263
  20
270.68872
  0
VERTEX
  5
125c
  8
Layer_0
  10
232.96835
  20
270.67245
  0
VERTEX
  5
125d
  8
Layer_0
  10
233.3089
  20
270.65509
  0
VERTEX
  5
125e
  8
Layer_0
  10
233.71341
  20
270.63882
  0
VERTEX
  5
125f
  8
Layer_0
  10
234.11795
  20
270.63123
  0
VERTEX
  5
1260
  8
Layer_0
  10
234.52274
  20
270.63232
  0
SEQEND
  0
CIRCLE
  5
1262
  8
Layer_0
  62
0
  10
234.26978
  20
292.84174
  30
0
  40
3.3316576
  0
POLYLINE
  5
1262
  8
Layer_0
  62
0
  66
1
  10
0
  20
0
  30
0
  0
VERTEX
  5
1262
  8
Layer_0
  10
234.4021
  20
279.84967
  0
VERTEX
  5
1263
  8
Layer_0
  10
234.61359
  20
279.85486
  0
VERTEX
  5
1264
  8
Layer_0
  10
234.80499
  20
279.86298
  0
VERTEX
  5
1265
  8
Layer_0
  10
235.06012
  20
279.87598
  0
VERTEX
  5
1266
  8
Layer_0
  10
235.31201
  20
279.89145
  0
VERTEX
  5
1267
  8
Layer_0
  10
235.50586
  20
279.90771
  0
VERTEX
  5
1268
  8
Layer_0
  10
235.71979
  20
279.93024
  0
VERTEX
  5
1269
  8
Layer_0
  10
235.93561
  20
279.95758
  0
VERTEX
  5
126a
  8
Layer_0
  10
236.35721
  20
280.02023
  0
VERTEX
  5
126b
  8
Layer_0
  10
236.59744
  20
280.05957
  0
VERTEX
  5
126c
  8
Layer_0
  10
236.8111
  20
280.09912
  0
VERTEX
  5
126d
  8
Layer_0
  10
237.00089
  20
280.13843
  0
VERTEX
  5
126e
  8
Layer_0
  10
237.20993
  20
280.18671
  0
VERTEX
  5
126f
  8
Layer_0
  10
237.61716
  20
280.28973
  0
VERTEX
  5
1270
  8
Layer_0
  10
237.86255
  20
280.35562
  0
VERTEX
  5
1271
  8
Layer_0
  10
238.06805
  20
280.41553
  0
VERTEX
  5
1272
  8
Layer_0
  10
238.26001
  20
280.47574
  0
VERTEX
  5
1273
  8
Layer_0
  10
238.4498
  20
280.53998
  0
VERTEX
  5
1274
  8
Layer_0
  10
238.85162
  20
280.68585
  0
VERTEX
  5
1275
  8
Layer_0
  10
239.08777
  20
280.77533
  0
VERTEX
  5
1276
  8
Layer_0
  10
239.27676
  20
280.8515
  0
VERTEX
  5
1277
  8
Layer_0
  10
239.46817
  20
280.93365
  0
VERTEX
  5
1278
  8
Layer_0
  10
239.67126
  20
281.02588
  0
VERTEX
  5
1279
  8
Layer_0
  10
240.00772
  20
281.18689
  0
VERTEX
  5
127a
  8
Layer_0
  10
240.23492
  20
281.29944
  0
VERTEX
  5
127b
  8
Layer_0
  10
240.41766
  20
281.39459
  0
VERTEX
  5
127c
  8
Layer_0
  10
240.59634
  20
281.49274
  0
VERTEX
  5
127d
  8
Layer_0
  10
240.78152
  20
281.59958
  0
VERTEX
  5
127e
  8
Layer_0
  10
241.10934
  20
281.79779
  0
VERTEX
  5
127f
  8
Layer_0
  10
241.32352
  20
281.93091
  0
VERTEX
  5
1280
  8
Layer_0
  10
241.50165
  20
282.04721
  0
VERTEX
  5
1281
  8
Layer_0
  10
241.6489
  20
282.14752
  0
VERTEX
  5
1282
  8
Layer_0
  10
241.9718
  20
282.38153
  0
VERTEX
  5
1283
  8
Layer_0
  10
242.14859
  20
282.51382
  0
VERTEX
  5
1284
  8
Layer_0
  10
242.33755
  20
282.65808
  0
VERTEX
  5
1285
  8
Layer_0
  10
242.50974
  20
282.79581
  0
VERTEX
  5
1286
  8
Layer_0
  10
242.64258
  20
282.90668
  0
VERTEX
  5
1287
  8
Layer_0
  10
242.92972
  20
283.15967
  0
VERTEX
  5
1288
  8
Layer_0
  10
243.09482
  20
283.3096
  0
VERTEX
  5
1289
  8
Layer_0
  10
243.27216
  20
283.47418
  0
VERTEX
  5
128a
  8
Layer_0
  10
243.42236
  20
283.61975
  0
VERTEX
  5
128b
  8
Layer_0
  10
243.54871
  20
283.74747
  0
VERTEX
  5
128c
  8
Layer_0
  10
243.82471
  20
284.04193
  0
VERTEX
  5
128d
  8
Layer_0
  10
243.96271
  20
284.19376
  0
VERTEX
  5
128e
  8
Layer_0
  10
244.1254
  20
284.37677
  0
VERTEX
  5
128f
  8
Layer_0
  10
244.26962
  20
284.54596
  0
VERTEX
  5
1290
  8
Layer_0
  10
244.37918
  20
284.68042
  0
VERTEX
  5
1291
  8
Layer_0
  10
244.62155
  20
284.99438
  0
VERTEX
  5
1292
  8
Layer_0
  10
244.74438
  20
285.15869
  0
VERTEX
  5
1293
  8
Layer_0
  10
244.89053
  20
285.35852
  0
VERTEX
  5
1294
  8
Layer_0
  10
245.01334
  20
285.53448
  0
VERTEX
  5
1295
  8
Layer_0
  10
245.11176
  20
285.68201
  0
VERTEX
  5
1296
  8
Layer_0
  10
245.32407
  20
286.01901
  0
VERTEX
  5
1297
  8
Layer_0
  10
245.43576
  20
286.20313
  0
VERTEX
  5
1298
  8
Layer_0
  10
245.55859
  20
286.40997
  0
VERTEX
  5
1299
  8
Layer_0
  10
245.65973
  20
286.58865
  0
VERTEX
  5
129a
  8
Layer_0
  10
245.75787
  20
286.77167
  0
VERTEX
  5
129b
  8
Layer_0
  10
245.85873
  20
286.96985
  0
VERTEX
  5
129c
  8
Layer_0
  10
246.03091
  20
287.32504
  0
VERTEX
  5
129d
  8
Layer_0
  10
246.12769
  20
287.53137
  0
VERTEX
  5
129e
  8
Layer_0
  10
246.21365
  20
287.72552
  0
VERTEX
  5
129f
  8
Layer_0
  10
246.29742
  20
287.92639
  0
VERTEX
  5
12a0
  8
Layer_0
  10
246.37387
  20
288.12164
  0
VERTEX
  5
12a1
  8
Layer_0
  10
246.5127
  20
288.49744
  0
VERTEX
  5
12a2
  8
Layer_0
  10
246.59134
  20
288.71921
  0
VERTEX
  5
12a3
  8
Layer_0
  10
246.65775
  20
288.91956
  0
VERTEX
  5
12a4
  8
Layer_0
  10
246.71848
  20
289.11749
  0
VERTEX
  5
12a5
  8
Layer_0
  10
246.77542
  20
289.31842
  0
VERTEX
  5
12a6
  8
Layer_0
  10
246.81882
  20
289.48273
  0
VERTEX
  5
12a7
  8
Layer_0
  10
246.87872
  20
289.71588
  0
VERTEX
  5
12a8
  8
Layer_0
  10
246.94327
  20
289.97998
  0
VERTEX
  5
12a9
  8
Layer_0
  10
246.98557
  20
290.17004
  0
VERTEX
  5
12aa
  8
Layer_0
  10
247.02704
  20
290.37744
  0
VERTEX
  5
12ab
  8
Layer_0
  10
247.06335
  20
290.58133
  0
VERTEX
  5
12ac
  8
Layer_0
  10
247.12924
  20
291.00458
  0
VERTEX
  5
12ad
  8
Layer_0
  10
247.1626
  20
291.23828
  0
VERTEX
  5
12ae
  8
Layer_0
  10
247.18973
  20
291.46252
  0
VERTEX
  5
12af
  8
Layer_0
  10
247.20789
  20
291.6474
  0
VERTEX
  5
12b0
  8
Layer_0
  10
247.22522
  20
291.87219
  0
VERTEX
  5
12b1
  8
Layer_0
  10
247.23663
  20
292.06793
  0
VERTEX
  5
12b2
  8
Layer_0
  10
247.24857
  20
292.30627
  0
VERTEX
  5
12b3
  8
Layer_0
  10
247.25858
  20
292.56439
  0
VERTEX
  5
12b4
  8
Layer_0
  10
247.26239
  20
292.76501
  0
VERTEX
  5
12b5
  8
Layer_0
  10
247.26157
  20
292.9895
  0
VERTEX
  5
12b6
  8
Layer_0
  10
247.25641
  20
293.19586
  0
VERTEX
  5
12b7
  8
Layer_0
  10
247.24908
  20
293.36908
  0
VERTEX
  5
12b8
  8
Layer_0
  10
247.23743
  20
293.60037
  0
VERTEX
  5
12b9
  8
Layer_0
  10
247.22061
  20
293.8761
  0
VERTEX
  5
12ba
  8
Layer_0
  10
247.20355
  20
294.08301
  0
VERTEX
  5
12bb
  8
Layer_0
  10
247.1832
  20
294.27954
  0
VERTEX
  5
12bc
  8
Layer_0
  10
247.15448
  20
294.50839
  0
VERTEX
  5
12bd
  8
Layer_0
  10
247.12979
  20
294.67865
  0
VERTEX
  5
12be
  8
Layer_0
  10
247.0921
  20
294.92404
  0
VERTEX
  5
12bf
  8
Layer_0
  10
247.05008
  20
295.17999
  0
VERTEX
  5
12c0
  8
Layer_0
  10
247.01105
  20
295.38983
  0
VERTEX
  5
12c1
  8
Layer_0
  10
246.97037
  20
295.58423
  0
VERTEX
  5
12c2
  8
Layer_0
  10
246.92212
  20
295.79355
  0
VERTEX
  5
12c3
  8
Layer_0
  10
246.82288
  20
296.18481
  0
VERTEX
  5
12c4
  8
Layer_0
  10
246.75592
  20
296.43506
  0
VERTEX
  5
12c5
  8
Layer_0
  10
246.70276
  20
296.61804
  0
VERTEX
  5
12c6
  8
Layer_0
  10
246.63416
  20
296.83661
  0
VERTEX
  5
12c7
  8
Layer_0
  10
246.57452
  20
297.01257
  0
VERTEX
  5
12c8
  8
Layer_0
  10
246.42404
  20
297.42792
  0
VERTEX
  5
12c9
  8
Layer_0
  10
246.33618
  20
297.65973
  0
VERTEX
  5
12ca
  8
Layer_0
  10
246.25891
  20
297.85117
  0
VERTEX
  5
12cb
  8
Layer_0
  10
246.17758
  20
298.04095
  0
VERTEX
  5
12cc
  8
Layer_0
  10
246.08566
  20
298.24323
  0
VERTEX
  5
12cd
  8
Layer_0
  10
245.92462
  20
298.57971
  0
VERTEX
  5
12ce
  8
Layer_0
  10
245.81509
  20
298.80121
  0
VERTEX
  5
12cf
  8
Layer_0
  10
245.71692
  20
298.98962
  0
VERTEX
  5
12d0
  8
Layer_0
  10
245.61877
  20
299.16833
  0
VERTEX
  5
12d1
  8
Layer_0
  10
245.51035
  20
299.3562
  0
VERTEX
  5
12d2
  8
Layer_0
  10
245.31458
  20
299.67969
  0
VERTEX
  5
12d3
  8
Layer_0
  10
245.17874
  20
299.89819
  0
VERTEX
  5
12d4
  8
Layer_0
  10
245.06107
  20
300.0788
  0
VERTEX
  5
12d5
  8
Layer_0
  10
244.96182
  20
300.22357
  0
VERTEX
  5
12d6
  8
Layer_0
  10
244.73056
  20
300.54321
  0
VERTEX
  5
12d7
  8
Layer_0
  10
244.61017
  20
300.70428
  0
VERTEX
  5
12d8
  8
Layer_0
  10
244.4559
  20
300.90625
  0
VERTEX
  5
12d9
  8
Layer_0
  10
244.32468
  20
301.07056
  0
VERTEX
  5
12da
  8
Layer_0
  10
244.20212
  20
301.21725
  0
VERTEX
  5
12db
  8
Layer_0
  10
243.95242
  20
301.50113
  0
VERTEX
  5
12dc
  8
Layer_0
  10
243.80194
  20
301.66681
  0
VERTEX
  5
12dd
  8
Layer_0
  10
243.63763
  20
301.84384
  0
VERTEX
  5
12de
  8
Layer_0
  10
243.48987
  20
301.99622
  0
VERTEX
  5
12df
  8
Layer_0
  10
243.36404
  20
302.12067
  0
VERTEX
  5
12e0
  8
Layer_0
  10
243.06961
  20
302.39667
  0
VERTEX
  5
12e1
  8
Layer_0
  10
242.91779
  20
302.53467
  0
VERTEX
  5
12e2
  8
Layer_0
  10
242.73233
  20
302.69952
  0
VERTEX
  5
12e3
  8
Layer_0
  10
242.56558
  20
302.84161
  0
VERTEX
  5
12e4
  8
Layer_0
  10
242.42703
  20
302.95465
  0
VERTEX
  5
12e5
  8
Layer_0
  10
242.13257
  20
303.18188
  0
VERTEX
  5
12e6
  8
Layer_0
  10
241.95148
  20
303.31744
  0
VERTEX
  5
12e7
  8
Layer_0
  10
241.74811
  20
303.466
  0
VERTEX
  5
12e8
  8
Layer_0
  10
241.58813
  20
303.578
  0
VERTEX
  5
12e9
  8
Layer_0
  10
241.4328
  20
303.68182
  0
VERTEX
  5
12ea
  8
Layer_0
  10
241.08765
  20
303.89902
  0
VERTEX
  5
12eb
  8
Layer_0
  10
240.90082
  20
304.01263
  0
VERTEX
  5
12ec
  8
Layer_0
  10
240.70264
  20
304.13
  0
VERTEX
  5
12ed
  8
Layer_0
  10
240.5134
  20
304.23685
  0
VERTEX
  5
12ee
  8
Layer_0
  10
240.33527
  20
304.33228
  0
VERTEX
  5
12ef
  8
Layer_0
  10
240.14383
  20
304.42987
  0
VERTEX
  5
12f0
  8
Layer_0
  10
239.77618
  20
304.60773
  0
VERTEX
  5
12f1
  8
Layer_0
  10
239.57663
  20
304.70129
  0
VERTEX
  5
12f2
  8
Layer_0
  10
239.38602
  20
304.78558
  0
VERTEX
  5
12f3
  8
Layer_0
  10
239.18512
  20
304.86938
  0
VERTEX
  5
12f4
  8
Layer_0
  10
238.9899
  20
304.94586
  0
VERTEX
  5
12f5
  8
Layer_0
  10
238.61411
  20
305.08466
  0
VERTEX
  5
12f6
  8
Layer_0
  10
238.39233
  20
305.16327
  0
VERTEX
  5
12f7
  8
Layer_0
  10
238.19196
  20
305.22974
  0
VERTEX
  5
12f8
  8
Layer_0
  10
237.99405
  20
305.29047
  0
VERTEX
  5
12f9
  8
Layer_0
  10
237.8045
  20
305.34412
  0
VERTEX
  5
12fa
  8
Layer_0
  10
237.37451
  20
305.45612
  0
VERTEX
  5
12fb
  8
Layer_0
  10
237.14294
  20
305.51276
  0
VERTEX
  5
12fc
  8
Layer_0
  10
236.94559
  20
305.5567
  0
VERTEX
  5
12fd
  8
Layer_0
  10
236.73438
  20
305.599
  0
VERTEX
  5
12fe
  8
Layer_0
  10
236.52344
  20
305.63672
  0
VERTEX
  5
12ff
  8
Layer_0
  10
236.11456
  20
305.70013
  0
VERTEX
  5
1300
  8
Layer_0
  10
235.86484
  20
305.7359
  0
VERTEX
  5
1301
  8
Layer_0
  10
235.67017
  20
305.75922
  0
VERTEX
  5
1302
  8
Layer_0
  10
235.4473
  20
305.78149
  0
VERTEX
  5
1303
  8
Layer_0
  10
235.24478
  20
305.79694
  0
VERTEX
  5
1304
  8
Layer_0
  10
235.04791
  20
305.80859
  0
VERTEX
  5
1305
  8
Layer_0
  10
234.80527
  20
305.8205
  0
VERTEX
  5
1306
  8
Layer_0
  10
234.54715
  20
305.83057
  0
VERTEX
  5
1307
  8
Layer_0
  10
234.3465
  20
305.83435
  0
VERTEX
  5
1308
  8
Layer_0
  10
234.12201
  20
305.83356
  0
VERTEX
  5
1309
  8
Layer_0
  10
233.91568
  20
305.82837
  0
VERTEX
  5
130a
  8
Layer_0
  10
233.74243
  20
305.82104
  0
VERTEX
  5
130b
  8
Layer_0
  10
233.50818
  20
305.80939
  0
VERTEX
  5
130c
  8
Layer_0
  10
233.23242
  20
305.7926
  0
VERTEX
  5
130d
  8
Layer_0
  10
233.02853
  20
305.77551
  0
VERTEX
  5
130e
  8
Layer_0
  10
232.83197
  20
305.75519
  0
VERTEX
  5
130f
  8
Layer_0
  10
232.60315
  20
305.72644
  0
VERTEX
  5
1310
  8
Layer_0
  10
232.43286
  20
305.70178
  0
VERTEX
  5
1311
  8
Layer_0
  10
232.1875
  20
305.66406
  0
VERTEX
  5
1312
  8
Layer_0
  10
231.93155
  20
305.62207
  0
VERTEX
  5
1313
  8
Layer_0
  10
231.72168
  20
305.58301
  0
VERTEX
  5
1314
  8
Layer_0
  10
231.52728
  20
305.54236
  0
VERTEX
  5
1315
  8
Layer_0
  10
231.31799
  20
305.49408
  0
VERTEX
  5
1316
  8
Layer_0
  10
230.92673
  20
305.39484
  0
VERTEX
  5
1317
  8
Layer_0
  10
230.67648
  20
305.32788
  0
VERTEX
  5
1318
  8
Layer_0
  10
230.48398
  20
305.27203
  0
VERTEX
  5
1319
  8
Layer_0
  10
230.27493
  20
305.20612
  0
VERTEX
  5
131a
  8
Layer_0
  10
230.09897
  20
305.14648
  0
VERTEX
  5
131b
  8
Layer_0
  10
229.67709
  20
304.99359
  0
VERTEX
  5
131c
  8
Layer_0
  10
229.45178
  20
304.90814
  0
VERTEX
  5
131d
  8
Layer_0
  10
229.26038
  20
304.83087
  0
VERTEX
  5
131e
  8
Layer_0
  10
229.07059
  20
304.74957
  0
VERTEX
  5
131f
  8
Layer_0
  10
228.86832
  20
304.65765
  0
VERTEX
  5
1320
  8
Layer_0
  10
228.53183
  20
304.49658
  0
VERTEX
  5
1321
  8
Layer_0
  10
228.30463
  20
304.38406
  0
VERTEX
  5
1322
  8
Layer_0
  10
228.12134
  20
304.28864
  0
VERTEX
  5
1323
  8
Layer_0
  10
227.94321
  20
304.19073
  0
VERTEX
  5
1324
  8
Layer_0
  10
227.7507
  20
304.07959
  0
VERTEX
  5
1325
  8
Layer_0
  10
227.43185
  20
303.88654
  0
VERTEX
  5
1326
  8
Layer_0
  10
227.20953
  20
303.74826
  0
VERTEX
  5
1327
  8
Layer_0
  10
227.03275
  20
303.63303
  0
VERTEX
  5
1328
  8
Layer_0
  10
226.88797
  20
303.53381
  0
VERTEX
  5
1329
  8
Layer_0
  10
226.5683
  20
303.30252
  0
VERTEX
  5
132a
  8
Layer_0
  10
226.40698
  20
303.18188
  0
VERTEX
  5
132b
  8
Layer_0
  10
226.20526
  20
303.02786
  0
VERTEX
  5
132c
  8
Layer_0
  10
226.04095
  20
302.89664
  0
VERTEX
  5
132d
  8
Layer_0
  10
225.89346
  20
302.77356
  0
VERTEX
  5
132e
  8
Layer_0
  10
225.61041
  20
302.52438
  0
VERTEX
  5
132f
  8
Layer_0
  10
225.44473
  20
302.3739
  0
VERTEX
  5
1330
  8
Layer_0
  10
225.26743
  20
302.20932
  0
VERTEX
  5
1331
  8
Layer_0
  10
225.11533
  20
302.06183
  0
VERTEX
  5
1332
  8
Layer_0
  10
224.99088
  20
301.93604
  0
VERTEX
  5
1333
  8
Layer_0
  10
224.71484
  20
301.64157
  0
VERTEX
  5
1334
  8
Layer_0
  10
224.57684
  20
301.48975
  0
VERTEX
  5
1335
  8
Layer_0
  10
224.41199
  20
301.30429
  0
VERTEX
  5
1336
  8
Layer_0
  10
224.26993
  20
301.13754
  0
VERTEX
  5
1337
  8
Layer_0
  10
224.15469
  20
300.99603
  0
VERTEX
  5
1338
  8
Layer_0
  10
223.918
  20
300.68909
  0
VERTEX
  5
1339
  8
Layer_0
  10
223.79517
  20
300.52478
  0
VERTEX
  5
133a
  8
Layer_0
  10
223.64444
  20
300.31845
  0
VERTEX
  5
133b
  8
Layer_0
  10
223.52621
  20
300.14899
  0
VERTEX
  5
133c
  8
Layer_0
  10
223.4278
  20
300.00153
  0
VERTEX
  5
133d
  8
Layer_0
  10
223.21548
  20
299.66449
  0
VERTEX
  5
133e
  8
Layer_0
  10
223.10379
  20
299.48041
  0
VERTEX
  5
133f
  8
Layer_0
  10
222.97961
  20
299.27106
  0
VERTEX
  5
1340
  8
Layer_0
  10
222.87631
  20
299.08832
  0
VERTEX
  5
1341
  8
Layer_0
  10
222.78116
  20
298.91077
  0
VERTEX
  5
1342
  8
Layer_0
  10
222.68082
  20
298.71362
  0
VERTEX
  5
1343
  8
Layer_0
  10
222.50867
  20
298.35846
  0
VERTEX
  5
1344
  8
Layer_0
  10
222.40887
  20
298.14563
  0
VERTEX
  5
1345
  8
Layer_0
  10
222.32404
  20
297.95367
  0
VERTEX
  5
1346
  8
Layer_0
  10
222.24161
  20
297.75598
  0
VERTEX
  5
1347
  8
Layer_0
  10
222.16269
  20
297.55426
  0
VERTEX
  5
1348
  8
Layer_0
  10
222.03256
  20
297.20154
  0
VERTEX
  5
1349
  8
Layer_0
  10
221.94659
  20
296.95886
  0
VERTEX
  5
134a
  8
Layer_0
  10
221.88126
  20
296.76013
  0
VERTEX
  5
134b
  8
Layer_0
  10
221.81863
  20
296.55624
  0
VERTEX
  5
134c
  8
Layer_0
  10
221.7655
  20
296.36755
  0
VERTEX
  5
134d
  8
Layer_0
  10
221.65488
  20
295.94348
  0
VERTEX
  5
134e
  8
Layer_0
  10
221.59982
  20
295.71872
  0
VERTEX
  5
134f
  8
Layer_0
  10
221.55457
  20
295.51617
  0
VERTEX
  5
1350
  8
Layer_0
  10
221.51334
  20
295.31122
  0
VERTEX
  5
1351
  8
Layer_0
  10
221.47647
  20
295.10486
  0
VERTEX
  5
1352
  8
Layer_0
  10
221.44366
  20
294.90018
  0
VERTEX
  5
1353
  8
Layer_0
  10
221.4133
  20
294.70062
  0
VERTEX
  5
1354
  8
Layer_0
  10
221.37589
  20
294.43573
  0
VERTEX
  5
1355
  8
Layer_0
  10
221.35092
  20
294.22723
  0
VERTEX
  5
1356
  8
Layer_0
  10
221.33032
  20
294.01898
  0
VERTEX
  5
1357
  8
Layer_0
  10
221.31406
  20
293.80264
  0
VERTEX
  5
1358
  8
Layer_0
  10
221.30429
  20
293.63885
  0
VERTEX
  5
1359
  8
Layer_0
  10
221.29047
  20
293.36801
  0
VERTEX
  5
135a
  8
Layer_0
  10
221.28125
  20
293.13321
  0
VERTEX
  5
135b
  8
Layer_0
  10
221.27719
  20
292.9212
  0
VERTEX
  5
135c
  8
Layer_0
  10
221.27774
  20
292.70508
  0
VERTEX
  5
135d
  8
Layer_0
  10
221.28287
  20
292.49796
  0
VERTEX
  5
135e
  8
Layer_0
  10
221.29129
  20
292.30029
  0
VERTEX
  5
135f
  8
Layer_0
  10
221.30402
  20
292.05139
  0
VERTEX
  5
1360
  8
Layer_0
  10
221.31949
  20
291.7995
  0
VERTEX
  5
1361
  8
Layer_0
  10
221.33575
  20
291.60565
  0
VERTEX
  5
1362
  8
Layer_0
  10
221.35825
  20
291.39172
  0
VERTEX
  5
1363
  8
Layer_0
  10
221.38809
  20
291.15613
  0
VERTEX
  5
1364
  8
Layer_0
  10
221.40976
  20
291.00647
  0
VERTEX
  5
1365
  8
Layer_0
  10
221.44421
  20
290.78033
  0
VERTEX
  5
1366
  8
Layer_0
  10
221.4884
  20
290.50922
  0
VERTEX
  5
1367
  8
Layer_0
  10
221.52609
  20
290.30585
  0
VERTEX
  5
1368
  8
Layer_0
  10
221.56839
  20
290.10251
  0
VERTEX
  5
1369
  8
Layer_0
  10
221.61392
  20
289.90567
  0
VERTEX
  5
136a
  8
Layer_0
  10
221.72455
  20
289.46942
  0
VERTEX
  5
136b
  8
Layer_0
  10
221.78204
  20
289.25494
  0
VERTEX
  5
136c
  8
Layer_0
  10
221.84357
  20
289.04428
  0
VERTEX
  5
136d
  8
Layer_0
  10
221.90891
  20
288.83685
  0
VERTEX
  5
136e
  8
Layer_0
  10
221.96991
  20
288.65686
  0
VERTEX
  5
136f
  8
Layer_0
  10
222.11716
  20
288.25098
  0
VERTEX
  5
1370
  8
Layer_0
  10
222.19849
  20
288.03622
  0
VERTEX
  5
1371
  8
Layer_0
  10
222.28119
  20
287.83099
  0
VERTEX
  5
1372
  8
Layer_0
  10
222.36334
  20
287.63956
  0
VERTEX
  5
1373
  8
Layer_0
  10
222.44794
  20
287.45276
  0
VERTEX
  5
1374
  8
Layer_0
  10
222.61658
  20
287.10083
  0
VERTEX
  5
1375
  8
Layer_0
  10
222.72748
  20
286.87659
  0
VERTEX
  5
1376
  8
Layer_0
  10
222.82263
  20
286.69385
  0
VERTEX
  5
1377
  8
Layer_0
  10
222.92078
  20
286.5152
  0
VERTEX
  5
1378
  8
Layer_0
  10
223.03195
  20
286.32269
  0
VERTEX
  5
1379
  8
Layer_0
  10
223.22906
  20
285.99704
  0
VERTEX
  5
137a
  8
Layer_0
  10
223.36328
  20
285.78149
  0
VERTEX
  5
137b
  8
Layer_0
  10
223.4823
  20
285.5993
  0
VERTEX
  5
137c
  8
Layer_0
  10
223.57773
  20
285.45993
  0
VERTEX
  5
137d
  8
Layer_0
  10
223.80899
  20
285.14026
  0
VERTEX
  5
137e
  8
Layer_0
  10
223.92938
  20
284.97922
  0
VERTEX
  5
137f
  8
Layer_0
  10
224.08447
  20
284.77612
  0
VERTEX
  5
1380
  8
Layer_0
  10
224.21487
  20
284.61292
  0
VERTEX
  5
1381
  8
Layer_0
  10
224.33798
  20
284.46542
  0
VERTEX
  5
1382
  8
Layer_0
  10
224.58716
  20
284.18237
  0
VERTEX
  5
1383
  8
Layer_0
  10
224.73764
  20
284.01672
  0
VERTEX
  5
1384
  8
Layer_0
  10
224.90219
  20
283.83939
  0
VERTEX
  5
1385
  8
Layer_0
  10
225.04996
  20
283.68701
  0
VERTEX
  5
1386
  8
Layer_0
  10
225.17551
  20
283.56284
  0
VERTEX
  5
1387
  8
Layer_0
  10
225.46994
  20
283.2868
  0
VERTEX
  5
1388
  8
Layer_0
  10
225.6218
  20
283.1488
  0
VERTEX
  5
1389
  8
Layer_0
  10
225.80725
  20
282.98395
  0
VERTEX
  5
138a
  8
Layer_0
  10
225.974
  20
282.84189
  0
VERTEX
  5
138b
  8
Layer_0
  10
226.10956
  20
282.73157
  0
VERTEX
  5
138c
  8
Layer_0
  10
226.42242
  20
282.48996
  0
VERTEX
  5
138d
  8
Layer_0
  10
226.58673
  20
282.36713
  0
VERTEX
  5
138e
  8
Layer_0
  10
226.78928
  20
282.21912
  0
VERTEX
  5
138f
  8
Layer_0
  10
226.96362
  20
282.09735
  0
VERTEX
  5
1390
  8
Layer_0
  10
227.11002
  20
281.99976
  0
VERTEX
  5
1391
  8
Layer_0
  10
227.44705
  20
281.78748
  0
VERTEX
  5
1392
  8
Layer_0
  10
227.63113
  20
281.67578
  0
VERTEX
  5
1393
  8
Layer_0
  10
227.84128
  20
281.55103
  0
VERTEX
  5
1394
  8
Layer_0
  10
228.01669
  20
281.45181
  0
VERTEX
  5
1395
  8
Layer_0
  10
228.20078
  20
281.35312
  0
VERTEX
  5
1396
  8
Layer_0
  10
228.39789
  20
281.25281
  0
VERTEX
  5
1397
  8
Layer_0
  10
228.75308
  20
281.08063
  0
VERTEX
  5
1398
  8
Layer_0
  10
228.96591
  20
280.98083
  0
VERTEX
  5
1399
  8
Layer_0
  10
229.15353
  20
280.89789
  0
VERTEX
  5
139a
  8
Layer_0
  10
229.35446
  20
280.81409
  0
VERTEX
  5
139b
  8
Layer_0
  10
229.54965
  20
280.73764
  0
VERTEX
  5
139c
  8
Layer_0
  10
229.92545
  20
280.59882
  0
VERTEX
  5
139d
  8
Layer_0
  10
230.14725
  20
280.5202
  0
VERTEX
  5
139e
  8
Layer_0
  10
230.3476
  20
280.45377
  0
VERTEX
  5
139f
  8
Layer_0
  10
230.54553
  20
280.39304
  0
VERTEX
  5
13a0
  8
Layer_0
  10
230.74643
  20
280.33612
  0
VERTEX
  5
13a1
  8
Layer_0
  10
230.91074
  20
280.29272
  0
VERTEX
  5
13a2
  8
Layer_0
  10
231.14392
  20
280.23279
  0
VERTEX
  5
13a3
  8
Layer_0
  10
231.40799
  20
280.16827
  0
VERTEX
  5
13a4
  8
Layer_0
  10
231.59805
  20
280.12598
  0
VERTEX
  5
13a5
  8
Layer_0
  10
231.80548
  20
280.08447
  0
VERTEX
  5
13a6
  8
Layer_0
  10
232.01315
  20
280.04761
  0
VERTEX
  5
13a7
  8
Layer_0
  10
232.43774
  20
279.98145
  0
VERTEX
  5
13a8
  8
Layer_0
  10
232.67581
  20
279.94785
  0
VERTEX
  5
13a9
  8
Layer_0
  10
232.88431
  20
279.92291
  0
VERTEX
  5
13aa
  8
Layer_0
  10
233.09253
  20
279.90228
  0
VERTEX
  5
13ab
  8
Layer_0
  10
233.30646
  20
279.88629
  0
VERTEX
  5
13ac
  8
Layer_0
  10
233.47266
  20
279.87628
  0
VERTEX
  5
13ad
  8
Layer_0
  10
233.74353
  20
279.86243
  0
VERTEX
  5
13ae
  8
Layer_0
  10
233.9783
  20
279.85321
  0
VERTEX
  5
13af
  8
Layer_0
  10
234.19034
  20
279.84915
  0
VERTEX
  5
13b0
  8
Layer_0
  10
234.4021
  20
279.84967
  0
SEQEND
  0
POLYLINE
  5
13b2
  8
Layer_0
  62
0
  66
1
  10
0
  20
0
  30
0
  0
VERTEX
  5
13b2
  8
Layer_0
  10
65.331657
  20
270.4422
  42
-0.41421356
  0
VERTEX
  5
13b3
  8
Layer_0
  10
66.442207
  20
269.33167
  0
VERTEX
  5
13b4
  8
Layer_0
  10
66.442207
  20
262.66833
  42
-0.41421356
  0
VERTEX
  5
13b5
  8
Layer_0
  10
65.331657
  20
261.5578
  0
VERTEX
  5
13b6
  8
Layer_0
  10
58.668343
  20
261.5578
  42
-0.41421356
  0
VERTEX
  5
13b7
  8
Layer_0
  10
57.557789
  20
262.66833
  0
VERTEX
  5
13b8
  8
Layer_0
  10
57.557789
  20
269.33167
  42
-0.41421356
  0
VERTEX
  5
13b9
  8
Layer_0
  10
58.668343
  20
270.4422
  0
VERTEX
  5
13ba
  8
Layer_0
  10
65.331657
  20
270.4422
  0
SEQEND
  0
POLYLINE
  5
13bc
  8
Layer_0
  62
0
  66
1
  10
0
  20
0
  30
0
  0
VERTEX
  5
13bc
  8
Layer_0
  10
66.331657
  20
290.4422
  42
-0.41421356
  0
VERTEX
  5
13bd
  8
Layer_0
  10
67.442207
  20
289.33167
  0
VERTEX
  5
13be
  8
Layer_0
  10
67.442207
  20
282.66833
  42
-0.41421356
  0
VERTEX
  5
13bf
  8
Layer_0
  10
66.331657
  20
281.5578
  0
VERTEX
  5
13c0
  8
Layer_0
  10
59.668343
  20
281.5578
  42
-0.41421356
  0
VERTEX
  5
13c1
  8
Layer_0
  10
58.557789
  20
282.66833
  0
VERTEX
  5
13c2
  8
Layer_0
  10
58.557789
  20
289.33167
  42
-0.41421356
  0
VERTEX
  5
13c3
  8
Layer_0
  10
59.668343
  20
290.4422
  0
VERTEX
  5
13c4
  8
Layer_0
  10
66.331657
  20
290.4422
  0
SEQEND
  0
ENDSEC
  0
EOF
