  0
SECTION
  2
HEADER
  9
$ACADVER
  1
AC1018
  9
$ACADMAINTVER
 70
     0
  9
$DWGCODEPAGE
  3
ANSI_1252
  9
$INSBASE
 10
0.0
 20
0.0
 30
0.0
  9
$EXTMIN
 10
1.000000000000000E+20
 20
1.000000000000000E+20
 30
1.000000000000000E+20
  9
$EXTMAX
 10
-1.000000000000000E+20
 20
-1.000000000000000E+20
 30
-1.000000000000000E+20
  9
$LIMMIN
 10
0.0
 20
0.0
  9
$LIMMAX
 10
420.0
 20
297.0
  9
$ORTHOMODE
 70
     0
  9
$REGENMODE
 70
     1
  9
$FILLMODE
 70
     1
  9
$QTEXTMODE
 70
     0
  9
$MIRRTEXT
 70
     1
  9
$LTSCALE
 40
1.0
  9
$ATTMODE
 70
     1
  9
$TEXTSIZE
 40
2.5
  9
$TRACEWID
 40
1.0
  9
$TEXTSTYLE
  7
Standard
  9
$CLAYER
  8
0
  9
$CELTYPE
  6
ByLayer
  9
$CECOLOR
 62
   256
  9
$CELTSCALE
 40
1.0
  9
$DISPSILH
 70
     0
  9
$DIMSCALE
 40
1.0
  9
$DIMASZ
 40
2.5
  9
$DIMEXO
 40
0.625
  9
$DIMDLI
 40
3.75
  9
$DIMRND
 40
0.0
  9
$DIMDLE
 40
0.0
  9
$DIMEXE
 40
1.25
  9
$DIMTP
 40
0.0
  9
$DIMTM
 40
0.0
  9
$DIMTXT
 40
2.5
  9
$DIMCEN
 40
2.5
  9
$DIMTSZ
 40
0.0
  9
$DIMTOL
 70
     0
  9
$DIMLIM
 70
     0
  9
$DIMTIH
 70
     0
  9
$DIMTOH
 70
     0
  9
$DIMSE1
 70
     0
  9
$DIMSE2
 70
     0
  9
$DIMTAD
 70
     1
  9
$DIMZIN
 70
     8
  9
$DIMBLK
  1

  9
$DIMASO
 70
     1
  9
$DIMSHO
 70
     1
  9
$DIMPOST
  1

  9
$DIMAPOST
  1

  9
$DIMALT
 70
     0
  9
$DIMALTD
 70
     3
  9
$DIMALTF
 40
0.03937007874016
  9
$DIMLFAC
 40
1.0
  9
$DIMTOFL
 70
     1
  9
$DIMTVP
 40
0.0
  9
$DIMTIX
 70
     0
  9
$DIMSOXD
 70
     0
  9
$DIMSAH
 70
     0
  9
$DIMBLK1
  1

  9
$DIMBLK2
  1

  9
$DIMSTYLE
  2
ISO-25
  9
$DIMCLRD
 70
     0
  9
$DIMCLRE
 70
     0
  9
$DIMCLRT
 70
     0
  9
$DIMTFAC
 40
1.0
  9
$DIMGAP
 40
0.625
  9
$DIMJUST
 70
     0
  9
$DIMSD1
 70
     0
  9
$DIMSD2
 70
     0
  9
$DIMTOLJ
 70
     0
  9
$DIMTZIN
 70
     8
  9
$DIMALTZ
 70
     0
  9
$DIMALTTZ
 70
     0
  9
$DIMUPT
 70
     0
  9
$DIMDEC
 70
     2
  9
$DIMTDEC
 70
     2
  9
$DIMALTU
 70
     2
  9
$DIMALTTD
 70
     3
  9
$DIMTXSTY
  7
Standard
  9
$DIMAUNIT
 70
     0
  9
$DIMADEC
 70
     0
  9
$DIMALTRND
 40
0.0
  9
$DIMAZIN
 70
     0
  9
$DIMDSEP
 70
    44
  9
$DIMATFIT
 70
     3
  9
$DIMFRAC
 70
     0
  9
$DIMLDRBLK
  1

  9
$DIMLUNIT
 70
     2
  9
$DIMLWD
 70
    -2
  9
$DIMLWE
 70
    -2
  9
$DIMTMOVE
 70
     0
  9
$LUNITS
 70
     2
  9
$LUPREC
 70
     4
  9
$SKETCHINC
 40
1.0
  9
$FILLETRAD
 40
10.0
  9
$AUNITS
 70
     0
  9
$AUPREC
 70
     0
  9
$MENU
  1
.
  9
$ELEVATION
 40
0.0
  9
$PELEVATION
 40
0.0
  9
$THICKNESS
 40
0.0
  9
$LIMCHECK
 70
     0
  9
$CHAMFERA
 40
10.0
  9
$CHAMFERB
 40
10.0
  9
$CHAMFERC
 40
20.0
  9
$CHAMFERD
 40
0.0
  9
$SKPOLY
 70
     0
  9
$TDCREATE
 40
2459906.147741759
  9
$TDUCREATE
 40
2459906.481075093
  9
$TDUPDATE
 40
2459906.147741771
  9
$TDUUPDATE
 40
2459906.481075104
  9
$TDINDWG
 40
0.0000000116
  9
$TDUSRTIMER
 40
0.0000000116
  9
$USRTIMER
 70
     1
  9
$ANGBASE
 50
0.0
  9
$ANGDIR
 70
     0
  9
$PDMODE
 70
     0
  9
$PDSIZE
 40
0.0
  9
$PLINEWID
 40
0.0
  9
$SPLFRAME
 70
     0
  9
$SPLINETYPE
 70
     6
  9
$SPLINESEGS
 70
     8
  9
$HANDSEED
  5
803
  9
$SURFTAB1
 70
     6
  9
$SURFTAB2
 70
     6
  9
$SURFTYPE
 70
     6
  9
$SURFU
 70
     6
  9
$SURFV
 70
     6
  9
$UCSBASE
  2

  9
$UCSNAME
  2

  9
$UCSORG
 10
0.0
 20
0.0
 30
0.0
  9
$UCSXDIR
 10
1.0
 20
0.0
 30
0.0
  9
$UCSYDIR
 10
0.0
 20
1.0
 30
0.0
  9
$UCSORTHOREF
  2

  9
$UCSORTHOVIEW
 70
     0
  9
$UCSORGTOP
 10
0.0
 20
0.0
 30
0.0
  9
$UCSORGBOTTOM
 10
0.0
 20
0.0
 30
0.0
  9
$UCSORGLEFT
 10
0.0
 20
0.0
 30
0.0
  9
$UCSORGRIGHT
 10
0.0
 20
0.0
 30
0.0
  9
$UCSORGFRONT
 10
0.0
 20
0.0
 30
0.0
  9
$UCSORGBACK
 10
0.0
 20
0.0
 30
0.0
  9
$PUCSBASE
  2

  9
$PUCSNAME
  2

  9
$PUCSORG
 10
0.0
 20
0.0
 30
0.0
  9
$PUCSXDIR
 10
1.0
 20
0.0
 30
0.0
  9
$PUCSYDIR
 10
0.0
 20
1.0
 30
0.0
  9
$PUCSORTHOREF
  2

  9
$PUCSORTHOVIEW
 70
     0
  9
$PUCSORGTOP
 10
0.0
 20
0.0
 30
0.0
  9
$PUCSORGBOTTOM
 10
0.0
 20
0.0
 30
0.0
  9
$PUCSORGLEFT
 10
0.0
 20
0.0
 30
0.0
  9
$PUCSORGRIGHT
 10
0.0
 20
0.0
 30
0.0
  9
$PUCSORGFRONT
 10
0.0
 20
0.0
 30
0.0
  9
$PUCSORGBACK
 10
0.0
 20
0.0
 30
0.0
  9
$USERI1
 70
     0
  9
$USERI2
 70
     0
  9
$USERI3
 70
     0
  9
$USERI4
 70
     0
  9
$USERI5
 70
     0
  9
$USERR1
 40
0.0
  9
$USERR2
 40
0.0
  9
$USERR3
 40
0.0
  9
$USERR4
 40
0.0
  9
$USERR5
 40
0.0
  9
$WORLDVIEW
 70
     1
  9
$SHADEDGE
 70
     3
  9
$SHADEDIF
 70
    70
  9
$TILEMODE
 70
     1
  9
$MAXACTVP
 70
    64
  9
$PINSBASE
 10
0.0
 20
0.0
 30
0.0
  9
$PLIMCHECK
 70
     0
  9
$PEXTMIN
 10
1.000000000000000E+20
 20
1.000000000000000E+20
 30
1.000000000000000E+20
  9
$PEXTMAX
 10
-1.000000000000000E+20
 20
-1.000000000000000E+20
 30
-1.000000000000000E+20
  9
$PLIMMIN
 10
0.0
 20
0.0
  9
$PLIMMAX
 10
420.0
 20
297.0
  9
$UNITMODE
 70
     0
  9
$VISRETAIN
 70
     1
  9
$PLINEGEN
 70
     0
  9
$PSLTSCALE
 70
     1
  9
$TREEDEPTH
 70
  3020
  9
$CMLSTYLE
  2
Standard
  9
$CMLJUST
 70
     0
  9
$CMLSCALE
 40
20.0
  9
$PROXYGRAPHICS
 70
     1
  9
$MEASUREMENT
 70
     1
  9
$CELWEIGHT
370
    -1
  9
$ENDCAPS
280
     0
  9
$JOINSTYLE
280
     0
  9
$LWDISPLAY
290
     0
  9
$INSUNITS
 70
     4
  9
$HYPERLINKBASE
  1

  9
$STYLESHEET
  1

  9
$XEDIT
290
     1
  9
$CEPSNTYPE
380
     0
  9
$PSTYLEMODE
290
     1
  9
$FINGERPRINTGUID
  2
{F9254AFD-8BDA-498C-B695-C1B737F4CF83}
  9
$VERSIONGUID
  2
{FAEB1C32-E019-11D5-929B-00C0DF256EC4}
  9
$EXTNAMES
290
     1
  9
$PSVPSCALE
 40
0.0
  9
$OLESTARTUP
290
     0
  9
$SORTENTS
280
   127
  9
$INDEXCTL
280
     0
  9
$HIDETEXT
280
     1
  9
$XCLIPFRAME
290
     0
  9
$HALOGAP
280
     0
  9
$OBSCOLOR
 70
   257
  9
$OBSLTYPE
280
     0
  9
$INTERSECTIONDISPLAY
280
     0
  9
$INTERSECTIONCOLOR
 70
   257
  9
$DIMASSOC
280
     2
  9
$PROJECTNAME
  1

  0
ENDSEC
  0
SECTION
  2
CLASSES
  0
CLASS
  1
ACDBDICTIONARYWDFLT
  2
AcDbDictionaryWithDefault
  3
ObjectDBX Classes
 90
        0
 91
        4
280
     0
281
     0
  0
CLASS
  1
VISUALSTYLE
  2
AcDbVisualStyle
  3
ObjectDBX Classes
 90
     4095
 91
        4
280
     0
281
     0
  0
ENDSEC
  0
SECTION
  2
TABLES
  0
TABLE
  2
VPORT
  5
8
330
0
100
AcDbSymbolTable
 70
     1
  0
VPORT
  5
29
330
8
100
AcDbSymbolTableRecord
100
AcDbViewportTableRecord
  2
*Active
 70
     0
 10
0.0
 20
0.0
 11
1.0
 21
1.0
 12
344.1869158878504
 22
148.5
 13
0.0
 23
0.0
 14
10.0
 24
10.0
 15
10.0
 25
10.0
 16
0.0
 26
0.0
 36
1.0
 17
0.0
 27
0.0
 37
0.0
 40
297.0
 41
1.972972972850329
 42
50.0
 43
0.0
 44
0.0
 50
0.0
 51
0.0
 71
     0
 72
   100
 73
     1
 74
     3
 75
     0
 76
     0
 77
     0
 78
     0
281
     0
 65
     1
110
0.0
120
0.0
130
0.0
111
1.0
121
0.0
131
0.0
112
0.0
122
1.0
132
0.0
 79
     0
146
0.0
  0
ENDTAB
  0
TABLE
  2
LTYPE
  5
5
330
0
100
AcDbSymbolTable
 70
     1
  0
LTYPE
  5
14
330
5
100
AcDbSymbolTableRecord
100
AcDbLinetypeTableRecord
  2
ByBlock
 70
     0
  3

 72
    65
 73
     0
 40
0.0
  0
LTYPE
  5
15
330
5
100
AcDbSymbolTableRecord
100
AcDbLinetypeTableRecord
  2
ByLayer
 70
     0
  3

 72
    65
 73
     0
 40
0.0
  0
LTYPE
  5
16
330
5
100
AcDbSymbolTableRecord
100
AcDbLinetypeTableRecord
  2
Continuous
 70
     0
  3
Solid line
 72
    65
 73
     0
 40
0.0
  0
ENDTAB
  0
TABLE
  2
LAYER
  5
2
330
0
100
AcDbSymbolTable
 70
     1
  0
LAYER
  5
10
330
2
100
AcDbSymbolTableRecord
100
AcDbLayerTableRecord
  2
0
 70
     0
 62
     7
  6
Continuous
370
    -3
390
F
  0
ENDTAB
  0
TABLE
  2
STYLE
  5
3
330
0
100
AcDbSymbolTable
 70
     1
  0
STYLE
  5
11
330
3
100
AcDbSymbolTableRecord
100
AcDbTextStyleTableRecord
  2
Standard
 70
     0
 40
0.0
 41
1.0
 50
0.0
 71
     0
 42
2.5
  3
txt
  4

  0
ENDTAB
  0
TABLE
  2
VIEW
  5
6
330
0
100
AcDbSymbolTable
 70
     0
  0
ENDTAB
  0
TABLE
  2
UCS
  5
7
330
0
100
AcDbSymbolTable
 70
     0
  0
ENDTAB
  0
TABLE
  2
APPID
  5
9
330
0
100
AcDbSymbolTable
 70
     1
  0
APPID
  5
12
330
9
100
AcDbSymbolTableRecord
100
AcDbRegAppTableRecord
  2
ACAD
 70
     0
  0
ENDTAB
  0
TABLE
  2
DIMSTYLE
  5
A
330
0
100
AcDbSymbolTable
 70
     1
100
AcDbDimStyleTable
  0
DIMSTYLE
105
27
330
A
100
AcDbSymbolTableRecord
100
AcDbDimStyleTableRecord
  2
ISO-25
 70
     0
 41
2.5
 42
0.625
 43
3.75
 44
1.25
 73
     0
 74
     0
 77
     1
 78
     8
140
2.5
141
2.5
143
0.03937007874016
147
0.625
171
     3
172
     1
271
     2
272
     2
274
     3
278
    44
283
     0
284
     8
340
11
  0
ENDTAB
  0
TABLE
  2
BLOCK_RECORD
  5
1
330
0
100
AcDbSymbolTable
 70
     1
  0
BLOCK_RECORD
  5
1F
330
1
100
AcDbSymbolTableRecord
100
AcDbBlockTableRecord
  2
*Model_Space
340
22
  0
BLOCK_RECORD
  5
1B
330
1
100
AcDbSymbolTableRecord
100
AcDbBlockTableRecord
  2
*Paper_Space
340
1E
  0
BLOCK_RECORD
  5
23
330
1
100
AcDbSymbolTableRecord
100
AcDbBlockTableRecord
  2
*Paper_Space0
340
26
  0
ENDTAB
  0
ENDSEC
  0
SECTION
  2
BLOCKS
  0
BLOCK
  5
20
330
1F
100
AcDbEntity
  8
0
100
AcDbBlockBegin
  2
*Model_Space
 70
     0
 10
0.0
 20
0.0
 30
0.0
  3
*Model_Space
  1

  0
ENDBLK
  5
21
330
1F
100
AcDbEntity
  8
0
100
AcDbBlockEnd
  0
BLOCK
  5
1C
330
1B
100
AcDbEntity
 67
     1
  8
0
100
AcDbBlockBegin
  2
*Paper_Space
 70
     0
 10
0.0
 20
0.0
 30
0.0
  3
*Paper_Space
  1

  0
ENDBLK
  5
1D
330
1B
100
AcDbEntity
 67
     1
  8
0
100
AcDbBlockEnd
  0
BLOCK
  5
24
330
23
100
AcDbEntity
  8
0
100
AcDbBlockBegin
  2
*Paper_Space0
 70
     0
 10
0.0
 20
0.0
 30
0.0
  3
*Paper_Space0
  1

  0
ENDBLK
  5
25
330
23
100
AcDbEntity
  8
0
100
AcDbBlockEnd
  0
ENDSEC
  0
SECTION
  2
ENTITIES
  0
SPLINE
  5
3B
330
1F
100
AcDbEntity
  8
0
 62
     7
100
AcDbSpline
210
0.0
220
0.0
230
1.0
 70
    12
 71
     3
 72
     8
 73
     4
 74
     0
 42
0.000000001
 43
0.0
 40
0.0
 40
0.0
 40
0.0
 40
0.0
 40
1.0
 40
1.0
 40
1.0
 40
1.0
 10
291.4216083333333
 20
146.2242722222222
 30
0.0
 41
1.0
 10
291.4216083333333
 20
88.23466111111111
 30
0.0
 41
1.0
 10
244.4115
 20
41.22455277777777
 30
0.0
 41
1.0
 10
186.4218888888889
 20
41.22455277777777
 30
0.0
 41
1.0
  0
SPLINE
  5
3C
330
1F
100
AcDbEntity
  8
0
 62
     7
100
AcDbSpline
210
0.0
220
0.0
230
1.0
 70
    12
 71
     3
 72
     8
 73
     4
 74
     0
 42
0.000000001
 43
0.0
 40
0.0
 40
0.0
 40
0.0
 40
0.0
 40
1.0
 40
1.0
 40
1.0
 40
1.0
 10
186.4218888888889
 20
41.22455277777777
 30
0.0
 41
1.0
 10
128.4322777777778
 20
41.22455277777777
 30
0.0
 41
1.0
 10
81.42216944444444
 20
88.23466111111111
 30
0.0
 41
1.0
 10
81.42216944444444
 20
146.2242722222222
 30
0.0
 41
1.0
  0
SPLINE
  5
3D
330
1F
100
AcDbEntity
  8
0
 62
     7
100
AcDbSpline
210
0.0
220
0.0
230
1.0
 70
    12
 71
     3
 72
     8
 73
     4
 74
     0
 42
0.000000001
 43
0.0
 40
0.0
 40
0.0
 40
0.0
 40
0.0
 40
1.0
 40
1.0
 40
1.0
 40
1.0
 10
81.42216944444444
 20
146.2242722222222
 30
0.0
 41
1.0
 10
81.42216944444444
 20
204.2138833333333
 30
0.0
 41
1.0
 10
128.4322777777778
 20
251.2239916666666
 30
0.0
 41
1.0
 10
186.4218888888889
 20
251.2239916666666
 30
0.0
 41
1.0
  0
SPLINE
  5
3E
330
1F
100
AcDbEntity
  8
0
 62
     7
100
AcDbSpline
210
0.0
220
0.0
230
1.0
 70
    12
 71
     3
 72
     8
 73
     4
 74
     0
 42
0.000000001
 43
0.0
 40
0.0
 40
0.0
 40
0.0
 40
0.0
 40
1.0
 40
1.0
 40
1.0
 40
1.0
 10
186.4218888888889
 20
251.2239916666666
 30
0.0
 41
1.0
 10
244.4115
 20
251.2239916666666
 30
0.0
 41
1.0
 10
291.4216083333333
 20
204.2138833333333
 30
0.0
 41
1.0
 10
291.4216083333333
 20
146.2242722222222
 30
0.0
 41
1.0
  0
SPLINE
  5
3F
330
1F
100
AcDbEntity
  8
0
 62
     7
100
AcDbSpline
210
0.0
220
0.0
230
1.0
 70
    12
 71
     3
 72
     8
 73
     4
 74
     0
 42
0.000000001
 43
0.0
 40
0.0
 40
0.0
 40
0.0
 40
0.0
 40
1.0
 40
1.0
 40
1.0
 40
1.0
 10
277.9222138888888
 20
146.2239194444444
 30
0.0
 41
1.0
 10
277.9222138888888
 20
95.68991388888888
 30
0.0
 41
1.0
 10
236.9562472222222
 20
54.72429999999999
 30
0.0
 41
1.0
 10
186.4222416666667
 20
54.72429999999999
 30
0.0
 41
1.0
  0
SPLINE
  5
40
330
1F
100
AcDbEntity
  8
0
 62
     7
100
AcDbSpline
210
0.0
220
0.0
230
1.0
 70
    12
 71
     3
 72
     8
 73
     4
 74
     0
 42
0.000000001
 43
0.0
 40
0.0
 40
0.0
 40
0.0
 40
0.0
 40
1.0
 40
1.0
 40
1.0
 40
1.0
 10
186.4222416666667
 20
54.72429999999999
 30
0.0
 41
1.0
 10
135.8882361111111
 20
54.72429999999999
 30
0.0
 41
1.0
 10
94.92226944444444
 20
95.68991388888888
 30
0.0
 41
1.0
 10
94.92226944444444
 20
146.2239194444444
 30
0.0
 41
1.0
  0
SPLINE
  5
41
330
1F
100
AcDbEntity
  8
0
 62
     7
100
AcDbSpline
210
0.0
220
0.0
230
1.0
 70
    12
 71
     3
 72
     8
 73
     4
 74
     0
 42
0.000000001
 43
0.0
 40
0.0
 40
0.0
 40
0.0
 40
0.0
 40
1.0
 40
1.0
 40
1.0
 40
1.0
 10
94.92226944444444
 20
146.2239194444444
 30
0.0
 41
1.0
 10
94.92226944444444
 20
196.757925
 30
0.0
 41
1.0
 10
135.8882361111111
 20
237.7235388888889
 30
0.0
 41
1.0
 10
186.4222416666667
 20
237.7235388888889
 30
0.0
 41
1.0
  0
SPLINE
  5
42
330
1F
100
AcDbEntity
  8
0
 62
     7
100
AcDbSpline
210
0.0
220
0.0
230
1.0
 70
    12
 71
     3
 72
     8
 73
     4
 74
     0
 42
0.000000001
 43
0.0
 40
0.0
 40
0.0
 40
0.0
 40
0.0
 40
1.0
 40
1.0
 40
1.0
 40
1.0
 10
186.4222416666667
 20
237.7235388888889
 30
0.0
 41
1.0
 10
236.9562472222222
 20
237.7235388888889
 30
0.0
 41
1.0
 10
277.9222138888888
 20
196.757925
 30
0.0
 41
1.0
 10
277.9222138888888
 20
146.2239194444444
 30
0.0
 41
1.0
  0
SPLINE
  5
43
330
1F
100
AcDbEntity
  8
0
 62
     7
100
AcDbSpline
210
0.0
220
0.0
230
1.0
 70
    12
 71
     3
 72
     8
 73
     4
 74
     0
 42
0.000000001
 43
0.0
 40
0.0
 40
0.0
 40
0.0
 40
0.0
 40
1.0
 40
1.0
 40
1.0
 40
1.0
 10
286.4273333333333
 20
147.2430944444444
 30
0.0
 41
1.0
 10
286.9794305555556
 20
147.2430944444444
 30
0.0
 41
1.0
 10
287.4271055555555
 20
146.7957722222222
 30
0.0
 41
1.0
 10
287.4271055555555
 20
146.243675
 30
0.0
 41
1.0
  0
SPLINE
  5
44
330
1F
100
AcDbEntity
  8
0
 62
     7
100
AcDbSpline
210
0.0
220
0.0
230
1.0
 70
    12
 71
     3
 72
     8
 73
     4
 74
     0
 42
0.000000001
 43
0.0
 40
0.0
 40
0.0
 40
0.0
 40
0.0
 40
1.0
 40
1.0
 40
1.0
 40
1.0
 10
287.4271055555555
 20
146.243675
 30
0.0
 41
1.0
 10
287.4271055555555
 20
145.6915777777778
 30
0.0
 41
1.0
 10
286.9794305555556
 20
145.2442555555555
 30
0.0
 41
1.0
 10
286.4273333333333
 20
145.2442555555555
 30
0.0
 41
1.0
  0
SPLINE
  5
45
330
1F
100
AcDbEntity
  8
0
 62
     7
100
AcDbSpline
210
0.0
220
0.0
230
1.0
 70
    12
 71
     3
 72
     8
 73
     4
 74
     0
 42
0.000000001
 43
0.0
 40
0.0
 40
0.0
 40
0.0
 40
0.0
 40
1.0
 40
1.0
 40
1.0
 40
1.0
 10
286.4273333333333
 20
145.2442555555555
 30
0.0
 41
1.0
 10
285.8752361111111
 20
145.2442555555555
 30
0.0
 41
1.0
 10
285.4275611111111
 20
145.6915777777778
 30
0.0
 41
1.0
 10
285.4275611111111
 20
146.243675
 30
0.0
 41
1.0
  0
SPLINE
  5
46
330
1F
100
AcDbEntity
  8
0
 62
     7
100
AcDbSpline
210
0.0
220
0.0
230
1.0
 70
    12
 71
     3
 72
     8
 73
     4
 74
     0
 42
0.000000001
 43
0.0
 40
0.0
 40
0.0
 40
0.0
 40
0.0
 40
1.0
 40
1.0
 40
1.0
 40
1.0
 10
285.4275611111111
 20
146.243675
 30
0.0
 41
1.0
 10
285.4275611111111
 20
146.7957722222222
 30
0.0
 41
1.0
 10
285.8752361111111
 20
147.2430944444444
 30
0.0
 41
1.0
 10
286.4273333333333
 20
147.2430944444444
 30
0.0
 41
1.0
  0
SPLINE
  5
47
330
1F
100
AcDbEntity
  8
0
 62
     7
100
AcDbSpline
210
0.0
220
0.0
230
1.0
 70
    12
 71
     3
 72
     8
 73
     4
 74
     0
 42
0.000000001
 43
0.0
 40
0.0
 40
0.0
 40
0.0
 40
0.0
 40
1.0
 40
1.0
 40
1.0
 40
1.0
 10
186.46775
 20
247.2238444444445
 30
0.0
 41
1.0
 10
187.0198472222222
 20
247.2238444444445
 30
0.0
 41
1.0
 10
187.4675222222222
 20
246.7765222222222
 30
0.0
 41
1.0
 10
187.4675222222222
 20
246.224425
 30
0.0
 41
1.0
  0
SPLINE
  5
48
330
1F
100
AcDbEntity
  8
0
 62
     7
100
AcDbSpline
210
0.0
220
0.0
230
1.0
 70
    12
 71
     3
 72
     8
 73
     4
 74
     0
 42
0.000000001
 43
0.0
 40
0.0
 40
0.0
 40
0.0
 40
0.0
 40
1.0
 40
1.0
 40
1.0
 40
1.0
 10
187.4675222222222
 20
246.224425
 30
0.0
 41
1.0
 10
187.4675222222222
 20
245.6723277777778
 30
0.0
 41
1.0
 10
187.0198472222222
 20
245.2250055555555
 30
0.0
 41
1.0
 10
186.46775
 20
245.2250055555555
 30
0.0
 41
1.0
  0
SPLINE
  5
49
330
1F
100
AcDbEntity
  8
0
 62
     7
100
AcDbSpline
210
0.0
220
0.0
230
1.0
 70
    12
 71
     3
 72
     8
 73
     4
 74
     0
 42
0.000000001
 43
0.0
 40
0.0
 40
0.0
 40
0.0
 40
0.0
 40
1.0
 40
1.0
 40
1.0
 40
1.0
 10
186.46775
 20
245.2250055555555
 30
0.0
 41
1.0
 10
185.9156527777778
 20
245.2250055555555
 30
0.0
 41
1.0
 10
185.4679777777777
 20
245.6723277777778
 30
0.0
 41
1.0
 10
185.4679777777777
 20
246.224425
 30
0.0
 41
1.0
  0
SPLINE
  5
4A
330
1F
100
AcDbEntity
  8
0
 62
     7
100
AcDbSpline
210
0.0
220
0.0
230
1.0
 70
    12
 71
     3
 72
     8
 73
     4
 74
     0
 42
0.000000001
 43
0.0
 40
0.0
 40
0.0
 40
0.0
 40
0.0
 40
1.0
 40
1.0
 40
1.0
 40
1.0
 10
185.4679777777777
 20
246.224425
 30
0.0
 41
1.0
 10
185.4679777777777
 20
246.7765222222222
 30
0.0
 41
1.0
 10
185.9156527777778
 20
247.2238444444445
 30
0.0
 41
1.0
 10
186.46775
 20
247.2238444444445
 30
0.0
 41
1.0
  0
SPLINE
  5
4B
330
1F
100
AcDbEntity
  8
0
 62
     7
100
AcDbSpline
210
0.0
220
0.0
230
1.0
 70
    12
 71
     3
 72
     8
 73
     4
 74
     0
 42
0.000000001
 43
0.0
 40
0.0
 40
0.0
 40
0.0
 40
0.0
 40
1.0
 40
1.0
 40
1.0
 40
1.0
 10
86.43408333333333
 20
147.2325111111111
 30
0.0
 41
1.0
 10
86.98618055555555
 20
147.2325111111111
 30
0.0
 41
1.0
 10
87.43385555555555
 20
146.7851888888889
 30
0.0
 41
1.0
 10
87.43385555555555
 20
146.2330916666667
 30
0.0
 41
1.0
  0
SPLINE
  5
4C
330
1F
100
AcDbEntity
  8
0
 62
     7
100
AcDbSpline
210
0.0
220
0.0
230
1.0
 70
    12
 71
     3
 72
     8
 73
     4
 74
     0
 42
0.000000001
 43
0.0
 40
0.0
 40
0.0
 40
0.0
 40
0.0
 40
1.0
 40
1.0
 40
1.0
 40
1.0
 10
87.43385555555555
 20
146.2330916666667
 30
0.0
 41
1.0
 10
87.43385555555555
 20
145.6809944444445
 30
0.0
 41
1.0
 10
86.98618055555555
 20
145.2336722222222
 30
0.0
 41
1.0
 10
86.43408333333333
 20
145.2336722222222
 30
0.0
 41
1.0
  0
SPLINE
  5
4D
330
1F
100
AcDbEntity
  8
0
 62
     7
100
AcDbSpline
210
0.0
220
0.0
230
1.0
 70
    12
 71
     3
 72
     8
 73
     4
 74
     0
 42
0.000000001
 43
0.0
 40
0.0
 40
0.0
 40
0.0
 40
0.0
 40
1.0
 40
1.0
 40
1.0
 40
1.0
 10
86.43408333333333
 20
145.2336722222222
 30
0.0
 41
1.0
 10
85.88198611111112
 20
145.2336722222222
 30
0.0
 41
1.0
 10
85.4343111111111
 20
145.6809944444445
 30
0.0
 41
1.0
 10
85.4343111111111
 20
146.2330916666667
 30
0.0
 41
1.0
  0
SPLINE
  5
4E
330
1F
100
AcDbEntity
  8
0
 62
     7
100
AcDbSpline
210
0.0
220
0.0
230
1.0
 70
    12
 71
     3
 72
     8
 73
     4
 74
     0
 42
0.000000001
 43
0.0
 40
0.0
 40
0.0
 40
0.0
 40
0.0
 40
1.0
 40
1.0
 40
1.0
 40
1.0
 10
85.4343111111111
 20
146.2330916666667
 30
0.0
 41
1.0
 10
85.4343111111111
 20
146.7851888888889
 30
0.0
 41
1.0
 10
85.88198611111112
 20
147.2325111111111
 30
0.0
 41
1.0
 10
86.43408333333333
 20
147.2325111111111
 30
0.0
 41
1.0
  0
SPLINE
  5
4F
330
1F
100
AcDbEntity
  8
0
 62
     7
100
AcDbSpline
210
0.0
220
0.0
230
1.0
 70
    12
 71
     3
 72
     8
 73
     4
 74
     0
 42
0.000000001
 43
0.0
 40
0.0
 40
0.0
 40
0.0
 40
0.0
 40
1.0
 40
1.0
 40
1.0
 40
1.0
 10
186.4465833333333
 20
47.23059444444444
 30
0.0
 41
1.0
 10
186.9986805555556
 20
47.23059444444444
 30
0.0
 41
1.0
 10
187.4463555555556
 20
46.78327222222222
 30
0.0
 41
1.0
 10
187.4463555555556
 20
46.23117499999999
 30
0.0
 41
1.0
  0
SPLINE
  5
50
330
1F
100
AcDbEntity
  8
0
 62
     7
100
AcDbSpline
210
0.0
220
0.0
230
1.0
 70
    12
 71
     3
 72
     8
 73
     4
 74
     0
 42
0.000000001
 43
0.0
 40
0.0
 40
0.0
 40
0.0
 40
0.0
 40
1.0
 40
1.0
 40
1.0
 40
1.0
 10
187.4463555555556
 20
46.23117499999999
 30
0.0
 41
1.0
 10
187.4463555555556
 20
45.67907777777777
 30
0.0
 41
1.0
 10
186.9986805555556
 20
45.23175555555555
 30
0.0
 41
1.0
 10
186.4465833333333
 20
45.23175555555555
 30
0.0
 41
1.0
  0
SPLINE
  5
51
330
1F
100
AcDbEntity
  8
0
 62
     7
100
AcDbSpline
210
0.0
220
0.0
230
1.0
 70
    12
 71
     3
 72
     8
 73
     4
 74
     0
 42
0.000000001
 43
0.0
 40
0.0
 40
0.0
 40
0.0
 40
0.0
 40
1.0
 40
1.0
 40
1.0
 40
1.0
 10
186.4465833333333
 20
45.23175555555555
 30
0.0
 41
1.0
 10
185.8944861111111
 20
45.23175555555555
 30
0.0
 41
1.0
 10
185.4468111111111
 20
45.67907777777777
 30
0.0
 41
1.0
 10
185.4468111111111
 20
46.23117499999999
 30
0.0
 41
1.0
  0
SPLINE
  5
52
330
1F
100
AcDbEntity
  8
0
 62
     7
100
AcDbSpline
210
0.0
220
0.0
230
1.0
 70
    12
 71
     3
 72
     8
 73
     4
 74
     0
 42
0.000000001
 43
0.0
 40
0.0
 40
0.0
 40
0.0
 40
0.0
 40
1.0
 40
1.0
 40
1.0
 40
1.0
 10
185.4468111111111
 20
46.23117499999999
 30
0.0
 41
1.0
 10
185.4468111111111
 20
46.78327222222222
 30
0.0
 41
1.0
 10
185.8944861111111
 20
47.23059444444444
 30
0.0
 41
1.0
 10
186.4465833333333
 20
47.23059444444444
 30
0.0
 41
1.0
  0
SPLINE
  5
53
330
1F
100
AcDbEntity
  8
0
 62
     7
100
AcDbSpline
210
0.0
220
0.0
230
1.0
 70
    12
 71
     3
 72
     8
 73
     4
 74
     0
 42
0.000000001
 43
0.0
 40
0.0
 40
0.0
 40
0.0
 40
0.0
 40
1.0
 40
1.0
 40
1.0
 40
1.0
 10
157.7477583333333
 20
199.2707611111111
 30
0.0
 41
1.0
 10
158.2321222222222
 20
199.2023222222222
 30
0.0
 41
1.0
 10
158.7143694444444
 20
199.1176555555556
 30
0.0
 41
1.0
 10
159.1927361111111
 20
199.0157027777778
 30
0.0
 41
1.0
  0
POLYLINE
  5
54
330
1F
100
AcDbEntity
  8
0
 62
     7
100
AcDb2dPolyline
 66
     1
 10
0.0
 20
0.0
 30
0.0
  0
VERTEX
  5
55
330
54
100
AcDbEntity
  8
0
100
AcDbVertex
100
AcDb2dVertex
 10
159.1927361111111
 20
199.0157027777778
 30
0.0
  0
VERTEX
  5
56
330
54
100
AcDbEntity
  8
0
100
AcDbVertex
100
AcDb2dVertex
 10
159.1934416666666
 20
199.0157027777778
 30
0.0
  0
VERTEX
  5
57
330
54
100
AcDbEntity
  8
0
100
AcDbVertex
100
AcDb2dVertex
 10
159.3317305555555
 20
198.6195333333333
 30
0.0
  0
VERTEX
  5
58
330
54
100
AcDbEntity
  8
0
100
AcDbVertex
100
AcDb2dVertex
 10
159.4594361111111
 20
198.2021972222222
 30
0.0
  0
VERTEX
  5
59
330
54
100
AcDbEntity
  8
0
100
AcDbVertex
100
AcDb2dVertex
 10
159.5606833333333
 20
197.8106138888889
 30
0.0
  0
VERTEX
  5
5A
330
54
100
AcDbEntity
  8
0
100
AcDbVertex
100
AcDb2dVertex
 10
159.6397055555555
 20
197.4454888888889
 30
0.0
  0
VERTEX
  5
5B
330
54
100
AcDbEntity
  8
0
100
AcDbVertex
100
AcDb2dVertex
 10
159.6968555555555
 20
197.1114083333333
 30
0.0
  0
VERTEX
  5
5C
330
54
100
AcDbEntity
  8
0
100
AcDbVertex
100
AcDb2dVertex
 10
159.7370722222222
 20
196.8013166666667
 30
0.0
  0
VERTEX
  5
5D
330
54
100
AcDbEntity
  8
0
100
AcDbVertex
100
AcDb2dVertex
 10
159.7614138888889
 20
196.52615
 30
0.0
  0
VERTEX
  5
5E
330
54
100
AcDbEntity
  8
0
100
AcDbVertex
100
AcDb2dVertex
 10
159.7719972222222
 20
196.2820277777778
 30
0.0
  0
VERTEX
  5
5F
330
54
100
AcDbEntity
  8
0
100
AcDbVertex
100
AcDb2dVertex
 10
159.7727027777778
 20
196.0650694444444
 30
0.0
  0
VERTEX
  5
60
330
54
100
AcDbEntity
  8
0
100
AcDbVertex
100
AcDb2dVertex
 10
159.766
 20
195.8872694444444
 30
0.0
  0
VERTEX
  5
61
330
54
100
AcDbEntity
  8
0
100
AcDbVertex
100
AcDb2dVertex
 10
159.7395416666667
 20
195.6226861111111
 30
0.0
  0
VERTEX
  5
62
330
54
100
AcDbEntity
  8
0
100
AcDbVertex
100
AcDb2dVertex
 10
159.7141416666666
 20
195.4833388888889
 30
0.0
  0
VERTEX
  5
63
330
54
100
AcDbEntity
  8
0
100
AcDbVertex
100
AcDb2dVertex
 10
159.6457027777778
 20
195.1898277777778
 30
0.0
  0
VERTEX
  5
64
330
54
100
AcDbEntity
  8
0
100
AcDbVertex
100
AcDb2dVertex
 10
159.6160694444444
 20
194.9647555555555
 30
0.0
  0
VERTEX
  5
65
330
54
100
AcDbEntity
  8
0
100
AcDbVertex
100
AcDb2dVertex
 10
159.6132472222222
 20
194.7679055555556
 30
0.0
  0
VERTEX
  5
66
330
54
100
AcDbEntity
  8
0
100
AcDbVertex
100
AcDb2dVertex
 10
159.6344138888889
 20
194.6010416666667
 30
0.0
  0
VERTEX
  5
67
330
54
100
AcDbEntity
  8
0
100
AcDbVertex
100
AcDb2dVertex
 10
159.6527583333333
 20
194.5297805555555
 30
0.0
  0
VERTEX
  5
68
330
54
100
AcDbEntity
  8
0
100
AcDbVertex
100
AcDb2dVertex
 10
159.6763944444444
 20
194.4666333333333
 30
0.0
  0
VERTEX
  5
69
330
54
100
AcDbEntity
  8
0
100
AcDbVertex
100
AcDb2dVertex
 10
159.7042638888889
 20
194.4119527777778
 30
0.0
  0
VERTEX
  5
6A
330
54
100
AcDbEntity
  8
0
100
AcDbVertex
100
AcDb2dVertex
 10
159.7370722222222
 20
194.3653861111111
 30
0.0
  0
VERTEX
  5
6B
330
54
100
AcDbEntity
  8
0
100
AcDbVertex
100
AcDb2dVertex
 10
159.7737611111111
 20
194.3283444444444
 30
0.0
  0
VERTEX
  5
6C
330
54
100
AcDbEntity
  8
0
100
AcDbVertex
100
AcDb2dVertex
 10
159.8139777777778
 20
194.2994166666667
 30
0.0
  0
VERTEX
  5
6D
330
54
100
AcDbEntity
  8
0
100
AcDbVertex
100
AcDb2dVertex
 10
159.8686583333333
 20
194.2757805555555
 30
0.0
  0
VERTEX
  5
6E
330
54
100
AcDbEntity
  8
0
100
AcDbVertex
100
AcDb2dVertex
 10
160.5904416666667
 20
194.0309527777778
 30
0.0
  0
VERTEX
  5
6F
330
54
100
AcDbEntity
  8
0
100
AcDbVertex
100
AcDb2dVertex
 10
161.3005833333333
 20
193.7540222222222
 30
0.0
  0
VERTEX
  5
70
330
54
100
AcDbEntity
  8
0
100
AcDbVertex
100
AcDb2dVertex
 10
161.3577333333333
 20
193.7370888888889
 30
0.0
  0
VERTEX
  5
71
330
54
100
AcDbEntity
  8
0
100
AcDbVertex
100
AcDb2dVertex
 10
161.4071222222222
 20
193.7335611111111
 30
0.0
  0
VERTEX
  5
72
330
54
100
AcDbEntity
  8
0
100
AcDbVertex
100
AcDb2dVertex
 10
161.4596861111111
 20
193.7388527777778
 30
0.0
  0
VERTEX
  5
73
330
54
100
AcDbEntity
  8
0
100
AcDbVertex
100
AcDb2dVertex
 10
161.5143666666666
 20
193.7533166666666
 30
0.0
  0
VERTEX
  5
74
330
54
100
AcDbEntity
  8
0
100
AcDbVertex
100
AcDb2dVertex
 10
161.5708111111111
 20
193.7776583333333
 30
0.0
  0
VERTEX
  5
75
330
54
100
AcDbEntity
  8
0
100
AcDbVertex
100
AcDb2dVertex
 10
161.6300777777778
 20
193.8101138888889
 30
0.0
  0
VERTEX
  5
76
330
54
100
AcDbEntity
  8
0
100
AcDbVertex
100
AcDb2dVertex
 10
161.69005
 20
193.8535055555555
 30
0.0
  0
VERTEX
  5
77
330
54
100
AcDbEntity
  8
0
100
AcDbVertex
100
AcDb2dVertex
 10
161.8124638888889
 20
193.9678055555555
 30
0.0
  0
VERTEX
  5
78
330
54
100
AcDbEntity
  8
0
100
AcDbVertex
100
AcDb2dVertex
 10
161.9373472222222
 20
194.1198527777778
 30
0.0
  0
VERTEX
  5
79
330
54
100
AcDbEntity
  8
0
100
AcDbVertex
100
AcDb2dVertex
 10
162.0597611111111
 20
194.3114111111111
 30
0.0
  0
VERTEX
  5
7A
330
54
100
AcDbEntity
  8
0
100
AcDbVertex
100
AcDb2dVertex
 10
162.1959333333333
 20
194.5805805555555
 30
0.0
  0
VERTEX
  5
7B
330
54
100
AcDbEntity
  8
0
100
AcDbVertex
100
AcDb2dVertex
 10
162.2657833333333
 20
194.7029944444444
 30
0.0
  0
VERTEX
  5
7C
330
54
100
AcDbEntity
  8
0
100
AcDbVertex
100
AcDb2dVertex
 10
162.4157138888889
 20
194.922775
 30
0.0
  0
VERTEX
  5
7D
330
54
100
AcDbEntity
  8
0
100
AcDbVertex
100
AcDb2dVertex
 10
162.5243694444444
 20
195.0635333333333
 30
0.0
  0
VERTEX
  5
7E
330
54
100
AcDbEntity
  8
0
100
AcDbVertex
100
AcDb2dVertex
 10
162.6644222222222
 20
195.2286333333333
 30
0.0
  0
VERTEX
  5
7F
330
54
100
AcDbEntity
  8
0
100
AcDbVertex
100
AcDb2dVertex
 10
162.829875
 20
195.4096083333333
 30
0.0
  0
VERTEX
  5
80
330
54
100
AcDbEntity
  8
0
100
AcDbVertex
100
AcDb2dVertex
 10
163.0246083333333
 20
195.6043416666667
 30
0.0
  0
VERTEX
  5
81
330
54
100
AcDbEntity
  8
0
100
AcDbVertex
100
AcDb2dVertex
 10
163.255325
 20
195.8163611111111
 30
0.0
  0
VERTEX
  5
82
330
54
100
AcDbEntity
  8
0
100
AcDbVertex
100
AcDb2dVertex
 10
163.5135583333333
 20
196.0354361111111
 30
0.0
  0
VERTEX
  5
83
330
54
100
AcDbEntity
  8
0
100
AcDbVertex
100
AcDb2dVertex
 10
163.8088333333333
 20
196.2643888888889
 30
0.0
  0
VERTEX
  5
84
330
54
100
AcDbEntity
  8
0
100
AcDbVertex
100
AcDb2dVertex
 10
164.137975
 20
196.4993388888889
 30
0.0
  0
VERTEX
  5
85
330
54
100
AcDbEntity
  8
0
100
AcDbVertex
100
AcDb2dVertex
 10
164.5045111111111
 20
196.7374638888889
 30
0.0
  0
VERTEX
  5
86
330
54
100
AcDbEntity
  8
0
100
AcDbVertex
100
AcDb2dVertex
 10
164.86505
 20
196.9519527777778
 30
0.0
  0
VERTEX
  5
87
330
54
100
AcDbEntity
  8
0
100
AcDbVertex
100
AcDb2dVertex
 10
164.8657555555555
 20
196.9512472222222
 30
0.0
  0
SEQEND
  5
88
330
54
100
AcDbEntity
  8
0
 62
     7
  0
SPLINE
  5
89
330
1F
100
AcDbEntity
  8
0
 62
     7
100
AcDbSpline
210
0.0
220
0.0
230
1.0
 70
    12
 71
     3
 72
     8
 73
     4
 74
     0
 42
0.000000001
 43
0.0
 40
0.0
 40
0.0
 40
0.0
 40
0.0
 40
1.0
 40
1.0
 40
1.0
 40
1.0
 10
164.8657555555555
 20
196.9512472222222
 30
0.0
 41
1.0
 10
165.2979083333333
 20
196.7215888888889
 30
0.0
 41
1.0
 10
165.7215944444444
 20
196.4764083333333
 30
0.0
 41
1.0
 10
166.1368138888889
 20
196.2178222222222
 30
0.0
 41
1.0
  0
POLYLINE
  5
8A
330
1F
100
AcDbEntity
  8
0
 62
     7
100
AcDb2dPolyline
 66
     1
 10
0.0
 20
0.0
 30
0.0
  0
VERTEX
  5
8B
330
8A
100
AcDbEntity
  8
0
100
AcDbVertex
100
AcDb2dVertex
 10
166.1368138888889
 20
196.2178222222222
 30
0.0
  0
VERTEX
  5
8C
330
8A
100
AcDbEntity
  8
0
100
AcDbVertex
100
AcDb2dVertex
 10
166.1375194444444
 20
196.2171166666666
 30
0.0
  0
VERTEX
  5
8D
330
8A
100
AcDbEntity
  8
0
100
AcDbVertex
100
AcDb2dVertex
 10
166.1322277777778
 20
195.7973111111111
 30
0.0
  0
VERTEX
  5
8E
330
8A
100
AcDbEntity
  8
0
100
AcDbVertex
100
AcDb2dVertex
 10
166.1085916666667
 20
195.3616305555555
 30
0.0
  0
VERTEX
  5
8F
330
8A
100
AcDbEntity
  8
0
100
AcDbVertex
100
AcDb2dVertex
 10
166.0704916666666
 20
194.9587583333333
 30
0.0
  0
VERTEX
  5
90
330
8A
100
AcDbEntity
  8
0
100
AcDbVertex
100
AcDb2dVertex
 10
166.0196916666667
 20
194.5890472222222
 30
0.0
  0
VERTEX
  5
91
330
8A
100
AcDbEntity
  8
0
100
AcDbVertex
100
AcDb2dVertex
 10
165.9593666666667
 20
194.2553194444444
 30
0.0
  0
VERTEX
  5
92
330
8A
100
AcDbEntity
  8
0
100
AcDbVertex
100
AcDb2dVertex
 10
165.8909277777778
 20
193.9501666666667
 30
0.0
  0
VERTEX
  5
93
330
8A
100
AcDbEntity
  8
0
100
AcDbVertex
100
AcDb2dVertex
 10
165.8196666666667
 20
193.6831138888889
 30
0.0
  0
VERTEX
  5
94
330
8A
100
AcDbEntity
  8
0
100
AcDbVertex
100
AcDb2dVertex
 10
165.7459361111111
 20
193.4499277777778
 30
0.0
  0
VERTEX
  5
95
330
8A
100
AcDbEntity
  8
0
100
AcDbVertex
100
AcDb2dVertex
 10
165.6729111111111
 20
193.2460222222222
 30
0.0
  0
VERTEX
  5
96
330
8A
100
AcDbEntity
  8
0
100
AcDbVertex
100
AcDb2dVertex
 10
165.6051777777778
 20
193.0816277777778
 30
0.0
  0
VERTEX
  5
97
330
8A
100
AcDbEntity
  8
0
100
AcDbVertex
100
AcDb2dVertex
 10
165.4901722222222
 20
192.8413861111111
 30
0.0
  0
VERTEX
  5
98
330
8A
100
AcDbEntity
  8
0
100
AcDbVertex
100
AcDb2dVertex
 10
165.4189111111111
 20
192.7196777777778
 30
0.0
  0
VERTEX
  5
99
330
8A
100
AcDbEntity
  8
0
100
AcDbVertex
100
AcDb2dVertex
 10
165.2538111111111
 20
192.4670888888889
 30
0.0
  0
VERTEX
  5
9A
330
8A
100
AcDbEntity
  8
0
100
AcDbVertex
100
AcDb2dVertex
 10
165.1486833333333
 20
192.2656527777778
 30
0.0
  0
VERTEX
  5
9B
330
8A
100
AcDbEntity
  8
0
100
AcDbVertex
100
AcDb2dVertex
 10
165.0788333333333
 20
192.0815027777778
 30
0.0
  0
VERTEX
  5
9C
330
8A
100
AcDbEntity
  8
0
100
AcDbVertex
100
AcDb2dVertex
 10
165.0414388888889
 20
191.9181666666667
 30
0.0
  0
VERTEX
  5
9D
330
8A
100
AcDbEntity
  8
0
100
AcDbVertex
100
AcDb2dVertex
 10
165.0347361111111
 20
191.8444361111111
 30
0.0
  0
VERTEX
  5
9E
330
8A
100
AcDbEntity
  8
0
100
AcDbVertex
100
AcDb2dVertex
 10
165.0354416666667
 20
191.7774083333333
 30
0.0
  0
VERTEX
  5
9F
330
8A
100
AcDbEntity
  8
0
100
AcDbVertex
100
AcDb2dVertex
 10
165.0432027777778
 20
191.716025
 30
0.0
  0
VERTEX
  5
A0
330
8A
100
AcDbEntity
  8
0
100
AcDbVertex
100
AcDb2dVertex
 10
165.0576666666667
 20
191.6609916666666
 30
0.0
  0
VERTEX
  5
A1
330
8A
100
AcDbEntity
  8
0
100
AcDbVertex
100
AcDb2dVertex
 10
165.0788333333333
 20
191.6133666666666
 30
0.0
  0
VERTEX
  5
A2
330
8A
100
AcDbEntity
  8
0
100
AcDbVertex
100
AcDb2dVertex
 10
165.1070555555555
 20
191.5727972222222
 30
0.0
  0
VERTEX
  5
A3
330
8A
100
AcDbEntity
  8
0
100
AcDbVertex
100
AcDb2dVertex
 10
165.1504472222222
 20
191.531875
 30
0.0
  0
VERTEX
  5
A4
330
8A
100
AcDbEntity
  8
0
100
AcDbVertex
100
AcDb2dVertex
 10
165.7448777777778
 20
191.0549194444444
 30
0.0
  0
VERTEX
  5
A5
330
8A
100
AcDbEntity
  8
0
100
AcDbVertex
100
AcDb2dVertex
 10
166.3184944444444
 20
190.5515055555555
 30
0.0
  0
VERTEX
  5
A6
330
8A
100
AcDbEntity
  8
0
100
AcDbVertex
100
AcDb2dVertex
 10
166.3654138888889
 20
190.515875
 30
0.0
  0
VERTEX
  5
A7
330
8A
100
AcDbEntity
  8
0
100
AcDbVertex
100
AcDb2dVertex
 10
166.411275
 20
190.4961194444444
 30
0.0
  0
VERTEX
  5
A8
330
8A
100
AcDbEntity
  8
0
100
AcDbVertex
100
AcDb2dVertex
 10
166.4613694444444
 20
190.4830666666666
 30
0.0
  0
VERTEX
  5
A9
330
8A
100
AcDbEntity
  8
0
100
AcDbVertex
100
AcDb2dVertex
 10
166.5185194444444
 20
190.4784805555556
 30
0.0
  0
VERTEX
  5
AA
330
8A
100
AcDbEntity
  8
0
100
AcDbVertex
100
AcDb2dVertex
 10
166.5799027777778
 20
190.4816555555555
 30
0.0
  0
VERTEX
  5
AB
330
8A
100
AcDbEntity
  8
0
100
AcDbVertex
100
AcDb2dVertex
 10
166.646225
 20
190.4922388888889
 30
0.0
  0
VERTEX
  5
AC
330
8A
100
AcDbEntity
  8
0
100
AcDbVertex
100
AcDb2dVertex
 10
166.7178388888889
 20
190.5119944444444
 30
0.0
  0
VERTEX
  5
AD
330
8A
100
AcDbEntity
  8
0
100
AcDbVertex
100
AcDb2dVertex
 10
166.8720027777778
 20
190.5772583333333
 30
0.0
  0
VERTEX
  5
AE
330
8A
100
AcDbEntity
  8
0
100
AcDbVertex
100
AcDb2dVertex
 10
167.0409833333333
 20
190.6778
 30
0.0
  0
VERTEX
  5
AF
330
8A
100
AcDbEntity
  8
0
100
AcDbVertex
100
AcDb2dVertex
 10
167.2219583333333
 20
190.8160888888889
 30
0.0
  0
VERTEX
  5
B0
330
8A
100
AcDbEntity
  8
0
100
AcDbVertex
100
AcDb2dVertex
 10
167.4410333333333
 20
191.0224638888889
 30
0.0
  0
VERTEX
  5
B1
330
8A
100
AcDbEntity
  8
0
100
AcDbVertex
100
AcDb2dVertex
 10
167.5489833333333
 20
191.1134805555556
 30
0.0
  0
VERTEX
  5
B2
330
8A
100
AcDbEntity
  8
0
100
AcDbVertex
100
AcDb2dVertex
 10
167.7648833333333
 20
191.2687027777778
 30
0.0
  0
VERTEX
  5
B3
330
8A
100
AcDbEntity
  8
0
100
AcDbVertex
100
AcDb2dVertex
 10
167.9155194444444
 20
191.3636
 30
0.0
  0
VERTEX
  5
B4
330
8A
100
AcDbEntity
  8
0
100
AcDbVertex
100
AcDb2dVertex
 10
168.1031972222222
 20
191.4719027777778
 30
0.0
  0
VERTEX
  5
B5
330
8A
100
AcDbEntity
  8
0
100
AcDbVertex
100
AcDb2dVertex
 10
168.3208611111111
 20
191.5844388888889
 30
0.0
  0
VERTEX
  5
B6
330
8A
100
AcDbEntity
  8
0
100
AcDbVertex
100
AcDb2dVertex
 10
168.5709805555555
 20
191.7005027777778
 30
0.0
  0
VERTEX
  5
B7
330
8A
100
AcDbEntity
  8
0
100
AcDbVertex
100
AcDb2dVertex
 10
168.8599055555555
 20
191.8215055555555
 30
0.0
  0
VERTEX
  5
B8
330
8A
100
AcDbEntity
  8
0
100
AcDbVertex
100
AcDb2dVertex
 10
169.1777583333333
 20
191.9386277777778
 30
0.0
  0
VERTEX
  5
B9
330
8A
100
AcDbEntity
  8
0
100
AcDbVertex
100
AcDb2dVertex
 10
169.5330055555555
 20
192.0529277777778
 30
0.0
  0
VERTEX
  5
BA
330
8A
100
AcDbEntity
  8
0
100
AcDbVertex
100
AcDb2dVertex
 10
169.9231777777778
 20
192.1608777777778
 30
0.0
  0
VERTEX
  5
BB
330
8A
100
AcDbEntity
  8
0
100
AcDbVertex
100
AcDb2dVertex
 10
170.348275
 20
192.25895
 30
0.0
  0
VERTEX
  5
BC
330
8A
100
AcDbEntity
  8
0
100
AcDbVertex
100
AcDb2dVertex
 10
170.7613777777778
 20
192.3372666666667
 30
0.0
  0
VERTEX
  5
BD
330
8A
100
AcDbEntity
  8
0
100
AcDbVertex
100
AcDb2dVertex
 10
170.7620833333333
 20
192.3365611111111
 30
0.0
  0
SEQEND
  5
BE
330
8A
100
AcDbEntity
  8
0
 62
     7
  0
SPLINE
  5
BF
330
1F
100
AcDbEntity
  8
0
 62
     7
100
AcDbSpline
210
0.0
220
0.0
230
1.0
 70
    12
 71
     3
 72
     8
 73
     4
 74
     0
 42
0.000000001
 43
0.0
 40
0.0
 40
0.0
 40
0.0
 40
0.0
 40
1.0
 40
1.0
 40
1.0
 40
1.0
 10
170.7620833333333
 20
192.3365611111111
 30
0.0
 41
1.0
 10
171.0891083333333
 20
191.9728472222222
 30
0.0
 41
1.0
 10
171.4030805555555
 20
191.5978444444444
 30
0.0
 41
1.0
 10
171.7050583333333
 20
191.2133166666667
 30
0.0
 41
1.0
  0
POLYLINE
  5
C0
330
1F
100
AcDbEntity
  8
0
 62
     7
100
AcDb2dPolyline
 66
     1
 10
0.0
 20
0.0
 30
0.0
  0
VERTEX
  5
C1
330
C0
100
AcDbEntity
  8
0
100
AcDbVertex
100
AcDb2dVertex
 10
171.7050583333333
 20
191.2133166666667
 30
0.0
  0
VERTEX
  5
C2
330
C0
100
AcDbEntity
  8
0
100
AcDbVertex
100
AcDb2dVertex
 10
171.7050583333333
 20
191.2122583333333
 30
0.0
  0
VERTEX
  5
C3
330
C0
100
AcDbEntity
  8
0
100
AcDbVertex
100
AcDb2dVertex
 10
171.5565388888889
 20
190.8199694444444
 30
0.0
  0
VERTEX
  5
C4
330
C0
100
AcDbEntity
  8
0
100
AcDbVertex
100
AcDb2dVertex
 10
171.3854416666667
 20
190.4178027777778
 30
0.0
  0
VERTEX
  5
C5
330
C0
100
AcDbEntity
  8
0
100
AcDbVertex
100
AcDb2dVertex
 10
171.2115222222222
 20
190.0526777777778
 30
0.0
  0
VERTEX
  5
C6
330
C0
100
AcDbEntity
  8
0
100
AcDbVertex
100
AcDb2dVertex
 10
171.03725
 20
189.7224777777778
 30
0.0
  0
VERTEX
  5
C7
330
C0
100
AcDbEntity
  8
0
100
AcDbVertex
100
AcDb2dVertex
 10
170.8668583333333
 20
189.4296722222222
 30
0.0
  0
VERTEX
  5
C8
330
C0
100
AcDbEntity
  8
0
100
AcDbVertex
100
AcDb2dVertex
 10
170.6982305555555
 20
189.1657944444444
 30
0.0
  0
VERTEX
  5
C9
330
C0
100
AcDbEntity
  8
0
100
AcDbVertex
100
AcDb2dVertex
 10
170.5398333333333
 20
188.9400166666667
 30
0.0
  0
VERTEX
  5
CA
330
C0
100
AcDbEntity
  8
0
100
AcDbVertex
100
AcDb2dVertex
 10
170.3909611111111
 20
188.7452833333333
 30
0.0
  0
VERTEX
  5
CB
330
C0
100
AcDbEntity
  8
0
100
AcDbVertex
100
AcDb2dVertex
 10
170.2523194444445
 20
188.5794777777778
 30
0.0
  0
VERTEX
  5
CC
330
C0
100
AcDbEntity
  8
0
100
AcDbVertex
100
AcDb2dVertex
 10
170.132375
 20
188.4471861111111
 30
0.0
  0
VERTEX
  5
CD
330
C0
100
AcDbEntity
  8
0
100
AcDbVertex
100
AcDb2dVertex
 10
169.9422277777778
 20
188.261625
 30
0.0
  0
VERTEX
  5
CE
330
C0
100
AcDbEntity
  8
0
100
AcDbVertex
100
AcDb2dVertex
 10
169.8335722222222
 20
188.1713138888889
 30
0.0
  0
VERTEX
  5
CF
330
C0
100
AcDbEntity
  8
0
100
AcDbVertex
100
AcDb2dVertex
 10
169.5922722222222
 20
187.9910444444444
 30
0.0
  0
VERTEX
  5
D0
330
C0
100
AcDbEntity
  8
0
100
AcDbVertex
100
AcDb2dVertex
 10
169.4250555555556
 20
187.8365277777778
 30
0.0
  0
VERTEX
  5
D1
330
C0
100
AcDbEntity
  8
0
100
AcDbVertex
100
AcDb2dVertex
 10
169.2966444444444
 20
187.6883611111111
 30
0.0
  0
VERTEX
  5
D2
330
C0
100
AcDbEntity
  8
0
100
AcDbVertex
100
AcDb2dVertex
 10
169.205275
 20
187.5468972222222
 30
0.0
  0
VERTEX
  5
D3
330
C0
100
AcDbEntity
  8
0
100
AcDbVertex
100
AcDb2dVertex
 10
169.1731722222222
 20
187.480575
 30
0.0
  0
VERTEX
  5
D4
330
C0
100
AcDbEntity
  8
0
100
AcDbVertex
100
AcDb2dVertex
 10
169.1513
 20
187.4167222222222
 30
0.0
  0
VERTEX
  5
D5
330
C0
100
AcDbEntity
  8
0
100
AcDbVertex
100
AcDb2dVertex
 10
169.1375416666667
 20
187.35675
 30
0.0
  0
VERTEX
  5
D6
330
C0
100
AcDbEntity
  8
0
100
AcDbVertex
100
AcDb2dVertex
 10
169.13225
 20
187.3003055555556
 30
0.0
  0
VERTEX
  5
D7
330
C0
100
AcDbEntity
  8
0
100
AcDbVertex
100
AcDb2dVertex
 10
169.1361305555555
 20
187.2480944444444
 30
0.0
  0
VERTEX
  5
D8
330
C0
100
AcDbEntity
  8
0
100
AcDbVertex
100
AcDb2dVertex
 10
169.148125
 20
187.2001166666666
 30
0.0
  0
VERTEX
  5
D9
330
C0
100
AcDbEntity
  8
0
100
AcDbVertex
100
AcDb2dVertex
 10
169.1749361111111
 20
187.1468472222222
 30
0.0
  0
VERTEX
  5
DA
330
C0
100
AcDbEntity
  8
0
100
AcDbVertex
100
AcDb2dVertex
 10
169.5711055555556
 20
186.4949138888889
 30
0.0
  0
VERTEX
  5
DB
330
C0
100
AcDbEntity
  8
0
100
AcDbVertex
100
AcDb2dVertex
 10
169.9376416666667
 20
185.8267527777778
 30
0.0
  0
VERTEX
  5
DC
330
C0
100
AcDbEntity
  8
0
100
AcDbVertex
100
AcDb2dVertex
 10
169.97045
 20
185.7770111111111
 30
0.0
  0
VERTEX
  5
DD
330
C0
100
AcDbEntity
  8
0
100
AcDbVertex
100
AcDb2dVertex
 10
170.005375
 20
185.7420861111111
 30
0.0
  0
VERTEX
  5
DE
330
C0
100
AcDbEntity
  8
0
100
AcDbVertex
100
AcDb2dVertex
 10
170.0487666666667
 20
185.7131583333333
 30
0.0
  0
VERTEX
  5
DF
330
C0
100
AcDbEntity
  8
0
100
AcDbVertex
100
AcDb2dVertex
 10
170.1002722222222
 20
185.6888166666666
 30
0.0
  0
VERTEX
  5
E0
330
C0
100
AcDbEntity
  8
0
100
AcDbVertex
100
AcDb2dVertex
 10
170.1588333333333
 20
185.670825
 30
0.0
  0
VERTEX
  5
E1
330
C0
100
AcDbEntity
  8
0
100
AcDbVertex
100
AcDb2dVertex
 10
170.2258611111111
 20
185.6584777777778
 30
0.0
  0
VERTEX
  5
E2
330
C0
100
AcDbEntity
  8
0
100
AcDbVertex
100
AcDb2dVertex
 10
170.2988861111111
 20
185.6524805555555
 30
0.0
  0
VERTEX
  5
E3
330
C0
100
AcDbEntity
  8
0
100
AcDbVertex
100
AcDb2dVertex
 10
170.4668083333333
 20
185.6609472222222
 30
0.0
  0
VERTEX
  5
E4
330
C0
100
AcDbEntity
  8
0
100
AcDbVertex
100
AcDb2dVertex
 10
170.6601305555555
 20
185.6979888888889
 30
0.0
  0
VERTEX
  5
E5
330
C0
100
AcDbEntity
  8
0
100
AcDbVertex
100
AcDb2dVertex
 10
170.8767361111111
 20
185.7657222222222
 30
0.0
  0
VERTEX
  5
E6
330
C0
100
AcDbEntity
  8
0
100
AcDbVertex
100
AcDb2dVertex
 10
171.1536666666667
 20
185.8842555555555
 30
0.0
  0
VERTEX
  5
E7
330
C0
100
AcDbEntity
  8
0
100
AcDbVertex
100
AcDb2dVertex
 10
171.2866638888889
 20
185.9339972222222
 30
0.0
  0
VERTEX
  5
E8
330
C0
100
AcDbEntity
  8
0
100
AcDbVertex
100
AcDb2dVertex
 10
171.5424277777778
 20
186.0052583333333
 30
0.0
  0
VERTEX
  5
E9
330
C0
100
AcDbEntity
  8
0
100
AcDbVertex
100
AcDb2dVertex
 10
171.7163472222222
 20
186.0433583333333
 30
0.0
  0
VERTEX
  5
EA
330
C0
100
AcDbEntity
  8
0
100
AcDbVertex
100
AcDb2dVertex
 10
171.929425
 20
186.0796944444444
 30
0.0
  0
VERTEX
  5
EB
330
C0
100
AcDbEntity
  8
0
100
AcDbVertex
100
AcDb2dVertex
 10
172.1728416666667
 20
186.1117972222222
 30
0.0
  0
VERTEX
  5
EC
330
C0
100
AcDbEntity
  8
0
100
AcDbVertex
100
AcDb2dVertex
 10
172.4473027777778
 20
186.1361388888889
 30
0.0
  0
VERTEX
  5
ED
330
C0
100
AcDbEntity
  8
0
100
AcDbVertex
100
AcDb2dVertex
 10
172.7598638888889
 20
186.1506027777777
 30
0.0
  0
VERTEX
  5
EE
330
C0
100
AcDbEntity
  8
0
100
AcDbVertex
100
AcDb2dVertex
 10
173.0988833333333
 20
186.1520138888889
 30
0.0
  0
VERTEX
  5
EF
330
C0
100
AcDbEntity
  8
0
100
AcDbVertex
100
AcDb2dVertex
 10
173.4717694444444
 20
186.13755
 30
0.0
  0
VERTEX
  5
F0
330
C0
100
AcDbEntity
  8
0
100
AcDbVertex
100
AcDb2dVertex
 10
173.8753472222222
 20
186.1058
 30
0.0
  0
VERTEX
  5
F1
330
C0
100
AcDbEntity
  8
0
100
AcDbVertex
100
AcDb2dVertex
 10
174.3089111111111
 20
186.0525305555555
 30
0.0
  0
VERTEX
  5
F2
330
C0
100
AcDbEntity
  8
0
100
AcDbVertex
100
AcDb2dVertex
 10
174.723425
 20
185.9847972222222
 30
0.0
  0
VERTEX
  5
F3
330
C0
100
AcDbEntity
  8
0
100
AcDbVertex
100
AcDb2dVertex
 10
174.723425
 20
185.9840916666667
 30
0.0
  0
SEQEND
  5
F4
330
C0
100
AcDbEntity
  8
0
 62
     7
  0
SPLINE
  5
F5
330
1F
100
AcDbEntity
  8
0
 62
     7
100
AcDbSpline
210
0.0
220
0.0
230
1.0
 70
    12
 71
     3
 72
     8
 73
     4
 74
     0
 42
0.000000001
 43
0.0
 40
0.0
 40
0.0
 40
0.0
 40
0.0
 40
1.0
 40
1.0
 40
1.0
 40
1.0
 10
174.723425
 20
185.9840916666667
 30
0.0
 41
1.0
 10
174.9065166666666
 20
185.5307722222222
 30
0.0
 41
1.0
 10
175.0740861111111
 20
185.07075
 30
0.0
 41
1.0
 10
175.2254277777778
 20
184.6050833333333
 30
0.0
 41
1.0
  0
POLYLINE
  5
F6
330
1F
100
AcDbEntity
  8
0
 62
     7
100
AcDb2dPolyline
 66
     1
 10
0.0
 20
0.0
 30
0.0
  0
VERTEX
  5
F7
330
F6
100
AcDbEntity
  8
0
100
AcDbVertex
100
AcDb2dVertex
 10
175.2254277777778
 20
184.6050833333333
 30
0.0
  0
VERTEX
  5
F8
330
F6
100
AcDbEntity
  8
0
100
AcDbVertex
100
AcDb2dVertex
 10
175.2254277777778
 20
184.6043777777778
 30
0.0
  0
VERTEX
  5
F9
330
F6
100
AcDbEntity
  8
0
100
AcDbVertex
100
AcDb2dVertex
 10
174.9516722222222
 20
184.286525
 30
0.0
  0
VERTEX
  5
FA
330
F6
100
AcDbEntity
  8
0
100
AcDbVertex
100
AcDb2dVertex
 10
174.653575
 20
183.9679666666667
 30
0.0
  0
VERTEX
  5
FB
330
F6
100
AcDbEntity
  8
0
100
AcDbVertex
100
AcDb2dVertex
 10
174.3653555555555
 20
183.6836277777778
 30
0.0
  0
VERTEX
  5
FC
330
F6
100
AcDbEntity
  8
0
100
AcDbVertex
100
AcDb2dVertex
 10
174.088425
 20
183.4331555555555
 30
0.0
  0
VERTEX
  5
FD
330
F6
100
AcDbEntity
  8
0
100
AcDbVertex
100
AcDb2dVertex
 10
173.8284277777778
 20
183.2158444444444
 30
0.0
  0
VERTEX
  5
FE
330
F6
100
AcDbEntity
  8
0
100
AcDbVertex
100
AcDb2dVertex
 10
173.5797194444444
 20
183.0264027777778
 30
0.0
  0
VERTEX
  5
FF
330
F6
100
AcDbEntity
  8
0
100
AcDbVertex
100
AcDb2dVertex
 10
173.3528833333333
 20
182.8683583333333
 30
0.0
  0
VERTEX
  5
100
330
F6
100
AcDbEntity
  8
0
100
AcDbVertex
100
AcDb2dVertex
 10
173.1468611111111
 20
182.7360666666667
 30
0.0
  0
VERTEX
  5
101
330
F6
100
AcDbEntity
  8
0
100
AcDbVertex
100
AcDb2dVertex
 10
172.9598888888889
 20
182.6270583333333
 30
0.0
  0
VERTEX
  5
102
330
F6
100
AcDbEntity
  8
0
100
AcDbVertex
100
AcDb2dVertex
 10
172.80255
 20
182.5441555555555
 30
0.0
  0
VERTEX
  5
103
330
F6
100
AcDbEntity
  8
0
100
AcDbVertex
100
AcDb2dVertex
 10
172.5598388888889
 20
182.4347944444444
 30
0.0
  0
VERTEX
  5
104
330
F6
100
AcDbEntity
  8
0
100
AcDbVertex
100
AcDb2dVertex
 10
172.4268416666667
 20
182.3875222222222
 30
0.0
  0
VERTEX
  5
105
330
F6
100
AcDbEntity
  8
0
100
AcDbVertex
100
AcDb2dVertex
 10
172.1386222222222
 20
182.3000333333333
 30
0.0
  0
VERTEX
  5
106
330
F6
100
AcDbEntity
  8
0
100
AcDbVertex
100
AcDb2dVertex
 10
171.9287194444444
 20
182.2128972222222
 30
0.0
  0
VERTEX
  5
107
330
F6
100
AcDbEntity
  8
0
100
AcDbVertex
100
AcDb2dVertex
 10
171.7565638888889
 20
182.1169416666667
 30
0.0
  0
VERTEX
  5
108
330
F6
100
AcDbEntity
  8
0
100
AcDbVertex
100
AcDb2dVertex
 10
171.6228611111111
 20
182.0156944444444
 30
0.0
  0
VERTEX
  5
109
330
F6
100
AcDbEntity
  8
0
100
AcDbVertex
100
AcDb2dVertex
 10
171.5702972222222
 20
181.9641888888889
 30
0.0
  0
VERTEX
  5
10A
330
F6
100
AcDbEntity
  8
0
100
AcDbVertex
100
AcDb2dVertex
 10
171.5269055555555
 20
181.911625
 30
0.0
  0
VERTEX
  5
10B
330
F6
100
AcDbEntity
  8
0
100
AcDbVertex
100
AcDb2dVertex
 10
171.4937444444444
 20
181.8597666666666
 30
0.0
  0
VERTEX
  5
10C
330
F6
100
AcDbEntity
  8
0
100
AcDbVertex
100
AcDb2dVertex
 10
171.4701083333333
 20
181.8089666666667
 30
0.0
  0
VERTEX
  5
10D
330
F6
100
AcDbEntity
  8
0
100
AcDbVertex
100
AcDb2dVertex
 10
171.4556444444444
 20
181.7578138888889
 30
0.0
  0
VERTEX
  5
10E
330
F6
100
AcDbEntity
  8
0
100
AcDbVertex
100
AcDb2dVertex
 10
171.4510583333333
 20
181.7091305555555
 30
0.0
  0
VERTEX
  5
10F
330
F6
100
AcDbEntity
  8
0
100
AcDbVertex
100
AcDb2dVertex
 10
171.4577611111111
 20
181.6498638888889
 30
0.0
  0
VERTEX
  5
110
330
F6
100
AcDbEntity
  8
0
100
AcDbVertex
100
AcDb2dVertex
 10
171.6069861111111
 20
180.9023277777778
 30
0.0
  0
VERTEX
  5
111
330
F6
100
AcDbEntity
  8
0
100
AcDbVertex
100
AcDb2dVertex
 10
171.7223444444444
 20
180.1487944444444
 30
0.0
  0
VERTEX
  5
112
330
F6
100
AcDbEntity
  8
0
100
AcDbVertex
100
AcDb2dVertex
 10
171.7361027777777
 20
180.0902333333333
 30
0.0
  0
VERTEX
  5
113
330
F6
100
AcDbEntity
  8
0
100
AcDbVertex
100
AcDb2dVertex
 10
171.7576222222222
 20
180.0461361111111
 30
0.0
  0
VERTEX
  5
114
330
F6
100
AcDbEntity
  8
0
100
AcDbVertex
100
AcDb2dVertex
 10
171.7886666666667
 20
180.00345
 30
0.0
  0
VERTEX
  5
115
330
F6
100
AcDbEntity
  8
0
100
AcDbVertex
100
AcDb2dVertex
 10
171.8281777777778
 20
179.9639388888889
 30
0.0
  0
VERTEX
  5
116
330
F6
100
AcDbEntity
  8
0
100
AcDbVertex
100
AcDb2dVertex
 10
171.8775666666666
 20
179.9258388888889
 30
0.0
  0
VERTEX
  5
117
330
F6
100
AcDbEntity
  8
0
100
AcDbVertex
100
AcDb2dVertex
 10
171.9354222222222
 20
179.892325
 30
0.0
  0
VERTEX
  5
118
330
F6
100
AcDbEntity
  8
0
100
AcDbVertex
100
AcDb2dVertex
 10
172.00245
 20
179.8612805555555
 30
0.0
  0
VERTEX
  5
119
330
F6
100
AcDbEntity
  8
0
100
AcDbVertex
100
AcDb2dVertex
 10
172.1629638888889
 20
179.8118916666667
 30
0.0
  0
VERTEX
  5
11A
330
F6
100
AcDbEntity
  8
0
100
AcDbVertex
100
AcDb2dVertex
 10
172.3573444444444
 20
179.7804944444444
 30
0.0
  0
VERTEX
  5
11B
330
F6
100
AcDbEntity
  8
0
100
AcDbVertex
100
AcDb2dVertex
 10
172.5841805555555
 20
179.7699111111111
 30
0.0
  0
VERTEX
  5
11C
330
F6
100
AcDbEntity
  8
0
100
AcDbVertex
100
AcDb2dVertex
 10
172.8854527777778
 20
179.7868444444444
 30
0.0
  0
VERTEX
  5
11D
330
F6
100
AcDbEntity
  8
0
100
AcDbVertex
100
AcDb2dVertex
 10
173.0265638888889
 20
179.78755
 30
0.0
  0
VERTEX
  5
11E
330
F6
100
AcDbEntity
  8
0
100
AcDbVertex
100
AcDb2dVertex
 10
173.2922055555555
 20
179.7677944444444
 30
0.0
  0
VERTEX
  5
11F
330
F6
100
AcDbEntity
  8
0
100
AcDbVertex
100
AcDb2dVertex
 10
173.4678888888889
 20
179.7434527777778
 30
0.0
  0
VERTEX
  5
120
330
F6
100
AcDbEntity
  8
0
100
AcDbVertex
100
AcDb2dVertex
 10
173.6816722222222
 20
179.7053527777778
 30
0.0
  0
VERTEX
  5
121
330
F6
100
AcDbEntity
  8
0
100
AcDbVertex
100
AcDb2dVertex
 10
173.92015
 20
179.6520833333333
 30
0.0
  0
VERTEX
  5
122
330
F6
100
AcDbEntity
  8
0
100
AcDbVertex
100
AcDb2dVertex
 10
174.1864972222222
 20
179.5808222222222
 30
0.0
  0
VERTEX
  5
123
330
F6
100
AcDbEntity
  8
0
100
AcDbVertex
100
AcDb2dVertex
 10
174.4853
 20
179.4869833333333
 30
0.0
  0
VERTEX
  5
124
330
F6
100
AcDbEntity
  8
0
100
AcDbVertex
100
AcDb2dVertex
 10
174.8049166666667
 20
179.3730361111111
 30
0.0
  0
VERTEX
  5
125
330
F6
100
AcDbEntity
  8
0
100
AcDbVertex
100
AcDb2dVertex
 10
175.1499333333333
 20
179.2315722222222
 30
0.0
  0
VERTEX
  5
126
330
F6
100
AcDbEntity
  8
0
100
AcDbVertex
100
AcDb2dVertex
 10
175.5182333333333
 20
179.06365
 30
0.0
  0
VERTEX
  5
127
330
F6
100
AcDbEntity
  8
0
100
AcDbVertex
100
AcDb2dVertex
 10
175.9073472222222
 20
178.8657416666667
 30
0.0
  0
VERTEX
  5
128
330
F6
100
AcDbEntity
  8
0
100
AcDbVertex
100
AcDb2dVertex
 10
176.2731777777778
 20
178.660425
 30
0.0
  0
VERTEX
  5
129
330
F6
100
AcDbEntity
  8
0
100
AcDbVertex
100
AcDb2dVertex
 10
176.2731777777778
 20
178.6597194444444
 30
0.0
  0
SEQEND
  5
12A
330
F6
100
AcDbEntity
  8
0
 62
     7
  0
SPLINE
  5
12B
330
1F
100
AcDbEntity
  8
0
 62
     7
100
AcDbSpline
210
0.0
220
0.0
230
1.0
 70
    12
 71
     3
 72
     8
 73
     4
 74
     0
 42
0.000000001
 43
0.0
 40
0.0
 40
0.0
 40
0.0
 40
0.0
 40
1.0
 40
1.0
 40
1.0
 40
1.0
 10
176.2731777777778
 20
178.6597194444444
 30
0.0
 41
1.0
 10
176.2901111111111
 20
178.1707694444444
 30
0.0
 41
1.0
 10
176.2901111111111
 20
177.6818194444444
 30
0.0
 41
1.0
 10
176.2731777777778
 20
177.1928694444444
 30
0.0
 41
1.0
  0
POLYLINE
  5
12C
330
1F
100
AcDbEntity
  8
0
 62
     7
100
AcDb2dPolyline
 66
     1
 10
0.0
 20
0.0
 30
0.0
  0
VERTEX
  5
12D
330
12C
100
AcDbEntity
  8
0
100
AcDbVertex
100
AcDb2dVertex
 10
176.2731777777778
 20
177.1928694444444
 30
0.0
  0
VERTEX
  5
12E
330
12C
100
AcDbEntity
  8
0
100
AcDbVertex
100
AcDb2dVertex
 10
176.2731777777778
 20
177.1918111111111
 30
0.0
  0
VERTEX
  5
12F
330
12C
100
AcDbEntity
  8
0
100
AcDbVertex
100
AcDb2dVertex
 10
175.9073472222222
 20
176.9864944444444
 30
0.0
  0
VERTEX
  5
130
330
12C
100
AcDbEntity
  8
0
100
AcDbVertex
100
AcDb2dVertex
 10
175.5182333333333
 20
176.7889388888889
 30
0.0
  0
VERTEX
  5
131
330
12C
100
AcDbEntity
  8
0
100
AcDbVertex
100
AcDb2dVertex
 10
175.1499333333333
 20
176.6199583333333
 30
0.0
  0
VERTEX
  5
132
330
12C
100
AcDbEntity
  8
0
100
AcDbVertex
100
AcDb2dVertex
 10
174.8049166666667
 20
176.4792
 30
0.0
  0
VERTEX
  5
133
330
12C
100
AcDbEntity
  8
0
100
AcDbVertex
100
AcDb2dVertex
 10
174.4853
 20
176.3645472222222
 30
0.0
  0
VERTEX
  5
134
330
12C
100
AcDbEntity
  8
0
100
AcDbVertex
100
AcDb2dVertex
 10
174.1864972222222
 20
176.2717666666667
 30
0.0
  0
VERTEX
  5
135
330
12C
100
AcDbEntity
  8
0
100
AcDbVertex
100
AcDb2dVertex
 10
173.92015
 20
176.2001527777778
 30
0.0
  0
VERTEX
  5
136
330
12C
100
AcDbEntity
  8
0
100
AcDbVertex
100
AcDb2dVertex
 10
173.6816722222222
 20
176.1468833333333
 30
0.0
  0
VERTEX
  5
137
330
12C
100
AcDbEntity
  8
0
100
AcDbVertex
100
AcDb2dVertex
 10
173.4678888888889
 20
176.1091361111111
 30
0.0
  0
VERTEX
  5
138
330
12C
100
AcDbEntity
  8
0
100
AcDbVertex
100
AcDb2dVertex
 10
173.2922055555555
 20
176.0847944444444
 30
0.0
  0
VERTEX
  5
139
330
12C
100
AcDbEntity
  8
0
100
AcDbVertex
100
AcDb2dVertex
 10
173.0265638888889
 20
176.0639805555556
 30
0.0
  0
VERTEX
  5
13A
330
12C
100
AcDbEntity
  8
0
100
AcDbVertex
100
AcDb2dVertex
 10
172.8854527777778
 20
176.0650388888889
 30
0.0
  0
VERTEX
  5
13B
330
12C
100
AcDbEntity
  8
0
100
AcDbVertex
100
AcDb2dVertex
 10
172.5841805555555
 20
176.082325
 30
0.0
  0
VERTEX
  5
13C
330
12C
100
AcDbEntity
  8
0
100
AcDbVertex
100
AcDb2dVertex
 10
172.3573444444444
 20
176.0717416666666
 30
0.0
  0
VERTEX
  5
13D
330
12C
100
AcDbEntity
  8
0
100
AcDbVertex
100
AcDb2dVertex
 10
172.1629638888889
 20
176.0406972222222
 30
0.0
  0
VERTEX
  5
13E
330
12C
100
AcDbEntity
  8
0
100
AcDbVertex
100
AcDb2dVertex
 10
172.00245
 20
175.9909555555555
 30
0.0
  0
VERTEX
  5
13F
330
12C
100
AcDbEntity
  8
0
100
AcDbVertex
100
AcDb2dVertex
 10
171.9354222222222
 20
175.9599111111111
 30
0.0
  0
VERTEX
  5
140
330
12C
100
AcDbEntity
  8
0
100
AcDbVertex
100
AcDb2dVertex
 10
171.8775666666666
 20
175.9256916666666
 30
0.0
  0
VERTEX
  5
141
330
12C
100
AcDbEntity
  8
0
100
AcDbVertex
100
AcDb2dVertex
 10
171.8281777777778
 20
175.8882972222222
 30
0.0
  0
VERTEX
  5
142
330
12C
100
AcDbEntity
  8
0
100
AcDbVertex
100
AcDb2dVertex
 10
171.7886666666667
 20
175.8487861111111
 30
0.0
  0
VERTEX
  5
143
330
12C
100
AcDbEntity
  8
0
100
AcDbVertex
100
AcDb2dVertex
 10
171.7576222222222
 20
175.8064527777778
 30
0.0
  0
VERTEX
  5
144
330
12C
100
AcDbEntity
  8
0
100
AcDbVertex
100
AcDb2dVertex
 10
171.7361027777777
 20
175.7612972222222
 30
0.0
  0
VERTEX
  5
145
330
12C
100
AcDbEntity
  8
0
100
AcDbVertex
100
AcDb2dVertex
 10
171.7223444444444
 20
175.7037944444444
 30
0.0
  0
VERTEX
  5
146
330
12C
100
AcDbEntity
  8
0
100
AcDbVertex
100
AcDb2dVertex
 10
171.6069861111111
 20
174.9499083333333
 30
0.0
  0
VERTEX
  5
147
330
12C
100
AcDbEntity
  8
0
100
AcDbVertex
100
AcDb2dVertex
 10
171.4577611111111
 20
174.2023722222222
 30
0.0
  0
VERTEX
  5
148
330
12C
100
AcDbEntity
  8
0
100
AcDbVertex
100
AcDb2dVertex
 10
171.4510583333333
 20
174.1431055555556
 30
0.0
  0
VERTEX
  5
149
330
12C
100
AcDbEntity
  8
0
100
AcDbVertex
100
AcDb2dVertex
 10
171.4556444444444
 20
174.0944222222222
 30
0.0
  0
VERTEX
  5
14A
330
12C
100
AcDbEntity
  8
0
100
AcDbVertex
100
AcDb2dVertex
 10
171.4701083333333
 20
174.0436222222222
 30
0.0
  0
VERTEX
  5
14B
330
12C
100
AcDbEntity
  8
0
100
AcDbVertex
100
AcDb2dVertex
 10
171.4937444444444
 20
173.9924694444444
 30
0.0
  0
VERTEX
  5
14C
330
12C
100
AcDbEntity
  8
0
100
AcDbVertex
100
AcDb2dVertex
 10
171.5269055555555
 20
173.9409638888889
 30
0.0
  0
VERTEX
  5
14D
330
12C
100
AcDbEntity
  8
0
100
AcDbVertex
100
AcDb2dVertex
 10
171.5702972222222
 20
173.8884
 30
0.0
  0
VERTEX
  5
14E
330
12C
100
AcDbEntity
  8
0
100
AcDbVertex
100
AcDb2dVertex
 10
171.6228611111111
 20
173.8365416666667
 30
0.0
  0
VERTEX
  5
14F
330
12C
100
AcDbEntity
  8
0
100
AcDbVertex
100
AcDb2dVertex
 10
171.7565638888889
 20
173.7356472222222
 30
0.0
  0
VERTEX
  5
150
330
12C
100
AcDbEntity
  8
0
100
AcDbVertex
100
AcDb2dVertex
 10
171.9287194444444
 20
173.6396916666667
 30
0.0
  0
VERTEX
  5
151
330
12C
100
AcDbEntity
  8
0
100
AcDbVertex
100
AcDb2dVertex
 10
172.1386222222222
 20
173.5522027777778
 30
0.0
  0
VERTEX
  5
152
330
12C
100
AcDbEntity
  8
0
100
AcDbVertex
100
AcDb2dVertex
 10
172.4268416666667
 20
173.4647138888889
 30
0.0
  0
VERTEX
  5
153
330
12C
100
AcDbEntity
  8
0
100
AcDbVertex
100
AcDb2dVertex
 10
172.5598388888889
 20
173.4174416666667
 30
0.0
  0
VERTEX
  5
154
330
12C
100
AcDbEntity
  8
0
100
AcDbVertex
100
AcDb2dVertex
 10
172.80255
 20
173.307375
 30
0.0
  0
VERTEX
  5
155
330
12C
100
AcDbEntity
  8
0
100
AcDbVertex
100
AcDb2dVertex
 10
172.9598888888889
 20
173.2244722222222
 30
0.0
  0
VERTEX
  5
156
330
12C
100
AcDbEntity
  8
0
100
AcDbVertex
100
AcDb2dVertex
 10
173.1468611111111
 20
173.1158166666667
 30
0.0
  0
VERTEX
  5
157
330
12C
100
AcDbEntity
  8
0
100
AcDbVertex
100
AcDb2dVertex
 10
173.3528833333333
 20
172.9842305555555
 30
0.0
  0
VERTEX
  5
158
330
12C
100
AcDbEntity
  8
0
100
AcDbVertex
100
AcDb2dVertex
 10
173.5797194444444
 20
172.8258333333333
 30
0.0
  0
VERTEX
  5
159
330
12C
100
AcDbEntity
  8
0
100
AcDbVertex
100
AcDb2dVertex
 10
173.8284277777778
 20
172.6356861111111
 30
0.0
  0
VERTEX
  5
15A
330
12C
100
AcDbEntity
  8
0
100
AcDbVertex
100
AcDb2dVertex
 10
174.088425
 20
172.4190805555556
 30
0.0
  0
VERTEX
  5
15B
330
12C
100
AcDbEntity
  8
0
100
AcDbVertex
100
AcDb2dVertex
 10
174.3653555555555
 20
172.1689611111111
 30
0.0
  0
VERTEX
  5
15C
330
12C
100
AcDbEntity
  8
0
100
AcDbVertex
100
AcDb2dVertex
 10
174.653575
 20
171.8846222222222
 30
0.0
  0
VERTEX
  5
15D
330
12C
100
AcDbEntity
  8
0
100
AcDbVertex
100
AcDb2dVertex
 10
174.9516722222222
 20
171.5657111111111
 30
0.0
  0
VERTEX
  5
15E
330
12C
100
AcDbEntity
  8
0
100
AcDbVertex
100
AcDb2dVertex
 10
175.2254277777778
 20
171.2471527777778
 30
0.0
  0
VERTEX
  5
15F
330
12C
100
AcDbEntity
  8
0
100
AcDbVertex
100
AcDb2dVertex
 10
175.2254277777778
 20
171.2464472222222
 30
0.0
  0
SEQEND
  5
160
330
12C
100
AcDbEntity
  8
0
 62
     7
  0
SPLINE
  5
161
330
1F
100
AcDbEntity
  8
0
 62
     7
100
AcDbSpline
210
0.0
220
0.0
230
1.0
 70
    12
 71
     3
 72
     8
 73
     4
 74
     0
 42
0.000000001
 43
0.0
 40
0.0
 40
0.0
 40
0.0
 40
0.0
 40
1.0
 40
1.0
 40
1.0
 40
1.0
 10
175.2254277777778
 20
171.2464472222222
 30
0.0
 41
1.0
 10
175.0740861111111
 20
170.7818388888889
 30
0.0
 41
1.0
 10
174.9065166666666
 20
170.3214638888889
 30
0.0
 41
1.0
 10
174.723425
 20
169.8684972222222
 30
0.0
 41
1.0
  0
POLYLINE
  5
162
330
1F
100
AcDbEntity
  8
0
 62
     7
100
AcDb2dPolyline
 66
     1
 10
0.0
 20
0.0
 30
0.0
  0
VERTEX
  5
163
330
162
100
AcDbEntity
  8
0
100
AcDbVertex
100
AcDb2dVertex
 10
174.723425
 20
169.8684972222222
 30
0.0
  0
VERTEX
  5
164
330
162
100
AcDbEntity
  8
0
100
AcDbVertex
100
AcDb2dVertex
 10
174.723425
 20
169.8677916666667
 30
0.0
  0
VERTEX
  5
165
330
162
100
AcDbEntity
  8
0
100
AcDbVertex
100
AcDb2dVertex
 10
174.3089111111111
 20
169.8000583333333
 30
0.0
  0
VERTEX
  5
166
330
162
100
AcDbEntity
  8
0
100
AcDbVertex
100
AcDb2dVertex
 10
173.8753472222222
 20
169.7467888888889
 30
0.0
  0
VERTEX
  5
167
330
162
100
AcDbEntity
  8
0
100
AcDbVertex
100
AcDb2dVertex
 10
173.4717694444444
 20
169.7146861111111
 30
0.0
  0
VERTEX
  5
168
330
162
100
AcDbEntity
  8
0
100
AcDbVertex
100
AcDb2dVertex
 10
173.0988833333333
 20
169.7002222222222
 30
0.0
  0
VERTEX
  5
169
330
162
100
AcDbEntity
  8
0
100
AcDbVertex
100
AcDb2dVertex
 10
172.7598638888889
 20
169.7019861111111
 30
0.0
  0
VERTEX
  5
16A
330
162
100
AcDbEntity
  8
0
100
AcDbVertex
100
AcDb2dVertex
 10
172.4473027777778
 20
169.71645
 30
0.0
  0
VERTEX
  5
16B
330
162
100
AcDbEntity
  8
0
100
AcDbVertex
100
AcDb2dVertex
 10
172.1728416666667
 20
169.7404388888889
 30
0.0
  0
VERTEX
  5
16C
330
162
100
AcDbEntity
  8
0
100
AcDbVertex
100
AcDb2dVertex
 10
171.929425
 20
169.7718361111111
 30
0.0
  0
VERTEX
  5
16D
330
162
100
AcDbEntity
  8
0
100
AcDbVertex
100
AcDb2dVertex
 10
171.7163472222222
 20
169.8092305555556
 30
0.0
  0
VERTEX
  5
16E
330
162
100
AcDbEntity
  8
0
100
AcDbVertex
100
AcDb2dVertex
 10
171.5424277777778
 20
169.8469777777778
 30
0.0
  0
VERTEX
  5
16F
330
162
100
AcDbEntity
  8
0
100
AcDbVertex
100
AcDb2dVertex
 10
171.2866638888889
 20
169.9185916666667
 30
0.0
  0
VERTEX
  5
170
330
162
100
AcDbEntity
  8
0
100
AcDbVertex
100
AcDb2dVertex
 10
171.1536666666667
 20
169.967275
 30
0.0
  0
VERTEX
  5
171
330
162
100
AcDbEntity
  8
0
100
AcDbVertex
100
AcDb2dVertex
 10
170.8767361111111
 20
170.0865138888889
 30
0.0
  0
VERTEX
  5
172
330
162
100
AcDbEntity
  8
0
100
AcDbVertex
100
AcDb2dVertex
 10
170.6601305555555
 20
170.1542472222222
 30
0.0
  0
VERTEX
  5
173
330
162
100
AcDbEntity
  8
0
100
AcDbVertex
100
AcDb2dVertex
 10
170.4668083333333
 20
170.1916416666667
 30
0.0
  0
VERTEX
  5
174
330
162
100
AcDbEntity
  8
0
100
AcDbVertex
100
AcDb2dVertex
 10
170.2988861111111
 20
170.19905
 30
0.0
  0
VERTEX
  5
175
330
162
100
AcDbEntity
  8
0
100
AcDbVertex
100
AcDb2dVertex
 10
170.2258611111111
 20
170.1937583333333
 30
0.0
  0
VERTEX
  5
176
330
162
100
AcDbEntity
  8
0
100
AcDbVertex
100
AcDb2dVertex
 10
170.1588333333333
 20
170.1817638888889
 30
0.0
  0
VERTEX
  5
177
330
162
100
AcDbEntity
  8
0
100
AcDbVertex
100
AcDb2dVertex
 10
170.1002722222222
 20
170.1634194444444
 30
0.0
  0
VERTEX
  5
178
330
162
100
AcDbEntity
  8
0
100
AcDbVertex
100
AcDb2dVertex
 10
170.0487666666667
 20
170.1390777777778
 30
0.0
  0
VERTEX
  5
179
330
162
100
AcDbEntity
  8
0
100
AcDbVertex
100
AcDb2dVertex
 10
170.005375
 20
170.11015
 30
0.0
  0
VERTEX
  5
17A
330
162
100
AcDbEntity
  8
0
100
AcDbVertex
100
AcDb2dVertex
 10
169.97045
 20
170.075225
 30
0.0
  0
VERTEX
  5
17B
330
162
100
AcDbEntity
  8
0
100
AcDbVertex
100
AcDb2dVertex
 10
169.9376416666667
 20
170.0258361111111
 30
0.0
  0
VERTEX
  5
17C
330
162
100
AcDbEntity
  8
0
100
AcDbVertex
100
AcDb2dVertex
 10
169.5711055555556
 20
169.3573222222222
 30
0.0
  0
VERTEX
  5
17D
330
162
100
AcDbEntity
  8
0
100
AcDbVertex
100
AcDb2dVertex
 10
169.1749361111111
 20
168.7057416666667
 30
0.0
  0
VERTEX
  5
17E
330
162
100
AcDbEntity
  8
0
100
AcDbVertex
100
AcDb2dVertex
 10
169.148125
 20
168.6524722222222
 30
0.0
  0
VERTEX
  5
17F
330
162
100
AcDbEntity
  8
0
100
AcDbVertex
100
AcDb2dVertex
 10
169.1361305555555
 20
168.6044944444444
 30
0.0
  0
VERTEX
  5
180
330
162
100
AcDbEntity
  8
0
100
AcDbVertex
100
AcDb2dVertex
 10
169.13225
 20
168.5519305555555
 30
0.0
  0
VERTEX
  5
181
330
162
100
AcDbEntity
  8
0
100
AcDbVertex
100
AcDb2dVertex
 10
169.1375416666667
 20
168.4958388888889
 30
0.0
  0
VERTEX
  5
182
330
162
100
AcDbEntity
  8
0
100
AcDbVertex
100
AcDb2dVertex
 10
169.1513
 20
168.4355138888889
 30
0.0
  0
VERTEX
  5
183
330
162
100
AcDbEntity
  8
0
100
AcDbVertex
100
AcDb2dVertex
 10
169.1731722222222
 20
168.3716611111111
 30
0.0
  0
VERTEX
  5
184
330
162
100
AcDbEntity
  8
0
100
AcDbVertex
100
AcDb2dVertex
 10
169.205275
 20
168.3056916666667
 30
0.0
  0
VERTEX
  5
185
330
162
100
AcDbEntity
  8
0
100
AcDbVertex
100
AcDb2dVertex
 10
169.2966444444444
 20
168.1642277777778
 30
0.0
  0
VERTEX
  5
186
330
162
100
AcDbEntity
  8
0
100
AcDbVertex
100
AcDb2dVertex
 10
169.4250555555556
 20
168.0150027777778
 30
0.0
  0
VERTEX
  5
187
330
162
100
AcDbEntity
  8
0
100
AcDbVertex
100
AcDb2dVertex
 10
169.5922722222222
 20
167.8615444444444
 30
0.0
  0
VERTEX
  5
188
330
162
100
AcDbEntity
  8
0
100
AcDbVertex
100
AcDb2dVertex
 10
169.8335722222222
 20
167.681275
 30
0.0
  0
VERTEX
  5
189
330
162
100
AcDbEntity
  8
0
100
AcDbVertex
100
AcDb2dVertex
 10
169.9422277777778
 20
167.5906111111111
 30
0.0
  0
VERTEX
  5
18A
330
162
100
AcDbEntity
  8
0
100
AcDbVertex
100
AcDb2dVertex
 10
170.132375
 20
167.4043444444444
 30
0.0
  0
VERTEX
  5
18B
330
162
100
AcDbEntity
  8
0
100
AcDbVertex
100
AcDb2dVertex
 10
170.2523194444445
 20
167.2727583333333
 30
0.0
  0
VERTEX
  5
18C
330
162
100
AcDbEntity
  8
0
100
AcDbVertex
100
AcDb2dVertex
 10
170.3909611111111
 20
167.1069527777778
 30
0.0
  0
VERTEX
  5
18D
330
162
100
AcDbEntity
  8
0
100
AcDbVertex
100
AcDb2dVertex
 10
170.5398333333333
 20
166.9122194444444
 30
0.0
  0
VERTEX
  5
18E
330
162
100
AcDbEntity
  8
0
100
AcDbVertex
100
AcDb2dVertex
 10
170.6982305555555
 20
166.6864416666666
 30
0.0
  0
VERTEX
  5
18F
330
162
100
AcDbEntity
  8
0
100
AcDbVertex
100
AcDb2dVertex
 10
170.8668583333333
 20
166.4225638888889
 30
0.0
  0
VERTEX
  5
190
330
162
100
AcDbEntity
  8
0
100
AcDbVertex
100
AcDb2dVertex
 10
171.03725
 20
166.1297583333333
 30
0.0
  0
VERTEX
  5
191
330
162
100
AcDbEntity
  8
0
100
AcDbVertex
100
AcDb2dVertex
 10
171.2115222222222
 20
165.7995583333333
 30
0.0
  0
VERTEX
  5
192
330
162
100
AcDbEntity
  8
0
100
AcDbVertex
100
AcDb2dVertex
 10
171.3854416666667
 20
165.4347861111111
 30
0.0
  0
VERTEX
  5
193
330
162
100
AcDbEntity
  8
0
100
AcDbVertex
100
AcDb2dVertex
 10
171.5565388888889
 20
165.0322666666667
 30
0.0
  0
VERTEX
  5
194
330
162
100
AcDbEntity
  8
0
100
AcDbVertex
100
AcDb2dVertex
 10
171.7050583333333
 20
164.6399777777777
 30
0.0
  0
VERTEX
  5
195
330
162
100
AcDbEntity
  8
0
100
AcDbVertex
100
AcDb2dVertex
 10
171.7050583333333
 20
164.6392722222222
 30
0.0
  0
SEQEND
  5
196
330
162
100
AcDbEntity
  8
0
 62
     7
  0
SPLINE
  5
197
330
1F
100
AcDbEntity
  8
0
 62
     7
100
AcDbSpline
210
0.0
220
0.0
230
1.0
 70
    12
 71
     3
 72
     8
 73
     4
 74
     0
 42
0.000000001
 43
0.0
 40
0.0
 40
0.0
 40
0.0
 40
0.0
 40
1.0
 40
1.0
 40
1.0
 40
1.0
 10
171.7050583333333
 20
164.6392722222222
 30
0.0
 41
1.0
 10
171.4030805555555
 20
164.2543916666667
 30
0.0
 41
1.0
 10
171.0891083333333
 20
163.8793888888889
 30
0.0
 41
1.0
 10
170.7620833333333
 20
163.5153222222222
 30
0.0
 41
1.0
  0
POLYLINE
  5
198
330
1F
100
AcDbEntity
  8
0
 62
     7
100
AcDb2dPolyline
 66
     1
 10
0.0
 20
0.0
 30
0.0
  0
VERTEX
  5
199
330
198
100
AcDbEntity
  8
0
100
AcDbVertex
100
AcDb2dVertex
 10
170.7620833333333
 20
163.5153222222222
 30
0.0
  0
VERTEX
  5
19A
330
198
100
AcDbEntity
  8
0
100
AcDbVertex
100
AcDb2dVertex
 10
170.7613777777778
 20
163.5153222222222
 30
0.0
  0
VERTEX
  5
19B
330
198
100
AcDbEntity
  8
0
100
AcDbVertex
100
AcDb2dVertex
 10
170.348275
 20
163.5929333333333
 30
0.0
  0
VERTEX
  5
19C
330
198
100
AcDbEntity
  8
0
100
AcDbVertex
100
AcDb2dVertex
 10
169.9231777777778
 20
163.6917111111111
 30
0.0
  0
VERTEX
  5
19D
330
198
100
AcDbEntity
  8
0
100
AcDbVertex
100
AcDb2dVertex
 10
169.5330055555555
 20
163.7996611111111
 30
0.0
  0
VERTEX
  5
19E
330
198
100
AcDbEntity
  8
0
100
AcDbVertex
100
AcDb2dVertex
 10
169.1777583333333
 20
163.9136083333333
 30
0.0
  0
VERTEX
  5
19F
330
198
100
AcDbEntity
  8
0
100
AcDbVertex
100
AcDb2dVertex
 10
168.8599055555555
 20
164.0307305555556
 30
0.0
  0
VERTEX
  5
1A0
330
198
100
AcDbEntity
  8
0
100
AcDbVertex
100
AcDb2dVertex
 10
168.5709805555555
 20
164.1510277777778
 30
0.0
  0
VERTEX
  5
1A1
330
198
100
AcDbEntity
  8
0
100
AcDbVertex
100
AcDb2dVertex
 10
168.3208611111111
 20
164.26815
 30
0.0
  0
VERTEX
  5
1A2
330
198
100
AcDbEntity
  8
0
100
AcDbVertex
100
AcDb2dVertex
 10
168.1031972222222
 20
164.3806861111111
 30
0.0
  0
VERTEX
  5
1A3
330
198
100
AcDbEntity
  8
0
100
AcDbVertex
100
AcDb2dVertex
 10
167.9155194444444
 20
164.4886361111111
 30
0.0
  0
VERTEX
  5
1A4
330
198
100
AcDbEntity
  8
0
100
AcDbVertex
100
AcDb2dVertex
 10
167.7648833333333
 20
164.5835333333333
 30
0.0
  0
VERTEX
  5
1A5
330
198
100
AcDbEntity
  8
0
100
AcDbVertex
100
AcDb2dVertex
 10
167.5489833333333
 20
164.73805
 30
0.0
  0
VERTEX
  5
1A6
330
198
100
AcDbEntity
  8
0
100
AcDbVertex
100
AcDb2dVertex
 10
167.4410333333333
 20
164.830125
 30
0.0
  0
VERTEX
  5
1A7
330
198
100
AcDbEntity
  8
0
100
AcDbVertex
100
AcDb2dVertex
 10
167.2219583333333
 20
165.0361472222222
 30
0.0
  0
VERTEX
  5
1A8
330
198
100
AcDbEntity
  8
0
100
AcDbVertex
100
AcDb2dVertex
 10
167.0409833333333
 20
165.1737305555556
 30
0.0
  0
VERTEX
  5
1A9
330
198
100
AcDbEntity
  8
0
100
AcDbVertex
100
AcDb2dVertex
 10
166.8720027777778
 20
165.2749777777778
 30
0.0
  0
VERTEX
  5
1AA
330
198
100
AcDbEntity
  8
0
100
AcDbVertex
100
AcDb2dVertex
 10
166.7178388888889
 20
165.3402416666667
 30
0.0
  0
VERTEX
  5
1AB
330
198
100
AcDbEntity
  8
0
100
AcDbVertex
100
AcDb2dVertex
 10
166.646225
 20
165.3599972222222
 30
0.0
  0
VERTEX
  5
1AC
330
198
100
AcDbEntity
  8
0
100
AcDbVertex
100
AcDb2dVertex
 10
166.5799027777778
 20
165.3709333333333
 30
0.0
  0
VERTEX
  5
1AD
330
198
100
AcDbEntity
  8
0
100
AcDbVertex
100
AcDb2dVertex
 10
166.5185194444444
 20
165.3737555555555
 30
0.0
  0
VERTEX
  5
1AE
330
198
100
AcDbEntity
  8
0
100
AcDbVertex
100
AcDb2dVertex
 10
166.4613694444444
 20
165.3691694444444
 30
0.0
  0
VERTEX
  5
1AF
330
198
100
AcDbEntity
  8
0
100
AcDbVertex
100
AcDb2dVertex
 10
166.411275
 20
165.3564694444444
 30
0.0
  0
VERTEX
  5
1B0
330
198
100
AcDbEntity
  8
0
100
AcDbVertex
100
AcDb2dVertex
 10
166.3654138888889
 20
165.3356555555555
 30
0.0
  0
VERTEX
  5
1B1
330
198
100
AcDbEntity
  8
0
100
AcDbVertex
100
AcDb2dVertex
 10
166.3184944444444
 20
165.3007305555556
 30
0.0
  0
VERTEX
  5
1B2
330
198
100
AcDbEntity
  8
0
100
AcDbVertex
100
AcDb2dVertex
 10
165.7448777777778
 20
164.7973166666667
 30
0.0
  0
VERTEX
  5
1B3
330
198
100
AcDbEntity
  8
0
100
AcDbVertex
100
AcDb2dVertex
 10
165.1504472222222
 20
164.3207138888889
 30
0.0
  0
VERTEX
  5
1B4
330
198
100
AcDbEntity
  8
0
100
AcDbVertex
100
AcDb2dVertex
 10
165.1070555555555
 20
164.2794388888889
 30
0.0
  0
VERTEX
  5
1B5
330
198
100
AcDbEntity
  8
0
100
AcDbVertex
100
AcDb2dVertex
 10
165.0788333333333
 20
164.2392222222222
 30
0.0
  0
VERTEX
  5
1B6
330
198
100
AcDbEntity
  8
0
100
AcDbVertex
100
AcDb2dVertex
 10
165.0576666666667
 20
164.1912444444444
 30
0.0
  0
VERTEX
  5
1B7
330
198
100
AcDbEntity
  8
0
100
AcDbVertex
100
AcDb2dVertex
 10
165.0432027777778
 20
164.1365638888889
 30
0.0
  0
VERTEX
  5
1B8
330
198
100
AcDbEntity
  8
0
100
AcDbVertex
100
AcDb2dVertex
 10
165.0354416666667
 20
164.0748277777778
 30
0.0
  0
VERTEX
  5
1B9
330
198
100
AcDbEntity
  8
0
100
AcDbVertex
100
AcDb2dVertex
 10
165.0347361111111
 20
164.0081527777778
 30
0.0
  0
VERTEX
  5
1BA
330
198
100
AcDbEntity
  8
0
100
AcDbVertex
100
AcDb2dVertex
 10
165.0414388888889
 20
163.9340694444444
 30
0.0
  0
VERTEX
  5
1BB
330
198
100
AcDbEntity
  8
0
100
AcDbVertex
100
AcDb2dVertex
 10
165.0788333333333
 20
163.7707333333333
 30
0.0
  0
VERTEX
  5
1BC
330
198
100
AcDbEntity
  8
0
100
AcDbVertex
100
AcDb2dVertex
 10
165.1486833333333
 20
163.5865833333333
 30
0.0
  0
VERTEX
  5
1BD
330
198
100
AcDbEntity
  8
0
100
AcDbVertex
100
AcDb2dVertex
 10
165.2538111111111
 20
163.3851472222222
 30
0.0
  0
VERTEX
  5
1BE
330
198
100
AcDbEntity
  8
0
100
AcDbVertex
100
AcDb2dVertex
 10
165.4189111111111
 20
163.1325583333333
 30
0.0
  0
VERTEX
  5
1BF
330
198
100
AcDbEntity
  8
0
100
AcDbVertex
100
AcDb2dVertex
 10
165.4901722222222
 20
163.0101444444444
 30
0.0
  0
VERTEX
  5
1C0
330
198
100
AcDbEntity
  8
0
100
AcDbVertex
100
AcDb2dVertex
 10
165.6051777777778
 20
162.7706083333333
 30
0.0
  0
VERTEX
  5
1C1
330
198
100
AcDbEntity
  8
0
100
AcDbVertex
100
AcDb2dVertex
 10
165.6729111111111
 20
162.6065666666667
 30
0.0
  0
VERTEX
  5
1C2
330
198
100
AcDbEntity
  8
0
100
AcDbVertex
100
AcDb2dVertex
 10
165.7459361111111
 20
162.4026611111111
 30
0.0
  0
VERTEX
  5
1C3
330
198
100
AcDbEntity
  8
0
100
AcDbVertex
100
AcDb2dVertex
 10
165.8196666666667
 20
162.1691222222222
 30
0.0
  0
VERTEX
  5
1C4
330
198
100
AcDbEntity
  8
0
100
AcDbVertex
100
AcDb2dVertex
 10
165.8909277777778
 20
161.9020694444444
 30
0.0
  0
VERTEX
  5
1C5
330
198
100
AcDbEntity
  8
0
100
AcDbVertex
100
AcDb2dVertex
 10
165.9593666666667
 20
161.5972694444444
 30
0.0
  0
VERTEX
  5
1C6
330
198
100
AcDbEntity
  8
0
100
AcDbVertex
100
AcDb2dVertex
 10
166.0196916666667
 20
161.2635416666667
 30
0.0
  0
VERTEX
  5
1C7
330
198
100
AcDbEntity
  8
0
100
AcDbVertex
100
AcDb2dVertex
 10
166.0704916666666
 20
160.8938305555556
 30
0.0
  0
VERTEX
  5
1C8
330
198
100
AcDbEntity
  8
0
100
AcDbVertex
100
AcDb2dVertex
 10
166.1085916666667
 20
160.4906055555556
 30
0.0
  0
VERTEX
  5
1C9
330
198
100
AcDbEntity
  8
0
100
AcDbVertex
100
AcDb2dVertex
 10
166.1322277777778
 20
160.054925
 30
0.0
  0
VERTEX
  5
1CA
330
198
100
AcDbEntity
  8
0
100
AcDbVertex
100
AcDb2dVertex
 10
166.1375194444444
 20
159.6351194444444
 30
0.0
  0
VERTEX
  5
1CB
330
198
100
AcDbEntity
  8
0
100
AcDbVertex
100
AcDb2dVertex
 10
166.1368138888889
 20
159.6344138888889
 30
0.0
  0
SEQEND
  5
1CC
330
198
100
AcDbEntity
  8
0
 62
     7
  0
SPLINE
  5
1CD
330
1F
100
AcDbEntity
  8
0
 62
     7
100
AcDbSpline
210
0.0
220
0.0
230
1.0
 70
    12
 71
     3
 72
     8
 73
     4
 74
     0
 42
0.000000001
 43
0.0
 40
0.0
 40
0.0
 40
0.0
 40
0.0
 40
1.0
 40
1.0
 40
1.0
 40
1.0
 10
166.1368138888889
 20
159.6344138888889
 30
0.0
 41
1.0
 10
165.7215944444444
 20
159.3758277777778
 30
0.0
 41
1.0
 10
165.2979083333333
 20
159.131
 30
0.0
 41
1.0
 10
164.8657555555555
 20
158.9013416666667
 30
0.0
 41
1.0
  0
POLYLINE
  5
1CE
330
1F
100
AcDbEntity
  8
0
 62
     7
100
AcDb2dPolyline
 66
     1
 10
0.0
 20
0.0
 30
0.0
  0
VERTEX
  5
1CF
330
1CE
100
AcDbEntity
  8
0
100
AcDbVertex
100
AcDb2dVertex
 10
164.8657555555555
 20
158.9013416666667
 30
0.0
  0
VERTEX
  5
1D0
330
1CE
100
AcDbEntity
  8
0
100
AcDbVertex
100
AcDb2dVertex
 10
164.86505
 20
158.9006361111111
 30
0.0
  0
VERTEX
  5
1D1
330
1CE
100
AcDbEntity
  8
0
100
AcDbVertex
100
AcDb2dVertex
 10
164.5045111111111
 20
159.115125
 30
0.0
  0
VERTEX
  5
1D2
330
1CE
100
AcDbEntity
  8
0
100
AcDbVertex
100
AcDb2dVertex
 10
164.137975
 20
159.3528972222222
 30
0.0
  0
VERTEX
  5
1D3
330
1CE
100
AcDbEntity
  8
0
100
AcDbVertex
100
AcDb2dVertex
 10
163.8088333333333
 20
159.5878472222222
 30
0.0
  0
VERTEX
  5
1D4
330
1CE
100
AcDbEntity
  8
0
100
AcDbVertex
100
AcDb2dVertex
 10
163.5135583333333
 20
159.8168
 30
0.0
  0
VERTEX
  5
1D5
330
1CE
100
AcDbEntity
  8
0
100
AcDbVertex
100
AcDb2dVertex
 10
163.255325
 20
160.035875
 30
0.0
  0
VERTEX
  5
1D6
330
1CE
100
AcDbEntity
  8
0
100
AcDbVertex
100
AcDb2dVertex
 10
163.0246083333333
 20
160.2471888888889
 30
0.0
  0
VERTEX
  5
1D7
330
1CE
100
AcDbEntity
  8
0
100
AcDbVertex
100
AcDb2dVertex
 10
162.829875
 20
160.4429805555556
 30
0.0
  0
VERTEX
  5
1D8
330
1CE
100
AcDbEntity
  8
0
100
AcDbVertex
100
AcDb2dVertex
 10
162.6644222222222
 20
160.6228972222222
 30
0.0
  0
VERTEX
  5
1D9
330
1CE
100
AcDbEntity
  8
0
100
AcDbVertex
100
AcDb2dVertex
 10
162.5243694444444
 20
160.7887027777778
 30
0.0
  0
VERTEX
  5
1DA
330
1CE
100
AcDbEntity
  8
0
100
AcDbVertex
100
AcDb2dVertex
 10
162.4157138888889
 20
160.9294611111111
 30
0.0
  0
VERTEX
  5
1DB
330
1CE
100
AcDbEntity
  8
0
100
AcDbVertex
100
AcDb2dVertex
 10
162.2657833333333
 20
161.1485361111111
 30
0.0
  0
VERTEX
  5
1DC
330
1CE
100
AcDbEntity
  8
0
100
AcDbVertex
100
AcDb2dVertex
 10
162.1959333333333
 20
161.2716555555556
 30
0.0
  0
VERTEX
  5
1DD
330
1CE
100
AcDbEntity
  8
0
100
AcDbVertex
100
AcDb2dVertex
 10
162.0597611111111
 20
161.540825
 30
0.0
  0
VERTEX
  5
1DE
330
1CE
100
AcDbEntity
  8
0
100
AcDbVertex
100
AcDb2dVertex
 10
161.9373472222222
 20
161.7316777777778
 30
0.0
  0
VERTEX
  5
1DF
330
1CE
100
AcDbEntity
  8
0
100
AcDbVertex
100
AcDb2dVertex
 10
161.8124638888889
 20
161.8847833333333
 30
0.0
  0
VERTEX
  5
1E0
330
1CE
100
AcDbEntity
  8
0
100
AcDbVertex
100
AcDb2dVertex
 10
161.69005
 20
161.9987305555555
 30
0.0
  0
VERTEX
  5
1E1
330
1CE
100
AcDbEntity
  8
0
100
AcDbVertex
100
AcDb2dVertex
 10
161.6300777777778
 20
162.0414166666667
 30
0.0
  0
VERTEX
  5
1E2
330
1CE
100
AcDbEntity
  8
0
100
AcDbVertex
100
AcDb2dVertex
 10
161.5708111111111
 20
162.0749305555556
 30
0.0
  0
VERTEX
  5
1E3
330
1CE
100
AcDbEntity
  8
0
100
AcDbVertex
100
AcDb2dVertex
 10
161.5143666666666
 20
162.0992722222222
 30
0.0
  0
VERTEX
  5
1E4
330
1CE
100
AcDbEntity
  8
0
100
AcDbVertex
100
AcDb2dVertex
 10
161.4596861111111
 20
162.1137361111111
 30
0.0
  0
VERTEX
  5
1E5
330
1CE
100
AcDbEntity
  8
0
100
AcDbVertex
100
AcDb2dVertex
 10
161.4071222222222
 20
162.1190277777778
 30
0.0
  0
VERTEX
  5
1E6
330
1CE
100
AcDbEntity
  8
0
100
AcDbVertex
100
AcDb2dVertex
 10
161.3577333333333
 20
162.1151472222222
 30
0.0
  0
VERTEX
  5
1E7
330
1CE
100
AcDbEntity
  8
0
100
AcDbVertex
100
AcDb2dVertex
 10
161.3005833333333
 20
162.0985666666666
 30
0.0
  0
VERTEX
  5
1E8
330
1CE
100
AcDbEntity
  8
0
100
AcDbVertex
100
AcDb2dVertex
 10
160.5904416666667
 20
161.8216361111111
 30
0.0
  0
VERTEX
  5
1E9
330
1CE
100
AcDbEntity
  8
0
100
AcDbVertex
100
AcDb2dVertex
 10
159.8686583333333
 20
161.5768083333333
 30
0.0
  0
VERTEX
  5
1EA
330
1CE
100
AcDbEntity
  8
0
100
AcDbVertex
100
AcDb2dVertex
 10
159.8139777777778
 20
161.5531722222222
 30
0.0
  0
VERTEX
  5
1EB
330
1CE
100
AcDbEntity
  8
0
100
AcDbVertex
100
AcDb2dVertex
 10
159.7737611111111
 20
161.5242444444444
 30
0.0
  0
VERTEX
  5
1EC
330
1CE
100
AcDbEntity
  8
0
100
AcDbVertex
100
AcDb2dVertex
 10
159.7370722222222
 20
161.48685
 30
0.0
  0
VERTEX
  5
1ED
330
1CE
100
AcDbEntity
  8
0
100
AcDbVertex
100
AcDb2dVertex
 10
159.7042638888889
 20
161.4406361111111
 30
0.0
  0
VERTEX
  5
1EE
330
1CE
100
AcDbEntity
  8
0
100
AcDbVertex
100
AcDb2dVertex
 10
159.6763944444444
 20
161.3848972222222
 30
0.0
  0
VERTEX
  5
1EF
330
1CE
100
AcDbEntity
  8
0
100
AcDbVertex
100
AcDb2dVertex
 10
159.6527583333333
 20
161.3221027777778
 30
0.0
  0
VERTEX
  5
1F0
330
1CE
100
AcDbEntity
  8
0
100
AcDbVertex
100
AcDb2dVertex
 10
159.6344138888889
 20
161.2504888888889
 30
0.0
  0
VERTEX
  5
1F1
330
1CE
100
AcDbEntity
  8
0
100
AcDbVertex
100
AcDb2dVertex
 10
159.6132472222222
 20
161.0846833333333
 30
0.0
  0
VERTEX
  5
1F2
330
1CE
100
AcDbEntity
  8
0
100
AcDbVertex
100
AcDb2dVertex
 10
159.6160694444444
 20
160.8878333333333
 30
0.0
  0
VERTEX
  5
1F3
330
1CE
100
AcDbEntity
  8
0
100
AcDbVertex
100
AcDb2dVertex
 10
159.6457027777778
 20
160.6617027777778
 30
0.0
  0
VERTEX
  5
1F4
330
1CE
100
AcDbEntity
  8
0
100
AcDbVertex
100
AcDb2dVertex
 10
159.7141416666666
 20
160.3688972222222
 30
0.0
  0
VERTEX
  5
1F5
330
1CE
100
AcDbEntity
  8
0
100
AcDbVertex
100
AcDb2dVertex
 10
159.7395416666667
 20
160.2299027777778
 30
0.0
  0
VERTEX
  5
1F6
330
1CE
100
AcDbEntity
  8
0
100
AcDbVertex
100
AcDb2dVertex
 10
159.766
 20
159.9653194444444
 30
0.0
  0
VERTEX
  5
1F7
330
1CE
100
AcDbEntity
  8
0
100
AcDbVertex
100
AcDb2dVertex
 10
159.7727027777778
 20
159.7871666666667
 30
0.0
  0
VERTEX
  5
1F8
330
1CE
100
AcDbEntity
  8
0
100
AcDbVertex
100
AcDb2dVertex
 10
159.7719972222222
 20
159.5705611111111
 30
0.0
  0
VERTEX
  5
1F9
330
1CE
100
AcDbEntity
  8
0
100
AcDbVertex
100
AcDb2dVertex
 10
159.7614138888889
 20
159.3264388888889
 30
0.0
  0
VERTEX
  5
1FA
330
1CE
100
AcDbEntity
  8
0
100
AcDbVertex
100
AcDb2dVertex
 10
159.7370722222222
 20
159.0512722222222
 30
0.0
  0
VERTEX
  5
1FB
330
1CE
100
AcDbEntity
  8
0
100
AcDbVertex
100
AcDb2dVertex
 10
159.6968555555555
 20
158.7408277777778
 30
0.0
  0
VERTEX
  5
1FC
330
1CE
100
AcDbEntity
  8
0
100
AcDbVertex
100
AcDb2dVertex
 10
159.6397055555555
 20
158.4071
 30
0.0
  0
VERTEX
  5
1FD
330
1CE
100
AcDbEntity
  8
0
100
AcDbVertex
100
AcDb2dVertex
 10
159.5606833333333
 20
158.041975
 30
0.0
  0
VERTEX
  5
1FE
330
1CE
100
AcDbEntity
  8
0
100
AcDbVertex
100
AcDb2dVertex
 10
159.4594361111111
 20
157.6503916666666
 30
0.0
  0
VERTEX
  5
1FF
330
1CE
100
AcDbEntity
  8
0
100
AcDbVertex
100
AcDb2dVertex
 10
159.3317305555555
 20
157.2327027777778
 30
0.0
  0
VERTEX
  5
200
330
1CE
100
AcDbEntity
  8
0
100
AcDbVertex
100
AcDb2dVertex
 10
159.1934416666666
 20
156.8365333333333
 30
0.0
  0
VERTEX
  5
201
330
1CE
100
AcDbEntity
  8
0
100
AcDbVertex
100
AcDb2dVertex
 10
159.1927361111111
 20
156.8358277777778
 30
0.0
  0
SEQEND
  5
202
330
1CE
100
AcDbEntity
  8
0
 62
     7
  0
SPLINE
  5
203
330
1F
100
AcDbEntity
  8
0
 62
     7
100
AcDbSpline
210
0.0
220
0.0
230
1.0
 70
    12
 71
     3
 72
     8
 73
     4
 74
     0
 42
0.000000001
 43
0.0
 40
0.0
 40
0.0
 40
0.0
 40
0.0
 40
1.0
 40
1.0
 40
1.0
 40
1.0
 10
159.1927361111111
 20
156.8358277777778
 30
0.0
 41
1.0
 10
158.7143694444444
 20
156.7345805555555
 30
0.0
 41
1.0
 10
158.2321222222222
 20
156.6495611111111
 30
0.0
 41
1.0
 10
157.7477583333333
 20
156.5811222222222
 30
0.0
 41
1.0
  0
POLYLINE
  5
204
330
1F
100
AcDbEntity
  8
0
 62
     7
100
AcDb2dPolyline
 66
     1
 10
0.0
 20
0.0
 30
0.0
  0
VERTEX
  5
205
330
204
100
AcDbEntity
  8
0
100
AcDbVertex
100
AcDb2dVertex
 10
157.7477583333333
 20
156.5811222222222
 30
0.0
  0
VERTEX
  5
206
330
204
100
AcDbEntity
  8
0
100
AcDbVertex
100
AcDb2dVertex
 10
157.7470527777778
 20
156.5811222222222
 30
0.0
  0
VERTEX
  5
207
330
204
100
AcDbEntity
  8
0
100
AcDbVertex
100
AcDb2dVertex
 10
157.4814111111111
 20
156.9063833333333
 30
0.0
  0
VERTEX
  5
208
330
204
100
AcDbEntity
  8
0
100
AcDbVertex
100
AcDb2dVertex
 10
157.2182388888889
 20
157.2549277777778
 30
0.0
  0
VERTEX
  5
209
330
204
100
AcDbEntity
  8
0
100
AcDbVertex
100
AcDb2dVertex
 10
156.9885805555555
 20
157.5886555555555
 30
0.0
  0
VERTEX
  5
20A
330
204
100
AcDbEntity
  8
0
100
AcDbVertex
100
AcDb2dVertex
 10
156.7903194444444
 20
157.9043916666667
 30
0.0
  0
VERTEX
  5
20B
330
204
100
AcDbEntity
  8
0
100
AcDbVertex
100
AcDb2dVertex
 10
156.6220444444444
 20
158.1986083333333
 30
0.0
  0
VERTEX
  5
20C
330
204
100
AcDbEntity
  8
0
100
AcDbVertex
100
AcDb2dVertex
 10
156.4784638888889
 20
158.4762444444444
 30
0.0
  0
VERTEX
  5
20D
330
204
100
AcDbEntity
  8
0
100
AcDbVertex
100
AcDb2dVertex
 10
156.3620472222222
 20
158.7263638888889
 30
0.0
  0
VERTEX
  5
20E
330
204
100
AcDbEntity
  8
0
100
AcDbVertex
100
AcDb2dVertex
 10
156.2678555555555
 20
158.9528472222222
 30
0.0
  0
VERTEX
  5
20F
330
204
100
AcDbEntity
  8
0
100
AcDbVertex
100
AcDb2dVertex
 10
156.1930666666667
 20
159.1560472222222
 30
0.0
  0
VERTEX
  5
210
330
204
100
AcDbEntity
  8
0
100
AcDbVertex
100
AcDb2dVertex
 10
156.1383861111111
 20
159.3257333333333
 30
0.0
  0
VERTEX
  5
211
330
204
100
AcDbEntity
  8
0
100
AcDbVertex
100
AcDb2dVertex
 10
156.0731222222222
 20
159.5825555555556
 30
0.0
  0
VERTEX
  5
212
330
204
100
AcDbEntity
  8
0
100
AcDbVertex
100
AcDb2dVertex
 10
156.0487805555555
 20
159.7226083333333
 30
0.0
  0
VERTEX
  5
213
330
204
100
AcDbEntity
  8
0
100
AcDbVertex
100
AcDb2dVertex
 10
156.0138555555556
 20
160.0214111111111
 30
0.0
  0
VERTEX
  5
214
330
204
100
AcDbEntity
  8
0
100
AcDbVertex
100
AcDb2dVertex
 10
155.9634083333333
 20
160.2436611111111
 30
0.0
  0
VERTEX
  5
215
330
204
100
AcDbEntity
  8
0
100
AcDbVertex
100
AcDb2dVertex
 10
155.89885
 20
160.4292222222222
 30
0.0
  0
VERTEX
  5
216
330
204
100
AcDbEntity
  8
0
100
AcDbVertex
100
AcDb2dVertex
 10
155.8230027777778
 20
160.5788
 30
0.0
  0
VERTEX
  5
217
330
204
100
AcDbEntity
  8
0
100
AcDbVertex
100
AcDb2dVertex
 10
155.7810222222222
 20
160.6398305555555
 30
0.0
  0
VERTEX
  5
218
330
204
100
AcDbEntity
  8
0
100
AcDbVertex
100
AcDb2dVertex
 10
155.736925
 20
160.6906305555555
 30
0.0
  0
VERTEX
  5
219
330
204
100
AcDbEntity
  8
0
100
AcDbVertex
100
AcDb2dVertex
 10
155.6921222222222
 20
160.7326111111111
 30
0.0
  0
VERTEX
  5
21A
330
204
100
AcDbEntity
  8
0
100
AcDbVertex
100
AcDb2dVertex
 10
155.6455555555555
 20
160.7654194444444
 30
0.0
  0
VERTEX
  5
21B
330
204
100
AcDbEntity
  8
0
100
AcDbVertex
100
AcDb2dVertex
 10
155.5986361111111
 20
160.7879972222222
 30
0.0
  0
VERTEX
  5
21C
330
204
100
AcDbEntity
  8
0
100
AcDbVertex
100
AcDb2dVertex
 10
155.5506583333333
 20
160.8017555555555
 30
0.0
  0
VERTEX
  5
21D
330
204
100
AcDbEntity
  8
0
100
AcDbVertex
100
AcDb2dVertex
 10
155.4913916666667
 20
160.8049305555556
 30
0.0
  0
VERTEX
  5
21E
330
204
100
AcDbEntity
  8
0
100
AcDbVertex
100
AcDb2dVertex
 10
154.7283333333333
 20
160.7879972222222
 30
0.0
  0
VERTEX
  5
21F
330
204
100
AcDbEntity
  8
0
100
AcDbVertex
100
AcDb2dVertex
 10
153.9663333333333
 20
160.8049305555556
 30
0.0
  0
VERTEX
  5
220
330
204
100
AcDbEntity
  8
0
100
AcDbVertex
100
AcDb2dVertex
 10
153.9070666666667
 20
160.8017555555555
 30
0.0
  0
VERTEX
  5
221
330
204
100
AcDbEntity
  8
0
100
AcDbVertex
100
AcDb2dVertex
 10
153.8590888888889
 20
160.7879972222222
 30
0.0
  0
VERTEX
  5
222
330
204
100
AcDbEntity
  8
0
100
AcDbVertex
100
AcDb2dVertex
 10
153.8121694444444
 20
160.7654194444444
 30
0.0
  0
VERTEX
  5
223
330
204
100
AcDbEntity
  8
0
100
AcDbVertex
100
AcDb2dVertex
 10
153.7656027777778
 20
160.7326111111111
 30
0.0
  0
VERTEX
  5
224
330
204
100
AcDbEntity
  8
0
100
AcDbVertex
100
AcDb2dVertex
 10
153.7208
 20
160.6906305555555
 30
0.0
  0
VERTEX
  5
225
330
204
100
AcDbEntity
  8
0
100
AcDbVertex
100
AcDb2dVertex
 10
153.6767027777778
 20
160.6398305555555
 30
0.0
  0
VERTEX
  5
226
330
204
100
AcDbEntity
  8
0
100
AcDbVertex
100
AcDb2dVertex
 10
153.635075
 20
160.5788
 30
0.0
  0
VERTEX
  5
227
330
204
100
AcDbEntity
  8
0
100
AcDbVertex
100
AcDb2dVertex
 10
153.558875
 20
160.4292222222222
 30
0.0
  0
VERTEX
  5
228
330
204
100
AcDbEntity
  8
0
100
AcDbVertex
100
AcDb2dVertex
 10
153.4943166666667
 20
160.2436611111111
 30
0.0
  0
VERTEX
  5
229
330
204
100
AcDbEntity
  8
0
100
AcDbVertex
100
AcDb2dVertex
 10
153.4438694444444
 20
160.0214111111111
 30
0.0
  0
VERTEX
  5
22A
330
204
100
AcDbEntity
  8
0
100
AcDbVertex
100
AcDb2dVertex
 10
153.4089444444444
 20
159.7226083333333
 30
0.0
  0
VERTEX
  5
22B
330
204
100
AcDbEntity
  8
0
100
AcDbVertex
100
AcDb2dVertex
 10
153.3846027777778
 20
159.5825555555556
 30
0.0
  0
VERTEX
  5
22C
330
204
100
AcDbEntity
  8
0
100
AcDbVertex
100
AcDb2dVertex
 10
153.3193388888889
 20
159.3257333333333
 30
0.0
  0
VERTEX
  5
22D
330
204
100
AcDbEntity
  8
0
100
AcDbVertex
100
AcDb2dVertex
 10
153.2646583333333
 20
159.1560472222222
 30
0.0
  0
VERTEX
  5
22E
330
204
100
AcDbEntity
  8
0
100
AcDbVertex
100
AcDb2dVertex
 10
153.1898694444444
 20
158.9528472222222
 30
0.0
  0
VERTEX
  5
22F
330
204
100
AcDbEntity
  8
0
100
AcDbVertex
100
AcDb2dVertex
 10
153.0956777777778
 20
158.7263638888889
 30
0.0
  0
VERTEX
  5
230
330
204
100
AcDbEntity
  8
0
100
AcDbVertex
100
AcDb2dVertex
 10
152.9792611111111
 20
158.4762444444444
 30
0.0
  0
VERTEX
  5
231
330
204
100
AcDbEntity
  8
0
100
AcDbVertex
100
AcDb2dVertex
 10
152.8356805555556
 20
158.1986083333333
 30
0.0
  0
VERTEX
  5
232
330
204
100
AcDbEntity
  8
0
100
AcDbVertex
100
AcDb2dVertex
 10
152.6674055555555
 20
157.9043916666667
 30
0.0
  0
VERTEX
  5
233
330
204
100
AcDbEntity
  8
0
100
AcDbVertex
100
AcDb2dVertex
 10
152.4691444444444
 20
157.5886555555555
 30
0.0
  0
VERTEX
  5
234
330
204
100
AcDbEntity
  8
0
100
AcDbVertex
100
AcDb2dVertex
 10
152.2394861111111
 20
157.2549277777778
 30
0.0
  0
VERTEX
  5
235
330
204
100
AcDbEntity
  8
0
100
AcDbVertex
100
AcDb2dVertex
 10
151.9763138888889
 20
156.9063833333333
 30
0.0
  0
VERTEX
  5
236
330
204
100
AcDbEntity
  8
0
100
AcDbVertex
100
AcDb2dVertex
 10
151.711025
 20
156.5811222222222
 30
0.0
  0
VERTEX
  5
237
330
204
100
AcDbEntity
  8
0
100
AcDbVertex
100
AcDb2dVertex
 10
151.7099666666667
 20
156.5811222222222
 30
0.0
  0
SEQEND
  5
238
330
204
100
AcDbEntity
  8
0
 62
     7
  0
SPLINE
  5
239
330
1F
100
AcDbEntity
  8
0
 62
     7
100
AcDbSpline
210
0.0
220
0.0
230
1.0
 70
    12
 71
     3
 72
     8
 73
     4
 74
     0
 42
0.000000001
 43
0.0
 40
0.0
 40
0.0
 40
0.0
 40
0.0
 40
1.0
 40
1.0
 40
1.0
 40
1.0
 10
151.7099666666667
 20
156.5811222222222
 30
0.0
 41
1.0
 10
151.2256027777778
 20
156.6495611111111
 30
0.0
 41
1.0
 10
150.7433555555556
 20
156.7345805555555
 30
0.0
 41
1.0
 10
150.2649888888889
 20
156.8358277777778
 30
0.0
 41
1.0
  0
POLYLINE
  5
23A
330
1F
100
AcDbEntity
  8
0
 62
     7
100
AcDb2dPolyline
 66
     1
 10
0.0
 20
0.0
 30
0.0
  0
VERTEX
  5
23B
330
23A
100
AcDbEntity
  8
0
100
AcDbVertex
100
AcDb2dVertex
 10
150.2649888888889
 20
156.8358277777778
 30
0.0
  0
VERTEX
  5
23C
330
23A
100
AcDbEntity
  8
0
100
AcDbVertex
100
AcDb2dVertex
 10
150.2642833333333
 20
156.8365333333333
 30
0.0
  0
VERTEX
  5
23D
330
23A
100
AcDbEntity
  8
0
100
AcDbVertex
100
AcDb2dVertex
 10
150.1259944444444
 20
157.2327027777778
 30
0.0
  0
VERTEX
  5
23E
330
23A
100
AcDbEntity
  8
0
100
AcDbVertex
100
AcDb2dVertex
 10
149.9982888888889
 20
157.6503916666666
 30
0.0
  0
VERTEX
  5
23F
330
23A
100
AcDbEntity
  8
0
100
AcDbVertex
100
AcDb2dVertex
 10
149.8970416666667
 20
158.041975
 30
0.0
  0
VERTEX
  5
240
330
23A
100
AcDbEntity
  8
0
100
AcDbVertex
100
AcDb2dVertex
 10
149.8180194444444
 20
158.4071
 30
0.0
  0
VERTEX
  5
241
330
23A
100
AcDbEntity
  8
0
100
AcDbVertex
100
AcDb2dVertex
 10
149.7608694444444
 20
158.7408277777778
 30
0.0
  0
VERTEX
  5
242
330
23A
100
AcDbEntity
  8
0
100
AcDbVertex
100
AcDb2dVertex
 10
149.7206527777778
 20
159.0512722222222
 30
0.0
  0
VERTEX
  5
243
330
23A
100
AcDbEntity
  8
0
100
AcDbVertex
100
AcDb2dVertex
 10
149.6963111111111
 20
159.3264388888889
 30
0.0
  0
VERTEX
  5
244
330
23A
100
AcDbEntity
  8
0
100
AcDbVertex
100
AcDb2dVertex
 10
149.6857277777778
 20
159.5705611111111
 30
0.0
  0
VERTEX
  5
245
330
23A
100
AcDbEntity
  8
0
100
AcDbVertex
100
AcDb2dVertex
 10
149.6850222222222
 20
159.7871666666667
 30
0.0
  0
VERTEX
  5
246
330
23A
100
AcDbEntity
  8
0
100
AcDbVertex
100
AcDb2dVertex
 10
149.691725
 20
159.9653194444444
 30
0.0
  0
VERTEX
  5
247
330
23A
100
AcDbEntity
  8
0
100
AcDbVertex
100
AcDb2dVertex
 10
149.7181833333333
 20
160.2299027777778
 30
0.0
  0
VERTEX
  5
248
330
23A
100
AcDbEntity
  8
0
100
AcDbVertex
100
AcDb2dVertex
 10
149.7435833333333
 20
160.3688972222222
 30
0.0
  0
VERTEX
  5
249
330
23A
100
AcDbEntity
  8
0
100
AcDbVertex
100
AcDb2dVertex
 10
149.8120222222222
 20
160.6617027777778
 30
0.0
  0
VERTEX
  5
24A
330
23A
100
AcDbEntity
  8
0
100
AcDbVertex
100
AcDb2dVertex
 10
149.8416555555555
 20
160.8878333333333
 30
0.0
  0
VERTEX
  5
24B
330
23A
100
AcDbEntity
  8
0
100
AcDbVertex
100
AcDb2dVertex
 10
149.8444777777778
 20
161.0846833333333
 30
0.0
  0
VERTEX
  5
24C
330
23A
100
AcDbEntity
  8
0
100
AcDbVertex
100
AcDb2dVertex
 10
149.8233111111111
 20
161.2504888888889
 30
0.0
  0
VERTEX
  5
24D
330
23A
100
AcDbEntity
  8
0
100
AcDbVertex
100
AcDb2dVertex
 10
149.8049666666667
 20
161.3221027777778
 30
0.0
  0
VERTEX
  5
24E
330
23A
100
AcDbEntity
  8
0
100
AcDbVertex
100
AcDb2dVertex
 10
149.7813305555555
 20
161.3848972222222
 30
0.0
  0
VERTEX
  5
24F
330
23A
100
AcDbEntity
  8
0
100
AcDbVertex
100
AcDb2dVertex
 10
149.7534611111111
 20
161.4406361111111
 30
0.0
  0
VERTEX
  5
250
330
23A
100
AcDbEntity
  8
0
100
AcDbVertex
100
AcDb2dVertex
 10
149.7206527777778
 20
161.48685
 30
0.0
  0
VERTEX
  5
251
330
23A
100
AcDbEntity
  8
0
100
AcDbVertex
100
AcDb2dVertex
 10
149.6839638888889
 20
161.5242444444444
 30
0.0
  0
VERTEX
  5
252
330
23A
100
AcDbEntity
  8
0
100
AcDbVertex
100
AcDb2dVertex
 10
149.6437472222222
 20
161.5531722222222
 30
0.0
  0
VERTEX
  5
253
330
23A
100
AcDbEntity
  8
0
100
AcDbVertex
100
AcDb2dVertex
 10
149.5890666666666
 20
161.5768083333333
 30
0.0
  0
VERTEX
  5
254
330
23A
100
AcDbEntity
  8
0
100
AcDbVertex
100
AcDb2dVertex
 10
148.8672833333333
 20
161.8216361111111
 30
0.0
  0
VERTEX
  5
255
330
23A
100
AcDbEntity
  8
0
100
AcDbVertex
100
AcDb2dVertex
 10
148.1571416666667
 20
162.0985666666666
 30
0.0
  0
VERTEX
  5
256
330
23A
100
AcDbEntity
  8
0
100
AcDbVertex
100
AcDb2dVertex
 10
148.0999916666667
 20
162.1151472222222
 30
0.0
  0
VERTEX
  5
257
330
23A
100
AcDbEntity
  8
0
100
AcDbVertex
100
AcDb2dVertex
 10
148.0506027777778
 20
162.1190277777778
 30
0.0
  0
VERTEX
  5
258
330
23A
100
AcDbEntity
  8
0
100
AcDbVertex
100
AcDb2dVertex
 10
147.9980388888889
 20
162.1137361111111
 30
0.0
  0
VERTEX
  5
259
330
23A
100
AcDbEntity
  8
0
100
AcDbVertex
100
AcDb2dVertex
 10
147.9433583333333
 20
162.0992722222222
 30
0.0
  0
VERTEX
  5
25A
330
23A
100
AcDbEntity
  8
0
100
AcDbVertex
100
AcDb2dVertex
 10
147.8869138888889
 20
162.0749305555556
 30
0.0
  0
VERTEX
  5
25B
330
23A
100
AcDbEntity
  8
0
100
AcDbVertex
100
AcDb2dVertex
 10
147.8276472222222
 20
162.0414166666667
 30
0.0
  0
VERTEX
  5
25C
330
23A
100
AcDbEntity
  8
0
100
AcDbVertex
100
AcDb2dVertex
 10
147.767675
 20
161.9987305555555
 30
0.0
  0
VERTEX
  5
25D
330
23A
100
AcDbEntity
  8
0
100
AcDbVertex
100
AcDb2dVertex
 10
147.6452611111111
 20
161.8847833333333
 30
0.0
  0
VERTEX
  5
25E
330
23A
100
AcDbEntity
  8
0
100
AcDbVertex
100
AcDb2dVertex
 10
147.5203777777778
 20
161.7316777777778
 30
0.0
  0
VERTEX
  5
25F
330
23A
100
AcDbEntity
  8
0
100
AcDbVertex
100
AcDb2dVertex
 10
147.3979638888889
 20
161.540825
 30
0.0
  0
VERTEX
  5
260
330
23A
100
AcDbEntity
  8
0
100
AcDbVertex
100
AcDb2dVertex
 10
147.2617916666667
 20
161.2716555555556
 30
0.0
  0
VERTEX
  5
261
330
23A
100
AcDbEntity
  8
0
100
AcDbVertex
100
AcDb2dVertex
 10
147.1919416666667
 20
161.1485361111111
 30
0.0
  0
VERTEX
  5
262
330
23A
100
AcDbEntity
  8
0
100
AcDbVertex
100
AcDb2dVertex
 10
147.0420111111111
 20
160.9294611111111
 30
0.0
  0
VERTEX
  5
263
330
23A
100
AcDbEntity
  8
0
100
AcDbVertex
100
AcDb2dVertex
 10
146.9333555555556
 20
160.7887027777778
 30
0.0
  0
VERTEX
  5
264
330
23A
100
AcDbEntity
  8
0
100
AcDbVertex
100
AcDb2dVertex
 10
146.7936555555555
 20
160.6228972222222
 30
0.0
  0
VERTEX
  5
265
330
23A
100
AcDbEntity
  8
0
100
AcDbVertex
100
AcDb2dVertex
 10
146.62785
 20
160.4429805555556
 30
0.0
  0
VERTEX
  5
266
330
23A
100
AcDbEntity
  8
0
100
AcDbVertex
100
AcDb2dVertex
 10
146.4331166666666
 20
160.2471888888889
 30
0.0
  0
VERTEX
  5
267
330
23A
100
AcDbEntity
  8
0
100
AcDbVertex
100
AcDb2dVertex
 10
146.2027527777778
 20
160.035875
 30
0.0
  0
VERTEX
  5
268
330
23A
100
AcDbEntity
  8
0
100
AcDbVertex
100
AcDb2dVertex
 10
145.9441666666667
 20
159.8168
 30
0.0
  0
VERTEX
  5
269
330
23A
100
AcDbEntity
  8
0
100
AcDbVertex
100
AcDb2dVertex
 10
145.6488916666667
 20
159.5878472222222
 30
0.0
  0
VERTEX
  5
26A
330
23A
100
AcDbEntity
  8
0
100
AcDbVertex
100
AcDb2dVertex
 10
145.31975
 20
159.3528972222222
 30
0.0
  0
VERTEX
  5
26B
330
23A
100
AcDbEntity
  8
0
100
AcDbVertex
100
AcDb2dVertex
 10
144.9532138888889
 20
159.115125
 30
0.0
  0
VERTEX
  5
26C
330
23A
100
AcDbEntity
  8
0
100
AcDbVertex
100
AcDb2dVertex
 10
144.592675
 20
158.9006361111111
 30
0.0
  0
VERTEX
  5
26D
330
23A
100
AcDbEntity
  8
0
100
AcDbVertex
100
AcDb2dVertex
 10
144.5919694444444
 20
158.9013416666667
 30
0.0
  0
SEQEND
  5
26E
330
23A
100
AcDbEntity
  8
0
 62
     7
  0
SPLINE
  5
26F
330
1F
100
AcDbEntity
  8
0
 62
     7
100
AcDbSpline
210
0.0
220
0.0
230
1.0
 70
    12
 71
     3
 72
     8
 73
     4
 74
     0
 42
0.000000001
 43
0.0
 40
0.0
 40
0.0
 40
0.0
 40
0.0
 40
1.0
 40
1.0
 40
1.0
 40
1.0
 10
144.5919694444444
 20
158.9013416666667
 30
0.0
 41
1.0
 10
144.1598166666666
 20
159.131
 30
0.0
 41
1.0
 10
143.7364833333333
 20
159.3758277777778
 30
0.0
 41
1.0
 10
143.3209111111111
 20
159.6344138888889
 30
0.0
 41
1.0
  0
POLYLINE
  5
270
330
1F
100
AcDbEntity
  8
0
 62
     7
100
AcDb2dPolyline
 66
     1
 10
0.0
 20
0.0
 30
0.0
  0
VERTEX
  5
271
330
270
100
AcDbEntity
  8
0
100
AcDbVertex
100
AcDb2dVertex
 10
143.3209111111111
 20
159.6344138888889
 30
0.0
  0
VERTEX
  5
272
330
270
100
AcDbEntity
  8
0
100
AcDbVertex
100
AcDb2dVertex
 10
143.3202055555555
 20
159.6351194444444
 30
0.0
  0
VERTEX
  5
273
330
270
100
AcDbEntity
  8
0
100
AcDbVertex
100
AcDb2dVertex
 10
143.3254972222222
 20
160.054925
 30
0.0
  0
VERTEX
  5
274
330
270
100
AcDbEntity
  8
0
100
AcDbVertex
100
AcDb2dVertex
 10
143.3491333333333
 20
160.4906055555556
 30
0.0
  0
VERTEX
  5
275
330
270
100
AcDbEntity
  8
0
100
AcDbVertex
100
AcDb2dVertex
 10
143.3872333333333
 20
160.8938305555556
 30
0.0
  0
VERTEX
  5
276
330
270
100
AcDbEntity
  8
0
100
AcDbVertex
100
AcDb2dVertex
 10
143.4380333333333
 20
161.2635416666667
 30
0.0
  0
VERTEX
  5
277
330
270
100
AcDbEntity
  8
0
100
AcDbVertex
100
AcDb2dVertex
 10
143.4983583333333
 20
161.5972694444444
 30
0.0
  0
VERTEX
  5
278
330
270
100
AcDbEntity
  8
0
100
AcDbVertex
100
AcDb2dVertex
 10
143.5667972222222
 20
161.9020694444444
 30
0.0
  0
VERTEX
  5
279
330
270
100
AcDbEntity
  8
0
100
AcDbVertex
100
AcDb2dVertex
 10
143.6380583333333
 20
162.1691222222222
 30
0.0
  0
VERTEX
  5
27A
330
270
100
AcDbEntity
  8
0
100
AcDbVertex
100
AcDb2dVertex
 10
143.7121416666667
 20
162.4026611111111
 30
0.0
  0
VERTEX
  5
27B
330
270
100
AcDbEntity
  8
0
100
AcDbVertex
100
AcDb2dVertex
 10
143.7848138888889
 20
162.6065666666667
 30
0.0
  0
VERTEX
  5
27C
330
270
100
AcDbEntity
  8
0
100
AcDbVertex
100
AcDb2dVertex
 10
143.8525472222222
 20
162.7706083333333
 30
0.0
  0
VERTEX
  5
27D
330
270
100
AcDbEntity
  8
0
100
AcDbVertex
100
AcDb2dVertex
 10
143.9675527777778
 20
163.0101444444444
 30
0.0
  0
VERTEX
  5
27E
330
270
100
AcDbEntity
  8
0
100
AcDbVertex
100
AcDb2dVertex
 10
144.0388138888889
 20
163.1325583333333
 30
0.0
  0
VERTEX
  5
27F
330
270
100
AcDbEntity
  8
0
100
AcDbVertex
100
AcDb2dVertex
 10
144.2039138888889
 20
163.3851472222222
 30
0.0
  0
VERTEX
  5
280
330
270
100
AcDbEntity
  8
0
100
AcDbVertex
100
AcDb2dVertex
 10
144.3090416666667
 20
163.5865833333333
 30
0.0
  0
VERTEX
  5
281
330
270
100
AcDbEntity
  8
0
100
AcDbVertex
100
AcDb2dVertex
 10
144.3788916666666
 20
163.7707333333333
 30
0.0
  0
VERTEX
  5
282
330
270
100
AcDbEntity
  8
0
100
AcDbVertex
100
AcDb2dVertex
 10
144.4162861111111
 20
163.9340694444444
 30
0.0
  0
VERTEX
  5
283
330
270
100
AcDbEntity
  8
0
100
AcDbVertex
100
AcDb2dVertex
 10
144.4229888888889
 20
164.0081527777778
 30
0.0
  0
VERTEX
  5
284
330
270
100
AcDbEntity
  8
0
100
AcDbVertex
100
AcDb2dVertex
 10
144.4222833333333
 20
164.0748277777778
 30
0.0
  0
VERTEX
  5
285
330
270
100
AcDbEntity
  8
0
100
AcDbVertex
100
AcDb2dVertex
 10
144.4145222222222
 20
164.1365638888889
 30
0.0
  0
VERTEX
  5
286
330
270
100
AcDbEntity
  8
0
100
AcDbVertex
100
AcDb2dVertex
 10
144.4000583333333
 20
164.1912444444444
 30
0.0
  0
VERTEX
  5
287
330
270
100
AcDbEntity
  8
0
100
AcDbVertex
100
AcDb2dVertex
 10
144.3788916666666
 20
164.2392222222222
 30
0.0
  0
VERTEX
  5
288
330
270
100
AcDbEntity
  8
0
100
AcDbVertex
100
AcDb2dVertex
 10
144.3506694444444
 20
164.2794388888889
 30
0.0
  0
VERTEX
  5
289
330
270
100
AcDbEntity
  8
0
100
AcDbVertex
100
AcDb2dVertex
 10
144.3072777777778
 20
164.3207138888889
 30
0.0
  0
VERTEX
  5
28A
330
270
100
AcDbEntity
  8
0
100
AcDbVertex
100
AcDb2dVertex
 10
143.7128472222222
 20
164.7973166666667
 30
0.0
  0
VERTEX
  5
28B
330
270
100
AcDbEntity
  8
0
100
AcDbVertex
100
AcDb2dVertex
 10
143.1392305555555
 20
165.3007305555556
 30
0.0
  0
VERTEX
  5
28C
330
270
100
AcDbEntity
  8
0
100
AcDbVertex
100
AcDb2dVertex
 10
143.0923111111111
 20
165.3356555555555
 30
0.0
  0
VERTEX
  5
28D
330
270
100
AcDbEntity
  8
0
100
AcDbVertex
100
AcDb2dVertex
 10
143.04645
 20
165.3564694444444
 30
0.0
  0
VERTEX
  5
28E
330
270
100
AcDbEntity
  8
0
100
AcDbVertex
100
AcDb2dVertex
 10
142.9963555555555
 20
165.3691694444444
 30
0.0
  0
VERTEX
  5
28F
330
270
100
AcDbEntity
  8
0
100
AcDbVertex
100
AcDb2dVertex
 10
142.9392055555555
 20
165.3737555555555
 30
0.0
  0
VERTEX
  5
290
330
270
100
AcDbEntity
  8
0
100
AcDbVertex
100
AcDb2dVertex
 10
142.8778222222222
 20
165.3709333333333
 30
0.0
  0
VERTEX
  5
291
330
270
100
AcDbEntity
  8
0
100
AcDbVertex
100
AcDb2dVertex
 10
142.8115
 20
165.3599972222222
 30
0.0
  0
VERTEX
  5
292
330
270
100
AcDbEntity
  8
0
100
AcDbVertex
100
AcDb2dVertex
 10
142.7398861111111
 20
165.3402416666667
 30
0.0
  0
VERTEX
  5
293
330
270
100
AcDbEntity
  8
0
100
AcDbVertex
100
AcDb2dVertex
 10
142.5857222222222
 20
165.2749777777778
 30
0.0
  0
VERTEX
  5
294
330
270
100
AcDbEntity
  8
0
100
AcDbVertex
100
AcDb2dVertex
 10
142.4167416666666
 20
165.1737305555556
 30
0.0
  0
VERTEX
  5
295
330
270
100
AcDbEntity
  8
0
100
AcDbVertex
100
AcDb2dVertex
 10
142.2357666666666
 20
165.0361472222222
 30
0.0
  0
VERTEX
  5
296
330
270
100
AcDbEntity
  8
0
100
AcDbVertex
100
AcDb2dVertex
 10
142.0166916666666
 20
164.830125
 30
0.0
  0
VERTEX
  5
297
330
270
100
AcDbEntity
  8
0
100
AcDbVertex
100
AcDb2dVertex
 10
141.9087416666667
 20
164.73805
 30
0.0
  0
VERTEX
  5
298
330
270
100
AcDbEntity
  8
0
100
AcDbVertex
100
AcDb2dVertex
 10
141.6928416666667
 20
164.5835333333333
 30
0.0
  0
VERTEX
  5
299
330
270
100
AcDbEntity
  8
0
100
AcDbVertex
100
AcDb2dVertex
 10
141.5422055555555
 20
164.4886361111111
 30
0.0
  0
VERTEX
  5
29A
330
270
100
AcDbEntity
  8
0
100
AcDbVertex
100
AcDb2dVertex
 10
141.3545277777778
 20
164.3806861111111
 30
0.0
  0
VERTEX
  5
29B
330
270
100
AcDbEntity
  8
0
100
AcDbVertex
100
AcDb2dVertex
 10
141.1368638888889
 20
164.26815
 30
0.0
  0
VERTEX
  5
29C
330
270
100
AcDbEntity
  8
0
100
AcDbVertex
100
AcDb2dVertex
 10
140.8867444444444
 20
164.1510277777778
 30
0.0
  0
VERTEX
  5
29D
330
270
100
AcDbEntity
  8
0
100
AcDbVertex
100
AcDb2dVertex
 10
140.5978194444444
 20
164.0307305555556
 30
0.0
  0
VERTEX
  5
29E
330
270
100
AcDbEntity
  8
0
100
AcDbVertex
100
AcDb2dVertex
 10
140.2799666666667
 20
163.9136083333333
 30
0.0
  0
VERTEX
  5
29F
330
270
100
AcDbEntity
  8
0
100
AcDbVertex
100
AcDb2dVertex
 10
139.9247194444444
 20
163.7996611111111
 30
0.0
  0
VERTEX
  5
2A0
330
270
100
AcDbEntity
  8
0
100
AcDbVertex
100
AcDb2dVertex
 10
139.5345472222222
 20
163.6917111111111
 30
0.0
  0
VERTEX
  5
2A1
330
270
100
AcDbEntity
  8
0
100
AcDbVertex
100
AcDb2dVertex
 10
139.10945
 20
163.5929333333333
 30
0.0
  0
VERTEX
  5
2A2
330
270
100
AcDbEntity
  8
0
100
AcDbVertex
100
AcDb2dVertex
 10
138.6963472222222
 20
163.5153222222222
 30
0.0
  0
VERTEX
  5
2A3
330
270
100
AcDbEntity
  8
0
100
AcDbVertex
100
AcDb2dVertex
 10
138.6956416666667
 20
163.5153222222222
 30
0.0
  0
SEQEND
  5
2A4
330
270
100
AcDbEntity
  8
0
 62
     7
  0
SPLINE
  5
2A5
330
1F
100
AcDbEntity
  8
0
 62
     7
100
AcDbSpline
210
0.0
220
0.0
230
1.0
 70
    12
 71
     3
 72
     8
 73
     4
 74
     0
 42
0.000000001
 43
0.0
 40
0.0
 40
0.0
 40
0.0
 40
0.0
 40
1.0
 40
1.0
 40
1.0
 40
1.0
 10
138.6956416666667
 20
163.5153222222222
 30
0.0
 41
1.0
 10
138.3686166666667
 20
163.8793888888889
 30
0.0
 41
1.0
 10
138.0546444444444
 20
164.2543916666667
 30
0.0
 41
1.0
 10
137.7526666666667
 20
164.6392722222222
 30
0.0
 41
1.0
  0
POLYLINE
  5
2A6
330
1F
100
AcDbEntity
  8
0
 62
     7
100
AcDb2dPolyline
 66
     1
 10
0.0
 20
0.0
 30
0.0
  0
VERTEX
  5
2A7
330
2A6
100
AcDbEntity
  8
0
100
AcDbVertex
100
AcDb2dVertex
 10
137.7526666666667
 20
164.6392722222222
 30
0.0
  0
VERTEX
  5
2A8
330
2A6
100
AcDbEntity
  8
0
100
AcDbVertex
100
AcDb2dVertex
 10
137.7526666666667
 20
164.6399777777777
 30
0.0
  0
VERTEX
  5
2A9
330
2A6
100
AcDbEntity
  8
0
100
AcDbVertex
100
AcDb2dVertex
 10
137.9011861111111
 20
165.0322666666667
 30
0.0
  0
VERTEX
  5
2AA
330
2A6
100
AcDbEntity
  8
0
100
AcDbVertex
100
AcDb2dVertex
 10
138.0722833333333
 20
165.4347861111111
 30
0.0
  0
VERTEX
  5
2AB
330
2A6
100
AcDbEntity
  8
0
100
AcDbVertex
100
AcDb2dVertex
 10
138.2462027777778
 20
165.7995583333333
 30
0.0
  0
VERTEX
  5
2AC
330
2A6
100
AcDbEntity
  8
0
100
AcDbVertex
100
AcDb2dVertex
 10
138.420475
 20
166.1297583333333
 30
0.0
  0
VERTEX
  5
2AD
330
2A6
100
AcDbEntity
  8
0
100
AcDbVertex
100
AcDb2dVertex
 10
138.5908666666667
 20
166.4225638888889
 30
0.0
  0
VERTEX
  5
2AE
330
2A6
100
AcDbEntity
  8
0
100
AcDbVertex
100
AcDb2dVertex
 10
138.7594944444444
 20
166.6864416666666
 30
0.0
  0
VERTEX
  5
2AF
330
2A6
100
AcDbEntity
  8
0
100
AcDbVertex
100
AcDb2dVertex
 10
138.9178916666667
 20
166.9122194444444
 30
0.0
  0
VERTEX
  5
2B0
330
2A6
100
AcDbEntity
  8
0
100
AcDbVertex
100
AcDb2dVertex
 10
139.0667638888889
 20
167.1069527777778
 30
0.0
  0
VERTEX
  5
2B1
330
2A6
100
AcDbEntity
  8
0
100
AcDbVertex
100
AcDb2dVertex
 10
139.2054055555556
 20
167.2727583333333
 30
0.0
  0
VERTEX
  5
2B2
330
2A6
100
AcDbEntity
  8
0
100
AcDbVertex
100
AcDb2dVertex
 10
139.32535
 20
167.4043444444444
 30
0.0
  0
VERTEX
  5
2B3
330
2A6
100
AcDbEntity
  8
0
100
AcDbVertex
100
AcDb2dVertex
 10
139.5154972222222
 20
167.5906111111111
 30
0.0
  0
VERTEX
  5
2B4
330
2A6
100
AcDbEntity
  8
0
100
AcDbVertex
100
AcDb2dVertex
 10
139.6241527777778
 20
167.681275
 30
0.0
  0
VERTEX
  5
2B5
330
2A6
100
AcDbEntity
  8
0
100
AcDbVertex
100
AcDb2dVertex
 10
139.8654527777778
 20
167.8615444444444
 30
0.0
  0
VERTEX
  5
2B6
330
2A6
100
AcDbEntity
  8
0
100
AcDbVertex
100
AcDb2dVertex
 10
140.0326694444444
 20
168.0150027777778
 30
0.0
  0
VERTEX
  5
2B7
330
2A6
100
AcDbEntity
  8
0
100
AcDbVertex
100
AcDb2dVertex
 10
140.1610805555555
 20
168.1642277777778
 30
0.0
  0
VERTEX
  5
2B8
330
2A6
100
AcDbEntity
  8
0
100
AcDbVertex
100
AcDb2dVertex
 10
140.25245
 20
168.3056916666667
 30
0.0
  0
VERTEX
  5
2B9
330
2A6
100
AcDbEntity
  8
0
100
AcDbVertex
100
AcDb2dVertex
 10
140.2845527777778
 20
168.3716611111111
 30
0.0
  0
VERTEX
  5
2BA
330
2A6
100
AcDbEntity
  8
0
100
AcDbVertex
100
AcDb2dVertex
 10
140.306425
 20
168.4355138888889
 30
0.0
  0
VERTEX
  5
2BB
330
2A6
100
AcDbEntity
  8
0
100
AcDbVertex
100
AcDb2dVertex
 10
140.3201833333333
 20
168.4958388888889
 30
0.0
  0
VERTEX
  5
2BC
330
2A6
100
AcDbEntity
  8
0
100
AcDbVertex
100
AcDb2dVertex
 10
140.325475
 20
168.5519305555555
 30
0.0
  0
VERTEX
  5
2BD
330
2A6
100
AcDbEntity
  8
0
100
AcDbVertex
100
AcDb2dVertex
 10
140.3215944444444
 20
168.6044944444444
 30
0.0
  0
VERTEX
  5
2BE
330
2A6
100
AcDbEntity
  8
0
100
AcDbVertex
100
AcDb2dVertex
 10
140.3096
 20
168.6524722222222
 30
0.0
  0
VERTEX
  5
2BF
330
2A6
100
AcDbEntity
  8
0
100
AcDbVertex
100
AcDb2dVertex
 10
140.2827888888889
 20
168.7057416666667
 30
0.0
  0
VERTEX
  5
2C0
330
2A6
100
AcDbEntity
  8
0
100
AcDbVertex
100
AcDb2dVertex
 10
139.8866194444444
 20
169.3573222222222
 30
0.0
  0
VERTEX
  5
2C1
330
2A6
100
AcDbEntity
  8
0
100
AcDbVertex
100
AcDb2dVertex
 10
139.5200833333333
 20
170.0258361111111
 30
0.0
  0
VERTEX
  5
2C2
330
2A6
100
AcDbEntity
  8
0
100
AcDbVertex
100
AcDb2dVertex
 10
139.487275
 20
170.075225
 30
0.0
  0
VERTEX
  5
2C3
330
2A6
100
AcDbEntity
  8
0
100
AcDbVertex
100
AcDb2dVertex
 10
139.45235
 20
170.11015
 30
0.0
  0
VERTEX
  5
2C4
330
2A6
100
AcDbEntity
  8
0
100
AcDbVertex
100
AcDb2dVertex
 10
139.4089583333333
 20
170.1390777777778
 30
0.0
  0
VERTEX
  5
2C5
330
2A6
100
AcDbEntity
  8
0
100
AcDbVertex
100
AcDb2dVertex
 10
139.3574527777778
 20
170.1634194444444
 30
0.0
  0
VERTEX
  5
2C6
330
2A6
100
AcDbEntity
  8
0
100
AcDbVertex
100
AcDb2dVertex
 10
139.2988916666667
 20
170.1817638888889
 30
0.0
  0
VERTEX
  5
2C7
330
2A6
100
AcDbEntity
  8
0
100
AcDbVertex
100
AcDb2dVertex
 10
139.2318638888889
 20
170.1937583333333
 30
0.0
  0
VERTEX
  5
2C8
330
2A6
100
AcDbEntity
  8
0
100
AcDbVertex
100
AcDb2dVertex
 10
139.1588388888889
 20
170.19905
 30
0.0
  0
VERTEX
  5
2C9
330
2A6
100
AcDbEntity
  8
0
100
AcDbVertex
100
AcDb2dVertex
 10
138.9909166666667
 20
170.1916416666667
 30
0.0
  0
VERTEX
  5
2CA
330
2A6
100
AcDbEntity
  8
0
100
AcDbVertex
100
AcDb2dVertex
 10
138.7975944444444
 20
170.1542472222222
 30
0.0
  0
VERTEX
  5
2CB
330
2A6
100
AcDbEntity
  8
0
100
AcDbVertex
100
AcDb2dVertex
 10
138.5809888888889
 20
170.0865138888889
 30
0.0
  0
VERTEX
  5
2CC
330
2A6
100
AcDbEntity
  8
0
100
AcDbVertex
100
AcDb2dVertex
 10
138.3040583333333
 20
169.967275
 30
0.0
  0
VERTEX
  5
2CD
330
2A6
100
AcDbEntity
  8
0
100
AcDbVertex
100
AcDb2dVertex
 10
138.1710611111111
 20
169.9185916666667
 30
0.0
  0
VERTEX
  5
2CE
330
2A6
100
AcDbEntity
  8
0
100
AcDbVertex
100
AcDb2dVertex
 10
137.91565
 20
169.8469777777778
 30
0.0
  0
VERTEX
  5
2CF
330
2A6
100
AcDbEntity
  8
0
100
AcDbVertex
100
AcDb2dVertex
 10
137.7413777777778
 20
169.8092305555556
 30
0.0
  0
VERTEX
  5
2D0
330
2A6
100
AcDbEntity
  8
0
100
AcDbVertex
100
AcDb2dVertex
 10
137.5283
 20
169.7718361111111
 30
0.0
  0
VERTEX
  5
2D1
330
2A6
100
AcDbEntity
  8
0
100
AcDbVertex
100
AcDb2dVertex
 10
137.2848833333333
 20
169.7404388888889
 30
0.0
  0
VERTEX
  5
2D2
330
2A6
100
AcDbEntity
  8
0
100
AcDbVertex
100
AcDb2dVertex
 10
137.0104222222222
 20
169.71645
 30
0.0
  0
VERTEX
  5
2D3
330
2A6
100
AcDbEntity
  8
0
100
AcDbVertex
100
AcDb2dVertex
 10
136.6978611111111
 20
169.7019861111111
 30
0.0
  0
VERTEX
  5
2D4
330
2A6
100
AcDbEntity
  8
0
100
AcDbVertex
100
AcDb2dVertex
 10
136.3588416666666
 20
169.7002222222222
 30
0.0
  0
VERTEX
  5
2D5
330
2A6
100
AcDbEntity
  8
0
100
AcDbVertex
100
AcDb2dVertex
 10
135.9859555555555
 20
169.7146861111111
 30
0.0
  0
VERTEX
  5
2D6
330
2A6
100
AcDbEntity
  8
0
100
AcDbVertex
100
AcDb2dVertex
 10
135.5823777777778
 20
169.7467888888889
 30
0.0
  0
VERTEX
  5
2D7
330
2A6
100
AcDbEntity
  8
0
100
AcDbVertex
100
AcDb2dVertex
 10
135.1488138888889
 20
169.8000583333333
 30
0.0
  0
VERTEX
  5
2D8
330
2A6
100
AcDbEntity
  8
0
100
AcDbVertex
100
AcDb2dVertex
 10
134.7343
 20
169.8677916666667
 30
0.0
  0
VERTEX
  5
2D9
330
2A6
100
AcDbEntity
  8
0
100
AcDbVertex
100
AcDb2dVertex
 10
134.7343
 20
169.8684972222222
 30
0.0
  0
SEQEND
  5
2DA
330
2A6
100
AcDbEntity
  8
0
 62
     7
  0
SPLINE
  5
2DB
330
1F
100
AcDbEntity
  8
0
 62
     7
100
AcDbSpline
210
0.0
220
0.0
230
1.0
 70
    12
 71
     3
 72
     8
 73
     4
 74
     0
 42
0.000000001
 43
0.0
 40
0.0
 40
0.0
 40
0.0
 40
0.0
 40
1.0
 40
1.0
 40
1.0
 40
1.0
 10
134.7343
 20
169.8684972222222
 30
0.0
 41
1.0
 10
134.5512083333333
 20
170.3214638888889
 30
0.0
 41
1.0
 10
134.3836388888889
 20
170.7818388888889
 30
0.0
 41
1.0
 10
134.2322972222222
 20
171.2464472222222
 30
0.0
 41
1.0
  0
POLYLINE
  5
2DC
330
1F
100
AcDbEntity
  8
0
 62
     7
100
AcDb2dPolyline
 66
     1
 10
0.0
 20
0.0
 30
0.0
  0
VERTEX
  5
2DD
330
2DC
100
AcDbEntity
  8
0
100
AcDbVertex
100
AcDb2dVertex
 10
134.2322972222222
 20
171.2464472222222
 30
0.0
  0
VERTEX
  5
2DE
330
2DC
100
AcDbEntity
  8
0
100
AcDbVertex
100
AcDb2dVertex
 10
134.2322972222222
 20
171.2471527777778
 30
0.0
  0
VERTEX
  5
2DF
330
2DC
100
AcDbEntity
  8
0
100
AcDbVertex
100
AcDb2dVertex
 10
134.5060527777778
 20
171.5657111111111
 30
0.0
  0
VERTEX
  5
2E0
330
2DC
100
AcDbEntity
  8
0
100
AcDbVertex
100
AcDb2dVertex
 10
134.80415
 20
171.8846222222222
 30
0.0
  0
VERTEX
  5
2E1
330
2DC
100
AcDbEntity
  8
0
100
AcDbVertex
100
AcDb2dVertex
 10
135.0923694444444
 20
172.1689611111111
 30
0.0
  0
VERTEX
  5
2E2
330
2DC
100
AcDbEntity
  8
0
100
AcDbVertex
100
AcDb2dVertex
 10
135.3693
 20
172.4190805555556
 30
0.0
  0
VERTEX
  5
2E3
330
2DC
100
AcDbEntity
  8
0
100
AcDbVertex
100
AcDb2dVertex
 10
135.6292972222222
 20
172.6356861111111
 30
0.0
  0
VERTEX
  5
2E4
330
2DC
100
AcDbEntity
  8
0
100
AcDbVertex
100
AcDb2dVertex
 10
135.8780055555556
 20
172.8258333333333
 30
0.0
  0
VERTEX
  5
2E5
330
2DC
100
AcDbEntity
  8
0
100
AcDbVertex
100
AcDb2dVertex
 10
136.1048416666667
 20
172.9842305555555
 30
0.0
  0
VERTEX
  5
2E6
330
2DC
100
AcDbEntity
  8
0
100
AcDbVertex
100
AcDb2dVertex
 10
136.3108638888889
 20
173.1158166666667
 30
0.0
  0
VERTEX
  5
2E7
330
2DC
100
AcDbEntity
  8
0
100
AcDbVertex
100
AcDb2dVertex
 10
136.4978361111111
 20
173.2244722222222
 30
0.0
  0
VERTEX
  5
2E8
330
2DC
100
AcDbEntity
  8
0
100
AcDbVertex
100
AcDb2dVertex
 10
136.655175
 20
173.307375
 30
0.0
  0
VERTEX
  5
2E9
330
2DC
100
AcDbEntity
  8
0
100
AcDbVertex
100
AcDb2dVertex
 10
136.8978861111111
 20
173.4174416666667
 30
0.0
  0
VERTEX
  5
2EA
330
2DC
100
AcDbEntity
  8
0
100
AcDbVertex
100
AcDb2dVertex
 10
137.0308833333333
 20
173.4647138888889
 30
0.0
  0
VERTEX
  5
2EB
330
2DC
100
AcDbEntity
  8
0
100
AcDbVertex
100
AcDb2dVertex
 10
137.3191027777778
 20
173.5522027777778
 30
0.0
  0
VERTEX
  5
2EC
330
2DC
100
AcDbEntity
  8
0
100
AcDbVertex
100
AcDb2dVertex
 10
137.5290055555556
 20
173.6396916666667
 30
0.0
  0
VERTEX
  5
2ED
330
2DC
100
AcDbEntity
  8
0
100
AcDbVertex
100
AcDb2dVertex
 10
137.7011611111111
 20
173.7356472222222
 30
0.0
  0
VERTEX
  5
2EE
330
2DC
100
AcDbEntity
  8
0
100
AcDbVertex
100
AcDb2dVertex
 10
137.8348638888889
 20
173.8365416666667
 30
0.0
  0
VERTEX
  5
2EF
330
2DC
100
AcDbEntity
  8
0
100
AcDbVertex
100
AcDb2dVertex
 10
137.8874277777778
 20
173.8884
 30
0.0
  0
VERTEX
  5
2F0
330
2DC
100
AcDbEntity
  8
0
100
AcDbVertex
100
AcDb2dVertex
 10
137.9308194444444
 20
173.9409638888889
 30
0.0
  0
VERTEX
  5
2F1
330
2DC
100
AcDbEntity
  8
0
100
AcDbVertex
100
AcDb2dVertex
 10
137.9643333333333
 20
173.9924694444444
 30
0.0
  0
VERTEX
  5
2F2
330
2DC
100
AcDbEntity
  8
0
100
AcDbVertex
100
AcDb2dVertex
 10
137.9876166666667
 20
174.0436222222222
 30
0.0
  0
VERTEX
  5
2F3
330
2DC
100
AcDbEntity
  8
0
100
AcDbVertex
100
AcDb2dVertex
 10
138.0020805555556
 20
174.0944222222222
 30
0.0
  0
VERTEX
  5
2F4
330
2DC
100
AcDbEntity
  8
0
100
AcDbVertex
100
AcDb2dVertex
 10
138.0066666666667
 20
174.1431055555556
 30
0.0
  0
VERTEX
  5
2F5
330
2DC
100
AcDbEntity
  8
0
100
AcDbVertex
100
AcDb2dVertex
 10
137.9999638888889
 20
174.2023722222222
 30
0.0
  0
VERTEX
  5
2F6
330
2DC
100
AcDbEntity
  8
0
100
AcDbVertex
100
AcDb2dVertex
 10
137.8507388888889
 20
174.9499083333333
 30
0.0
  0
VERTEX
  5
2F7
330
2DC
100
AcDbEntity
  8
0
100
AcDbVertex
100
AcDb2dVertex
 10
137.7353805555556
 20
175.7037944444444
 30
0.0
  0
VERTEX
  5
2F8
330
2DC
100
AcDbEntity
  8
0
100
AcDbVertex
100
AcDb2dVertex
 10
137.7216222222222
 20
175.7612972222222
 30
0.0
  0
VERTEX
  5
2F9
330
2DC
100
AcDbEntity
  8
0
100
AcDbVertex
100
AcDb2dVertex
 10
137.7001027777778
 20
175.8064527777778
 30
0.0
  0
VERTEX
  5
2FA
330
2DC
100
AcDbEntity
  8
0
100
AcDbVertex
100
AcDb2dVertex
 10
137.6690583333333
 20
175.8487861111111
 30
0.0
  0
VERTEX
  5
2FB
330
2DC
100
AcDbEntity
  8
0
100
AcDbVertex
100
AcDb2dVertex
 10
137.6295472222222
 20
175.8882972222222
 30
0.0
  0
VERTEX
  5
2FC
330
2DC
100
AcDbEntity
  8
0
100
AcDbVertex
100
AcDb2dVertex
 10
137.5801583333333
 20
175.9256916666666
 30
0.0
  0
VERTEX
  5
2FD
330
2DC
100
AcDbEntity
  8
0
100
AcDbVertex
100
AcDb2dVertex
 10
137.5223027777778
 20
175.9599111111111
 30
0.0
  0
VERTEX
  5
2FE
330
2DC
100
AcDbEntity
  8
0
100
AcDbVertex
100
AcDb2dVertex
 10
137.455275
 20
175.9909555555555
 30
0.0
  0
VERTEX
  5
2FF
330
2DC
100
AcDbEntity
  8
0
100
AcDbVertex
100
AcDb2dVertex
 10
137.2947611111111
 20
176.0406972222222
 30
0.0
  0
VERTEX
  5
300
330
2DC
100
AcDbEntity
  8
0
100
AcDbVertex
100
AcDb2dVertex
 10
137.1003805555556
 20
176.0717416666666
 30
0.0
  0
VERTEX
  5
301
330
2DC
100
AcDbEntity
  8
0
100
AcDbVertex
100
AcDb2dVertex
 10
136.8735444444444
 20
176.082325
 30
0.0
  0
VERTEX
  5
302
330
2DC
100
AcDbEntity
  8
0
100
AcDbVertex
100
AcDb2dVertex
 10
136.572625
 20
176.0650388888889
 30
0.0
  0
VERTEX
  5
303
330
2DC
100
AcDbEntity
  8
0
100
AcDbVertex
100
AcDb2dVertex
 10
136.4311611111111
 20
176.0639805555556
 30
0.0
  0
VERTEX
  5
304
330
2DC
100
AcDbEntity
  8
0
100
AcDbVertex
100
AcDb2dVertex
 10
136.1655194444444
 20
176.0847944444444
 30
0.0
  0
VERTEX
  5
305
330
2DC
100
AcDbEntity
  8
0
100
AcDbVertex
100
AcDb2dVertex
 10
135.9898361111111
 20
176.1091361111111
 30
0.0
  0
VERTEX
  5
306
330
2DC
100
AcDbEntity
  8
0
100
AcDbVertex
100
AcDb2dVertex
 10
135.7760527777777
 20
176.1468833333333
 30
0.0
  0
VERTEX
  5
307
330
2DC
100
AcDbEntity
  8
0
100
AcDbVertex
100
AcDb2dVertex
 10
135.537575
 20
176.2001527777778
 30
0.0
  0
VERTEX
  5
308
330
2DC
100
AcDbEntity
  8
0
100
AcDbVertex
100
AcDb2dVertex
 10
135.2712277777778
 20
176.2717666666667
 30
0.0
  0
VERTEX
  5
309
330
2DC
100
AcDbEntity
  8
0
100
AcDbVertex
100
AcDb2dVertex
 10
134.972425
 20
176.3645472222222
 30
0.0
  0
VERTEX
  5
30A
330
2DC
100
AcDbEntity
  8
0
100
AcDbVertex
100
AcDb2dVertex
 10
134.6528083333333
 20
176.4792
 30
0.0
  0
VERTEX
  5
30B
330
2DC
100
AcDbEntity
  8
0
100
AcDbVertex
100
AcDb2dVertex
 10
134.3077916666667
 20
176.6199583333333
 30
0.0
  0
VERTEX
  5
30C
330
2DC
100
AcDbEntity
  8
0
100
AcDbVertex
100
AcDb2dVertex
 10
133.9394916666667
 20
176.7889388888889
 30
0.0
  0
VERTEX
  5
30D
330
2DC
100
AcDbEntity
  8
0
100
AcDbVertex
100
AcDb2dVertex
 10
133.5503777777778
 20
176.9864944444444
 30
0.0
  0
VERTEX
  5
30E
330
2DC
100
AcDbEntity
  8
0
100
AcDbVertex
100
AcDb2dVertex
 10
133.1845472222222
 20
177.1918111111111
 30
0.0
  0
VERTEX
  5
30F
330
2DC
100
AcDbEntity
  8
0
100
AcDbVertex
100
AcDb2dVertex
 10
133.1845472222222
 20
177.1928694444444
 30
0.0
  0
SEQEND
  5
310
330
2DC
100
AcDbEntity
  8
0
 62
     7
  0
SPLINE
  5
311
330
1F
100
AcDbEntity
  8
0
 62
     7
100
AcDbSpline
210
0.0
220
0.0
230
1.0
 70
    12
 71
     3
 72
     8
 73
     4
 74
     0
 42
0.000000001
 43
0.0
 40
0.0
 40
0.0
 40
0.0
 40
0.0
 40
1.0
 40
1.0
 40
1.0
 40
1.0
 10
133.1845472222222
 20
177.1928694444444
 30
0.0
 41
1.0
 10
133.1676138888889
 20
177.6818194444444
 30
0.0
 41
1.0
 10
133.1676138888889
 20
178.1707694444444
 30
0.0
 41
1.0
 10
133.1845472222222
 20
178.6597194444444
 30
0.0
 41
1.0
  0
POLYLINE
  5
312
330
1F
100
AcDbEntity
  8
0
 62
     7
100
AcDb2dPolyline
 66
     1
 10
0.0
 20
0.0
 30
0.0
  0
VERTEX
  5
313
330
312
100
AcDbEntity
  8
0
100
AcDbVertex
100
AcDb2dVertex
 10
133.1845472222222
 20
178.6597194444444
 30
0.0
  0
VERTEX
  5
314
330
312
100
AcDbEntity
  8
0
100
AcDbVertex
100
AcDb2dVertex
 10
133.1845472222222
 20
178.660425
 30
0.0
  0
VERTEX
  5
315
330
312
100
AcDbEntity
  8
0
100
AcDbVertex
100
AcDb2dVertex
 10
133.5503777777778
 20
178.8657416666667
 30
0.0
  0
VERTEX
  5
316
330
312
100
AcDbEntity
  8
0
100
AcDbVertex
100
AcDb2dVertex
 10
133.9394916666667
 20
179.06365
 30
0.0
  0
VERTEX
  5
317
330
312
100
AcDbEntity
  8
0
100
AcDbVertex
100
AcDb2dVertex
 10
134.3077916666667
 20
179.2315722222222
 30
0.0
  0
VERTEX
  5
318
330
312
100
AcDbEntity
  8
0
100
AcDbVertex
100
AcDb2dVertex
 10
134.6528083333333
 20
179.3730361111111
 30
0.0
  0
VERTEX
  5
319
330
312
100
AcDbEntity
  8
0
100
AcDbVertex
100
AcDb2dVertex
 10
134.972425
 20
179.4869833333333
 30
0.0
  0
VERTEX
  5
31A
330
312
100
AcDbEntity
  8
0
100
AcDbVertex
100
AcDb2dVertex
 10
135.2712277777778
 20
179.5808222222222
 30
0.0
  0
VERTEX
  5
31B
330
312
100
AcDbEntity
  8
0
100
AcDbVertex
100
AcDb2dVertex
 10
135.537575
 20
179.6520833333333
 30
0.0
  0
VERTEX
  5
31C
330
312
100
AcDbEntity
  8
0
100
AcDbVertex
100
AcDb2dVertex
 10
135.7760527777777
 20
179.7053527777778
 30
0.0
  0
VERTEX
  5
31D
330
312
100
AcDbEntity
  8
0
100
AcDbVertex
100
AcDb2dVertex
 10
135.9898361111111
 20
179.7434527777778
 30
0.0
  0
VERTEX
  5
31E
330
312
100
AcDbEntity
  8
0
100
AcDbVertex
100
AcDb2dVertex
 10
136.1655194444444
 20
179.7677944444444
 30
0.0
  0
VERTEX
  5
31F
330
312
100
AcDbEntity
  8
0
100
AcDbVertex
100
AcDb2dVertex
 10
136.4311611111111
 20
179.78755
 30
0.0
  0
VERTEX
  5
320
330
312
100
AcDbEntity
  8
0
100
AcDbVertex
100
AcDb2dVertex
 10
136.572625
 20
179.7868444444444
 30
0.0
  0
VERTEX
  5
321
330
312
100
AcDbEntity
  8
0
100
AcDbVertex
100
AcDb2dVertex
 10
136.8735444444444
 20
179.7699111111111
 30
0.0
  0
VERTEX
  5
322
330
312
100
AcDbEntity
  8
0
100
AcDbVertex
100
AcDb2dVertex
 10
137.1003805555556
 20
179.7804944444444
 30
0.0
  0
VERTEX
  5
323
330
312
100
AcDbEntity
  8
0
100
AcDbVertex
100
AcDb2dVertex
 10
137.2947611111111
 20
179.8118916666667
 30
0.0
  0
VERTEX
  5
324
330
312
100
AcDbEntity
  8
0
100
AcDbVertex
100
AcDb2dVertex
 10
137.455275
 20
179.8612805555555
 30
0.0
  0
VERTEX
  5
325
330
312
100
AcDbEntity
  8
0
100
AcDbVertex
100
AcDb2dVertex
 10
137.5223027777778
 20
179.892325
 30
0.0
  0
VERTEX
  5
326
330
312
100
AcDbEntity
  8
0
100
AcDbVertex
100
AcDb2dVertex
 10
137.5801583333333
 20
179.9258388888889
 30
0.0
  0
VERTEX
  5
327
330
312
100
AcDbEntity
  8
0
100
AcDbVertex
100
AcDb2dVertex
 10
137.6295472222222
 20
179.9639388888889
 30
0.0
  0
VERTEX
  5
328
330
312
100
AcDbEntity
  8
0
100
AcDbVertex
100
AcDb2dVertex
 10
137.6690583333333
 20
180.00345
 30
0.0
  0
VERTEX
  5
329
330
312
100
AcDbEntity
  8
0
100
AcDbVertex
100
AcDb2dVertex
 10
137.7001027777778
 20
180.0461361111111
 30
0.0
  0
VERTEX
  5
32A
330
312
100
AcDbEntity
  8
0
100
AcDbVertex
100
AcDb2dVertex
 10
137.7216222222222
 20
180.0902333333333
 30
0.0
  0
VERTEX
  5
32B
330
312
100
AcDbEntity
  8
0
100
AcDbVertex
100
AcDb2dVertex
 10
137.7353805555556
 20
180.1487944444444
 30
0.0
  0
VERTEX
  5
32C
330
312
100
AcDbEntity
  8
0
100
AcDbVertex
100
AcDb2dVertex
 10
137.8507388888889
 20
180.9023277777778
 30
0.0
  0
VERTEX
  5
32D
330
312
100
AcDbEntity
  8
0
100
AcDbVertex
100
AcDb2dVertex
 10
137.9999638888889
 20
181.6498638888889
 30
0.0
  0
VERTEX
  5
32E
330
312
100
AcDbEntity
  8
0
100
AcDbVertex
100
AcDb2dVertex
 10
138.0066666666667
 20
181.7091305555555
 30
0.0
  0
VERTEX
  5
32F
330
312
100
AcDbEntity
  8
0
100
AcDbVertex
100
AcDb2dVertex
 10
138.0020805555556
 20
181.7578138888889
 30
0.0
  0
VERTEX
  5
330
330
312
100
AcDbEntity
  8
0
100
AcDbVertex
100
AcDb2dVertex
 10
137.9876166666667
 20
181.8089666666667
 30
0.0
  0
VERTEX
  5
331
330
312
100
AcDbEntity
  8
0
100
AcDbVertex
100
AcDb2dVertex
 10
137.9643333333333
 20
181.8597666666666
 30
0.0
  0
VERTEX
  5
332
330
312
100
AcDbEntity
  8
0
100
AcDbVertex
100
AcDb2dVertex
 10
137.9308194444444
 20
181.911625
 30
0.0
  0
VERTEX
  5
333
330
312
100
AcDbEntity
  8
0
100
AcDbVertex
100
AcDb2dVertex
 10
137.8874277777778
 20
181.9641888888889
 30
0.0
  0
VERTEX
  5
334
330
312
100
AcDbEntity
  8
0
100
AcDbVertex
100
AcDb2dVertex
 10
137.8348638888889
 20
182.0156944444444
 30
0.0
  0
VERTEX
  5
335
330
312
100
AcDbEntity
  8
0
100
AcDbVertex
100
AcDb2dVertex
 10
137.7011611111111
 20
182.1169416666667
 30
0.0
  0
VERTEX
  5
336
330
312
100
AcDbEntity
  8
0
100
AcDbVertex
100
AcDb2dVertex
 10
137.5290055555556
 20
182.2128972222222
 30
0.0
  0
VERTEX
  5
337
330
312
100
AcDbEntity
  8
0
100
AcDbVertex
100
AcDb2dVertex
 10
137.3191027777778
 20
182.3000333333333
 30
0.0
  0
VERTEX
  5
338
330
312
100
AcDbEntity
  8
0
100
AcDbVertex
100
AcDb2dVertex
 10
137.0308833333333
 20
182.3875222222222
 30
0.0
  0
VERTEX
  5
339
330
312
100
AcDbEntity
  8
0
100
AcDbVertex
100
AcDb2dVertex
 10
136.8978861111111
 20
182.4347944444444
 30
0.0
  0
VERTEX
  5
33A
330
312
100
AcDbEntity
  8
0
100
AcDbVertex
100
AcDb2dVertex
 10
136.655175
 20
182.5441555555555
 30
0.0
  0
VERTEX
  5
33B
330
312
100
AcDbEntity
  8
0
100
AcDbVertex
100
AcDb2dVertex
 10
136.4978361111111
 20
182.6270583333333
 30
0.0
  0
VERTEX
  5
33C
330
312
100
AcDbEntity
  8
0
100
AcDbVertex
100
AcDb2dVertex
 10
136.3108638888889
 20
182.7360666666667
 30
0.0
  0
VERTEX
  5
33D
330
312
100
AcDbEntity
  8
0
100
AcDbVertex
100
AcDb2dVertex
 10
136.1048416666667
 20
182.8683583333333
 30
0.0
  0
VERTEX
  5
33E
330
312
100
AcDbEntity
  8
0
100
AcDbVertex
100
AcDb2dVertex
 10
135.8780055555556
 20
183.0264027777778
 30
0.0
  0
VERTEX
  5
33F
330
312
100
AcDbEntity
  8
0
100
AcDbVertex
100
AcDb2dVertex
 10
135.6292972222222
 20
183.2158444444444
 30
0.0
  0
VERTEX
  5
340
330
312
100
AcDbEntity
  8
0
100
AcDbVertex
100
AcDb2dVertex
 10
135.3693
 20
183.4331555555555
 30
0.0
  0
VERTEX
  5
341
330
312
100
AcDbEntity
  8
0
100
AcDbVertex
100
AcDb2dVertex
 10
135.0923694444444
 20
183.6836277777778
 30
0.0
  0
VERTEX
  5
342
330
312
100
AcDbEntity
  8
0
100
AcDbVertex
100
AcDb2dVertex
 10
134.80415
 20
183.9679666666667
 30
0.0
  0
VERTEX
  5
343
330
312
100
AcDbEntity
  8
0
100
AcDbVertex
100
AcDb2dVertex
 10
134.5060527777778
 20
184.286525
 30
0.0
  0
VERTEX
  5
344
330
312
100
AcDbEntity
  8
0
100
AcDbVertex
100
AcDb2dVertex
 10
134.2322972222222
 20
184.6043777777778
 30
0.0
  0
VERTEX
  5
345
330
312
100
AcDbEntity
  8
0
100
AcDbVertex
100
AcDb2dVertex
 10
134.2322972222222
 20
184.6050833333333
 30
0.0
  0
SEQEND
  5
346
330
312
100
AcDbEntity
  8
0
 62
     7
  0
SPLINE
  5
347
330
1F
100
AcDbEntity
  8
0
 62
     7
100
AcDbSpline
210
0.0
220
0.0
230
1.0
 70
    12
 71
     3
 72
     8
 73
     4
 74
     0
 42
0.000000001
 43
0.0
 40
0.0
 40
0.0
 40
0.0
 40
0.0
 40
1.0
 40
1.0
 40
1.0
 40
1.0
 10
134.2322972222222
 20
184.6050833333333
 30
0.0
 41
1.0
 10
134.3836388888889
 20
185.07075
 30
0.0
 41
1.0
 10
134.5512083333333
 20
185.5307722222222
 30
0.0
 41
1.0
 10
134.7343
 20
185.9840916666667
 30
0.0
 41
1.0
  0
POLYLINE
  5
348
330
1F
100
AcDbEntity
  8
0
 62
     7
100
AcDb2dPolyline
 66
     1
 10
0.0
 20
0.0
 30
0.0
  0
VERTEX
  5
349
330
348
100
AcDbEntity
  8
0
100
AcDbVertex
100
AcDb2dVertex
 10
134.7343
 20
185.9840916666667
 30
0.0
  0
VERTEX
  5
34A
330
348
100
AcDbEntity
  8
0
100
AcDbVertex
100
AcDb2dVertex
 10
134.7343
 20
185.9847972222222
 30
0.0
  0
VERTEX
  5
34B
330
348
100
AcDbEntity
  8
0
100
AcDbVertex
100
AcDb2dVertex
 10
135.1488138888889
 20
186.0525305555555
 30
0.0
  0
VERTEX
  5
34C
330
348
100
AcDbEntity
  8
0
100
AcDbVertex
100
AcDb2dVertex
 10
135.5823777777778
 20
186.1058
 30
0.0
  0
VERTEX
  5
34D
330
348
100
AcDbEntity
  8
0
100
AcDbVertex
100
AcDb2dVertex
 10
135.9859555555555
 20
186.13755
 30
0.0
  0
VERTEX
  5
34E
330
348
100
AcDbEntity
  8
0
100
AcDbVertex
100
AcDb2dVertex
 10
136.3588416666666
 20
186.1520138888889
 30
0.0
  0
VERTEX
  5
34F
330
348
100
AcDbEntity
  8
0
100
AcDbVertex
100
AcDb2dVertex
 10
136.6978611111111
 20
186.1506027777777
 30
0.0
  0
VERTEX
  5
350
330
348
100
AcDbEntity
  8
0
100
AcDbVertex
100
AcDb2dVertex
 10
137.0104222222222
 20
186.1361388888889
 30
0.0
  0
VERTEX
  5
351
330
348
100
AcDbEntity
  8
0
100
AcDbVertex
100
AcDb2dVertex
 10
137.2848833333333
 20
186.1117972222222
 30
0.0
  0
VERTEX
  5
352
330
348
100
AcDbEntity
  8
0
100
AcDbVertex
100
AcDb2dVertex
 10
137.5283
 20
186.0796944444444
 30
0.0
  0
VERTEX
  5
353
330
348
100
AcDbEntity
  8
0
100
AcDbVertex
100
AcDb2dVertex
 10
137.7413777777778
 20
186.0433583333333
 30
0.0
  0
VERTEX
  5
354
330
348
100
AcDbEntity
  8
0
100
AcDbVertex
100
AcDb2dVertex
 10
137.91565
 20
186.0052583333333
 30
0.0
  0
VERTEX
  5
355
330
348
100
AcDbEntity
  8
0
100
AcDbVertex
100
AcDb2dVertex
 10
138.1710611111111
 20
185.9339972222222
 30
0.0
  0
VERTEX
  5
356
330
348
100
AcDbEntity
  8
0
100
AcDbVertex
100
AcDb2dVertex
 10
138.3040583333333
 20
185.8842555555555
 30
0.0
  0
VERTEX
  5
357
330
348
100
AcDbEntity
  8
0
100
AcDbVertex
100
AcDb2dVertex
 10
138.5809888888889
 20
185.7657222222222
 30
0.0
  0
VERTEX
  5
358
330
348
100
AcDbEntity
  8
0
100
AcDbVertex
100
AcDb2dVertex
 10
138.7975944444444
 20
185.6979888888889
 30
0.0
  0
VERTEX
  5
359
330
348
100
AcDbEntity
  8
0
100
AcDbVertex
100
AcDb2dVertex
 10
138.9909166666667
 20
185.6609472222222
 30
0.0
  0
VERTEX
  5
35A
330
348
100
AcDbEntity
  8
0
100
AcDbVertex
100
AcDb2dVertex
 10
139.1588388888889
 20
185.6524805555555
 30
0.0
  0
VERTEX
  5
35B
330
348
100
AcDbEntity
  8
0
100
AcDbVertex
100
AcDb2dVertex
 10
139.2318638888889
 20
185.6584777777778
 30
0.0
  0
VERTEX
  5
35C
330
348
100
AcDbEntity
  8
0
100
AcDbVertex
100
AcDb2dVertex
 10
139.2988916666667
 20
185.670825
 30
0.0
  0
VERTEX
  5
35D
330
348
100
AcDbEntity
  8
0
100
AcDbVertex
100
AcDb2dVertex
 10
139.3574527777778
 20
185.6888166666666
 30
0.0
  0
VERTEX
  5
35E
330
348
100
AcDbEntity
  8
0
100
AcDbVertex
100
AcDb2dVertex
 10
139.4089583333333
 20
185.7131583333333
 30
0.0
  0
VERTEX
  5
35F
330
348
100
AcDbEntity
  8
0
100
AcDbVertex
100
AcDb2dVertex
 10
139.45235
 20
185.7420861111111
 30
0.0
  0
VERTEX
  5
360
330
348
100
AcDbEntity
  8
0
100
AcDbVertex
100
AcDb2dVertex
 10
139.487275
 20
185.7770111111111
 30
0.0
  0
VERTEX
  5
361
330
348
100
AcDbEntity
  8
0
100
AcDbVertex
100
AcDb2dVertex
 10
139.5200833333333
 20
185.8267527777778
 30
0.0
  0
VERTEX
  5
362
330
348
100
AcDbEntity
  8
0
100
AcDbVertex
100
AcDb2dVertex
 10
139.8866194444444
 20
186.4949138888889
 30
0.0
  0
VERTEX
  5
363
330
348
100
AcDbEntity
  8
0
100
AcDbVertex
100
AcDb2dVertex
 10
140.2827888888889
 20
187.1468472222222
 30
0.0
  0
VERTEX
  5
364
330
348
100
AcDbEntity
  8
0
100
AcDbVertex
100
AcDb2dVertex
 10
140.3096
 20
187.2001166666666
 30
0.0
  0
VERTEX
  5
365
330
348
100
AcDbEntity
  8
0
100
AcDbVertex
100
AcDb2dVertex
 10
140.3215944444444
 20
187.2480944444444
 30
0.0
  0
VERTEX
  5
366
330
348
100
AcDbEntity
  8
0
100
AcDbVertex
100
AcDb2dVertex
 10
140.325475
 20
187.3003055555556
 30
0.0
  0
VERTEX
  5
367
330
348
100
AcDbEntity
  8
0
100
AcDbVertex
100
AcDb2dVertex
 10
140.3201833333333
 20
187.35675
 30
0.0
  0
VERTEX
  5
368
330
348
100
AcDbEntity
  8
0
100
AcDbVertex
100
AcDb2dVertex
 10
140.306425
 20
187.4167222222222
 30
0.0
  0
VERTEX
  5
369
330
348
100
AcDbEntity
  8
0
100
AcDbVertex
100
AcDb2dVertex
 10
140.2845527777778
 20
187.480575
 30
0.0
  0
VERTEX
  5
36A
330
348
100
AcDbEntity
  8
0
100
AcDbVertex
100
AcDb2dVertex
 10
140.25245
 20
187.5468972222222
 30
0.0
  0
VERTEX
  5
36B
330
348
100
AcDbEntity
  8
0
100
AcDbVertex
100
AcDb2dVertex
 10
140.1610805555555
 20
187.6883611111111
 30
0.0
  0
VERTEX
  5
36C
330
348
100
AcDbEntity
  8
0
100
AcDbVertex
100
AcDb2dVertex
 10
140.0326694444444
 20
187.8365277777778
 30
0.0
  0
VERTEX
  5
36D
330
348
100
AcDbEntity
  8
0
100
AcDbVertex
100
AcDb2dVertex
 10
139.8654527777778
 20
187.9910444444444
 30
0.0
  0
VERTEX
  5
36E
330
348
100
AcDbEntity
  8
0
100
AcDbVertex
100
AcDb2dVertex
 10
139.6241527777778
 20
188.1713138888889
 30
0.0
  0
VERTEX
  5
36F
330
348
100
AcDbEntity
  8
0
100
AcDbVertex
100
AcDb2dVertex
 10
139.5154972222222
 20
188.261625
 30
0.0
  0
VERTEX
  5
370
330
348
100
AcDbEntity
  8
0
100
AcDbVertex
100
AcDb2dVertex
 10
139.32535
 20
188.4471861111111
 30
0.0
  0
VERTEX
  5
371
330
348
100
AcDbEntity
  8
0
100
AcDbVertex
100
AcDb2dVertex
 10
139.2054055555556
 20
188.5794777777778
 30
0.0
  0
VERTEX
  5
372
330
348
100
AcDbEntity
  8
0
100
AcDbVertex
100
AcDb2dVertex
 10
139.0667638888889
 20
188.7452833333333
 30
0.0
  0
VERTEX
  5
373
330
348
100
AcDbEntity
  8
0
100
AcDbVertex
100
AcDb2dVertex
 10
138.9178916666667
 20
188.9400166666667
 30
0.0
  0
VERTEX
  5
374
330
348
100
AcDbEntity
  8
0
100
AcDbVertex
100
AcDb2dVertex
 10
138.7594944444444
 20
189.1657944444444
 30
0.0
  0
VERTEX
  5
375
330
348
100
AcDbEntity
  8
0
100
AcDbVertex
100
AcDb2dVertex
 10
138.5908666666667
 20
189.4296722222222
 30
0.0
  0
VERTEX
  5
376
330
348
100
AcDbEntity
  8
0
100
AcDbVertex
100
AcDb2dVertex
 10
138.420475
 20
189.7224777777778
 30
0.0
  0
VERTEX
  5
377
330
348
100
AcDbEntity
  8
0
100
AcDbVertex
100
AcDb2dVertex
 10
138.2462027777778
 20
190.0526777777778
 30
0.0
  0
VERTEX
  5
378
330
348
100
AcDbEntity
  8
0
100
AcDbVertex
100
AcDb2dVertex
 10
138.0722833333333
 20
190.4178027777778
 30
0.0
  0
VERTEX
  5
379
330
348
100
AcDbEntity
  8
0
100
AcDbVertex
100
AcDb2dVertex
 10
137.9011861111111
 20
190.8199694444444
 30
0.0
  0
VERTEX
  5
37A
330
348
100
AcDbEntity
  8
0
100
AcDbVertex
100
AcDb2dVertex
 10
137.7526666666667
 20
191.2122583333333
 30
0.0
  0
VERTEX
  5
37B
330
348
100
AcDbEntity
  8
0
100
AcDbVertex
100
AcDb2dVertex
 10
137.7526666666667
 20
191.2133166666667
 30
0.0
  0
SEQEND
  5
37C
330
348
100
AcDbEntity
  8
0
 62
     7
  0
SPLINE
  5
37D
330
1F
100
AcDbEntity
  8
0
 62
     7
100
AcDbSpline
210
0.0
220
0.0
230
1.0
 70
    12
 71
     3
 72
     8
 73
     4
 74
     0
 42
0.000000001
 43
0.0
 40
0.0
 40
0.0
 40
0.0
 40
0.0
 40
1.0
 40
1.0
 40
1.0
 40
1.0
 10
137.7526666666667
 20
191.2133166666667
 30
0.0
 41
1.0
 10
138.0546444444444
 20
191.5978444444444
 30
0.0
 41
1.0
 10
138.3686166666667
 20
191.9728472222222
 30
0.0
 41
1.0
 10
138.6956416666667
 20
192.3365611111111
 30
0.0
 41
1.0
  0
POLYLINE
  5
37E
330
1F
100
AcDbEntity
  8
0
 62
     7
100
AcDb2dPolyline
 66
     1
 10
0.0
 20
0.0
 30
0.0
  0
VERTEX
  5
37F
330
37E
100
AcDbEntity
  8
0
100
AcDbVertex
100
AcDb2dVertex
 10
138.6956416666667
 20
192.3365611111111
 30
0.0
  0
VERTEX
  5
380
330
37E
100
AcDbEntity
  8
0
100
AcDbVertex
100
AcDb2dVertex
 10
138.6963472222222
 20
192.3372666666667
 30
0.0
  0
VERTEX
  5
381
330
37E
100
AcDbEntity
  8
0
100
AcDbVertex
100
AcDb2dVertex
 10
139.10945
 20
192.25895
 30
0.0
  0
VERTEX
  5
382
330
37E
100
AcDbEntity
  8
0
100
AcDbVertex
100
AcDb2dVertex
 10
139.5345472222222
 20
192.1608777777778
 30
0.0
  0
VERTEX
  5
383
330
37E
100
AcDbEntity
  8
0
100
AcDbVertex
100
AcDb2dVertex
 10
139.9247194444444
 20
192.0529277777778
 30
0.0
  0
VERTEX
  5
384
330
37E
100
AcDbEntity
  8
0
100
AcDbVertex
100
AcDb2dVertex
 10
140.2799666666667
 20
191.9386277777778
 30
0.0
  0
VERTEX
  5
385
330
37E
100
AcDbEntity
  8
0
100
AcDbVertex
100
AcDb2dVertex
 10
140.5978194444444
 20
191.8215055555555
 30
0.0
  0
VERTEX
  5
386
330
37E
100
AcDbEntity
  8
0
100
AcDbVertex
100
AcDb2dVertex
 10
140.8867444444444
 20
191.7005027777778
 30
0.0
  0
VERTEX
  5
387
330
37E
100
AcDbEntity
  8
0
100
AcDbVertex
100
AcDb2dVertex
 10
141.1368638888889
 20
191.5844388888889
 30
0.0
  0
VERTEX
  5
388
330
37E
100
AcDbEntity
  8
0
100
AcDbVertex
100
AcDb2dVertex
 10
141.3545277777778
 20
191.4719027777778
 30
0.0
  0
VERTEX
  5
389
330
37E
100
AcDbEntity
  8
0
100
AcDbVertex
100
AcDb2dVertex
 10
141.5422055555555
 20
191.3636
 30
0.0
  0
VERTEX
  5
38A
330
37E
100
AcDbEntity
  8
0
100
AcDbVertex
100
AcDb2dVertex
 10
141.6928416666667
 20
191.2687027777778
 30
0.0
  0
VERTEX
  5
38B
330
37E
100
AcDbEntity
  8
0
100
AcDbVertex
100
AcDb2dVertex
 10
141.9087416666667
 20
191.1134805555556
 30
0.0
  0
VERTEX
  5
38C
330
37E
100
AcDbEntity
  8
0
100
AcDbVertex
100
AcDb2dVertex
 10
142.0166916666666
 20
191.0224638888889
 30
0.0
  0
VERTEX
  5
38D
330
37E
100
AcDbEntity
  8
0
100
AcDbVertex
100
AcDb2dVertex
 10
142.2357666666666
 20
190.8160888888889
 30
0.0
  0
VERTEX
  5
38E
330
37E
100
AcDbEntity
  8
0
100
AcDbVertex
100
AcDb2dVertex
 10
142.4167416666666
 20
190.6778
 30
0.0
  0
VERTEX
  5
38F
330
37E
100
AcDbEntity
  8
0
100
AcDbVertex
100
AcDb2dVertex
 10
142.5857222222222
 20
190.5772583333333
 30
0.0
  0
VERTEX
  5
390
330
37E
100
AcDbEntity
  8
0
100
AcDbVertex
100
AcDb2dVertex
 10
142.7398861111111
 20
190.5119944444444
 30
0.0
  0
VERTEX
  5
391
330
37E
100
AcDbEntity
  8
0
100
AcDbVertex
100
AcDb2dVertex
 10
142.8115
 20
190.4922388888889
 30
0.0
  0
VERTEX
  5
392
330
37E
100
AcDbEntity
  8
0
100
AcDbVertex
100
AcDb2dVertex
 10
142.8778222222222
 20
190.4816555555555
 30
0.0
  0
VERTEX
  5
393
330
37E
100
AcDbEntity
  8
0
100
AcDbVertex
100
AcDb2dVertex
 10
142.9392055555555
 20
190.4784805555556
 30
0.0
  0
VERTEX
  5
394
330
37E
100
AcDbEntity
  8
0
100
AcDbVertex
100
AcDb2dVertex
 10
142.9963555555555
 20
190.4830666666666
 30
0.0
  0
VERTEX
  5
395
330
37E
100
AcDbEntity
  8
0
100
AcDbVertex
100
AcDb2dVertex
 10
143.04645
 20
190.4961194444444
 30
0.0
  0
VERTEX
  5
396
330
37E
100
AcDbEntity
  8
0
100
AcDbVertex
100
AcDb2dVertex
 10
143.0923111111111
 20
190.515875
 30
0.0
  0
VERTEX
  5
397
330
37E
100
AcDbEntity
  8
0
100
AcDbVertex
100
AcDb2dVertex
 10
143.1392305555555
 20
190.5515055555555
 30
0.0
  0
VERTEX
  5
398
330
37E
100
AcDbEntity
  8
0
100
AcDbVertex
100
AcDb2dVertex
 10
143.7128472222222
 20
191.0549194444444
 30
0.0
  0
VERTEX
  5
399
330
37E
100
AcDbEntity
  8
0
100
AcDbVertex
100
AcDb2dVertex
 10
144.3072777777778
 20
191.531875
 30
0.0
  0
VERTEX
  5
39A
330
37E
100
AcDbEntity
  8
0
100
AcDbVertex
100
AcDb2dVertex
 10
144.3506694444444
 20
191.5727972222222
 30
0.0
  0
VERTEX
  5
39B
330
37E
100
AcDbEntity
  8
0
100
AcDbVertex
100
AcDb2dVertex
 10
144.3788916666666
 20
191.6133666666666
 30
0.0
  0
VERTEX
  5
39C
330
37E
100
AcDbEntity
  8
0
100
AcDbVertex
100
AcDb2dVertex
 10
144.4000583333333
 20
191.6609916666666
 30
0.0
  0
VERTEX
  5
39D
330
37E
100
AcDbEntity
  8
0
100
AcDbVertex
100
AcDb2dVertex
 10
144.4145222222222
 20
191.716025
 30
0.0
  0
VERTEX
  5
39E
330
37E
100
AcDbEntity
  8
0
100
AcDbVertex
100
AcDb2dVertex
 10
144.4222833333333
 20
191.7774083333333
 30
0.0
  0
VERTEX
  5
39F
330
37E
100
AcDbEntity
  8
0
100
AcDbVertex
100
AcDb2dVertex
 10
144.4229888888889
 20
191.8444361111111
 30
0.0
  0
VERTEX
  5
3A0
330
37E
100
AcDbEntity
  8
0
100
AcDbVertex
100
AcDb2dVertex
 10
144.4162861111111
 20
191.9181666666667
 30
0.0
  0
VERTEX
  5
3A1
330
37E
100
AcDbEntity
  8
0
100
AcDbVertex
100
AcDb2dVertex
 10
144.3788916666666
 20
192.0815027777778
 30
0.0
  0
VERTEX
  5
3A2
330
37E
100
AcDbEntity
  8
0
100
AcDbVertex
100
AcDb2dVertex
 10
144.3090416666667
 20
192.2656527777778
 30
0.0
  0
VERTEX
  5
3A3
330
37E
100
AcDbEntity
  8
0
100
AcDbVertex
100
AcDb2dVertex
 10
144.2039138888889
 20
192.4670888888889
 30
0.0
  0
VERTEX
  5
3A4
330
37E
100
AcDbEntity
  8
0
100
AcDbVertex
100
AcDb2dVertex
 10
144.0388138888889
 20
192.7196777777778
 30
0.0
  0
VERTEX
  5
3A5
330
37E
100
AcDbEntity
  8
0
100
AcDbVertex
100
AcDb2dVertex
 10
143.9675527777778
 20
192.8413861111111
 30
0.0
  0
VERTEX
  5
3A6
330
37E
100
AcDbEntity
  8
0
100
AcDbVertex
100
AcDb2dVertex
 10
143.8525472222222
 20
193.0816277777778
 30
0.0
  0
VERTEX
  5
3A7
330
37E
100
AcDbEntity
  8
0
100
AcDbVertex
100
AcDb2dVertex
 10
143.7848138888889
 20
193.2460222222222
 30
0.0
  0
VERTEX
  5
3A8
330
37E
100
AcDbEntity
  8
0
100
AcDbVertex
100
AcDb2dVertex
 10
143.7121416666667
 20
193.4499277777778
 30
0.0
  0
VERTEX
  5
3A9
330
37E
100
AcDbEntity
  8
0
100
AcDbVertex
100
AcDb2dVertex
 10
143.6380583333333
 20
193.6831138888889
 30
0.0
  0
VERTEX
  5
3AA
330
37E
100
AcDbEntity
  8
0
100
AcDbVertex
100
AcDb2dVertex
 10
143.5667972222222
 20
193.9501666666667
 30
0.0
  0
VERTEX
  5
3AB
330
37E
100
AcDbEntity
  8
0
100
AcDbVertex
100
AcDb2dVertex
 10
143.4983583333333
 20
194.2553194444444
 30
0.0
  0
VERTEX
  5
3AC
330
37E
100
AcDbEntity
  8
0
100
AcDbVertex
100
AcDb2dVertex
 10
143.4380333333333
 20
194.5890472222222
 30
0.0
  0
VERTEX
  5
3AD
330
37E
100
AcDbEntity
  8
0
100
AcDbVertex
100
AcDb2dVertex
 10
143.3872333333333
 20
194.9587583333333
 30
0.0
  0
VERTEX
  5
3AE
330
37E
100
AcDbEntity
  8
0
100
AcDbVertex
100
AcDb2dVertex
 10
143.3491333333333
 20
195.3616305555555
 30
0.0
  0
VERTEX
  5
3AF
330
37E
100
AcDbEntity
  8
0
100
AcDbVertex
100
AcDb2dVertex
 10
143.3254972222222
 20
195.7973111111111
 30
0.0
  0
VERTEX
  5
3B0
330
37E
100
AcDbEntity
  8
0
100
AcDbVertex
100
AcDb2dVertex
 10
143.3202055555555
 20
196.2171166666666
 30
0.0
  0
VERTEX
  5
3B1
330
37E
100
AcDbEntity
  8
0
100
AcDbVertex
100
AcDb2dVertex
 10
143.3209111111111
 20
196.2178222222222
 30
0.0
  0
SEQEND
  5
3B2
330
37E
100
AcDbEntity
  8
0
 62
     7
  0
SPLINE
  5
3B3
330
1F
100
AcDbEntity
  8
0
 62
     7
100
AcDbSpline
210
0.0
220
0.0
230
1.0
 70
    12
 71
     3
 72
     8
 73
     4
 74
     0
 42
0.000000001
 43
0.0
 40
0.0
 40
0.0
 40
0.0
 40
0.0
 40
1.0
 40
1.0
 40
1.0
 40
1.0
 10
143.3209111111111
 20
196.2178222222222
 30
0.0
 41
1.0
 10
143.7364833333333
 20
196.4764083333333
 30
0.0
 41
1.0
 10
144.1598166666666
 20
196.7215888888889
 30
0.0
 41
1.0
 10
144.5919694444444
 20
196.9512472222222
 30
0.0
 41
1.0
  0
POLYLINE
  5
3B4
330
1F
100
AcDbEntity
  8
0
 62
     7
100
AcDb2dPolyline
 66
     1
 10
0.0
 20
0.0
 30
0.0
  0
VERTEX
  5
3B5
330
3B4
100
AcDbEntity
  8
0
100
AcDbVertex
100
AcDb2dVertex
 10
144.5919694444444
 20
196.9512472222222
 30
0.0
  0
VERTEX
  5
3B6
330
3B4
100
AcDbEntity
  8
0
100
AcDbVertex
100
AcDb2dVertex
 10
144.592675
 20
196.9519527777778
 30
0.0
  0
VERTEX
  5
3B7
330
3B4
100
AcDbEntity
  8
0
100
AcDbVertex
100
AcDb2dVertex
 10
144.9532138888889
 20
196.7374638888889
 30
0.0
  0
VERTEX
  5
3B8
330
3B4
100
AcDbEntity
  8
0
100
AcDbVertex
100
AcDb2dVertex
 10
145.31975
 20
196.4993388888889
 30
0.0
  0
VERTEX
  5
3B9
330
3B4
100
AcDbEntity
  8
0
100
AcDbVertex
100
AcDb2dVertex
 10
145.6488916666667
 20
196.2643888888889
 30
0.0
  0
VERTEX
  5
3BA
330
3B4
100
AcDbEntity
  8
0
100
AcDbVertex
100
AcDb2dVertex
 10
145.9441666666667
 20
196.0354361111111
 30
0.0
  0
VERTEX
  5
3BB
330
3B4
100
AcDbEntity
  8
0
100
AcDbVertex
100
AcDb2dVertex
 10
146.2027527777778
 20
195.8163611111111
 30
0.0
  0
VERTEX
  5
3BC
330
3B4
100
AcDbEntity
  8
0
100
AcDbVertex
100
AcDb2dVertex
 10
146.4331166666666
 20
195.6043416666667
 30
0.0
  0
VERTEX
  5
3BD
330
3B4
100
AcDbEntity
  8
0
100
AcDbVertex
100
AcDb2dVertex
 10
146.62785
 20
195.4096083333333
 30
0.0
  0
VERTEX
  5
3BE
330
3B4
100
AcDbEntity
  8
0
100
AcDbVertex
100
AcDb2dVertex
 10
146.7936555555555
 20
195.2286333333333
 30
0.0
  0
VERTEX
  5
3BF
330
3B4
100
AcDbEntity
  8
0
100
AcDbVertex
100
AcDb2dVertex
 10
146.9333555555556
 20
195.0635333333333
 30
0.0
  0
VERTEX
  5
3C0
330
3B4
100
AcDbEntity
  8
0
100
AcDbVertex
100
AcDb2dVertex
 10
147.0420111111111
 20
194.922775
 30
0.0
  0
VERTEX
  5
3C1
330
3B4
100
AcDbEntity
  8
0
100
AcDbVertex
100
AcDb2dVertex
 10
147.1919416666667
 20
194.7029944444444
 30
0.0
  0
VERTEX
  5
3C2
330
3B4
100
AcDbEntity
  8
0
100
AcDbVertex
100
AcDb2dVertex
 10
147.2617916666667
 20
194.5805805555555
 30
0.0
  0
VERTEX
  5
3C3
330
3B4
100
AcDbEntity
  8
0
100
AcDbVertex
100
AcDb2dVertex
 10
147.3979638888889
 20
194.3114111111111
 30
0.0
  0
VERTEX
  5
3C4
330
3B4
100
AcDbEntity
  8
0
100
AcDbVertex
100
AcDb2dVertex
 10
147.5203777777778
 20
194.1198527777778
 30
0.0
  0
VERTEX
  5
3C5
330
3B4
100
AcDbEntity
  8
0
100
AcDbVertex
100
AcDb2dVertex
 10
147.6452611111111
 20
193.9678055555555
 30
0.0
  0
VERTEX
  5
3C6
330
3B4
100
AcDbEntity
  8
0
100
AcDbVertex
100
AcDb2dVertex
 10
147.767675
 20
193.8535055555555
 30
0.0
  0
VERTEX
  5
3C7
330
3B4
100
AcDbEntity
  8
0
100
AcDbVertex
100
AcDb2dVertex
 10
147.8276472222222
 20
193.8101138888889
 30
0.0
  0
VERTEX
  5
3C8
330
3B4
100
AcDbEntity
  8
0
100
AcDbVertex
100
AcDb2dVertex
 10
147.8869138888889
 20
193.7776583333333
 30
0.0
  0
VERTEX
  5
3C9
330
3B4
100
AcDbEntity
  8
0
100
AcDbVertex
100
AcDb2dVertex
 10
147.9433583333333
 20
193.7533166666666
 30
0.0
  0
VERTEX
  5
3CA
330
3B4
100
AcDbEntity
  8
0
100
AcDbVertex
100
AcDb2dVertex
 10
147.9980388888889
 20
193.7388527777778
 30
0.0
  0
VERTEX
  5
3CB
330
3B4
100
AcDbEntity
  8
0
100
AcDbVertex
100
AcDb2dVertex
 10
148.0506027777778
 20
193.7335611111111
 30
0.0
  0
VERTEX
  5
3CC
330
3B4
100
AcDbEntity
  8
0
100
AcDbVertex
100
AcDb2dVertex
 10
148.0999916666667
 20
193.7370888888889
 30
0.0
  0
VERTEX
  5
3CD
330
3B4
100
AcDbEntity
  8
0
100
AcDbVertex
100
AcDb2dVertex
 10
148.1571416666667
 20
193.7540222222222
 30
0.0
  0
VERTEX
  5
3CE
330
3B4
100
AcDbEntity
  8
0
100
AcDbVertex
100
AcDb2dVertex
 10
148.8672833333333
 20
194.0309527777778
 30
0.0
  0
VERTEX
  5
3CF
330
3B4
100
AcDbEntity
  8
0
100
AcDbVertex
100
AcDb2dVertex
 10
149.5890666666666
 20
194.2757805555555
 30
0.0
  0
VERTEX
  5
3D0
330
3B4
100
AcDbEntity
  8
0
100
AcDbVertex
100
AcDb2dVertex
 10
149.6437472222222
 20
194.2994166666667
 30
0.0
  0
VERTEX
  5
3D1
330
3B4
100
AcDbEntity
  8
0
100
AcDbVertex
100
AcDb2dVertex
 10
149.6839638888889
 20
194.3283444444444
 30
0.0
  0
VERTEX
  5
3D2
330
3B4
100
AcDbEntity
  8
0
100
AcDbVertex
100
AcDb2dVertex
 10
149.7206527777778
 20
194.3653861111111
 30
0.0
  0
VERTEX
  5
3D3
330
3B4
100
AcDbEntity
  8
0
100
AcDbVertex
100
AcDb2dVertex
 10
149.7534611111111
 20
194.4119527777778
 30
0.0
  0
VERTEX
  5
3D4
330
3B4
100
AcDbEntity
  8
0
100
AcDbVertex
100
AcDb2dVertex
 10
149.7813305555555
 20
194.4666333333333
 30
0.0
  0
VERTEX
  5
3D5
330
3B4
100
AcDbEntity
  8
0
100
AcDbVertex
100
AcDb2dVertex
 10
149.8049666666667
 20
194.5297805555555
 30
0.0
  0
VERTEX
  5
3D6
330
3B4
100
AcDbEntity
  8
0
100
AcDbVertex
100
AcDb2dVertex
 10
149.8233111111111
 20
194.6010416666667
 30
0.0
  0
VERTEX
  5
3D7
330
3B4
100
AcDbEntity
  8
0
100
AcDbVertex
100
AcDb2dVertex
 10
149.8444777777778
 20
194.7679055555556
 30
0.0
  0
VERTEX
  5
3D8
330
3B4
100
AcDbEntity
  8
0
100
AcDbVertex
100
AcDb2dVertex
 10
149.8416555555555
 20
194.9647555555555
 30
0.0
  0
VERTEX
  5
3D9
330
3B4
100
AcDbEntity
  8
0
100
AcDbVertex
100
AcDb2dVertex
 10
149.8120222222222
 20
195.1898277777778
 30
0.0
  0
VERTEX
  5
3DA
330
3B4
100
AcDbEntity
  8
0
100
AcDbVertex
100
AcDb2dVertex
 10
149.7435833333333
 20
195.4833388888889
 30
0.0
  0
VERTEX
  5
3DB
330
3B4
100
AcDbEntity
  8
0
100
AcDbVertex
100
AcDb2dVertex
 10
149.7181833333333
 20
195.6226861111111
 30
0.0
  0
VERTEX
  5
3DC
330
3B4
100
AcDbEntity
  8
0
100
AcDbVertex
100
AcDb2dVertex
 10
149.691725
 20
195.8872694444444
 30
0.0
  0
VERTEX
  5
3DD
330
3B4
100
AcDbEntity
  8
0
100
AcDbVertex
100
AcDb2dVertex
 10
149.6850222222222
 20
196.0650694444444
 30
0.0
  0
VERTEX
  5
3DE
330
3B4
100
AcDbEntity
  8
0
100
AcDbVertex
100
AcDb2dVertex
 10
149.6857277777778
 20
196.2820277777778
 30
0.0
  0
VERTEX
  5
3DF
330
3B4
100
AcDbEntity
  8
0
100
AcDbVertex
100
AcDb2dVertex
 10
149.6963111111111
 20
196.52615
 30
0.0
  0
VERTEX
  5
3E0
330
3B4
100
AcDbEntity
  8
0
100
AcDbVertex
100
AcDb2dVertex
 10
149.7206527777778
 20
196.8013166666667
 30
0.0
  0
VERTEX
  5
3E1
330
3B4
100
AcDbEntity
  8
0
100
AcDbVertex
100
AcDb2dVertex
 10
149.7608694444444
 20
197.1114083333333
 30
0.0
  0
VERTEX
  5
3E2
330
3B4
100
AcDbEntity
  8
0
100
AcDbVertex
100
AcDb2dVertex
 10
149.8180194444444
 20
197.4454888888889
 30
0.0
  0
VERTEX
  5
3E3
330
3B4
100
AcDbEntity
  8
0
100
AcDbVertex
100
AcDb2dVertex
 10
149.8970416666667
 20
197.8106138888889
 30
0.0
  0
VERTEX
  5
3E4
330
3B4
100
AcDbEntity
  8
0
100
AcDbVertex
100
AcDb2dVertex
 10
149.9982888888889
 20
198.2021972222222
 30
0.0
  0
VERTEX
  5
3E5
330
3B4
100
AcDbEntity
  8
0
100
AcDbVertex
100
AcDb2dVertex
 10
150.1259944444444
 20
198.6195333333333
 30
0.0
  0
VERTEX
  5
3E6
330
3B4
100
AcDbEntity
  8
0
100
AcDbVertex
100
AcDb2dVertex
 10
150.2642833333333
 20
199.0157027777778
 30
0.0
  0
VERTEX
  5
3E7
330
3B4
100
AcDbEntity
  8
0
100
AcDbVertex
100
AcDb2dVertex
 10
150.2649888888889
 20
199.0157027777778
 30
0.0
  0
SEQEND
  5
3E8
330
3B4
100
AcDbEntity
  8
0
 62
     7
  0
SPLINE
  5
3E9
330
1F
100
AcDbEntity
  8
0
 62
     7
100
AcDbSpline
210
0.0
220
0.0
230
1.0
 70
    12
 71
     3
 72
     8
 73
     4
 74
     0
 42
0.000000001
 43
0.0
 40
0.0
 40
0.0
 40
0.0
 40
0.0
 40
1.0
 40
1.0
 40
1.0
 40
1.0
 10
150.2649888888889
 20
199.0157027777778
 30
0.0
 41
1.0
 10
150.7433555555556
 20
199.1176555555556
 30
0.0
 41
1.0
 10
151.2256027777778
 20
199.2023222222222
 30
0.0
 41
1.0
 10
151.7099666666667
 20
199.2707611111111
 30
0.0
 41
1.0
  0
POLYLINE
  5
3EA
330
1F
100
AcDbEntity
  8
0
 62
     7
100
AcDb2dPolyline
 66
     1
 10
0.0
 20
0.0
 30
0.0
  0
VERTEX
  5
3EB
330
3EA
100
AcDbEntity
  8
0
100
AcDbVertex
100
AcDb2dVertex
 10
151.7099666666667
 20
199.2707611111111
 30
0.0
  0
VERTEX
  5
3EC
330
3EA
100
AcDbEntity
  8
0
100
AcDbVertex
100
AcDb2dVertex
 10
151.711025
 20
199.2714666666667
 30
0.0
  0
VERTEX
  5
3ED
330
3EA
100
AcDbEntity
  8
0
100
AcDbVertex
100
AcDb2dVertex
 10
151.9763138888889
 20
198.9458527777778
 30
0.0
  0
VERTEX
  5
3EE
330
3EA
100
AcDbEntity
  8
0
100
AcDbVertex
100
AcDb2dVertex
 10
152.2394861111111
 20
198.5976611111111
 30
0.0
  0
VERTEX
  5
3EF
330
3EA
100
AcDbEntity
  8
0
100
AcDbVertex
100
AcDb2dVertex
 10
152.4691444444444
 20
198.2635805555555
 30
0.0
  0
VERTEX
  5
3F0
330
3EA
100
AcDbEntity
  8
0
100
AcDbVertex
100
AcDb2dVertex
 10
152.6674055555555
 20
197.9481972222222
 30
0.0
  0
VERTEX
  5
3F1
330
3EA
100
AcDbEntity
  8
0
100
AcDbVertex
100
AcDb2dVertex
 10
152.8356805555556
 20
197.6539805555556
 30
0.0
  0
VERTEX
  5
3F2
330
3EA
100
AcDbEntity
  8
0
100
AcDbVertex
100
AcDb2dVertex
 10
152.9792611111111
 20
197.3756388888889
 30
0.0
  0
VERTEX
  5
3F3
330
3EA
100
AcDbEntity
  8
0
100
AcDbVertex
100
AcDb2dVertex
 10
153.0956777777778
 20
197.1251666666667
 30
0.0
  0
VERTEX
  5
3F4
330
3EA
100
AcDbEntity
  8
0
100
AcDbVertex
100
AcDb2dVertex
 10
153.1898694444444
 20
196.8993888888889
 30
0.0
  0
VERTEX
  5
3F5
330
3EA
100
AcDbEntity
  8
0
100
AcDbVertex
100
AcDb2dVertex
 10
153.2646583333333
 20
196.6961888888889
 30
0.0
  0
VERTEX
  5
3F6
330
3EA
100
AcDbEntity
  8
0
100
AcDbVertex
100
AcDb2dVertex
 10
153.3193388888889
 20
196.5268555555556
 30
0.0
  0
VERTEX
  5
3F7
330
3EA
100
AcDbEntity
  8
0
100
AcDbVertex
100
AcDb2dVertex
 10
153.3846027777778
 20
196.268975
 30
0.0
  0
VERTEX
  5
3F8
330
3EA
100
AcDbEntity
  8
0
100
AcDbVertex
100
AcDb2dVertex
 10
153.4089444444444
 20
196.1296277777778
 30
0.0
  0
VERTEX
  5
3F9
330
3EA
100
AcDbEntity
  8
0
100
AcDbVertex
100
AcDb2dVertex
 10
153.4438694444444
 20
195.830825
 30
0.0
  0
VERTEX
  5
3FA
330
3EA
100
AcDbEntity
  8
0
100
AcDbVertex
100
AcDb2dVertex
 10
153.4943166666667
 20
195.6089277777778
 30
0.0
  0
VERTEX
  5
3FB
330
3EA
100
AcDbEntity
  8
0
100
AcDbVertex
100
AcDb2dVertex
 10
153.558875
 20
195.4226611111111
 30
0.0
  0
VERTEX
  5
3FC
330
3EA
100
AcDbEntity
  8
0
100
AcDbVertex
100
AcDb2dVertex
 10
153.635075
 20
195.2734361111111
 30
0.0
  0
VERTEX
  5
3FD
330
3EA
100
AcDbEntity
  8
0
100
AcDbVertex
100
AcDb2dVertex
 10
153.6767027777778
 20
195.2127583333333
 30
0.0
  0
VERTEX
  5
3FE
330
3EA
100
AcDbEntity
  8
0
100
AcDbVertex
100
AcDb2dVertex
 10
153.7208
 20
195.1616055555556
 30
0.0
  0
VERTEX
  5
3FF
330
3EA
100
AcDbEntity
  8
0
100
AcDbVertex
100
AcDb2dVertex
 10
153.7656027777778
 20
195.1199777777778
 30
0.0
  0
VERTEX
  5
400
330
3EA
100
AcDbEntity
  8
0
100
AcDbVertex
100
AcDb2dVertex
 10
153.8121694444444
 20
195.0871694444444
 30
0.0
  0
VERTEX
  5
401
330
3EA
100
AcDbEntity
  8
0
100
AcDbVertex
100
AcDb2dVertex
 10
153.8590888888889
 20
195.0642388888889
 30
0.0
  0
VERTEX
  5
402
330
3EA
100
AcDbEntity
  8
0
100
AcDbVertex
100
AcDb2dVertex
 10
153.9070666666667
 20
195.0504805555555
 30
0.0
  0
VERTEX
  5
403
330
3EA
100
AcDbEntity
  8
0
100
AcDbVertex
100
AcDb2dVertex
 10
153.9663333333333
 20
195.0476583333333
 30
0.0
  0
VERTEX
  5
404
330
3EA
100
AcDbEntity
  8
0
100
AcDbVertex
100
AcDb2dVertex
 10
154.7283333333333
 20
195.0642388888889
 30
0.0
  0
VERTEX
  5
405
330
3EA
100
AcDbEntity
  8
0
100
AcDbVertex
100
AcDb2dVertex
 10
155.4913916666667
 20
195.0476583333333
 30
0.0
  0
VERTEX
  5
406
330
3EA
100
AcDbEntity
  8
0
100
AcDbVertex
100
AcDb2dVertex
 10
155.5506583333333
 20
195.0504805555555
 30
0.0
  0
VERTEX
  5
407
330
3EA
100
AcDbEntity
  8
0
100
AcDbVertex
100
AcDb2dVertex
 10
155.5986361111111
 20
195.0642388888889
 30
0.0
  0
VERTEX
  5
408
330
3EA
100
AcDbEntity
  8
0
100
AcDbVertex
100
AcDb2dVertex
 10
155.6455555555555
 20
195.0871694444444
 30
0.0
  0
VERTEX
  5
409
330
3EA
100
AcDbEntity
  8
0
100
AcDbVertex
100
AcDb2dVertex
 10
155.6921222222222
 20
195.1199777777778
 30
0.0
  0
VERTEX
  5
40A
330
3EA
100
AcDbEntity
  8
0
100
AcDbVertex
100
AcDb2dVertex
 10
155.736925
 20
195.1616055555556
 30
0.0
  0
VERTEX
  5
40B
330
3EA
100
AcDbEntity
  8
0
100
AcDbVertex
100
AcDb2dVertex
 10
155.7810222222222
 20
195.2127583333333
 30
0.0
  0
VERTEX
  5
40C
330
3EA
100
AcDbEntity
  8
0
100
AcDbVertex
100
AcDb2dVertex
 10
155.8230027777778
 20
195.2734361111111
 30
0.0
  0
VERTEX
  5
40D
330
3EA
100
AcDbEntity
  8
0
100
AcDbVertex
100
AcDb2dVertex
 10
155.89885
 20
195.4226611111111
 30
0.0
  0
VERTEX
  5
40E
330
3EA
100
AcDbEntity
  8
0
100
AcDbVertex
100
AcDb2dVertex
 10
155.9634083333333
 20
195.6089277777778
 30
0.0
  0
VERTEX
  5
40F
330
3EA
100
AcDbEntity
  8
0
100
AcDbVertex
100
AcDb2dVertex
 10
156.0138555555556
 20
195.830825
 30
0.0
  0
VERTEX
  5
410
330
3EA
100
AcDbEntity
  8
0
100
AcDbVertex
100
AcDb2dVertex
 10
156.0487805555555
 20
196.1296277777778
 30
0.0
  0
VERTEX
  5
411
330
3EA
100
AcDbEntity
  8
0
100
AcDbVertex
100
AcDb2dVertex
 10
156.0731222222222
 20
196.268975
 30
0.0
  0
VERTEX
  5
412
330
3EA
100
AcDbEntity
  8
0
100
AcDbVertex
100
AcDb2dVertex
 10
156.1383861111111
 20
196.5268555555556
 30
0.0
  0
VERTEX
  5
413
330
3EA
100
AcDbEntity
  8
0
100
AcDbVertex
100
AcDb2dVertex
 10
156.1930666666667
 20
196.6961888888889
 30
0.0
  0
VERTEX
  5
414
330
3EA
100
AcDbEntity
  8
0
100
AcDbVertex
100
AcDb2dVertex
 10
156.2678555555555
 20
196.8993888888889
 30
0.0
  0
VERTEX
  5
415
330
3EA
100
AcDbEntity
  8
0
100
AcDbVertex
100
AcDb2dVertex
 10
156.3620472222222
 20
197.1251666666667
 30
0.0
  0
VERTEX
  5
416
330
3EA
100
AcDbEntity
  8
0
100
AcDbVertex
100
AcDb2dVertex
 10
156.4784638888889
 20
197.3756388888889
 30
0.0
  0
VERTEX
  5
417
330
3EA
100
AcDbEntity
  8
0
100
AcDbVertex
100
AcDb2dVertex
 10
156.6220444444444
 20
197.6539805555556
 30
0.0
  0
VERTEX
  5
418
330
3EA
100
AcDbEntity
  8
0
100
AcDbVertex
100
AcDb2dVertex
 10
156.7903194444444
 20
197.9481972222222
 30
0.0
  0
VERTEX
  5
419
330
3EA
100
AcDbEntity
  8
0
100
AcDbVertex
100
AcDb2dVertex
 10
156.9885805555555
 20
198.2635805555555
 30
0.0
  0
VERTEX
  5
41A
330
3EA
100
AcDbEntity
  8
0
100
AcDbVertex
100
AcDb2dVertex
 10
157.2182388888889
 20
198.5976611111111
 30
0.0
  0
VERTEX
  5
41B
330
3EA
100
AcDbEntity
  8
0
100
AcDbVertex
100
AcDb2dVertex
 10
157.4814111111111
 20
198.9458527777778
 30
0.0
  0
VERTEX
  5
41C
330
3EA
100
AcDbEntity
  8
0
100
AcDbVertex
100
AcDb2dVertex
 10
157.7470527777778
 20
199.2714666666667
 30
0.0
  0
VERTEX
  5
41D
330
3EA
100
AcDbEntity
  8
0
100
AcDbVertex
100
AcDb2dVertex
 10
157.7477583333333
 20
199.2707611111111
 30
0.0
  0
SEQEND
  5
41E
330
3EA
100
AcDbEntity
  8
0
 62
     7
  0
SPLINE
  5
41F
330
1F
100
AcDbEntity
  8
0
 62
     7
100
AcDbSpline
210
0.0
220
0.0
230
1.0
 70
    12
 71
     3
 72
     8
 73
     4
 74
     0
 42
0.000000001
 43
0.0
 40
0.0
 40
0.0
 40
0.0
 40
0.0
 40
1.0
 40
1.0
 40
1.0
 40
1.0
 10
154.7286861111111
 20
180.4260777777778
 30
0.0
 41
1.0
 10
156.1098111111111
 20
180.4260777777778
 30
0.0
 41
1.0
 10
157.2288222222222
 20
179.3067138888889
 30
0.0
 41
1.0
 10
157.2288222222222
 20
177.9259416666667
 30
0.0
 41
1.0
  0
SPLINE
  5
420
330
1F
100
AcDbEntity
  8
0
 62
     7
100
AcDbSpline
210
0.0
220
0.0
230
1.0
 70
    12
 71
     3
 72
     8
 73
     4
 74
     0
 42
0.000000001
 43
0.0
 40
0.0
 40
0.0
 40
0.0
 40
0.0
 40
1.0
 40
1.0
 40
1.0
 40
1.0
 10
157.2288222222222
 20
177.9259416666667
 30
0.0
 41
1.0
 10
157.2288222222222
 20
176.5455222222222
 30
0.0
 41
1.0
 10
156.1098111111111
 20
175.4265111111111
 30
0.0
 41
1.0
 10
154.7286861111111
 20
175.4265111111111
 30
0.0
 41
1.0
  0
SPLINE
  5
421
330
1F
100
AcDbEntity
  8
0
 62
     7
100
AcDbSpline
210
0.0
220
0.0
230
1.0
 70
    12
 71
     3
 72
     8
 73
     4
 74
     0
 42
0.000000001
 43
0.0
 40
0.0
 40
0.0
 40
0.0
 40
0.0
 40
1.0
 40
1.0
 40
1.0
 40
1.0
 10
154.7286861111111
 20
175.4265111111111
 30
0.0
 41
1.0
 10
153.3482666666667
 20
175.4265111111111
 30
0.0
 41
1.0
 10
152.2289027777778
 20
176.5455222222222
 30
0.0
 41
1.0
 10
152.2289027777778
 20
177.9259416666667
 30
0.0
 41
1.0
  0
SPLINE
  5
422
330
1F
100
AcDbEntity
  8
0
 62
     7
100
AcDbSpline
210
0.0
220
0.0
230
1.0
 70
    12
 71
     3
 72
     8
 73
     4
 74
     0
 42
0.000000001
 43
0.0
 40
0.0
 40
0.0
 40
0.0
 40
0.0
 40
1.0
 40
1.0
 40
1.0
 40
1.0
 10
152.2289027777778
 20
177.9259416666667
 30
0.0
 41
1.0
 10
152.2289027777778
 20
179.3067138888889
 30
0.0
 41
1.0
 10
153.3482666666667
 20
180.4260777777778
 30
0.0
 41
1.0
 10
154.7286861111111
 20
180.4260777777778
 30
0.0
 41
1.0
  0
POLYLINE
  5
423
330
1F
100
AcDbEntity
  8
0
 62
     7
100
AcDb2dPolyline
 66
     1
 10
0.0
 20
0.0
 30
0.0
  0
VERTEX
  5
424
330
423
100
AcDbEntity
  8
0
100
AcDbVertex
100
AcDb2dVertex
 10
124.8029
 20
207.3059805555555
 30
0.0
  0
VERTEX
  5
425
330
423
100
AcDbEntity
  8
0
100
AcDbVertex
100
AcDb2dVertex
 10
184.8012277777778
 20
207.3059805555555
 30
0.0
  0
VERTEX
  5
426
330
423
100
AcDbEntity
  8
0
100
AcDbVertex
100
AcDb2dVertex
 10
184.8012277777778
 20
148.5462555555555
 30
0.0
  0
VERTEX
  5
427
330
423
100
AcDbEntity
  8
0
100
AcDbVertex
100
AcDb2dVertex
 10
124.8029
 20
148.5462555555555
 30
0.0
  0
VERTEX
  5
428
330
423
100
AcDbEntity
  8
0
100
AcDbVertex
100
AcDb2dVertex
 10
124.8029
 20
207.3059805555555
 30
0.0
  0
SEQEND
  5
429
330
423
100
AcDbEntity
  8
0
 62
     7
  0
SPLINE
  5
42A
330
1F
100
AcDbEntity
  8
0
 62
     7
100
AcDbSpline
210
0.0
220
0.0
230
1.0
 70
    12
 71
     3
 72
     8
 73
     4
 74
     0
 42
0.000000001
 43
0.0
 40
0.0
 40
0.0
 40
0.0
 40
0.0
 40
1.0
 40
1.0
 40
1.0
 40
1.0
 10
221.9900027777778
 20
198.9059888888889
 30
0.0
 41
1.0
 10
222.4743666666666
 20
198.83755
 30
0.0
 41
1.0
 10
222.9566138888889
 20
198.7528833333333
 30
0.0
 41
1.0
 10
223.4349805555555
 20
198.6509305555556
 30
0.0
 41
1.0
  0
POLYLINE
  5
42B
330
1F
100
AcDbEntity
  8
0
 62
     7
100
AcDb2dPolyline
 66
     1
 10
0.0
 20
0.0
 30
0.0
  0
VERTEX
  5
42C
330
42B
100
AcDbEntity
  8
0
100
AcDbVertex
100
AcDb2dVertex
 10
223.4349805555555
 20
198.6509305555556
 30
0.0
  0
VERTEX
  5
42D
330
42B
100
AcDbEntity
  8
0
100
AcDbVertex
100
AcDb2dVertex
 10
223.4356861111111
 20
198.6509305555556
 30
0.0
  0
VERTEX
  5
42E
330
42B
100
AcDbEntity
  8
0
100
AcDbVertex
100
AcDb2dVertex
 10
223.573975
 20
198.2547611111111
 30
0.0
  0
VERTEX
  5
42F
330
42B
100
AcDbEntity
  8
0
100
AcDbVertex
100
AcDb2dVertex
 10
223.7016805555556
 20
197.837425
 30
0.0
  0
VERTEX
  5
430
330
42B
100
AcDbEntity
  8
0
100
AcDbVertex
100
AcDb2dVertex
 10
223.8029277777778
 20
197.4458416666667
 30
0.0
  0
VERTEX
  5
431
330
42B
100
AcDbEntity
  8
0
100
AcDbVertex
100
AcDb2dVertex
 10
223.88195
 20
197.0807166666667
 30
0.0
  0
VERTEX
  5
432
330
42B
100
AcDbEntity
  8
0
100
AcDbVertex
100
AcDb2dVertex
 10
223.9391
 20
196.7466361111111
 30
0.0
  0
VERTEX
  5
433
330
42B
100
AcDbEntity
  8
0
100
AcDbVertex
100
AcDb2dVertex
 10
223.9793166666666
 20
196.4365444444444
 30
0.0
  0
VERTEX
  5
434
330
42B
100
AcDbEntity
  8
0
100
AcDbVertex
100
AcDb2dVertex
 10
224.0036583333333
 20
196.1613777777778
 30
0.0
  0
VERTEX
  5
435
330
42B
100
AcDbEntity
  8
0
100
AcDbVertex
100
AcDb2dVertex
 10
224.0142416666666
 20
195.9172555555555
 30
0.0
  0
VERTEX
  5
436
330
42B
100
AcDbEntity
  8
0
100
AcDbVertex
100
AcDb2dVertex
 10
224.0149472222222
 20
195.7002972222222
 30
0.0
  0
VERTEX
  5
437
330
42B
100
AcDbEntity
  8
0
100
AcDbVertex
100
AcDb2dVertex
 10
224.0082444444444
 20
195.5224972222222
 30
0.0
  0
VERTEX
  5
438
330
42B
100
AcDbEntity
  8
0
100
AcDbVertex
100
AcDb2dVertex
 10
223.9817861111111
 20
195.2579138888889
 30
0.0
  0
VERTEX
  5
439
330
42B
100
AcDbEntity
  8
0
100
AcDbVertex
100
AcDb2dVertex
 10
223.9563861111111
 20
195.1185666666667
 30
0.0
  0
VERTEX
  5
43A
330
42B
100
AcDbEntity
  8
0
100
AcDbVertex
100
AcDb2dVertex
 10
223.8879472222222
 20
194.8250555555556
 30
0.0
  0
VERTEX
  5
43B
330
42B
100
AcDbEntity
  8
0
100
AcDbVertex
100
AcDb2dVertex
 10
223.8583138888889
 20
194.5999833333333
 30
0.0
  0
VERTEX
  5
43C
330
42B
100
AcDbEntity
  8
0
100
AcDbVertex
100
AcDb2dVertex
 10
223.8554916666666
 20
194.4031333333333
 30
0.0
  0
VERTEX
  5
43D
330
42B
100
AcDbEntity
  8
0
100
AcDbVertex
100
AcDb2dVertex
 10
223.8766583333333
 20
194.2362694444444
 30
0.0
  0
VERTEX
  5
43E
330
42B
100
AcDbEntity
  8
0
100
AcDbVertex
100
AcDb2dVertex
 10
223.8950027777778
 20
194.1650083333333
 30
0.0
  0
VERTEX
  5
43F
330
42B
100
AcDbEntity
  8
0
100
AcDbVertex
100
AcDb2dVertex
 10
223.9186388888889
 20
194.1018611111111
 30
0.0
  0
VERTEX
  5
440
330
42B
100
AcDbEntity
  8
0
100
AcDbVertex
100
AcDb2dVertex
 10
223.9465083333333
 20
194.0471805555555
 30
0.0
  0
VERTEX
  5
441
330
42B
100
AcDbEntity
  8
0
100
AcDbVertex
100
AcDb2dVertex
 10
223.9793166666666
 20
194.0006138888889
 30
0.0
  0
VERTEX
  5
442
330
42B
100
AcDbEntity
  8
0
100
AcDbVertex
100
AcDb2dVertex
 10
224.0160055555555
 20
193.9635722222222
 30
0.0
  0
VERTEX
  5
443
330
42B
100
AcDbEntity
  8
0
100
AcDbVertex
100
AcDb2dVertex
 10
224.0562222222222
 20
193.9346444444444
 30
0.0
  0
VERTEX
  5
444
330
42B
100
AcDbEntity
  8
0
100
AcDbVertex
100
AcDb2dVertex
 10
224.1109027777778
 20
193.9110083333333
 30
0.0
  0
VERTEX
  5
445
330
42B
100
AcDbEntity
  8
0
100
AcDbVertex
100
AcDb2dVertex
 10
224.8326861111111
 20
193.6661805555555
 30
0.0
  0
VERTEX
  5
446
330
42B
100
AcDbEntity
  8
0
100
AcDbVertex
100
AcDb2dVertex
 10
225.5428277777778
 20
193.38925
 30
0.0
  0
VERTEX
  5
447
330
42B
100
AcDbEntity
  8
0
100
AcDbVertex
100
AcDb2dVertex
 10
225.5999777777778
 20
193.3723166666666
 30
0.0
  0
VERTEX
  5
448
330
42B
100
AcDbEntity
  8
0
100
AcDbVertex
100
AcDb2dVertex
 10
225.6493666666667
 20
193.3687888888889
 30
0.0
  0
VERTEX
  5
449
330
42B
100
AcDbEntity
  8
0
100
AcDbVertex
100
AcDb2dVertex
 10
225.7019305555555
 20
193.3740805555555
 30
0.0
  0
VERTEX
  5
44A
330
42B
100
AcDbEntity
  8
0
100
AcDbVertex
100
AcDb2dVertex
 10
225.7566111111111
 20
193.3885444444444
 30
0.0
  0
VERTEX
  5
44B
330
42B
100
AcDbEntity
  8
0
100
AcDbVertex
100
AcDb2dVertex
 10
225.8130555555556
 20
193.4128861111111
 30
0.0
  0
VERTEX
  5
44C
330
42B
100
AcDbEntity
  8
0
100
AcDbVertex
100
AcDb2dVertex
 10
225.8723222222222
 20
193.4453416666666
 30
0.0
  0
VERTEX
  5
44D
330
42B
100
AcDbEntity
  8
0
100
AcDbVertex
100
AcDb2dVertex
 10
225.9322944444444
 20
193.4887333333333
 30
0.0
  0
VERTEX
  5
44E
330
42B
100
AcDbEntity
  8
0
100
AcDbVertex
100
AcDb2dVertex
 10
226.0547083333333
 20
193.6030333333333
 30
0.0
  0
VERTEX
  5
44F
330
42B
100
AcDbEntity
  8
0
100
AcDbVertex
100
AcDb2dVertex
 10
226.1795916666667
 20
193.7550805555555
 30
0.0
  0
VERTEX
  5
450
330
42B
100
AcDbEntity
  8
0
100
AcDbVertex
100
AcDb2dVertex
 10
226.3020055555555
 20
193.9466388888889
 30
0.0
  0
VERTEX
  5
451
330
42B
100
AcDbEntity
  8
0
100
AcDbVertex
100
AcDb2dVertex
 10
226.4381777777778
 20
194.2158083333333
 30
0.0
  0
VERTEX
  5
452
330
42B
100
AcDbEntity
  8
0
100
AcDbVertex
100
AcDb2dVertex
 10
226.5080277777778
 20
194.3382222222222
 30
0.0
  0
VERTEX
  5
453
330
42B
100
AcDbEntity
  8
0
100
AcDbVertex
100
AcDb2dVertex
 10
226.6579583333333
 20
194.5580027777778
 30
0.0
  0
VERTEX
  5
454
330
42B
100
AcDbEntity
  8
0
100
AcDbVertex
100
AcDb2dVertex
 10
226.7666138888889
 20
194.6987611111111
 30
0.0
  0
VERTEX
  5
455
330
42B
100
AcDbEntity
  8
0
100
AcDbVertex
100
AcDb2dVertex
 10
226.9066666666667
 20
194.8638611111111
 30
0.0
  0
VERTEX
  5
456
330
42B
100
AcDbEntity
  8
0
100
AcDbVertex
100
AcDb2dVertex
 10
227.0721194444444
 20
195.0448361111111
 30
0.0
  0
VERTEX
  5
457
330
42B
100
AcDbEntity
  8
0
100
AcDbVertex
100
AcDb2dVertex
 10
227.2668527777778
 20
195.2395694444444
 30
0.0
  0
VERTEX
  5
458
330
42B
100
AcDbEntity
  8
0
100
AcDbVertex
100
AcDb2dVertex
 10
227.4975694444445
 20
195.4515888888889
 30
0.0
  0
VERTEX
  5
459
330
42B
100
AcDbEntity
  8
0
100
AcDbVertex
100
AcDb2dVertex
 10
227.7558027777778
 20
195.6706638888889
 30
0.0
  0
VERTEX
  5
45A
330
42B
100
AcDbEntity
  8
0
100
AcDbVertex
100
AcDb2dVertex
 10
228.0510777777778
 20
195.8996166666666
 30
0.0
  0
VERTEX
  5
45B
330
42B
100
AcDbEntity
  8
0
100
AcDbVertex
100
AcDb2dVertex
 10
228.3802194444444
 20
196.1345666666666
 30
0.0
  0
VERTEX
  5
45C
330
42B
100
AcDbEntity
  8
0
100
AcDbVertex
100
AcDb2dVertex
 10
228.7467555555555
 20
196.3726916666666
 30
0.0
  0
VERTEX
  5
45D
330
42B
100
AcDbEntity
  8
0
100
AcDbVertex
100
AcDb2dVertex
 10
229.1072944444444
 20
196.5871805555556
 30
0.0
  0
VERTEX
  5
45E
330
42B
100
AcDbEntity
  8
0
100
AcDbVertex
100
AcDb2dVertex
 10
229.108
 20
196.586475
 30
0.0
  0
SEQEND
  5
45F
330
42B
100
AcDbEntity
  8
0
 62
     7
  0
SPLINE
  5
460
330
1F
100
AcDbEntity
  8
0
 62
     7
100
AcDbSpline
210
0.0
220
0.0
230
1.0
 70
    12
 71
     3
 72
     8
 73
     4
 74
     0
 42
0.000000001
 43
0.0
 40
0.0
 40
0.0
 40
0.0
 40
0.0
 40
1.0
 40
1.0
 40
1.0
 40
1.0
 10
229.108
 20
196.586475
 30
0.0
 41
1.0
 10
229.5401527777778
 20
196.3568166666666
 30
0.0
 41
1.0
 10
229.9638388888889
 20
196.1116361111111
 30
0.0
 41
1.0
 10
230.3790583333333
 20
195.85305
 30
0.0
 41
1.0
  0
POLYLINE
  5
461
330
1F
100
AcDbEntity
  8
0
 62
     7
100
AcDb2dPolyline
 66
     1
 10
0.0
 20
0.0
 30
0.0
  0
VERTEX
  5
462
330
461
100
AcDbEntity
  8
0
100
AcDbVertex
100
AcDb2dVertex
 10
230.3790583333333
 20
195.85305
 30
0.0
  0
VERTEX
  5
463
330
461
100
AcDbEntity
  8
0
100
AcDbVertex
100
AcDb2dVertex
 10
230.3797638888889
 20
195.8523444444444
 30
0.0
  0
VERTEX
  5
464
330
461
100
AcDbEntity
  8
0
100
AcDbVertex
100
AcDb2dVertex
 10
230.3744722222222
 20
195.4325388888889
 30
0.0
  0
VERTEX
  5
465
330
461
100
AcDbEntity
  8
0
100
AcDbVertex
100
AcDb2dVertex
 10
230.3508361111111
 20
194.9968583333333
 30
0.0
  0
VERTEX
  5
466
330
461
100
AcDbEntity
  8
0
100
AcDbVertex
100
AcDb2dVertex
 10
230.3127361111111
 20
194.5939861111111
 30
0.0
  0
VERTEX
  5
467
330
461
100
AcDbEntity
  8
0
100
AcDbVertex
100
AcDb2dVertex
 10
230.2619361111111
 20
194.224275
 30
0.0
  0
VERTEX
  5
468
330
461
100
AcDbEntity
  8
0
100
AcDbVertex
100
AcDb2dVertex
 10
230.2016111111111
 20
193.8905472222222
 30
0.0
  0
VERTEX
  5
469
330
461
100
AcDbEntity
  8
0
100
AcDbVertex
100
AcDb2dVertex
 10
230.1331722222222
 20
193.5853944444444
 30
0.0
  0
VERTEX
  5
46A
330
461
100
AcDbEntity
  8
0
100
AcDbVertex
100
AcDb2dVertex
 10
230.0619111111111
 20
193.3183416666667
 30
0.0
  0
VERTEX
  5
46B
330
461
100
AcDbEntity
  8
0
100
AcDbVertex
100
AcDb2dVertex
 10
229.9881805555555
 20
193.0851555555556
 30
0.0
  0
VERTEX
  5
46C
330
461
100
AcDbEntity
  8
0
100
AcDbVertex
100
AcDb2dVertex
 10
229.9151555555555
 20
192.88125
 30
0.0
  0
VERTEX
  5
46D
330
461
100
AcDbEntity
  8
0
100
AcDbVertex
100
AcDb2dVertex
 10
229.8474222222222
 20
192.7168555555556
 30
0.0
  0
VERTEX
  5
46E
330
461
100
AcDbEntity
  8
0
100
AcDbVertex
100
AcDb2dVertex
 10
229.7324166666667
 20
192.4766138888889
 30
0.0
  0
VERTEX
  5
46F
330
461
100
AcDbEntity
  8
0
100
AcDbVertex
100
AcDb2dVertex
 10
229.6611555555556
 20
192.3549055555555
 30
0.0
  0
VERTEX
  5
470
330
461
100
AcDbEntity
  8
0
100
AcDbVertex
100
AcDb2dVertex
 10
229.4960555555556
 20
192.1023166666666
 30
0.0
  0
VERTEX
  5
471
330
461
100
AcDbEntity
  8
0
100
AcDbVertex
100
AcDb2dVertex
 10
229.3909277777778
 20
191.9008805555555
 30
0.0
  0
VERTEX
  5
472
330
461
100
AcDbEntity
  8
0
100
AcDbVertex
100
AcDb2dVertex
 10
229.3210777777778
 20
191.7167305555556
 30
0.0
  0
VERTEX
  5
473
330
461
100
AcDbEntity
  8
0
100
AcDbVertex
100
AcDb2dVertex
 10
229.2836833333333
 20
191.5533944444444
 30
0.0
  0
VERTEX
  5
474
330
461
100
AcDbEntity
  8
0
100
AcDbVertex
100
AcDb2dVertex
 10
229.2769805555556
 20
191.4796638888889
 30
0.0
  0
VERTEX
  5
475
330
461
100
AcDbEntity
  8
0
100
AcDbVertex
100
AcDb2dVertex
 10
229.2776861111111
 20
191.4126361111111
 30
0.0
  0
VERTEX
  5
476
330
461
100
AcDbEntity
  8
0
100
AcDbVertex
100
AcDb2dVertex
 10
229.2854472222222
 20
191.3512527777778
 30
0.0
  0
VERTEX
  5
477
330
461
100
AcDbEntity
  8
0
100
AcDbVertex
100
AcDb2dVertex
 10
229.2999111111111
 20
191.2962194444444
 30
0.0
  0
VERTEX
  5
478
330
461
100
AcDbEntity
  8
0
100
AcDbVertex
100
AcDb2dVertex
 10
229.3210777777778
 20
191.2485944444444
 30
0.0
  0
VERTEX
  5
479
330
461
100
AcDbEntity
  8
0
100
AcDbVertex
100
AcDb2dVertex
 10
229.3493
 20
191.208025
 30
0.0
  0
VERTEX
  5
47A
330
461
100
AcDbEntity
  8
0
100
AcDbVertex
100
AcDb2dVertex
 10
229.3926916666667
 20
191.1671027777778
 30
0.0
  0
VERTEX
  5
47B
330
461
100
AcDbEntity
  8
0
100
AcDbVertex
100
AcDb2dVertex
 10
229.9871222222222
 20
190.6901472222222
 30
0.0
  0
VERTEX
  5
47C
330
461
100
AcDbEntity
  8
0
100
AcDbVertex
100
AcDb2dVertex
 10
230.5607388888889
 20
190.1867333333333
 30
0.0
  0
VERTEX
  5
47D
330
461
100
AcDbEntity
  8
0
100
AcDbVertex
100
AcDb2dVertex
 10
230.6076583333333
 20
190.1511027777778
 30
0.0
  0
VERTEX
  5
47E
330
461
100
AcDbEntity
  8
0
100
AcDbVertex
100
AcDb2dVertex
 10
230.6535194444444
 20
190.1313472222222
 30
0.0
  0
VERTEX
  5
47F
330
461
100
AcDbEntity
  8
0
100
AcDbVertex
100
AcDb2dVertex
 10
230.7036138888889
 20
190.1182944444444
 30
0.0
  0
VERTEX
  5
480
330
461
100
AcDbEntity
  8
0
100
AcDbVertex
100
AcDb2dVertex
 10
230.7607638888889
 20
190.1137083333333
 30
0.0
  0
VERTEX
  5
481
330
461
100
AcDbEntity
  8
0
100
AcDbVertex
100
AcDb2dVertex
 10
230.8221472222222
 20
190.1168833333333
 30
0.0
  0
VERTEX
  5
482
330
461
100
AcDbEntity
  8
0
100
AcDbVertex
100
AcDb2dVertex
 10
230.8884694444444
 20
190.1274666666667
 30
0.0
  0
VERTEX
  5
483
330
461
100
AcDbEntity
  8
0
100
AcDbVertex
100
AcDb2dVertex
 10
230.9600833333333
 20
190.1472222222222
 30
0.0
  0
VERTEX
  5
484
330
461
100
AcDbEntity
  8
0
100
AcDbVertex
100
AcDb2dVertex
 10
231.1142472222222
 20
190.2124861111111
 30
0.0
  0
VERTEX
  5
485
330
461
100
AcDbEntity
  8
0
100
AcDbVertex
100
AcDb2dVertex
 10
231.2832277777778
 20
190.3130277777778
 30
0.0
  0
VERTEX
  5
486
330
461
100
AcDbEntity
  8
0
100
AcDbVertex
100
AcDb2dVertex
 10
231.4642027777778
 20
190.4513166666667
 30
0.0
  0
VERTEX
  5
487
330
461
100
AcDbEntity
  8
0
100
AcDbVertex
100
AcDb2dVertex
 10
231.6832777777778
 20
190.6576916666667
 30
0.0
  0
VERTEX
  5
488
330
461
100
AcDbEntity
  8
0
100
AcDbVertex
100
AcDb2dVertex
 10
231.7912277777777
 20
190.7487083333333
 30
0.0
  0
VERTEX
  5
489
330
461
100
AcDbEntity
  8
0
100
AcDbVertex
100
AcDb2dVertex
 10
232.0071277777778
 20
190.9039305555555
 30
0.0
  0
VERTEX
  5
48A
330
461
100
AcDbEntity
  8
0
100
AcDbVertex
100
AcDb2dVertex
 10
232.1577638888889
 20
190.9988277777778
 30
0.0
  0
VERTEX
  5
48B
330
461
100
AcDbEntity
  8
0
100
AcDbVertex
100
AcDb2dVertex
 10
232.3454416666667
 20
191.1071305555555
 30
0.0
  0
VERTEX
  5
48C
330
461
100
AcDbEntity
  8
0
100
AcDbVertex
100
AcDb2dVertex
 10
232.5631055555556
 20
191.2196666666667
 30
0.0
  0
VERTEX
  5
48D
330
461
100
AcDbEntity
  8
0
100
AcDbVertex
100
AcDb2dVertex
 10
232.813225
 20
191.3357305555556
 30
0.0
  0
VERTEX
  5
48E
330
461
100
AcDbEntity
  8
0
100
AcDbVertex
100
AcDb2dVertex
 10
233.10215
 20
191.4567333333333
 30
0.0
  0
VERTEX
  5
48F
330
461
100
AcDbEntity
  8
0
100
AcDbVertex
100
AcDb2dVertex
 10
233.4200027777778
 20
191.5738555555556
 30
0.0
  0
VERTEX
  5
490
330
461
100
AcDbEntity
  8
0
100
AcDbVertex
100
AcDb2dVertex
 10
233.77525
 20
191.6881555555555
 30
0.0
  0
VERTEX
  5
491
330
461
100
AcDbEntity
  8
0
100
AcDbVertex
100
AcDb2dVertex
 10
234.1654222222222
 20
191.7961055555556
 30
0.0
  0
VERTEX
  5
492
330
461
100
AcDbEntity
  8
0
100
AcDbVertex
100
AcDb2dVertex
 10
234.5905194444444
 20
191.8941777777778
 30
0.0
  0
VERTEX
  5
493
330
461
100
AcDbEntity
  8
0
100
AcDbVertex
100
AcDb2dVertex
 10
235.0036222222222
 20
191.9724944444444
 30
0.0
  0
VERTEX
  5
494
330
461
100
AcDbEntity
  8
0
100
AcDbVertex
100
AcDb2dVertex
 10
235.0043277777777
 20
191.9717888888889
 30
0.0
  0
SEQEND
  5
495
330
461
100
AcDbEntity
  8
0
 62
     7
  0
SPLINE
  5
496
330
1F
100
AcDbEntity
  8
0
 62
     7
100
AcDbSpline
210
0.0
220
0.0
230
1.0
 70
    12
 71
     3
 72
     8
 73
     4
 74
     0
 42
0.000000001
 43
0.0
 40
0.0
 40
0.0
 40
0.0
 40
0.0
 40
1.0
 40
1.0
 40
1.0
 40
1.0
 10
235.0043277777777
 20
191.9717888888889
 30
0.0
 41
1.0
 10
235.3313527777778
 20
191.608075
 30
0.0
 41
1.0
 10
235.645325
 20
191.2330722222222
 30
0.0
 41
1.0
 10
235.9473027777778
 20
190.8485444444444
 30
0.0
 41
1.0
  0
POLYLINE
  5
497
330
1F
100
AcDbEntity
  8
0
 62
     7
100
AcDb2dPolyline
 66
     1
 10
0.0
 20
0.0
 30
0.0
  0
VERTEX
  5
498
330
497
100
AcDbEntity
  8
0
100
AcDbVertex
100
AcDb2dVertex
 10
235.9473027777778
 20
190.8485444444444
 30
0.0
  0
VERTEX
  5
499
330
497
100
AcDbEntity
  8
0
100
AcDbVertex
100
AcDb2dVertex
 10
235.9473027777778
 20
190.8474861111111
 30
0.0
  0
VERTEX
  5
49A
330
497
100
AcDbEntity
  8
0
100
AcDbVertex
100
AcDb2dVertex
 10
235.7987833333333
 20
190.4551972222222
 30
0.0
  0
VERTEX
  5
49B
330
497
100
AcDbEntity
  8
0
100
AcDbVertex
100
AcDb2dVertex
 10
235.6276861111111
 20
190.0530305555556
 30
0.0
  0
VERTEX
  5
49C
330
497
100
AcDbEntity
  8
0
100
AcDbVertex
100
AcDb2dVertex
 10
235.4537666666667
 20
189.6879055555555
 30
0.0
  0
VERTEX
  5
49D
330
497
100
AcDbEntity
  8
0
100
AcDbVertex
100
AcDb2dVertex
 10
235.2794944444444
 20
189.3577055555555
 30
0.0
  0
VERTEX
  5
49E
330
497
100
AcDbEntity
  8
0
100
AcDbVertex
100
AcDb2dVertex
 10
235.1091027777778
 20
189.0649
 30
0.0
  0
VERTEX
  5
49F
330
497
100
AcDbEntity
  8
0
100
AcDbVertex
100
AcDb2dVertex
 10
234.940475
 20
188.8010222222222
 30
0.0
  0
VERTEX
  5
4A0
330
497
100
AcDbEntity
  8
0
100
AcDbVertex
100
AcDb2dVertex
 10
234.7820777777777
 20
188.5752444444445
 30
0.0
  0
VERTEX
  5
4A1
330
497
100
AcDbEntity
  8
0
100
AcDbVertex
100
AcDb2dVertex
 10
234.6332055555556
 20
188.3805111111111
 30
0.0
  0
VERTEX
  5
4A2
330
497
100
AcDbEntity
  8
0
100
AcDbVertex
100
AcDb2dVertex
 10
234.4945638888888
 20
188.2147055555556
 30
0.0
  0
VERTEX
  5
4A3
330
497
100
AcDbEntity
  8
0
100
AcDbVertex
100
AcDb2dVertex
 10
234.3746194444444
 20
188.0824138888889
 30
0.0
  0
VERTEX
  5
4A4
330
497
100
AcDbEntity
  8
0
100
AcDbVertex
100
AcDb2dVertex
 10
234.1844722222222
 20
187.8968527777778
 30
0.0
  0
VERTEX
  5
4A5
330
497
100
AcDbEntity
  8
0
100
AcDbVertex
100
AcDb2dVertex
 10
234.0758166666667
 20
187.8065416666667
 30
0.0
  0
VERTEX
  5
4A6
330
497
100
AcDbEntity
  8
0
100
AcDbVertex
100
AcDb2dVertex
 10
233.8345166666666
 20
187.6262722222222
 30
0.0
  0
VERTEX
  5
4A7
330
497
100
AcDbEntity
  8
0
100
AcDbVertex
100
AcDb2dVertex
 10
233.6673
 20
187.4717555555555
 30
0.0
  0
VERTEX
  5
4A8
330
497
100
AcDbEntity
  8
0
100
AcDbVertex
100
AcDb2dVertex
 10
233.5388888888889
 20
187.3235888888889
 30
0.0
  0
VERTEX
  5
4A9
330
497
100
AcDbEntity
  8
0
100
AcDbVertex
100
AcDb2dVertex
 10
233.4475194444444
 20
187.182125
 30
0.0
  0
VERTEX
  5
4AA
330
497
100
AcDbEntity
  8
0
100
AcDbVertex
100
AcDb2dVertex
 10
233.4154166666667
 20
187.1158027777778
 30
0.0
  0
VERTEX
  5
4AB
330
497
100
AcDbEntity
  8
0
100
AcDbVertex
100
AcDb2dVertex
 10
233.3935444444444
 20
187.05195
 30
0.0
  0
VERTEX
  5
4AC
330
497
100
AcDbEntity
  8
0
100
AcDbVertex
100
AcDb2dVertex
 10
233.3797861111111
 20
186.9919777777777
 30
0.0
  0
VERTEX
  5
4AD
330
497
100
AcDbEntity
  8
0
100
AcDbVertex
100
AcDb2dVertex
 10
233.3744944444444
 20
186.9355333333333
 30
0.0
  0
VERTEX
  5
4AE
330
497
100
AcDbEntity
  8
0
100
AcDbVertex
100
AcDb2dVertex
 10
233.378375
 20
186.8833222222222
 30
0.0
  0
VERTEX
  5
4AF
330
497
100
AcDbEntity
  8
0
100
AcDbVertex
100
AcDb2dVertex
 10
233.3903694444444
 20
186.8353444444444
 30
0.0
  0
VERTEX
  5
4B0
330
497
100
AcDbEntity
  8
0
100
AcDbVertex
100
AcDb2dVertex
 10
233.4171805555555
 20
186.782075
 30
0.0
  0
VERTEX
  5
4B1
330
497
100
AcDbEntity
  8
0
100
AcDbVertex
100
AcDb2dVertex
 10
233.81335
 20
186.1301416666666
 30
0.0
  0
VERTEX
  5
4B2
330
497
100
AcDbEntity
  8
0
100
AcDbVertex
100
AcDb2dVertex
 10
234.1798861111111
 20
185.4619805555556
 30
0.0
  0
VERTEX
  5
4B3
330
497
100
AcDbEntity
  8
0
100
AcDbVertex
100
AcDb2dVertex
 10
234.2126944444445
 20
185.4122388888889
 30
0.0
  0
VERTEX
  5
4B4
330
497
100
AcDbEntity
  8
0
100
AcDbVertex
100
AcDb2dVertex
 10
234.2476194444444
 20
185.3773138888889
 30
0.0
  0
VERTEX
  5
4B5
330
497
100
AcDbEntity
  8
0
100
AcDbVertex
100
AcDb2dVertex
 10
234.2910111111111
 20
185.3483861111111
 30
0.0
  0
VERTEX
  5
4B6
330
497
100
AcDbEntity
  8
0
100
AcDbVertex
100
AcDb2dVertex
 10
234.3425166666667
 20
185.3240444444444
 30
0.0
  0
VERTEX
  5
4B7
330
497
100
AcDbEntity
  8
0
100
AcDbVertex
100
AcDb2dVertex
 10
234.4010777777777
 20
185.3060527777778
 30
0.0
  0
VERTEX
  5
4B8
330
497
100
AcDbEntity
  8
0
100
AcDbVertex
100
AcDb2dVertex
 10
234.4681055555555
 20
185.2937055555555
 30
0.0
  0
VERTEX
  5
4B9
330
497
100
AcDbEntity
  8
0
100
AcDbVertex
100
AcDb2dVertex
 10
234.5411305555555
 20
185.2877083333333
 30
0.0
  0
VERTEX
  5
4BA
330
497
100
AcDbEntity
  8
0
100
AcDbVertex
100
AcDb2dVertex
 10
234.7090527777778
 20
185.296175
 30
0.0
  0
VERTEX
  5
4BB
330
497
100
AcDbEntity
  8
0
100
AcDbVertex
100
AcDb2dVertex
 10
234.902375
 20
185.3332166666667
 30
0.0
  0
VERTEX
  5
4BC
330
497
100
AcDbEntity
  8
0
100
AcDbVertex
100
AcDb2dVertex
 10
235.1189805555555
 20
185.40095
 30
0.0
  0
VERTEX
  5
4BD
330
497
100
AcDbEntity
  8
0
100
AcDbVertex
100
AcDb2dVertex
 10
235.3959111111111
 20
185.5194833333333
 30
0.0
  0
VERTEX
  5
4BE
330
497
100
AcDbEntity
  8
0
100
AcDbVertex
100
AcDb2dVertex
 10
235.5289083333333
 20
185.569225
 30
0.0
  0
VERTEX
  5
4BF
330
497
100
AcDbEntity
  8
0
100
AcDbVertex
100
AcDb2dVertex
 10
235.7846722222222
 20
185.6404861111111
 30
0.0
  0
VERTEX
  5
4C0
330
497
100
AcDbEntity
  8
0
100
AcDbVertex
100
AcDb2dVertex
 10
235.9585916666666
 20
185.6785861111111
 30
0.0
  0
VERTEX
  5
4C1
330
497
100
AcDbEntity
  8
0
100
AcDbVertex
100
AcDb2dVertex
 10
236.1716694444444
 20
185.7149222222222
 30
0.0
  0
VERTEX
  5
4C2
330
497
100
AcDbEntity
  8
0
100
AcDbVertex
100
AcDb2dVertex
 10
236.4150861111111
 20
185.747025
 30
0.0
  0
VERTEX
  5
4C3
330
497
100
AcDbEntity
  8
0
100
AcDbVertex
100
AcDb2dVertex
 10
236.6895472222222
 20
185.7713666666666
 30
0.0
  0
VERTEX
  5
4C4
330
497
100
AcDbEntity
  8
0
100
AcDbVertex
100
AcDb2dVertex
 10
237.0021083333334
 20
185.7858305555555
 30
0.0
  0
VERTEX
  5
4C5
330
497
100
AcDbEntity
  8
0
100
AcDbVertex
100
AcDb2dVertex
 10
237.3411277777778
 20
185.7872416666667
 30
0.0
  0
VERTEX
  5
4C6
330
497
100
AcDbEntity
  8
0
100
AcDbVertex
100
AcDb2dVertex
 10
237.7140138888889
 20
185.7727777777778
 30
0.0
  0
VERTEX
  5
4C7
330
497
100
AcDbEntity
  8
0
100
AcDbVertex
100
AcDb2dVertex
 10
238.1175916666666
 20
185.7410277777778
 30
0.0
  0
VERTEX
  5
4C8
330
497
100
AcDbEntity
  8
0
100
AcDbVertex
100
AcDb2dVertex
 10
238.5511555555555
 20
185.6877583333333
 30
0.0
  0
VERTEX
  5
4C9
330
497
100
AcDbEntity
  8
0
100
AcDbVertex
100
AcDb2dVertex
 10
238.9656694444444
 20
185.620025
 30
0.0
  0
VERTEX
  5
4CA
330
497
100
AcDbEntity
  8
0
100
AcDbVertex
100
AcDb2dVertex
 10
238.9656694444444
 20
185.6193194444444
 30
0.0
  0
SEQEND
  5
4CB
330
497
100
AcDbEntity
  8
0
 62
     7
  0
SPLINE
  5
4CC
330
1F
100
AcDbEntity
  8
0
 62
     7
100
AcDbSpline
210
0.0
220
0.0
230
1.0
 70
    12
 71
     3
 72
     8
 73
     4
 74
     0
 42
0.000000001
 43
0.0
 40
0.0
 40
0.0
 40
0.0
 40
0.0
 40
1.0
 40
1.0
 40
1.0
 40
1.0
 10
238.9656694444444
 20
185.6193194444444
 30
0.0
 41
1.0
 10
239.1487611111111
 20
185.166
 30
0.0
 41
1.0
 10
239.3163305555556
 20
184.7059777777777
 30
0.0
 41
1.0
 10
239.4676722222222
 20
184.2403111111111
 30
0.0
 41
1.0
  0
POLYLINE
  5
4CD
330
1F
100
AcDbEntity
  8
0
 62
     7
100
AcDb2dPolyline
 66
     1
 10
0.0
 20
0.0
 30
0.0
  0
VERTEX
  5
4CE
330
4CD
100
AcDbEntity
  8
0
100
AcDbVertex
100
AcDb2dVertex
 10
239.4676722222222
 20
184.2403111111111
 30
0.0
  0
VERTEX
  5
4CF
330
4CD
100
AcDbEntity
  8
0
100
AcDbVertex
100
AcDb2dVertex
 10
239.4676722222222
 20
184.2396055555556
 30
0.0
  0
VERTEX
  5
4D0
330
4CD
100
AcDbEntity
  8
0
100
AcDbVertex
100
AcDb2dVertex
 10
239.1939166666667
 20
183.9217527777778
 30
0.0
  0
VERTEX
  5
4D1
330
4CD
100
AcDbEntity
  8
0
100
AcDbVertex
100
AcDb2dVertex
 10
238.8958194444444
 20
183.6031944444445
 30
0.0
  0
VERTEX
  5
4D2
330
4CD
100
AcDbEntity
  8
0
100
AcDbVertex
100
AcDb2dVertex
 10
238.6076
 20
183.3188555555556
 30
0.0
  0
VERTEX
  5
4D3
330
4CD
100
AcDbEntity
  8
0
100
AcDbVertex
100
AcDb2dVertex
 10
238.3306694444444
 20
183.0683833333333
 30
0.0
  0
VERTEX
  5
4D4
330
4CD
100
AcDbEntity
  8
0
100
AcDbVertex
100
AcDb2dVertex
 10
238.0706722222222
 20
182.8510722222222
 30
0.0
  0
VERTEX
  5
4D5
330
4CD
100
AcDbEntity
  8
0
100
AcDbVertex
100
AcDb2dVertex
 10
237.8219638888889
 20
182.6616305555555
 30
0.0
  0
VERTEX
  5
4D6
330
4CD
100
AcDbEntity
  8
0
100
AcDbVertex
100
AcDb2dVertex
 10
237.5951277777778
 20
182.5035861111111
 30
0.0
  0
VERTEX
  5
4D7
330
4CD
100
AcDbEntity
  8
0
100
AcDbVertex
100
AcDb2dVertex
 10
237.3891055555555
 20
182.3712944444444
 30
0.0
  0
VERTEX
  5
4D8
330
4CD
100
AcDbEntity
  8
0
100
AcDbVertex
100
AcDb2dVertex
 10
237.2021333333333
 20
182.2622861111111
 30
0.0
  0
VERTEX
  5
4D9
330
4CD
100
AcDbEntity
  8
0
100
AcDbVertex
100
AcDb2dVertex
 10
237.0447944444444
 20
182.1793833333333
 30
0.0
  0
VERTEX
  5
4DA
330
4CD
100
AcDbEntity
  8
0
100
AcDbVertex
100
AcDb2dVertex
 10
236.8020833333333
 20
182.0700222222222
 30
0.0
  0
VERTEX
  5
4DB
330
4CD
100
AcDbEntity
  8
0
100
AcDbVertex
100
AcDb2dVertex
 10
236.6690861111111
 20
182.02275
 30
0.0
  0
VERTEX
  5
4DC
330
4CD
100
AcDbEntity
  8
0
100
AcDbVertex
100
AcDb2dVertex
 10
236.3808666666666
 20
181.9352611111111
 30
0.0
  0
VERTEX
  5
4DD
330
4CD
100
AcDbEntity
  8
0
100
AcDbVertex
100
AcDb2dVertex
 10
236.1709638888889
 20
181.848125
 30
0.0
  0
VERTEX
  5
4DE
330
4CD
100
AcDbEntity
  8
0
100
AcDbVertex
100
AcDb2dVertex
 10
235.9988083333333
 20
181.7521694444444
 30
0.0
  0
VERTEX
  5
4DF
330
4CD
100
AcDbEntity
  8
0
100
AcDbVertex
100
AcDb2dVertex
 10
235.8651055555555
 20
181.6509222222222
 30
0.0
  0
VERTEX
  5
4E0
330
4CD
100
AcDbEntity
  8
0
100
AcDbVertex
100
AcDb2dVertex
 10
235.8125416666667
 20
181.5994166666667
 30
0.0
  0
VERTEX
  5
4E1
330
4CD
100
AcDbEntity
  8
0
100
AcDbVertex
100
AcDb2dVertex
 10
235.76915
 20
181.5468527777778
 30
0.0
  0
VERTEX
  5
4E2
330
4CD
100
AcDbEntity
  8
0
100
AcDbVertex
100
AcDb2dVertex
 10
235.7359888888889
 20
181.4949944444444
 30
0.0
  0
VERTEX
  5
4E3
330
4CD
100
AcDbEntity
  8
0
100
AcDbVertex
100
AcDb2dVertex
 10
235.7123527777778
 20
181.4441944444444
 30
0.0
  0
VERTEX
  5
4E4
330
4CD
100
AcDbEntity
  8
0
100
AcDbVertex
100
AcDb2dVertex
 10
235.6978888888889
 20
181.3930416666667
 30
0.0
  0
VERTEX
  5
4E5
330
4CD
100
AcDbEntity
  8
0
100
AcDbVertex
100
AcDb2dVertex
 10
235.6933027777778
 20
181.3443583333333
 30
0.0
  0
VERTEX
  5
4E6
330
4CD
100
AcDbEntity
  8
0
100
AcDbVertex
100
AcDb2dVertex
 10
235.7000055555555
 20
181.2850916666667
 30
0.0
  0
VERTEX
  5
4E7
330
4CD
100
AcDbEntity
  8
0
100
AcDbVertex
100
AcDb2dVertex
 10
235.8492305555555
 20
180.5375555555555
 30
0.0
  0
VERTEX
  5
4E8
330
4CD
100
AcDbEntity
  8
0
100
AcDbVertex
100
AcDb2dVertex
 10
235.9645888888889
 20
179.7840222222222
 30
0.0
  0
VERTEX
  5
4E9
330
4CD
100
AcDbEntity
  8
0
100
AcDbVertex
100
AcDb2dVertex
 10
235.9783472222222
 20
179.7254611111111
 30
0.0
  0
VERTEX
  5
4EA
330
4CD
100
AcDbEntity
  8
0
100
AcDbVertex
100
AcDb2dVertex
 10
235.9998666666666
 20
179.6813638888889
 30
0.0
  0
VERTEX
  5
4EB
330
4CD
100
AcDbEntity
  8
0
100
AcDbVertex
100
AcDb2dVertex
 10
236.0309111111111
 20
179.6386777777778
 30
0.0
  0
VERTEX
  5
4EC
330
4CD
100
AcDbEntity
  8
0
100
AcDbVertex
100
AcDb2dVertex
 10
236.0704222222222
 20
179.5991666666667
 30
0.0
  0
VERTEX
  5
4ED
330
4CD
100
AcDbEntity
  8
0
100
AcDbVertex
100
AcDb2dVertex
 10
236.1198111111111
 20
179.5610666666666
 30
0.0
  0
VERTEX
  5
4EE
330
4CD
100
AcDbEntity
  8
0
100
AcDbVertex
100
AcDb2dVertex
 10
236.1776666666667
 20
179.5275527777778
 30
0.0
  0
VERTEX
  5
4EF
330
4CD
100
AcDbEntity
  8
0
100
AcDbVertex
100
AcDb2dVertex
 10
236.2446944444444
 20
179.4965083333333
 30
0.0
  0
VERTEX
  5
4F0
330
4CD
100
AcDbEntity
  8
0
100
AcDbVertex
100
AcDb2dVertex
 10
236.4052083333333
 20
179.4471194444444
 30
0.0
  0
VERTEX
  5
4F1
330
4CD
100
AcDbEntity
  8
0
100
AcDbVertex
100
AcDb2dVertex
 10
236.5995888888889
 20
179.4157222222222
 30
0.0
  0
VERTEX
  5
4F2
330
4CD
100
AcDbEntity
  8
0
100
AcDbVertex
100
AcDb2dVertex
 10
236.826425
 20
179.4051388888889
 30
0.0
  0
VERTEX
  5
4F3
330
4CD
100
AcDbEntity
  8
0
100
AcDbVertex
100
AcDb2dVertex
 10
237.1276972222222
 20
179.4220722222222
 30
0.0
  0
VERTEX
  5
4F4
330
4CD
100
AcDbEntity
  8
0
100
AcDbVertex
100
AcDb2dVertex
 10
237.2688083333333
 20
179.4227777777778
 30
0.0
  0
VERTEX
  5
4F5
330
4CD
100
AcDbEntity
  8
0
100
AcDbVertex
100
AcDb2dVertex
 10
237.53445
 20
179.4030222222222
 30
0.0
  0
VERTEX
  5
4F6
330
4CD
100
AcDbEntity
  8
0
100
AcDbVertex
100
AcDb2dVertex
 10
237.7101333333333
 20
179.3786805555555
 30
0.0
  0
VERTEX
  5
4F7
330
4CD
100
AcDbEntity
  8
0
100
AcDbVertex
100
AcDb2dVertex
 10
237.9239166666667
 20
179.3405805555555
 30
0.0
  0
VERTEX
  5
4F8
330
4CD
100
AcDbEntity
  8
0
100
AcDbVertex
100
AcDb2dVertex
 10
238.1623944444444
 20
179.2873111111111
 30
0.0
  0
VERTEX
  5
4F9
330
4CD
100
AcDbEntity
  8
0
100
AcDbVertex
100
AcDb2dVertex
 10
238.4287416666666
 20
179.21605
 30
0.0
  0
VERTEX
  5
4FA
330
4CD
100
AcDbEntity
  8
0
100
AcDbVertex
100
AcDb2dVertex
 10
238.7275444444444
 20
179.1222111111111
 30
0.0
  0
VERTEX
  5
4FB
330
4CD
100
AcDbEntity
  8
0
100
AcDbVertex
100
AcDb2dVertex
 10
239.0471611111111
 20
179.0082638888889
 30
0.0
  0
VERTEX
  5
4FC
330
4CD
100
AcDbEntity
  8
0
100
AcDbVertex
100
AcDb2dVertex
 10
239.3921777777778
 20
178.8668
 30
0.0
  0
VERTEX
  5
4FD
330
4CD
100
AcDbEntity
  8
0
100
AcDbVertex
100
AcDb2dVertex
 10
239.7604777777778
 20
178.6988777777778
 30
0.0
  0
VERTEX
  5
4FE
330
4CD
100
AcDbEntity
  8
0
100
AcDbVertex
100
AcDb2dVertex
 10
240.1495916666666
 20
178.5009694444444
 30
0.0
  0
VERTEX
  5
4FF
330
4CD
100
AcDbEntity
  8
0
100
AcDbVertex
100
AcDb2dVertex
 10
240.5154222222222
 20
178.2956527777778
 30
0.0
  0
VERTEX
  5
500
330
4CD
100
AcDbEntity
  8
0
100
AcDbVertex
100
AcDb2dVertex
 10
240.5154222222222
 20
178.2949472222222
 30
0.0
  0
SEQEND
  5
501
330
4CD
100
AcDbEntity
  8
0
 62
     7
  0
SPLINE
  5
502
330
1F
100
AcDbEntity
  8
0
 62
     7
100
AcDbSpline
210
0.0
220
0.0
230
1.0
 70
    12
 71
     3
 72
     8
 73
     4
 74
     0
 42
0.000000001
 43
0.0
 40
0.0
 40
0.0
 40
0.0
 40
0.0
 40
1.0
 40
1.0
 40
1.0
 40
1.0
 10
240.5154222222222
 20
178.2949472222222
 30
0.0
 41
1.0
 10
240.5323555555555
 20
177.8059972222222
 30
0.0
 41
1.0
 10
240.5323555555555
 20
177.3170472222222
 30
0.0
 41
1.0
 10
240.5154222222222
 20
176.8280972222222
 30
0.0
 41
1.0
  0
POLYLINE
  5
503
330
1F
100
AcDbEntity
  8
0
 62
     7
100
AcDb2dPolyline
 66
     1
 10
0.0
 20
0.0
 30
0.0
  0
VERTEX
  5
504
330
503
100
AcDbEntity
  8
0
100
AcDbVertex
100
AcDb2dVertex
 10
240.5154222222222
 20
176.8280972222222
 30
0.0
  0
VERTEX
  5
505
330
503
100
AcDbEntity
  8
0
100
AcDbVertex
100
AcDb2dVertex
 10
240.5154222222222
 20
176.8270388888889
 30
0.0
  0
VERTEX
  5
506
330
503
100
AcDbEntity
  8
0
100
AcDbVertex
100
AcDb2dVertex
 10
240.1495916666666
 20
176.6217222222222
 30
0.0
  0
VERTEX
  5
507
330
503
100
AcDbEntity
  8
0
100
AcDbVertex
100
AcDb2dVertex
 10
239.7604777777778
 20
176.4241666666667
 30
0.0
  0
VERTEX
  5
508
330
503
100
AcDbEntity
  8
0
100
AcDbVertex
100
AcDb2dVertex
 10
239.3921777777778
 20
176.2551861111111
 30
0.0
  0
VERTEX
  5
509
330
503
100
AcDbEntity
  8
0
100
AcDbVertex
100
AcDb2dVertex
 10
239.0471611111111
 20
176.1144277777778
 30
0.0
  0
VERTEX
  5
50A
330
503
100
AcDbEntity
  8
0
100
AcDbVertex
100
AcDb2dVertex
 10
238.7275444444444
 20
175.999775
 30
0.0
  0
VERTEX
  5
50B
330
503
100
AcDbEntity
  8
0
100
AcDbVertex
100
AcDb2dVertex
 10
238.4287416666666
 20
175.9069944444445
 30
0.0
  0
VERTEX
  5
50C
330
503
100
AcDbEntity
  8
0
100
AcDbVertex
100
AcDb2dVertex
 10
238.1623944444444
 20
175.8353805555555
 30
0.0
  0
VERTEX
  5
50D
330
503
100
AcDbEntity
  8
0
100
AcDbVertex
100
AcDb2dVertex
 10
237.9239166666667
 20
175.7821111111111
 30
0.0
  0
VERTEX
  5
50E
330
503
100
AcDbEntity
  8
0
100
AcDbVertex
100
AcDb2dVertex
 10
237.7101333333333
 20
175.7443638888889
 30
0.0
  0
VERTEX
  5
50F
330
503
100
AcDbEntity
  8
0
100
AcDbVertex
100
AcDb2dVertex
 10
237.53445
 20
175.7200222222222
 30
0.0
  0
VERTEX
  5
510
330
503
100
AcDbEntity
  8
0
100
AcDbVertex
100
AcDb2dVertex
 10
237.2688083333333
 20
175.6992083333333
 30
0.0
  0
VERTEX
  5
511
330
503
100
AcDbEntity
  8
0
100
AcDbVertex
100
AcDb2dVertex
 10
237.1276972222222
 20
175.7002666666667
 30
0.0
  0
VERTEX
  5
512
330
503
100
AcDbEntity
  8
0
100
AcDbVertex
100
AcDb2dVertex
 10
236.826425
 20
175.7175527777778
 30
0.0
  0
VERTEX
  5
513
330
503
100
AcDbEntity
  8
0
100
AcDbVertex
100
AcDb2dVertex
 10
236.5995888888889
 20
175.7069694444444
 30
0.0
  0
VERTEX
  5
514
330
503
100
AcDbEntity
  8
0
100
AcDbVertex
100
AcDb2dVertex
 10
236.4052083333333
 20
175.675925
 30
0.0
  0
VERTEX
  5
515
330
503
100
AcDbEntity
  8
0
100
AcDbVertex
100
AcDb2dVertex
 10
236.2446944444444
 20
175.6261833333333
 30
0.0
  0
VERTEX
  5
516
330
503
100
AcDbEntity
  8
0
100
AcDbVertex
100
AcDb2dVertex
 10
236.1776666666667
 20
175.5951388888889
 30
0.0
  0
VERTEX
  5
517
330
503
100
AcDbEntity
  8
0
100
AcDbVertex
100
AcDb2dVertex
 10
236.1198111111111
 20
175.5609194444444
 30
0.0
  0
VERTEX
  5
518
330
503
100
AcDbEntity
  8
0
100
AcDbVertex
100
AcDb2dVertex
 10
236.0704222222222
 20
175.523525
 30
0.0
  0
VERTEX
  5
519
330
503
100
AcDbEntity
  8
0
100
AcDbVertex
100
AcDb2dVertex
 10
236.0309111111111
 20
175.4840138888889
 30
0.0
  0
VERTEX
  5
51A
330
503
100
AcDbEntity
  8
0
100
AcDbVertex
100
AcDb2dVertex
 10
235.9998666666666
 20
175.4416805555556
 30
0.0
  0
VERTEX
  5
51B
330
503
100
AcDbEntity
  8
0
100
AcDbVertex
100
AcDb2dVertex
 10
235.9783472222222
 20
175.396525
 30
0.0
  0
VERTEX
  5
51C
330
503
100
AcDbEntity
  8
0
100
AcDbVertex
100
AcDb2dVertex
 10
235.9645888888889
 20
175.3390222222222
 30
0.0
  0
VERTEX
  5
51D
330
503
100
AcDbEntity
  8
0
100
AcDbVertex
100
AcDb2dVertex
 10
235.8492305555555
 20
174.5851361111111
 30
0.0
  0
VERTEX
  5
51E
330
503
100
AcDbEntity
  8
0
100
AcDbVertex
100
AcDb2dVertex
 10
235.7000055555555
 20
173.8376
 30
0.0
  0
VERTEX
  5
51F
330
503
100
AcDbEntity
  8
0
100
AcDbVertex
100
AcDb2dVertex
 10
235.6933027777778
 20
173.7783333333333
 30
0.0
  0
VERTEX
  5
520
330
503
100
AcDbEntity
  8
0
100
AcDbVertex
100
AcDb2dVertex
 10
235.6978888888889
 20
173.72965
 30
0.0
  0
VERTEX
  5
521
330
503
100
AcDbEntity
  8
0
100
AcDbVertex
100
AcDb2dVertex
 10
235.7123527777778
 20
173.67885
 30
0.0
  0
VERTEX
  5
522
330
503
100
AcDbEntity
  8
0
100
AcDbVertex
100
AcDb2dVertex
 10
235.7359888888889
 20
173.6276972222222
 30
0.0
  0
VERTEX
  5
523
330
503
100
AcDbEntity
  8
0
100
AcDbVertex
100
AcDb2dVertex
 10
235.76915
 20
173.5761916666667
 30
0.0
  0
VERTEX
  5
524
330
503
100
AcDbEntity
  8
0
100
AcDbVertex
100
AcDb2dVertex
 10
235.8125416666667
 20
173.5236277777778
 30
0.0
  0
VERTEX
  5
525
330
503
100
AcDbEntity
  8
0
100
AcDbVertex
100
AcDb2dVertex
 10
235.8651055555555
 20
173.4717694444444
 30
0.0
  0
VERTEX
  5
526
330
503
100
AcDbEntity
  8
0
100
AcDbVertex
100
AcDb2dVertex
 10
235.9988083333333
 20
173.370875
 30
0.0
  0
VERTEX
  5
527
330
503
100
AcDbEntity
  8
0
100
AcDbVertex
100
AcDb2dVertex
 10
236.1709638888889
 20
173.2749194444444
 30
0.0
  0
VERTEX
  5
528
330
503
100
AcDbEntity
  8
0
100
AcDbVertex
100
AcDb2dVertex
 10
236.3808666666666
 20
173.1874305555556
 30
0.0
  0
VERTEX
  5
529
330
503
100
AcDbEntity
  8
0
100
AcDbVertex
100
AcDb2dVertex
 10
236.6690861111111
 20
173.0999416666666
 30
0.0
  0
VERTEX
  5
52A
330
503
100
AcDbEntity
  8
0
100
AcDbVertex
100
AcDb2dVertex
 10
236.8020833333333
 20
173.0526694444444
 30
0.0
  0
VERTEX
  5
52B
330
503
100
AcDbEntity
  8
0
100
AcDbVertex
100
AcDb2dVertex
 10
237.0447944444444
 20
172.9426027777778
 30
0.0
  0
VERTEX
  5
52C
330
503
100
AcDbEntity
  8
0
100
AcDbVertex
100
AcDb2dVertex
 10
237.2021333333333
 20
172.8597
 30
0.0
  0
VERTEX
  5
52D
330
503
100
AcDbEntity
  8
0
100
AcDbVertex
100
AcDb2dVertex
 10
237.3891055555555
 20
172.7510444444444
 30
0.0
  0
VERTEX
  5
52E
330
503
100
AcDbEntity
  8
0
100
AcDbVertex
100
AcDb2dVertex
 10
237.5951277777778
 20
172.6194583333333
 30
0.0
  0
VERTEX
  5
52F
330
503
100
AcDbEntity
  8
0
100
AcDbVertex
100
AcDb2dVertex
 10
237.8219638888889
 20
172.4610611111111
 30
0.0
  0
VERTEX
  5
530
330
503
100
AcDbEntity
  8
0
100
AcDbVertex
100
AcDb2dVertex
 10
238.0706722222222
 20
172.2709138888889
 30
0.0
  0
VERTEX
  5
531
330
503
100
AcDbEntity
  8
0
100
AcDbVertex
100
AcDb2dVertex
 10
238.3306694444444
 20
172.0543083333333
 30
0.0
  0
VERTEX
  5
532
330
503
100
AcDbEntity
  8
0
100
AcDbVertex
100
AcDb2dVertex
 10
238.6076
 20
171.8041888888889
 30
0.0
  0
VERTEX
  5
533
330
503
100
AcDbEntity
  8
0
100
AcDbVertex
100
AcDb2dVertex
 10
238.8958194444444
 20
171.51985
 30
0.0
  0
VERTEX
  5
534
330
503
100
AcDbEntity
  8
0
100
AcDbVertex
100
AcDb2dVertex
 10
239.1939166666667
 20
171.2009388888889
 30
0.0
  0
VERTEX
  5
535
330
503
100
AcDbEntity
  8
0
100
AcDbVertex
100
AcDb2dVertex
 10
239.4676722222222
 20
170.8823805555555
 30
0.0
  0
VERTEX
  5
536
330
503
100
AcDbEntity
  8
0
100
AcDbVertex
100
AcDb2dVertex
 10
239.4676722222222
 20
170.881675
 30
0.0
  0
SEQEND
  5
537
330
503
100
AcDbEntity
  8
0
 62
     7
  0
SPLINE
  5
538
330
1F
100
AcDbEntity
  8
0
 62
     7
100
AcDbSpline
210
0.0
220
0.0
230
1.0
 70
    12
 71
     3
 72
     8
 73
     4
 74
     0
 42
0.000000001
 43
0.0
 40
0.0
 40
0.0
 40
0.0
 40
0.0
 40
1.0
 40
1.0
 40
1.0
 40
1.0
 10
239.4676722222222
 20
170.881675
 30
0.0
 41
1.0
 10
239.3163305555556
 20
170.4170666666666
 30
0.0
 41
1.0
 10
239.1487611111111
 20
169.9566916666666
 30
0.0
 41
1.0
 10
238.9656694444444
 20
169.503725
 30
0.0
 41
1.0
  0
POLYLINE
  5
539
330
1F
100
AcDbEntity
  8
0
 62
     7
100
AcDb2dPolyline
 66
     1
 10
0.0
 20
0.0
 30
0.0
  0
VERTEX
  5
53A
330
539
100
AcDbEntity
  8
0
100
AcDbVertex
100
AcDb2dVertex
 10
238.9656694444444
 20
169.503725
 30
0.0
  0
VERTEX
  5
53B
330
539
100
AcDbEntity
  8
0
100
AcDbVertex
100
AcDb2dVertex
 10
238.9656694444444
 20
169.5030194444444
 30
0.0
  0
VERTEX
  5
53C
330
539
100
AcDbEntity
  8
0
100
AcDbVertex
100
AcDb2dVertex
 10
238.5511555555555
 20
169.4352861111111
 30
0.0
  0
VERTEX
  5
53D
330
539
100
AcDbEntity
  8
0
100
AcDbVertex
100
AcDb2dVertex
 10
238.1175916666666
 20
169.3820166666667
 30
0.0
  0
VERTEX
  5
53E
330
539
100
AcDbEntity
  8
0
100
AcDbVertex
100
AcDb2dVertex
 10
237.7140138888889
 20
169.3499138888889
 30
0.0
  0
VERTEX
  5
53F
330
539
100
AcDbEntity
  8
0
100
AcDbVertex
100
AcDb2dVertex
 10
237.3411277777778
 20
169.33545
 30
0.0
  0
VERTEX
  5
540
330
539
100
AcDbEntity
  8
0
100
AcDbVertex
100
AcDb2dVertex
 10
237.0021083333334
 20
169.3372138888889
 30
0.0
  0
VERTEX
  5
541
330
539
100
AcDbEntity
  8
0
100
AcDbVertex
100
AcDb2dVertex
 10
236.6895472222222
 20
169.3516777777778
 30
0.0
  0
VERTEX
  5
542
330
539
100
AcDbEntity
  8
0
100
AcDbVertex
100
AcDb2dVertex
 10
236.4150861111111
 20
169.3756666666667
 30
0.0
  0
VERTEX
  5
543
330
539
100
AcDbEntity
  8
0
100
AcDbVertex
100
AcDb2dVertex
 10
236.1716694444444
 20
169.4070638888889
 30
0.0
  0
VERTEX
  5
544
330
539
100
AcDbEntity
  8
0
100
AcDbVertex
100
AcDb2dVertex
 10
235.9585916666666
 20
169.4444583333333
 30
0.0
  0
VERTEX
  5
545
330
539
100
AcDbEntity
  8
0
100
AcDbVertex
100
AcDb2dVertex
 10
235.7846722222222
 20
169.4822055555555
 30
0.0
  0
VERTEX
  5
546
330
539
100
AcDbEntity
  8
0
100
AcDbVertex
100
AcDb2dVertex
 10
235.5289083333333
 20
169.5538194444445
 30
0.0
  0
VERTEX
  5
547
330
539
100
AcDbEntity
  8
0
100
AcDbVertex
100
AcDb2dVertex
 10
235.3959111111111
 20
169.6025027777778
 30
0.0
  0
VERTEX
  5
548
330
539
100
AcDbEntity
  8
0
100
AcDbVertex
100
AcDb2dVertex
 10
235.1189805555555
 20
169.7217416666666
 30
0.0
  0
VERTEX
  5
549
330
539
100
AcDbEntity
  8
0
100
AcDbVertex
100
AcDb2dVertex
 10
234.902375
 20
169.789475
 30
0.0
  0
VERTEX
  5
54A
330
539
100
AcDbEntity
  8
0
100
AcDbVertex
100
AcDb2dVertex
 10
234.7090527777778
 20
169.8268694444444
 30
0.0
  0
VERTEX
  5
54B
330
539
100
AcDbEntity
  8
0
100
AcDbVertex
100
AcDb2dVertex
 10
234.5411305555555
 20
169.8342777777778
 30
0.0
  0
VERTEX
  5
54C
330
539
100
AcDbEntity
  8
0
100
AcDbVertex
100
AcDb2dVertex
 10
234.4681055555555
 20
169.8289861111111
 30
0.0
  0
VERTEX
  5
54D
330
539
100
AcDbEntity
  8
0
100
AcDbVertex
100
AcDb2dVertex
 10
234.4010777777777
 20
169.8169916666666
 30
0.0
  0
VERTEX
  5
54E
330
539
100
AcDbEntity
  8
0
100
AcDbVertex
100
AcDb2dVertex
 10
234.3425166666667
 20
169.7986472222222
 30
0.0
  0
VERTEX
  5
54F
330
539
100
AcDbEntity
  8
0
100
AcDbVertex
100
AcDb2dVertex
 10
234.2910111111111
 20
169.7743055555555
 30
0.0
  0
VERTEX
  5
550
330
539
100
AcDbEntity
  8
0
100
AcDbVertex
100
AcDb2dVertex
 10
234.2476194444444
 20
169.7453777777778
 30
0.0
  0
VERTEX
  5
551
330
539
100
AcDbEntity
  8
0
100
AcDbVertex
100
AcDb2dVertex
 10
234.2126944444445
 20
169.7104527777778
 30
0.0
  0
VERTEX
  5
552
330
539
100
AcDbEntity
  8
0
100
AcDbVertex
100
AcDb2dVertex
 10
234.1798861111111
 20
169.6610638888889
 30
0.0
  0
VERTEX
  5
553
330
539
100
AcDbEntity
  8
0
100
AcDbVertex
100
AcDb2dVertex
 10
233.81335
 20
168.99255
 30
0.0
  0
VERTEX
  5
554
330
539
100
AcDbEntity
  8
0
100
AcDbVertex
100
AcDb2dVertex
 10
233.4171805555555
 20
168.3409694444444
 30
0.0
  0
VERTEX
  5
555
330
539
100
AcDbEntity
  8
0
100
AcDbVertex
100
AcDb2dVertex
 10
233.3903694444444
 20
168.2877
 30
0.0
  0
VERTEX
  5
556
330
539
100
AcDbEntity
  8
0
100
AcDbVertex
100
AcDb2dVertex
 10
233.378375
 20
168.2397222222222
 30
0.0
  0
VERTEX
  5
557
330
539
100
AcDbEntity
  8
0
100
AcDbVertex
100
AcDb2dVertex
 10
233.3744944444444
 20
168.1871583333333
 30
0.0
  0
VERTEX
  5
558
330
539
100
AcDbEntity
  8
0
100
AcDbVertex
100
AcDb2dVertex
 10
233.3797861111111
 20
168.1310666666666
 30
0.0
  0
VERTEX
  5
559
330
539
100
AcDbEntity
  8
0
100
AcDbVertex
100
AcDb2dVertex
 10
233.3935444444444
 20
168.0707416666666
 30
0.0
  0
VERTEX
  5
55A
330
539
100
AcDbEntity
  8
0
100
AcDbVertex
100
AcDb2dVertex
 10
233.4154166666667
 20
168.0068888888889
 30
0.0
  0
VERTEX
  5
55B
330
539
100
AcDbEntity
  8
0
100
AcDbVertex
100
AcDb2dVertex
 10
233.4475194444444
 20
167.9409194444444
 30
0.0
  0
VERTEX
  5
55C
330
539
100
AcDbEntity
  8
0
100
AcDbVertex
100
AcDb2dVertex
 10
233.5388888888889
 20
167.7994555555555
 30
0.0
  0
VERTEX
  5
55D
330
539
100
AcDbEntity
  8
0
100
AcDbVertex
100
AcDb2dVertex
 10
233.6673
 20
167.6502305555555
 30
0.0
  0
VERTEX
  5
55E
330
539
100
AcDbEntity
  8
0
100
AcDbVertex
100
AcDb2dVertex
 10
233.8345166666666
 20
167.4967722222222
 30
0.0
  0
VERTEX
  5
55F
330
539
100
AcDbEntity
  8
0
100
AcDbVertex
100
AcDb2dVertex
 10
234.0758166666667
 20
167.3165027777778
 30
0.0
  0
VERTEX
  5
560
330
539
100
AcDbEntity
  8
0
100
AcDbVertex
100
AcDb2dVertex
 10
234.1844722222222
 20
167.2258388888889
 30
0.0
  0
VERTEX
  5
561
330
539
100
AcDbEntity
  8
0
100
AcDbVertex
100
AcDb2dVertex
 10
234.3746194444444
 20
167.0395722222222
 30
0.0
  0
VERTEX
  5
562
330
539
100
AcDbEntity
  8
0
100
AcDbVertex
100
AcDb2dVertex
 10
234.4945638888888
 20
166.9079861111111
 30
0.0
  0
VERTEX
  5
563
330
539
100
AcDbEntity
  8
0
100
AcDbVertex
100
AcDb2dVertex
 10
234.6332055555556
 20
166.7421805555556
 30
0.0
  0
VERTEX
  5
564
330
539
100
AcDbEntity
  8
0
100
AcDbVertex
100
AcDb2dVertex
 10
234.7820777777777
 20
166.5474472222222
 30
0.0
  0
VERTEX
  5
565
330
539
100
AcDbEntity
  8
0
100
AcDbVertex
100
AcDb2dVertex
 10
234.940475
 20
166.3216694444444
 30
0.0
  0
VERTEX
  5
566
330
539
100
AcDbEntity
  8
0
100
AcDbVertex
100
AcDb2dVertex
 10
235.1091027777778
 20
166.0577916666667
 30
0.0
  0
VERTEX
  5
567
330
539
100
AcDbEntity
  8
0
100
AcDbVertex
100
AcDb2dVertex
 10
235.2794944444444
 20
165.7649861111111
 30
0.0
  0
VERTEX
  5
568
330
539
100
AcDbEntity
  8
0
100
AcDbVertex
100
AcDb2dVertex
 10
235.4537666666667
 20
165.4347861111111
 30
0.0
  0
VERTEX
  5
569
330
539
100
AcDbEntity
  8
0
100
AcDbVertex
100
AcDb2dVertex
 10
235.6276861111111
 20
165.0700138888889
 30
0.0
  0
VERTEX
  5
56A
330
539
100
AcDbEntity
  8
0
100
AcDbVertex
100
AcDb2dVertex
 10
235.7987833333333
 20
164.6674944444444
 30
0.0
  0
VERTEX
  5
56B
330
539
100
AcDbEntity
  8
0
100
AcDbVertex
100
AcDb2dVertex
 10
235.9473027777778
 20
164.2752055555555
 30
0.0
  0
VERTEX
  5
56C
330
539
100
AcDbEntity
  8
0
100
AcDbVertex
100
AcDb2dVertex
 10
235.9473027777778
 20
164.2745
 30
0.0
  0
SEQEND
  5
56D
330
539
100
AcDbEntity
  8
0
 62
     7
  0
SPLINE
  5
56E
330
1F
100
AcDbEntity
  8
0
 62
     7
100
AcDbSpline
210
0.0
220
0.0
230
1.0
 70
    12
 71
     3
 72
     8
 73
     4
 74
     0
 42
0.000000001
 43
0.0
 40
0.0
 40
0.0
 40
0.0
 40
0.0
 40
1.0
 40
1.0
 40
1.0
 40
1.0
 10
235.9473027777778
 20
164.2745
 30
0.0
 41
1.0
 10
235.645325
 20
163.8896194444444
 30
0.0
 41
1.0
 10
235.3313527777778
 20
163.5146166666667
 30
0.0
 41
1.0
 10
235.0043277777777
 20
163.15055
 30
0.0
 41
1.0
  0
POLYLINE
  5
56F
330
1F
100
AcDbEntity
  8
0
 62
     7
100
AcDb2dPolyline
 66
     1
 10
0.0
 20
0.0
 30
0.0
  0
VERTEX
  5
570
330
56F
100
AcDbEntity
  8
0
100
AcDbVertex
100
AcDb2dVertex
 10
235.0043277777777
 20
163.15055
 30
0.0
  0
VERTEX
  5
571
330
56F
100
AcDbEntity
  8
0
100
AcDbVertex
100
AcDb2dVertex
 10
235.0036222222222
 20
163.15055
 30
0.0
  0
VERTEX
  5
572
330
56F
100
AcDbEntity
  8
0
100
AcDbVertex
100
AcDb2dVertex
 10
234.5905194444444
 20
163.2281611111111
 30
0.0
  0
VERTEX
  5
573
330
56F
100
AcDbEntity
  8
0
100
AcDbVertex
100
AcDb2dVertex
 10
234.1654222222222
 20
163.3269388888889
 30
0.0
  0
VERTEX
  5
574
330
56F
100
AcDbEntity
  8
0
100
AcDbVertex
100
AcDb2dVertex
 10
233.77525
 20
163.4348888888889
 30
0.0
  0
VERTEX
  5
575
330
56F
100
AcDbEntity
  8
0
100
AcDbVertex
100
AcDb2dVertex
 10
233.4200027777778
 20
163.5488361111111
 30
0.0
  0
VERTEX
  5
576
330
56F
100
AcDbEntity
  8
0
100
AcDbVertex
100
AcDb2dVertex
 10
233.10215
 20
163.6659583333333
 30
0.0
  0
VERTEX
  5
577
330
56F
100
AcDbEntity
  8
0
100
AcDbVertex
100
AcDb2dVertex
 10
232.813225
 20
163.7862555555555
 30
0.0
  0
VERTEX
  5
578
330
56F
100
AcDbEntity
  8
0
100
AcDbVertex
100
AcDb2dVertex
 10
232.5631055555556
 20
163.9033777777778
 30
0.0
  0
VERTEX
  5
579
330
56F
100
AcDbEntity
  8
0
100
AcDbVertex
100
AcDb2dVertex
 10
232.3454416666667
 20
164.0159138888889
 30
0.0
  0
VERTEX
  5
57A
330
56F
100
AcDbEntity
  8
0
100
AcDbVertex
100
AcDb2dVertex
 10
232.1577638888889
 20
164.1238638888889
 30
0.0
  0
VERTEX
  5
57B
330
56F
100
AcDbEntity
  8
0
100
AcDbVertex
100
AcDb2dVertex
 10
232.0071277777778
 20
164.2187611111111
 30
0.0
  0
VERTEX
  5
57C
330
56F
100
AcDbEntity
  8
0
100
AcDbVertex
100
AcDb2dVertex
 10
231.7912277777777
 20
164.3732777777778
 30
0.0
  0
VERTEX
  5
57D
330
56F
100
AcDbEntity
  8
0
100
AcDbVertex
100
AcDb2dVertex
 10
231.6832777777778
 20
164.4653527777778
 30
0.0
  0
VERTEX
  5
57E
330
56F
100
AcDbEntity
  8
0
100
AcDbVertex
100
AcDb2dVertex
 10
231.4642027777778
 20
164.671375
 30
0.0
  0
VERTEX
  5
57F
330
56F
100
AcDbEntity
  8
0
100
AcDbVertex
100
AcDb2dVertex
 10
231.2832277777778
 20
164.8089583333333
 30
0.0
  0
VERTEX
  5
580
330
56F
100
AcDbEntity
  8
0
100
AcDbVertex
100
AcDb2dVertex
 10
231.1142472222222
 20
164.9102055555555
 30
0.0
  0
VERTEX
  5
581
330
56F
100
AcDbEntity
  8
0
100
AcDbVertex
100
AcDb2dVertex
 10
230.9600833333333
 20
164.9754694444444
 30
0.0
  0
VERTEX
  5
582
330
56F
100
AcDbEntity
  8
0
100
AcDbVertex
100
AcDb2dVertex
 10
230.8884694444444
 20
164.995225
 30
0.0
  0
VERTEX
  5
583
330
56F
100
AcDbEntity
  8
0
100
AcDbVertex
100
AcDb2dVertex
 10
230.8221472222222
 20
165.0061611111111
 30
0.0
  0
VERTEX
  5
584
330
56F
100
AcDbEntity
  8
0
100
AcDbVertex
100
AcDb2dVertex
 10
230.7607638888889
 20
165.0089833333333
 30
0.0
  0
VERTEX
  5
585
330
56F
100
AcDbEntity
  8
0
100
AcDbVertex
100
AcDb2dVertex
 10
230.7036138888889
 20
165.0043972222222
 30
0.0
  0
VERTEX
  5
586
330
56F
100
AcDbEntity
  8
0
100
AcDbVertex
100
AcDb2dVertex
 10
230.6535194444444
 20
164.9916972222222
 30
0.0
  0
VERTEX
  5
587
330
56F
100
AcDbEntity
  8
0
100
AcDbVertex
100
AcDb2dVertex
 10
230.6076583333333
 20
164.9708833333333
 30
0.0
  0
VERTEX
  5
588
330
56F
100
AcDbEntity
  8
0
100
AcDbVertex
100
AcDb2dVertex
 10
230.5607388888889
 20
164.9359583333333
 30
0.0
  0
VERTEX
  5
589
330
56F
100
AcDbEntity
  8
0
100
AcDbVertex
100
AcDb2dVertex
 10
229.9871222222222
 20
164.4325444444444
 30
0.0
  0
VERTEX
  5
58A
330
56F
100
AcDbEntity
  8
0
100
AcDbVertex
100
AcDb2dVertex
 10
229.3926916666667
 20
163.9559416666667
 30
0.0
  0
VERTEX
  5
58B
330
56F
100
AcDbEntity
  8
0
100
AcDbVertex
100
AcDb2dVertex
 10
229.3493
 20
163.9146666666667
 30
0.0
  0
VERTEX
  5
58C
330
56F
100
AcDbEntity
  8
0
100
AcDbVertex
100
AcDb2dVertex
 10
229.3210777777778
 20
163.87445
 30
0.0
  0
VERTEX
  5
58D
330
56F
100
AcDbEntity
  8
0
100
AcDbVertex
100
AcDb2dVertex
 10
229.2999111111111
 20
163.8264722222222
 30
0.0
  0
VERTEX
  5
58E
330
56F
100
AcDbEntity
  8
0
100
AcDbVertex
100
AcDb2dVertex
 10
229.2854472222222
 20
163.7717916666667
 30
0.0
  0
VERTEX
  5
58F
330
56F
100
AcDbEntity
  8
0
100
AcDbVertex
100
AcDb2dVertex
 10
229.2776861111111
 20
163.7100555555556
 30
0.0
  0
VERTEX
  5
590
330
56F
100
AcDbEntity
  8
0
100
AcDbVertex
100
AcDb2dVertex
 10
229.2769805555556
 20
163.6433805555555
 30
0.0
  0
VERTEX
  5
591
330
56F
100
AcDbEntity
  8
0
100
AcDbVertex
100
AcDb2dVertex
 10
229.2836833333333
 20
163.5692972222222
 30
0.0
  0
VERTEX
  5
592
330
56F
100
AcDbEntity
  8
0
100
AcDbVertex
100
AcDb2dVertex
 10
229.3210777777778
 20
163.4059611111111
 30
0.0
  0
VERTEX
  5
593
330
56F
100
AcDbEntity
  8
0
100
AcDbVertex
100
AcDb2dVertex
 10
229.3909277777778
 20
163.2218111111111
 30
0.0
  0
VERTEX
  5
594
330
56F
100
AcDbEntity
  8
0
100
AcDbVertex
100
AcDb2dVertex
 10
229.4960555555556
 20
163.020375
 30
0.0
  0
VERTEX
  5
595
330
56F
100
AcDbEntity
  8
0
100
AcDbVertex
100
AcDb2dVertex
 10
229.6611555555556
 20
162.7677861111111
 30
0.0
  0
VERTEX
  5
596
330
56F
100
AcDbEntity
  8
0
100
AcDbVertex
100
AcDb2dVertex
 10
229.7324166666667
 20
162.6453722222222
 30
0.0
  0
VERTEX
  5
597
330
56F
100
AcDbEntity
  8
0
100
AcDbVertex
100
AcDb2dVertex
 10
229.8474222222222
 20
162.4058361111111
 30
0.0
  0
VERTEX
  5
598
330
56F
100
AcDbEntity
  8
0
100
AcDbVertex
100
AcDb2dVertex
 10
229.9151555555555
 20
162.2417944444444
 30
0.0
  0
VERTEX
  5
599
330
56F
100
AcDbEntity
  8
0
100
AcDbVertex
100
AcDb2dVertex
 10
229.9881805555555
 20
162.0378888888889
 30
0.0
  0
VERTEX
  5
59A
330
56F
100
AcDbEntity
  8
0
100
AcDbVertex
100
AcDb2dVertex
 10
230.0619111111111
 20
161.80435
 30
0.0
  0
VERTEX
  5
59B
330
56F
100
AcDbEntity
  8
0
100
AcDbVertex
100
AcDb2dVertex
 10
230.1331722222222
 20
161.5372972222222
 30
0.0
  0
VERTEX
  5
59C
330
56F
100
AcDbEntity
  8
0
100
AcDbVertex
100
AcDb2dVertex
 10
230.2016111111111
 20
161.2324972222222
 30
0.0
  0
VERTEX
  5
59D
330
56F
100
AcDbEntity
  8
0
100
AcDbVertex
100
AcDb2dVertex
 10
230.2619361111111
 20
160.8987694444444
 30
0.0
  0
VERTEX
  5
59E
330
56F
100
AcDbEntity
  8
0
100
AcDbVertex
100
AcDb2dVertex
 10
230.3127361111111
 20
160.5290583333333
 30
0.0
  0
VERTEX
  5
59F
330
56F
100
AcDbEntity
  8
0
100
AcDbVertex
100
AcDb2dVertex
 10
230.3508361111111
 20
160.1258333333333
 30
0.0
  0
VERTEX
  5
5A0
330
56F
100
AcDbEntity
  8
0
100
AcDbVertex
100
AcDb2dVertex
 10
230.3744722222222
 20
159.6901527777778
 30
0.0
  0
VERTEX
  5
5A1
330
56F
100
AcDbEntity
  8
0
100
AcDbVertex
100
AcDb2dVertex
 10
230.3797638888889
 20
159.2703472222222
 30
0.0
  0
VERTEX
  5
5A2
330
56F
100
AcDbEntity
  8
0
100
AcDbVertex
100
AcDb2dVertex
 10
230.3790583333333
 20
159.2696416666666
 30
0.0
  0
SEQEND
  5
5A3
330
56F
100
AcDbEntity
  8
0
 62
     7
  0
SPLINE
  5
5A4
330
1F
100
AcDbEntity
  8
0
 62
     7
100
AcDbSpline
210
0.0
220
0.0
230
1.0
 70
    12
 71
     3
 72
     8
 73
     4
 74
     0
 42
0.000000001
 43
0.0
 40
0.0
 40
0.0
 40
0.0
 40
0.0
 40
1.0
 40
1.0
 40
1.0
 40
1.0
 10
230.3790583333333
 20
159.2696416666666
 30
0.0
 41
1.0
 10
229.9638388888889
 20
159.0110555555555
 30
0.0
 41
1.0
 10
229.5401527777778
 20
158.7662277777777
 30
0.0
 41
1.0
 10
229.108
 20
158.5365694444444
 30
0.0
 41
1.0
  0
POLYLINE
  5
5A5
330
1F
100
AcDbEntity
  8
0
 62
     7
100
AcDb2dPolyline
 66
     1
 10
0.0
 20
0.0
 30
0.0
  0
VERTEX
  5
5A6
330
5A5
100
AcDbEntity
  8
0
100
AcDbVertex
100
AcDb2dVertex
 10
229.108
 20
158.5365694444444
 30
0.0
  0
VERTEX
  5
5A7
330
5A5
100
AcDbEntity
  8
0
100
AcDbVertex
100
AcDb2dVertex
 10
229.1072944444444
 20
158.5358638888889
 30
0.0
  0
VERTEX
  5
5A8
330
5A5
100
AcDbEntity
  8
0
100
AcDbVertex
100
AcDb2dVertex
 10
228.7467555555555
 20
158.7503527777777
 30
0.0
  0
VERTEX
  5
5A9
330
5A5
100
AcDbEntity
  8
0
100
AcDbVertex
100
AcDb2dVertex
 10
228.3802194444444
 20
158.988125
 30
0.0
  0
VERTEX
  5
5AA
330
5A5
100
AcDbEntity
  8
0
100
AcDbVertex
100
AcDb2dVertex
 10
228.0510777777778
 20
159.223075
 30
0.0
  0
VERTEX
  5
5AB
330
5A5
100
AcDbEntity
  8
0
100
AcDbVertex
100
AcDb2dVertex
 10
227.7558027777778
 20
159.4520277777778
 30
0.0
  0
VERTEX
  5
5AC
330
5A5
100
AcDbEntity
  8
0
100
AcDbVertex
100
AcDb2dVertex
 10
227.4975694444445
 20
159.6711027777777
 30
0.0
  0
VERTEX
  5
5AD
330
5A5
100
AcDbEntity
  8
0
100
AcDbVertex
100
AcDb2dVertex
 10
227.2668527777778
 20
159.8824166666667
 30
0.0
  0
VERTEX
  5
5AE
330
5A5
100
AcDbEntity
  8
0
100
AcDbVertex
100
AcDb2dVertex
 10
227.0721194444444
 20
160.0782083333333
 30
0.0
  0
VERTEX
  5
5AF
330
5A5
100
AcDbEntity
  8
0
100
AcDbVertex
100
AcDb2dVertex
 10
226.9066666666667
 20
160.258125
 30
0.0
  0
VERTEX
  5
5B0
330
5A5
100
AcDbEntity
  8
0
100
AcDbVertex
100
AcDb2dVertex
 10
226.7666138888889
 20
160.4239305555556
 30
0.0
  0
VERTEX
  5
5B1
330
5A5
100
AcDbEntity
  8
0
100
AcDbVertex
100
AcDb2dVertex
 10
226.6579583333333
 20
160.5646888888889
 30
0.0
  0
VERTEX
  5
5B2
330
5A5
100
AcDbEntity
  8
0
100
AcDbVertex
100
AcDb2dVertex
 10
226.5080277777778
 20
160.7837638888889
 30
0.0
  0
VERTEX
  5
5B3
330
5A5
100
AcDbEntity
  8
0
100
AcDbVertex
100
AcDb2dVertex
 10
226.4381777777778
 20
160.9068833333333
 30
0.0
  0
VERTEX
  5
5B4
330
5A5
100
AcDbEntity
  8
0
100
AcDbVertex
100
AcDb2dVertex
 10
226.3020055555555
 20
161.1760527777778
 30
0.0
  0
VERTEX
  5
5B5
330
5A5
100
AcDbEntity
  8
0
100
AcDbVertex
100
AcDb2dVertex
 10
226.1795916666667
 20
161.3669055555555
 30
0.0
  0
VERTEX
  5
5B6
330
5A5
100
AcDbEntity
  8
0
100
AcDbVertex
100
AcDb2dVertex
 10
226.0547083333333
 20
161.5200111111111
 30
0.0
  0
VERTEX
  5
5B7
330
5A5
100
AcDbEntity
  8
0
100
AcDbVertex
100
AcDb2dVertex
 10
225.9322944444444
 20
161.6339583333333
 30
0.0
  0
VERTEX
  5
5B8
330
5A5
100
AcDbEntity
  8
0
100
AcDbVertex
100
AcDb2dVertex
 10
225.8723222222222
 20
161.6766444444444
 30
0.0
  0
VERTEX
  5
5B9
330
5A5
100
AcDbEntity
  8
0
100
AcDbVertex
100
AcDb2dVertex
 10
225.8130555555556
 20
161.7101583333333
 30
0.0
  0
VERTEX
  5
5BA
330
5A5
100
AcDbEntity
  8
0
100
AcDbVertex
100
AcDb2dVertex
 10
225.7566111111111
 20
161.7345
 30
0.0
  0
VERTEX
  5
5BB
330
5A5
100
AcDbEntity
  8
0
100
AcDbVertex
100
AcDb2dVertex
 10
225.7019305555555
 20
161.7489638888889
 30
0.0
  0
VERTEX
  5
5BC
330
5A5
100
AcDbEntity
  8
0
100
AcDbVertex
100
AcDb2dVertex
 10
225.6493666666667
 20
161.7542555555555
 30
0.0
  0
VERTEX
  5
5BD
330
5A5
100
AcDbEntity
  8
0
100
AcDbVertex
100
AcDb2dVertex
 10
225.5999777777778
 20
161.750375
 30
0.0
  0
VERTEX
  5
5BE
330
5A5
100
AcDbEntity
  8
0
100
AcDbVertex
100
AcDb2dVertex
 10
225.5428277777778
 20
161.7337944444444
 30
0.0
  0
VERTEX
  5
5BF
330
5A5
100
AcDbEntity
  8
0
100
AcDbVertex
100
AcDb2dVertex
 10
224.8326861111111
 20
161.4568638888889
 30
0.0
  0
VERTEX
  5
5C0
330
5A5
100
AcDbEntity
  8
0
100
AcDbVertex
100
AcDb2dVertex
 10
224.1109027777778
 20
161.2120361111111
 30
0.0
  0
VERTEX
  5
5C1
330
5A5
100
AcDbEntity
  8
0
100
AcDbVertex
100
AcDb2dVertex
 10
224.0562222222222
 20
161.1884
 30
0.0
  0
VERTEX
  5
5C2
330
5A5
100
AcDbEntity
  8
0
100
AcDbVertex
100
AcDb2dVertex
 10
224.0160055555555
 20
161.1594722222222
 30
0.0
  0
VERTEX
  5
5C3
330
5A5
100
AcDbEntity
  8
0
100
AcDbVertex
100
AcDb2dVertex
 10
223.9793166666666
 20
161.1220777777778
 30
0.0
  0
VERTEX
  5
5C4
330
5A5
100
AcDbEntity
  8
0
100
AcDbVertex
100
AcDb2dVertex
 10
223.9465083333333
 20
161.0758638888889
 30
0.0
  0
VERTEX
  5
5C5
330
5A5
100
AcDbEntity
  8
0
100
AcDbVertex
100
AcDb2dVertex
 10
223.9186388888889
 20
161.020125
 30
0.0
  0
VERTEX
  5
5C6
330
5A5
100
AcDbEntity
  8
0
100
AcDbVertex
100
AcDb2dVertex
 10
223.8950027777778
 20
160.9573305555555
 30
0.0
  0
VERTEX
  5
5C7
330
5A5
100
AcDbEntity
  8
0
100
AcDbVertex
100
AcDb2dVertex
 10
223.8766583333333
 20
160.8857166666667
 30
0.0
  0
VERTEX
  5
5C8
330
5A5
100
AcDbEntity
  8
0
100
AcDbVertex
100
AcDb2dVertex
 10
223.8554916666666
 20
160.7199111111111
 30
0.0
  0
VERTEX
  5
5C9
330
5A5
100
AcDbEntity
  8
0
100
AcDbVertex
100
AcDb2dVertex
 10
223.8583138888889
 20
160.5230611111111
 30
0.0
  0
VERTEX
  5
5CA
330
5A5
100
AcDbEntity
  8
0
100
AcDbVertex
100
AcDb2dVertex
 10
223.8879472222222
 20
160.2969305555555
 30
0.0
  0
VERTEX
  5
5CB
330
5A5
100
AcDbEntity
  8
0
100
AcDbVertex
100
AcDb2dVertex
 10
223.9563861111111
 20
160.004125
 30
0.0
  0
VERTEX
  5
5CC
330
5A5
100
AcDbEntity
  8
0
100
AcDbVertex
100
AcDb2dVertex
 10
223.9817861111111
 20
159.8651305555555
 30
0.0
  0
VERTEX
  5
5CD
330
5A5
100
AcDbEntity
  8
0
100
AcDbVertex
100
AcDb2dVertex
 10
224.0082444444444
 20
159.6005472222222
 30
0.0
  0
VERTEX
  5
5CE
330
5A5
100
AcDbEntity
  8
0
100
AcDbVertex
100
AcDb2dVertex
 10
224.0149472222222
 20
159.4223944444444
 30
0.0
  0
VERTEX
  5
5CF
330
5A5
100
AcDbEntity
  8
0
100
AcDbVertex
100
AcDb2dVertex
 10
224.0142416666666
 20
159.2057888888889
 30
0.0
  0
VERTEX
  5
5D0
330
5A5
100
AcDbEntity
  8
0
100
AcDbVertex
100
AcDb2dVertex
 10
224.0036583333333
 20
158.9616666666667
 30
0.0
  0
VERTEX
  5
5D1
330
5A5
100
AcDbEntity
  8
0
100
AcDbVertex
100
AcDb2dVertex
 10
223.9793166666666
 20
158.6865
 30
0.0
  0
VERTEX
  5
5D2
330
5A5
100
AcDbEntity
  8
0
100
AcDbVertex
100
AcDb2dVertex
 10
223.9391
 20
158.3760555555556
 30
0.0
  0
VERTEX
  5
5D3
330
5A5
100
AcDbEntity
  8
0
100
AcDbVertex
100
AcDb2dVertex
 10
223.88195
 20
158.0423277777778
 30
0.0
  0
VERTEX
  5
5D4
330
5A5
100
AcDbEntity
  8
0
100
AcDbVertex
100
AcDb2dVertex
 10
223.8029277777778
 20
157.6772027777778
 30
0.0
  0
VERTEX
  5
5D5
330
5A5
100
AcDbEntity
  8
0
100
AcDbVertex
100
AcDb2dVertex
 10
223.7016805555556
 20
157.2856194444444
 30
0.0
  0
VERTEX
  5
5D6
330
5A5
100
AcDbEntity
  8
0
100
AcDbVertex
100
AcDb2dVertex
 10
223.573975
 20
156.8679305555555
 30
0.0
  0
VERTEX
  5
5D7
330
5A5
100
AcDbEntity
  8
0
100
AcDbVertex
100
AcDb2dVertex
 10
223.4356861111111
 20
156.4717611111111
 30
0.0
  0
VERTEX
  5
5D8
330
5A5
100
AcDbEntity
  8
0
100
AcDbVertex
100
AcDb2dVertex
 10
223.4349805555555
 20
156.4710555555556
 30
0.0
  0
SEQEND
  5
5D9
330
5A5
100
AcDbEntity
  8
0
 62
     7
  0
SPLINE
  5
5DA
330
1F
100
AcDbEntity
  8
0
 62
     7
100
AcDbSpline
210
0.0
220
0.0
230
1.0
 70
    12
 71
     3
 72
     8
 73
     4
 74
     0
 42
0.000000001
 43
0.0
 40
0.0
 40
0.0
 40
0.0
 40
0.0
 40
1.0
 40
1.0
 40
1.0
 40
1.0
 10
223.4349805555555
 20
156.4710555555556
 30
0.0
 41
1.0
 10
222.9566138888889
 20
156.3698083333333
 30
0.0
 41
1.0
 10
222.4743666666666
 20
156.2847888888889
 30
0.0
 41
1.0
 10
221.9900027777778
 20
156.21635
 30
0.0
 41
1.0
  0
POLYLINE
  5
5DB
330
1F
100
AcDbEntity
  8
0
 62
     7
100
AcDb2dPolyline
 66
     1
 10
0.0
 20
0.0
 30
0.0
  0
VERTEX
  5
5DC
330
5DB
100
AcDbEntity
  8
0
100
AcDbVertex
100
AcDb2dVertex
 10
221.9900027777778
 20
156.21635
 30
0.0
  0
VERTEX
  5
5DD
330
5DB
100
AcDbEntity
  8
0
100
AcDbVertex
100
AcDb2dVertex
 10
221.9892972222222
 20
156.21635
 30
0.0
  0
VERTEX
  5
5DE
330
5DB
100
AcDbEntity
  8
0
100
AcDbVertex
100
AcDb2dVertex
 10
221.7236555555556
 20
156.5416111111111
 30
0.0
  0
VERTEX
  5
5DF
330
5DB
100
AcDbEntity
  8
0
100
AcDbVertex
100
AcDb2dVertex
 10
221.4604833333333
 20
156.8901555555555
 30
0.0
  0
VERTEX
  5
5E0
330
5DB
100
AcDbEntity
  8
0
100
AcDbVertex
100
AcDb2dVertex
 10
221.230825
 20
157.2238833333333
 30
0.0
  0
VERTEX
  5
5E1
330
5DB
100
AcDbEntity
  8
0
100
AcDbVertex
100
AcDb2dVertex
 10
221.0325638888889
 20
157.5396194444444
 30
0.0
  0
VERTEX
  5
5E2
330
5DB
100
AcDbEntity
  8
0
100
AcDbVertex
100
AcDb2dVertex
 10
220.8642888888889
 20
157.8338361111111
 30
0.0
  0
VERTEX
  5
5E3
330
5DB
100
AcDbEntity
  8
0
100
AcDbVertex
100
AcDb2dVertex
 10
220.7207083333333
 20
158.1114722222222
 30
0.0
  0
VERTEX
  5
5E4
330
5DB
100
AcDbEntity
  8
0
100
AcDbVertex
100
AcDb2dVertex
 10
220.6042916666667
 20
158.3615916666667
 30
0.0
  0
VERTEX
  5
5E5
330
5DB
100
AcDbEntity
  8
0
100
AcDbVertex
100
AcDb2dVertex
 10
220.5101
 20
158.588075
 30
0.0
  0
VERTEX
  5
5E6
330
5DB
100
AcDbEntity
  8
0
100
AcDbVertex
100
AcDb2dVertex
 10
220.4353111111111
 20
158.791275
 30
0.0
  0
VERTEX
  5
5E7
330
5DB
100
AcDbEntity
  8
0
100
AcDbVertex
100
AcDb2dVertex
 10
220.3806305555555
 20
158.9609611111111
 30
0.0
  0
VERTEX
  5
5E8
330
5DB
100
AcDbEntity
  8
0
100
AcDbVertex
100
AcDb2dVertex
 10
220.3153666666666
 20
159.2177833333333
 30
0.0
  0
VERTEX
  5
5E9
330
5DB
100
AcDbEntity
  8
0
100
AcDbVertex
100
AcDb2dVertex
 10
220.291025
 20
159.3578361111111
 30
0.0
  0
VERTEX
  5
5EA
330
5DB
100
AcDbEntity
  8
0
100
AcDbVertex
100
AcDb2dVertex
 10
220.2561
 20
159.6566388888889
 30
0.0
  0
VERTEX
  5
5EB
330
5DB
100
AcDbEntity
  8
0
100
AcDbVertex
100
AcDb2dVertex
 10
220.2056527777778
 20
159.8788888888889
 30
0.0
  0
VERTEX
  5
5EC
330
5DB
100
AcDbEntity
  8
0
100
AcDbVertex
100
AcDb2dVertex
 10
220.1410944444444
 20
160.06445
 30
0.0
  0
VERTEX
  5
5ED
330
5DB
100
AcDbEntity
  8
0
100
AcDbVertex
100
AcDb2dVertex
 10
220.0652472222222
 20
160.2140277777778
 30
0.0
  0
VERTEX
  5
5EE
330
5DB
100
AcDbEntity
  8
0
100
AcDbVertex
100
AcDb2dVertex
 10
220.0232666666666
 20
160.2750583333333
 30
0.0
  0
VERTEX
  5
5EF
330
5DB
100
AcDbEntity
  8
0
100
AcDbVertex
100
AcDb2dVertex
 10
219.9791694444444
 20
160.3258583333333
 30
0.0
  0
VERTEX
  5
5F0
330
5DB
100
AcDbEntity
  8
0
100
AcDbVertex
100
AcDb2dVertex
 10
219.9343666666666
 20
160.3678388888889
 30
0.0
  0
VERTEX
  5
5F1
330
5DB
100
AcDbEntity
  8
0
100
AcDbVertex
100
AcDb2dVertex
 10
219.8878
 20
160.4006472222222
 30
0.0
  0
VERTEX
  5
5F2
330
5DB
100
AcDbEntity
  8
0
100
AcDbVertex
100
AcDb2dVertex
 10
219.8408805555555
 20
160.423225
 30
0.0
  0
VERTEX
  5
5F3
330
5DB
100
AcDbEntity
  8
0
100
AcDbVertex
100
AcDb2dVertex
 10
219.7929027777778
 20
160.4369833333333
 30
0.0
  0
VERTEX
  5
5F4
330
5DB
100
AcDbEntity
  8
0
100
AcDbVertex
100
AcDb2dVertex
 10
219.7336361111111
 20
160.4401583333333
 30
0.0
  0
VERTEX
  5
5F5
330
5DB
100
AcDbEntity
  8
0
100
AcDbVertex
100
AcDb2dVertex
 10
218.9705777777778
 20
160.423225
 30
0.0
  0
VERTEX
  5
5F6
330
5DB
100
AcDbEntity
  8
0
100
AcDbVertex
100
AcDb2dVertex
 10
218.2085777777778
 20
160.4401583333333
 30
0.0
  0
VERTEX
  5
5F7
330
5DB
100
AcDbEntity
  8
0
100
AcDbVertex
100
AcDb2dVertex
 10
218.1493111111111
 20
160.4369833333333
 30
0.0
  0
VERTEX
  5
5F8
330
5DB
100
AcDbEntity
  8
0
100
AcDbVertex
100
AcDb2dVertex
 10
218.1013333333333
 20
160.423225
 30
0.0
  0
VERTEX
  5
5F9
330
5DB
100
AcDbEntity
  8
0
100
AcDbVertex
100
AcDb2dVertex
 10
218.0544138888889
 20
160.4006472222222
 30
0.0
  0
VERTEX
  5
5FA
330
5DB
100
AcDbEntity
  8
0
100
AcDbVertex
100
AcDb2dVertex
 10
218.0078472222222
 20
160.3678388888889
 30
0.0
  0
VERTEX
  5
5FB
330
5DB
100
AcDbEntity
  8
0
100
AcDbVertex
100
AcDb2dVertex
 10
217.9630444444444
 20
160.3258583333333
 30
0.0
  0
VERTEX
  5
5FC
330
5DB
100
AcDbEntity
  8
0
100
AcDbVertex
100
AcDb2dVertex
 10
217.9189472222222
 20
160.2750583333333
 30
0.0
  0
VERTEX
  5
5FD
330
5DB
100
AcDbEntity
  8
0
100
AcDbVertex
100
AcDb2dVertex
 10
217.8773194444445
 20
160.2140277777778
 30
0.0
  0
VERTEX
  5
5FE
330
5DB
100
AcDbEntity
  8
0
100
AcDbVertex
100
AcDb2dVertex
 10
217.8011194444445
 20
160.06445
 30
0.0
  0
VERTEX
  5
5FF
330
5DB
100
AcDbEntity
  8
0
100
AcDbVertex
100
AcDb2dVertex
 10
217.7365611111111
 20
159.8788888888889
 30
0.0
  0
VERTEX
  5
600
330
5DB
100
AcDbEntity
  8
0
100
AcDbVertex
100
AcDb2dVertex
 10
217.6861138888889
 20
159.6566388888889
 30
0.0
  0
VERTEX
  5
601
330
5DB
100
AcDbEntity
  8
0
100
AcDbVertex
100
AcDb2dVertex
 10
217.6511888888889
 20
159.3578361111111
 30
0.0
  0
VERTEX
  5
602
330
5DB
100
AcDbEntity
  8
0
100
AcDbVertex
100
AcDb2dVertex
 10
217.6268472222222
 20
159.2177833333333
 30
0.0
  0
VERTEX
  5
603
330
5DB
100
AcDbEntity
  8
0
100
AcDbVertex
100
AcDb2dVertex
 10
217.5615833333333
 20
158.9609611111111
 30
0.0
  0
VERTEX
  5
604
330
5DB
100
AcDbEntity
  8
0
100
AcDbVertex
100
AcDb2dVertex
 10
217.5069027777778
 20
158.791275
 30
0.0
  0
VERTEX
  5
605
330
5DB
100
AcDbEntity
  8
0
100
AcDbVertex
100
AcDb2dVertex
 10
217.4321138888889
 20
158.588075
 30
0.0
  0
VERTEX
  5
606
330
5DB
100
AcDbEntity
  8
0
100
AcDbVertex
100
AcDb2dVertex
 10
217.3379222222222
 20
158.3615916666667
 30
0.0
  0
VERTEX
  5
607
330
5DB
100
AcDbEntity
  8
0
100
AcDbVertex
100
AcDb2dVertex
 10
217.2215055555555
 20
158.1114722222222
 30
0.0
  0
VERTEX
  5
608
330
5DB
100
AcDbEntity
  8
0
100
AcDbVertex
100
AcDb2dVertex
 10
217.077925
 20
157.8338361111111
 30
0.0
  0
VERTEX
  5
609
330
5DB
100
AcDbEntity
  8
0
100
AcDbVertex
100
AcDb2dVertex
 10
216.90965
 20
157.5396194444444
 30
0.0
  0
VERTEX
  5
60A
330
5DB
100
AcDbEntity
  8
0
100
AcDbVertex
100
AcDb2dVertex
 10
216.7113888888889
 20
157.2238833333333
 30
0.0
  0
VERTEX
  5
60B
330
5DB
100
AcDbEntity
  8
0
100
AcDbVertex
100
AcDb2dVertex
 10
216.4817305555555
 20
156.8901555555555
 30
0.0
  0
VERTEX
  5
60C
330
5DB
100
AcDbEntity
  8
0
100
AcDbVertex
100
AcDb2dVertex
 10
216.2185583333333
 20
156.5416111111111
 30
0.0
  0
VERTEX
  5
60D
330
5DB
100
AcDbEntity
  8
0
100
AcDbVertex
100
AcDb2dVertex
 10
215.9532694444444
 20
156.21635
 30
0.0
  0
VERTEX
  5
60E
330
5DB
100
AcDbEntity
  8
0
100
AcDbVertex
100
AcDb2dVertex
 10
215.9522111111111
 20
156.21635
 30
0.0
  0
SEQEND
  5
60F
330
5DB
100
AcDbEntity
  8
0
 62
     7
  0
SPLINE
  5
610
330
1F
100
AcDbEntity
  8
0
 62
     7
100
AcDbSpline
210
0.0
220
0.0
230
1.0
 70
    12
 71
     3
 72
     8
 73
     4
 74
     0
 42
0.000000001
 43
0.0
 40
0.0
 40
0.0
 40
0.0
 40
0.0
 40
1.0
 40
1.0
 40
1.0
 40
1.0
 10
215.9522111111111
 20
156.21635
 30
0.0
 41
1.0
 10
215.4678472222222
 20
156.2847888888889
 30
0.0
 41
1.0
 10
214.9856
 20
156.3698083333333
 30
0.0
 41
1.0
 10
214.5072333333333
 20
156.4710555555556
 30
0.0
 41
1.0
  0
POLYLINE
  5
611
330
1F
100
AcDbEntity
  8
0
 62
     7
100
AcDb2dPolyline
 66
     1
 10
0.0
 20
0.0
 30
0.0
  0
VERTEX
  5
612
330
611
100
AcDbEntity
  8
0
100
AcDbVertex
100
AcDb2dVertex
 10
214.5072333333333
 20
156.4710555555556
 30
0.0
  0
VERTEX
  5
613
330
611
100
AcDbEntity
  8
0
100
AcDbVertex
100
AcDb2dVertex
 10
214.5065277777778
 20
156.4717611111111
 30
0.0
  0
VERTEX
  5
614
330
611
100
AcDbEntity
  8
0
100
AcDbVertex
100
AcDb2dVertex
 10
214.3682388888889
 20
156.8679305555555
 30
0.0
  0
VERTEX
  5
615
330
611
100
AcDbEntity
  8
0
100
AcDbVertex
100
AcDb2dVertex
 10
214.2405333333333
 20
157.2856194444444
 30
0.0
  0
VERTEX
  5
616
330
611
100
AcDbEntity
  8
0
100
AcDbVertex
100
AcDb2dVertex
 10
214.1392861111111
 20
157.6772027777778
 30
0.0
  0
VERTEX
  5
617
330
611
100
AcDbEntity
  8
0
100
AcDbVertex
100
AcDb2dVertex
 10
214.0602638888889
 20
158.0423277777778
 30
0.0
  0
VERTEX
  5
618
330
611
100
AcDbEntity
  8
0
100
AcDbVertex
100
AcDb2dVertex
 10
214.0031138888889
 20
158.3760555555556
 30
0.0
  0
VERTEX
  5
619
330
611
100
AcDbEntity
  8
0
100
AcDbVertex
100
AcDb2dVertex
 10
213.9628972222222
 20
158.6865
 30
0.0
  0
VERTEX
  5
61A
330
611
100
AcDbEntity
  8
0
100
AcDbVertex
100
AcDb2dVertex
 10
213.9385555555556
 20
158.9616666666667
 30
0.0
  0
VERTEX
  5
61B
330
611
100
AcDbEntity
  8
0
100
AcDbVertex
100
AcDb2dVertex
 10
213.9279722222222
 20
159.2057888888889
 30
0.0
  0
VERTEX
  5
61C
330
611
100
AcDbEntity
  8
0
100
AcDbVertex
100
AcDb2dVertex
 10
213.9272666666667
 20
159.4223944444444
 30
0.0
  0
VERTEX
  5
61D
330
611
100
AcDbEntity
  8
0
100
AcDbVertex
100
AcDb2dVertex
 10
213.9339694444444
 20
159.6005472222222
 30
0.0
  0
VERTEX
  5
61E
330
611
100
AcDbEntity
  8
0
100
AcDbVertex
100
AcDb2dVertex
 10
213.9604277777778
 20
159.8651305555555
 30
0.0
  0
VERTEX
  5
61F
330
611
100
AcDbEntity
  8
0
100
AcDbVertex
100
AcDb2dVertex
 10
213.9858277777778
 20
160.004125
 30
0.0
  0
VERTEX
  5
620
330
611
100
AcDbEntity
  8
0
100
AcDbVertex
100
AcDb2dVertex
 10
214.0542666666666
 20
160.2969305555555
 30
0.0
  0
VERTEX
  5
621
330
611
100
AcDbEntity
  8
0
100
AcDbVertex
100
AcDb2dVertex
 10
214.0839
 20
160.5230611111111
 30
0.0
  0
VERTEX
  5
622
330
611
100
AcDbEntity
  8
0
100
AcDbVertex
100
AcDb2dVertex
 10
214.0867222222222
 20
160.7199111111111
 30
0.0
  0
VERTEX
  5
623
330
611
100
AcDbEntity
  8
0
100
AcDbVertex
100
AcDb2dVertex
 10
214.0655555555556
 20
160.8857166666667
 30
0.0
  0
VERTEX
  5
624
330
611
100
AcDbEntity
  8
0
100
AcDbVertex
100
AcDb2dVertex
 10
214.0472111111111
 20
160.9573305555555
 30
0.0
  0
VERTEX
  5
625
330
611
100
AcDbEntity
  8
0
100
AcDbVertex
100
AcDb2dVertex
 10
214.023575
 20
161.020125
 30
0.0
  0
VERTEX
  5
626
330
611
100
AcDbEntity
  8
0
100
AcDbVertex
100
AcDb2dVertex
 10
213.9957055555555
 20
161.0758638888889
 30
0.0
  0
VERTEX
  5
627
330
611
100
AcDbEntity
  8
0
100
AcDbVertex
100
AcDb2dVertex
 10
213.9628972222222
 20
161.1220777777778
 30
0.0
  0
VERTEX
  5
628
330
611
100
AcDbEntity
  8
0
100
AcDbVertex
100
AcDb2dVertex
 10
213.9262083333333
 20
161.1594722222222
 30
0.0
  0
VERTEX
  5
629
330
611
100
AcDbEntity
  8
0
100
AcDbVertex
100
AcDb2dVertex
 10
213.8859916666667
 20
161.1884
 30
0.0
  0
VERTEX
  5
62A
330
611
100
AcDbEntity
  8
0
100
AcDbVertex
100
AcDb2dVertex
 10
213.8313111111111
 20
161.2120361111111
 30
0.0
  0
VERTEX
  5
62B
330
611
100
AcDbEntity
  8
0
100
AcDbVertex
100
AcDb2dVertex
 10
213.1095277777778
 20
161.4568638888889
 30
0.0
  0
VERTEX
  5
62C
330
611
100
AcDbEntity
  8
0
100
AcDbVertex
100
AcDb2dVertex
 10
212.3993861111111
 20
161.7337944444444
 30
0.0
  0
VERTEX
  5
62D
330
611
100
AcDbEntity
  8
0
100
AcDbVertex
100
AcDb2dVertex
 10
212.3422361111111
 20
161.750375
 30
0.0
  0
VERTEX
  5
62E
330
611
100
AcDbEntity
  8
0
100
AcDbVertex
100
AcDb2dVertex
 10
212.2928472222222
 20
161.7542555555555
 30
0.0
  0
VERTEX
  5
62F
330
611
100
AcDbEntity
  8
0
100
AcDbVertex
100
AcDb2dVertex
 10
212.2402833333333
 20
161.7489638888889
 30
0.0
  0
VERTEX
  5
630
330
611
100
AcDbEntity
  8
0
100
AcDbVertex
100
AcDb2dVertex
 10
212.1856027777777
 20
161.7345
 30
0.0
  0
VERTEX
  5
631
330
611
100
AcDbEntity
  8
0
100
AcDbVertex
100
AcDb2dVertex
 10
212.1291583333333
 20
161.7101583333333
 30
0.0
  0
VERTEX
  5
632
330
611
100
AcDbEntity
  8
0
100
AcDbVertex
100
AcDb2dVertex
 10
212.0698916666666
 20
161.6766444444444
 30
0.0
  0
VERTEX
  5
633
330
611
100
AcDbEntity
  8
0
100
AcDbVertex
100
AcDb2dVertex
 10
212.0099194444444
 20
161.6339583333333
 30
0.0
  0
VERTEX
  5
634
330
611
100
AcDbEntity
  8
0
100
AcDbVertex
100
AcDb2dVertex
 10
211.8875055555555
 20
161.5200111111111
 30
0.0
  0
VERTEX
  5
635
330
611
100
AcDbEntity
  8
0
100
AcDbVertex
100
AcDb2dVertex
 10
211.7626222222222
 20
161.3669055555555
 30
0.0
  0
VERTEX
  5
636
330
611
100
AcDbEntity
  8
0
100
AcDbVertex
100
AcDb2dVertex
 10
211.6402083333333
 20
161.1760527777778
 30
0.0
  0
VERTEX
  5
637
330
611
100
AcDbEntity
  8
0
100
AcDbVertex
100
AcDb2dVertex
 10
211.5040361111111
 20
160.9068833333333
 30
0.0
  0
VERTEX
  5
638
330
611
100
AcDbEntity
  8
0
100
AcDbVertex
100
AcDb2dVertex
 10
211.4341861111111
 20
160.7837638888889
 30
0.0
  0
VERTEX
  5
639
330
611
100
AcDbEntity
  8
0
100
AcDbVertex
100
AcDb2dVertex
 10
211.2842555555555
 20
160.5646888888889
 30
0.0
  0
VERTEX
  5
63A
330
611
100
AcDbEntity
  8
0
100
AcDbVertex
100
AcDb2dVertex
 10
211.1756
 20
160.4239305555556
 30
0.0
  0
VERTEX
  5
63B
330
611
100
AcDbEntity
  8
0
100
AcDbVertex
100
AcDb2dVertex
 10
211.0359
 20
160.258125
 30
0.0
  0
VERTEX
  5
63C
330
611
100
AcDbEntity
  8
0
100
AcDbVertex
100
AcDb2dVertex
 10
210.8700944444444
 20
160.0782083333333
 30
0.0
  0
VERTEX
  5
63D
330
611
100
AcDbEntity
  8
0
100
AcDbVertex
100
AcDb2dVertex
 10
210.6753611111111
 20
159.8824166666667
 30
0.0
  0
VERTEX
  5
63E
330
611
100
AcDbEntity
  8
0
100
AcDbVertex
100
AcDb2dVertex
 10
210.4449972222222
 20
159.6711027777777
 30
0.0
  0
VERTEX
  5
63F
330
611
100
AcDbEntity
  8
0
100
AcDbVertex
100
AcDb2dVertex
 10
210.1864111111111
 20
159.4520277777778
 30
0.0
  0
VERTEX
  5
640
330
611
100
AcDbEntity
  8
0
100
AcDbVertex
100
AcDb2dVertex
 10
209.8911361111111
 20
159.223075
 30
0.0
  0
VERTEX
  5
641
330
611
100
AcDbEntity
  8
0
100
AcDbVertex
100
AcDb2dVertex
 10
209.5619944444445
 20
158.988125
 30
0.0
  0
VERTEX
  5
642
330
611
100
AcDbEntity
  8
0
100
AcDbVertex
100
AcDb2dVertex
 10
209.1954583333333
 20
158.7503527777777
 30
0.0
  0
VERTEX
  5
643
330
611
100
AcDbEntity
  8
0
100
AcDbVertex
100
AcDb2dVertex
 10
208.8349194444444
 20
158.5358638888889
 30
0.0
  0
VERTEX
  5
644
330
611
100
AcDbEntity
  8
0
100
AcDbVertex
100
AcDb2dVertex
 10
208.8342138888889
 20
158.5365694444444
 30
0.0
  0
SEQEND
  5
645
330
611
100
AcDbEntity
  8
0
 62
     7
  0
SPLINE
  5
646
330
1F
100
AcDbEntity
  8
0
 62
     7
100
AcDbSpline
210
0.0
220
0.0
230
1.0
 70
    12
 71
     3
 72
     8
 73
     4
 74
     0
 42
0.000000001
 43
0.0
 40
0.0
 40
0.0
 40
0.0
 40
0.0
 40
1.0
 40
1.0
 40
1.0
 40
1.0
 10
208.8342138888889
 20
158.5365694444444
 30
0.0
 41
1.0
 10
208.4020611111111
 20
158.7662277777777
 30
0.0
 41
1.0
 10
207.9787277777777
 20
159.0110555555555
 30
0.0
 41
1.0
 10
207.5631555555555
 20
159.2696416666666
 30
0.0
 41
1.0
  0
POLYLINE
  5
647
330
1F
100
AcDbEntity
  8
0
 62
     7
100
AcDb2dPolyline
 66
     1
 10
0.0
 20
0.0
 30
0.0
  0
VERTEX
  5
648
330
647
100
AcDbEntity
  8
0
100
AcDbVertex
100
AcDb2dVertex
 10
207.5631555555555
 20
159.2696416666666
 30
0.0
  0
VERTEX
  5
649
330
647
100
AcDbEntity
  8
0
100
AcDbVertex
100
AcDb2dVertex
 10
207.56245
 20
159.2703472222222
 30
0.0
  0
VERTEX
  5
64A
330
647
100
AcDbEntity
  8
0
100
AcDbVertex
100
AcDb2dVertex
 10
207.5677416666666
 20
159.6901527777778
 30
0.0
  0
VERTEX
  5
64B
330
647
100
AcDbEntity
  8
0
100
AcDbVertex
100
AcDb2dVertex
 10
207.5913777777778
 20
160.1258333333333
 30
0.0
  0
VERTEX
  5
64C
330
647
100
AcDbEntity
  8
0
100
AcDbVertex
100
AcDb2dVertex
 10
207.6294777777778
 20
160.5290583333333
 30
0.0
  0
VERTEX
  5
64D
330
647
100
AcDbEntity
  8
0
100
AcDbVertex
100
AcDb2dVertex
 10
207.6802777777778
 20
160.8987694444444
 30
0.0
  0
VERTEX
  5
64E
330
647
100
AcDbEntity
  8
0
100
AcDbVertex
100
AcDb2dVertex
 10
207.7406027777778
 20
161.2324972222222
 30
0.0
  0
VERTEX
  5
64F
330
647
100
AcDbEntity
  8
0
100
AcDbVertex
100
AcDb2dVertex
 10
207.8090416666667
 20
161.5372972222222
 30
0.0
  0
VERTEX
  5
650
330
647
100
AcDbEntity
  8
0
100
AcDbVertex
100
AcDb2dVertex
 10
207.8803027777778
 20
161.80435
 30
0.0
  0
VERTEX
  5
651
330
647
100
AcDbEntity
  8
0
100
AcDbVertex
100
AcDb2dVertex
 10
207.9543861111111
 20
162.0378888888889
 30
0.0
  0
VERTEX
  5
652
330
647
100
AcDbEntity
  8
0
100
AcDbVertex
100
AcDb2dVertex
 10
208.0270583333333
 20
162.2417944444444
 30
0.0
  0
VERTEX
  5
653
330
647
100
AcDbEntity
  8
0
100
AcDbVertex
100
AcDb2dVertex
 10
208.0947916666667
 20
162.4058361111111
 30
0.0
  0
VERTEX
  5
654
330
647
100
AcDbEntity
  8
0
100
AcDbVertex
100
AcDb2dVertex
 10
208.2097972222222
 20
162.6453722222222
 30
0.0
  0
VERTEX
  5
655
330
647
100
AcDbEntity
  8
0
100
AcDbVertex
100
AcDb2dVertex
 10
208.2810583333333
 20
162.7677861111111
 30
0.0
  0
VERTEX
  5
656
330
647
100
AcDbEntity
  8
0
100
AcDbVertex
100
AcDb2dVertex
 10
208.4461583333333
 20
163.020375
 30
0.0
  0
VERTEX
  5
657
330
647
100
AcDbEntity
  8
0
100
AcDbVertex
100
AcDb2dVertex
 10
208.5512861111111
 20
163.2218111111111
 30
0.0
  0
VERTEX
  5
658
330
647
100
AcDbEntity
  8
0
100
AcDbVertex
100
AcDb2dVertex
 10
208.6211361111111
 20
163.4059611111111
 30
0.0
  0
VERTEX
  5
659
330
647
100
AcDbEntity
  8
0
100
AcDbVertex
100
AcDb2dVertex
 10
208.6585305555556
 20
163.5692972222222
 30
0.0
  0
VERTEX
  5
65A
330
647
100
AcDbEntity
  8
0
100
AcDbVertex
100
AcDb2dVertex
 10
208.6652333333333
 20
163.6433805555555
 30
0.0
  0
VERTEX
  5
65B
330
647
100
AcDbEntity
  8
0
100
AcDbVertex
100
AcDb2dVertex
 10
208.6645277777778
 20
163.7100555555556
 30
0.0
  0
VERTEX
  5
65C
330
647
100
AcDbEntity
  8
0
100
AcDbVertex
100
AcDb2dVertex
 10
208.6567666666667
 20
163.7717916666667
 30
0.0
  0
VERTEX
  5
65D
330
647
100
AcDbEntity
  8
0
100
AcDbVertex
100
AcDb2dVertex
 10
208.6423027777778
 20
163.8264722222222
 30
0.0
  0
VERTEX
  5
65E
330
647
100
AcDbEntity
  8
0
100
AcDbVertex
100
AcDb2dVertex
 10
208.6211361111111
 20
163.87445
 30
0.0
  0
VERTEX
  5
65F
330
647
100
AcDbEntity
  8
0
100
AcDbVertex
100
AcDb2dVertex
 10
208.5929138888889
 20
163.9146666666667
 30
0.0
  0
VERTEX
  5
660
330
647
100
AcDbEntity
  8
0
100
AcDbVertex
100
AcDb2dVertex
 10
208.5495222222222
 20
163.9559416666667
 30
0.0
  0
VERTEX
  5
661
330
647
100
AcDbEntity
  8
0
100
AcDbVertex
100
AcDb2dVertex
 10
207.9550916666667
 20
164.4325444444444
 30
0.0
  0
VERTEX
  5
662
330
647
100
AcDbEntity
  8
0
100
AcDbVertex
100
AcDb2dVertex
 10
207.381475
 20
164.9359583333333
 30
0.0
  0
VERTEX
  5
663
330
647
100
AcDbEntity
  8
0
100
AcDbVertex
100
AcDb2dVertex
 10
207.3345555555556
 20
164.9708833333333
 30
0.0
  0
VERTEX
  5
664
330
647
100
AcDbEntity
  8
0
100
AcDbVertex
100
AcDb2dVertex
 10
207.2886944444444
 20
164.9916972222222
 30
0.0
  0
VERTEX
  5
665
330
647
100
AcDbEntity
  8
0
100
AcDbVertex
100
AcDb2dVertex
 10
207.2386
 20
165.0043972222222
 30
0.0
  0
VERTEX
  5
666
330
647
100
AcDbEntity
  8
0
100
AcDbVertex
100
AcDb2dVertex
 10
207.18145
 20
165.0089833333333
 30
0.0
  0
VERTEX
  5
667
330
647
100
AcDbEntity
  8
0
100
AcDbVertex
100
AcDb2dVertex
 10
207.1200666666666
 20
165.0061611111111
 30
0.0
  0
VERTEX
  5
668
330
647
100
AcDbEntity
  8
0
100
AcDbVertex
100
AcDb2dVertex
 10
207.0537444444444
 20
164.995225
 30
0.0
  0
VERTEX
  5
669
330
647
100
AcDbEntity
  8
0
100
AcDbVertex
100
AcDb2dVertex
 10
206.9821305555555
 20
164.9754694444444
 30
0.0
  0
VERTEX
  5
66A
330
647
100
AcDbEntity
  8
0
100
AcDbVertex
100
AcDb2dVertex
 10
206.8279666666667
 20
164.9102055555555
 30
0.0
  0
VERTEX
  5
66B
330
647
100
AcDbEntity
  8
0
100
AcDbVertex
100
AcDb2dVertex
 10
206.6589861111111
 20
164.8089583333333
 30
0.0
  0
VERTEX
  5
66C
330
647
100
AcDbEntity
  8
0
100
AcDbVertex
100
AcDb2dVertex
 10
206.4780111111111
 20
164.671375
 30
0.0
  0
VERTEX
  5
66D
330
647
100
AcDbEntity
  8
0
100
AcDbVertex
100
AcDb2dVertex
 10
206.2589361111111
 20
164.4653527777778
 30
0.0
  0
VERTEX
  5
66E
330
647
100
AcDbEntity
  8
0
100
AcDbVertex
100
AcDb2dVertex
 10
206.1509861111111
 20
164.3732777777778
 30
0.0
  0
VERTEX
  5
66F
330
647
100
AcDbEntity
  8
0
100
AcDbVertex
100
AcDb2dVertex
 10
205.9350861111111
 20
164.2187611111111
 30
0.0
  0
VERTEX
  5
670
330
647
100
AcDbEntity
  8
0
100
AcDbVertex
100
AcDb2dVertex
 10
205.78445
 20
164.1238638888889
 30
0.0
  0
VERTEX
  5
671
330
647
100
AcDbEntity
  8
0
100
AcDbVertex
100
AcDb2dVertex
 10
205.5967722222222
 20
164.0159138888889
 30
0.0
  0
VERTEX
  5
672
330
647
100
AcDbEntity
  8
0
100
AcDbVertex
100
AcDb2dVertex
 10
205.3791083333333
 20
163.9033777777778
 30
0.0
  0
VERTEX
  5
673
330
647
100
AcDbEntity
  8
0
100
AcDbVertex
100
AcDb2dVertex
 10
205.1289888888889
 20
163.7862555555555
 30
0.0
  0
VERTEX
  5
674
330
647
100
AcDbEntity
  8
0
100
AcDbVertex
100
AcDb2dVertex
 10
204.8400638888889
 20
163.6659583333333
 30
0.0
  0
VERTEX
  5
675
330
647
100
AcDbEntity
  8
0
100
AcDbVertex
100
AcDb2dVertex
 10
204.5222111111111
 20
163.5488361111111
 30
0.0
  0
VERTEX
  5
676
330
647
100
AcDbEntity
  8
0
100
AcDbVertex
100
AcDb2dVertex
 10
204.1669638888889
 20
163.4348888888889
 30
0.0
  0
VERTEX
  5
677
330
647
100
AcDbEntity
  8
0
100
AcDbVertex
100
AcDb2dVertex
 10
203.7767916666667
 20
163.3269388888889
 30
0.0
  0
VERTEX
  5
678
330
647
100
AcDbEntity
  8
0
100
AcDbVertex
100
AcDb2dVertex
 10
203.3516944444444
 20
163.2281611111111
 30
0.0
  0
VERTEX
  5
679
330
647
100
AcDbEntity
  8
0
100
AcDbVertex
100
AcDb2dVertex
 10
202.9385916666667
 20
163.15055
 30
0.0
  0
VERTEX
  5
67A
330
647
100
AcDbEntity
  8
0
100
AcDbVertex
100
AcDb2dVertex
 10
202.9378861111111
 20
163.15055
 30
0.0
  0
SEQEND
  5
67B
330
647
100
AcDbEntity
  8
0
 62
     7
  0
SPLINE
  5
67C
330
1F
100
AcDbEntity
  8
0
 62
     7
100
AcDbSpline
210
0.0
220
0.0
230
1.0
 70
    12
 71
     3
 72
     8
 73
     4
 74
     0
 42
0.000000001
 43
0.0
 40
0.0
 40
0.0
 40
0.0
 40
0.0
 40
1.0
 40
1.0
 40
1.0
 40
1.0
 10
202.9378861111111
 20
163.15055
 30
0.0
 41
1.0
 10
202.6108611111111
 20
163.5146166666667
 30
0.0
 41
1.0
 10
202.2968888888889
 20
163.8896194444444
 30
0.0
 41
1.0
 10
201.9949111111111
 20
164.2745
 30
0.0
 41
1.0
  0
POLYLINE
  5
67D
330
1F
100
AcDbEntity
  8
0
 62
     7
100
AcDb2dPolyline
 66
     1
 10
0.0
 20
0.0
 30
0.0
  0
VERTEX
  5
67E
330
67D
100
AcDbEntity
  8
0
100
AcDbVertex
100
AcDb2dVertex
 10
201.9949111111111
 20
164.2745
 30
0.0
  0
VERTEX
  5
67F
330
67D
100
AcDbEntity
  8
0
100
AcDbVertex
100
AcDb2dVertex
 10
201.9949111111111
 20
164.2752055555555
 30
0.0
  0
VERTEX
  5
680
330
67D
100
AcDbEntity
  8
0
100
AcDbVertex
100
AcDb2dVertex
 10
202.1434305555556
 20
164.6674944444444
 30
0.0
  0
VERTEX
  5
681
330
67D
100
AcDbEntity
  8
0
100
AcDbVertex
100
AcDb2dVertex
 10
202.3145277777778
 20
165.0700138888889
 30
0.0
  0
VERTEX
  5
682
330
67D
100
AcDbEntity
  8
0
100
AcDbVertex
100
AcDb2dVertex
 10
202.4884472222222
 20
165.4347861111111
 30
0.0
  0
VERTEX
  5
683
330
67D
100
AcDbEntity
  8
0
100
AcDbVertex
100
AcDb2dVertex
 10
202.6627194444444
 20
165.7649861111111
 30
0.0
  0
VERTEX
  5
684
330
67D
100
AcDbEntity
  8
0
100
AcDbVertex
100
AcDb2dVertex
 10
202.8331111111111
 20
166.0577916666667
 30
0.0
  0
VERTEX
  5
685
330
67D
100
AcDbEntity
  8
0
100
AcDbVertex
100
AcDb2dVertex
 10
203.0017388888889
 20
166.3216694444444
 30
0.0
  0
VERTEX
  5
686
330
67D
100
AcDbEntity
  8
0
100
AcDbVertex
100
AcDb2dVertex
 10
203.1601361111111
 20
166.5474472222222
 30
0.0
  0
VERTEX
  5
687
330
67D
100
AcDbEntity
  8
0
100
AcDbVertex
100
AcDb2dVertex
 10
203.3090083333333
 20
166.7421805555556
 30
0.0
  0
VERTEX
  5
688
330
67D
100
AcDbEntity
  8
0
100
AcDbVertex
100
AcDb2dVertex
 10
203.44765
 20
166.9079861111111
 30
0.0
  0
VERTEX
  5
689
330
67D
100
AcDbEntity
  8
0
100
AcDbVertex
100
AcDb2dVertex
 10
203.5675944444444
 20
167.0395722222222
 30
0.0
  0
VERTEX
  5
68A
330
67D
100
AcDbEntity
  8
0
100
AcDbVertex
100
AcDb2dVertex
 10
203.7577416666666
 20
167.2258388888889
 30
0.0
  0
VERTEX
  5
68B
330
67D
100
AcDbEntity
  8
0
100
AcDbVertex
100
AcDb2dVertex
 10
203.8663972222222
 20
167.3165027777778
 30
0.0
  0
VERTEX
  5
68C
330
67D
100
AcDbEntity
  8
0
100
AcDbVertex
100
AcDb2dVertex
 10
204.1076972222222
 20
167.4967722222222
 30
0.0
  0
VERTEX
  5
68D
330
67D
100
AcDbEntity
  8
0
100
AcDbVertex
100
AcDb2dVertex
 10
204.2749138888889
 20
167.6502305555555
 30
0.0
  0
VERTEX
  5
68E
330
67D
100
AcDbEntity
  8
0
100
AcDbVertex
100
AcDb2dVertex
 10
204.403325
 20
167.7994555555555
 30
0.0
  0
VERTEX
  5
68F
330
67D
100
AcDbEntity
  8
0
100
AcDbVertex
100
AcDb2dVertex
 10
204.4946944444444
 20
167.9409194444444
 30
0.0
  0
VERTEX
  5
690
330
67D
100
AcDbEntity
  8
0
100
AcDbVertex
100
AcDb2dVertex
 10
204.5267972222222
 20
168.0068888888889
 30
0.0
  0
VERTEX
  5
691
330
67D
100
AcDbEntity
  8
0
100
AcDbVertex
100
AcDb2dVertex
 10
204.5486694444444
 20
168.0707416666666
 30
0.0
  0
VERTEX
  5
692
330
67D
100
AcDbEntity
  8
0
100
AcDbVertex
100
AcDb2dVertex
 10
204.5624277777778
 20
168.1310666666666
 30
0.0
  0
VERTEX
  5
693
330
67D
100
AcDbEntity
  8
0
100
AcDbVertex
100
AcDb2dVertex
 10
204.5677194444444
 20
168.1871583333333
 30
0.0
  0
VERTEX
  5
694
330
67D
100
AcDbEntity
  8
0
100
AcDbVertex
100
AcDb2dVertex
 10
204.5638388888889
 20
168.2397222222222
 30
0.0
  0
VERTEX
  5
695
330
67D
100
AcDbEntity
  8
0
100
AcDbVertex
100
AcDb2dVertex
 10
204.5518444444444
 20
168.2877
 30
0.0
  0
VERTEX
  5
696
330
67D
100
AcDbEntity
  8
0
100
AcDbVertex
100
AcDb2dVertex
 10
204.5250333333333
 20
168.3409694444444
 30
0.0
  0
VERTEX
  5
697
330
67D
100
AcDbEntity
  8
0
100
AcDbVertex
100
AcDb2dVertex
 10
204.1288638888889
 20
168.99255
 30
0.0
  0
VERTEX
  5
698
330
67D
100
AcDbEntity
  8
0
100
AcDbVertex
100
AcDb2dVertex
 10
203.7623277777778
 20
169.6610638888889
 30
0.0
  0
VERTEX
  5
699
330
67D
100
AcDbEntity
  8
0
100
AcDbVertex
100
AcDb2dVertex
 10
203.7295194444444
 20
169.7104527777778
 30
0.0
  0
VERTEX
  5
69A
330
67D
100
AcDbEntity
  8
0
100
AcDbVertex
100
AcDb2dVertex
 10
203.6945944444444
 20
169.7453777777778
 30
0.0
  0
VERTEX
  5
69B
330
67D
100
AcDbEntity
  8
0
100
AcDbVertex
100
AcDb2dVertex
 10
203.6512027777778
 20
169.7743055555555
 30
0.0
  0
VERTEX
  5
69C
330
67D
100
AcDbEntity
  8
0
100
AcDbVertex
100
AcDb2dVertex
 10
203.5996972222222
 20
169.7986472222222
 30
0.0
  0
VERTEX
  5
69D
330
67D
100
AcDbEntity
  8
0
100
AcDbVertex
100
AcDb2dVertex
 10
203.5411361111111
 20
169.8169916666666
 30
0.0
  0
VERTEX
  5
69E
330
67D
100
AcDbEntity
  8
0
100
AcDbVertex
100
AcDb2dVertex
 10
203.4741083333333
 20
169.8289861111111
 30
0.0
  0
VERTEX
  5
69F
330
67D
100
AcDbEntity
  8
0
100
AcDbVertex
100
AcDb2dVertex
 10
203.4010833333333
 20
169.8342777777778
 30
0.0
  0
VERTEX
  5
6A0
330
67D
100
AcDbEntity
  8
0
100
AcDbVertex
100
AcDb2dVertex
 10
203.2331611111111
 20
169.8268694444444
 30
0.0
  0
VERTEX
  5
6A1
330
67D
100
AcDbEntity
  8
0
100
AcDbVertex
100
AcDb2dVertex
 10
203.0398388888889
 20
169.789475
 30
0.0
  0
VERTEX
  5
6A2
330
67D
100
AcDbEntity
  8
0
100
AcDbVertex
100
AcDb2dVertex
 10
202.8232333333333
 20
169.7217416666666
 30
0.0
  0
VERTEX
  5
6A3
330
67D
100
AcDbEntity
  8
0
100
AcDbVertex
100
AcDb2dVertex
 10
202.5463027777778
 20
169.6025027777778
 30
0.0
  0
VERTEX
  5
6A4
330
67D
100
AcDbEntity
  8
0
100
AcDbVertex
100
AcDb2dVertex
 10
202.4133055555556
 20
169.5538194444445
 30
0.0
  0
VERTEX
  5
6A5
330
67D
100
AcDbEntity
  8
0
100
AcDbVertex
100
AcDb2dVertex
 10
202.1578944444444
 20
169.4822055555555
 30
0.0
  0
VERTEX
  5
6A6
330
67D
100
AcDbEntity
  8
0
100
AcDbVertex
100
AcDb2dVertex
 10
201.9836222222222
 20
169.4444583333333
 30
0.0
  0
VERTEX
  5
6A7
330
67D
100
AcDbEntity
  8
0
100
AcDbVertex
100
AcDb2dVertex
 10
201.7705444444444
 20
169.4070638888889
 30
0.0
  0
VERTEX
  5
6A8
330
67D
100
AcDbEntity
  8
0
100
AcDbVertex
100
AcDb2dVertex
 10
201.5271277777778
 20
169.3756666666667
 30
0.0
  0
VERTEX
  5
6A9
330
67D
100
AcDbEntity
  8
0
100
AcDbVertex
100
AcDb2dVertex
 10
201.2526666666667
 20
169.3516777777778
 30
0.0
  0
VERTEX
  5
6AA
330
67D
100
AcDbEntity
  8
0
100
AcDbVertex
100
AcDb2dVertex
 10
200.9401055555556
 20
169.3372138888889
 30
0.0
  0
VERTEX
  5
6AB
330
67D
100
AcDbEntity
  8
0
100
AcDbVertex
100
AcDb2dVertex
 10
200.6010861111111
 20
169.33545
 30
0.0
  0
VERTEX
  5
6AC
330
67D
100
AcDbEntity
  8
0
100
AcDbVertex
100
AcDb2dVertex
 10
200.2282
 20
169.3499138888889
 30
0.0
  0
VERTEX
  5
6AD
330
67D
100
AcDbEntity
  8
0
100
AcDbVertex
100
AcDb2dVertex
 10
199.8246222222222
 20
169.3820166666667
 30
0.0
  0
VERTEX
  5
6AE
330
67D
100
AcDbEntity
  8
0
100
AcDbVertex
100
AcDb2dVertex
 10
199.3910583333333
 20
169.4352861111111
 30
0.0
  0
VERTEX
  5
6AF
330
67D
100
AcDbEntity
  8
0
100
AcDbVertex
100
AcDb2dVertex
 10
198.9765444444444
 20
169.5030194444444
 30
0.0
  0
VERTEX
  5
6B0
330
67D
100
AcDbEntity
  8
0
100
AcDbVertex
100
AcDb2dVertex
 10
198.9765444444444
 20
169.503725
 30
0.0
  0
SEQEND
  5
6B1
330
67D
100
AcDbEntity
  8
0
 62
     7
  0
SPLINE
  5
6B2
330
1F
100
AcDbEntity
  8
0
 62
     7
100
AcDbSpline
210
0.0
220
0.0
230
1.0
 70
    12
 71
     3
 72
     8
 73
     4
 74
     0
 42
0.000000001
 43
0.0
 40
0.0
 40
0.0
 40
0.0
 40
0.0
 40
1.0
 40
1.0
 40
1.0
 40
1.0
 10
198.9765444444444
 20
169.503725
 30
0.0
 41
1.0
 10
198.7934527777778
 20
169.9566916666666
 30
0.0
 41
1.0
 10
198.6258833333333
 20
170.4170666666666
 30
0.0
 41
1.0
 10
198.4745416666667
 20
170.881675
 30
0.0
 41
1.0
  0
POLYLINE
  5
6B3
330
1F
100
AcDbEntity
  8
0
 62
     7
100
AcDb2dPolyline
 66
     1
 10
0.0
 20
0.0
 30
0.0
  0
VERTEX
  5
6B4
330
6B3
100
AcDbEntity
  8
0
100
AcDbVertex
100
AcDb2dVertex
 10
198.4745416666667
 20
170.881675
 30
0.0
  0
VERTEX
  5
6B5
330
6B3
100
AcDbEntity
  8
0
100
AcDbVertex
100
AcDb2dVertex
 10
198.4745416666667
 20
170.8823805555555
 30
0.0
  0
VERTEX
  5
6B6
330
6B3
100
AcDbEntity
  8
0
100
AcDbVertex
100
AcDb2dVertex
 10
198.7482972222222
 20
171.2009388888889
 30
0.0
  0
VERTEX
  5
6B7
330
6B3
100
AcDbEntity
  8
0
100
AcDbVertex
100
AcDb2dVertex
 10
199.0463944444444
 20
171.51985
 30
0.0
  0
VERTEX
  5
6B8
330
6B3
100
AcDbEntity
  8
0
100
AcDbVertex
100
AcDb2dVertex
 10
199.3346138888889
 20
171.8041888888889
 30
0.0
  0
VERTEX
  5
6B9
330
6B3
100
AcDbEntity
  8
0
100
AcDbVertex
100
AcDb2dVertex
 10
199.6115444444444
 20
172.0543083333333
 30
0.0
  0
VERTEX
  5
6BA
330
6B3
100
AcDbEntity
  8
0
100
AcDbVertex
100
AcDb2dVertex
 10
199.8715416666667
 20
172.2709138888889
 30
0.0
  0
VERTEX
  5
6BB
330
6B3
100
AcDbEntity
  8
0
100
AcDbVertex
100
AcDb2dVertex
 10
200.12025
 20
172.4610611111111
 30
0.0
  0
VERTEX
  5
6BC
330
6B3
100
AcDbEntity
  8
0
100
AcDbVertex
100
AcDb2dVertex
 10
200.3470861111111
 20
172.6194583333333
 30
0.0
  0
VERTEX
  5
6BD
330
6B3
100
AcDbEntity
  8
0
100
AcDbVertex
100
AcDb2dVertex
 10
200.5531083333333
 20
172.7510444444444
 30
0.0
  0
VERTEX
  5
6BE
330
6B3
100
AcDbEntity
  8
0
100
AcDbVertex
100
AcDb2dVertex
 10
200.7400805555556
 20
172.8597
 30
0.0
  0
VERTEX
  5
6BF
330
6B3
100
AcDbEntity
  8
0
100
AcDbVertex
100
AcDb2dVertex
 10
200.8974194444444
 20
172.9426027777778
 30
0.0
  0
VERTEX
  5
6C0
330
6B3
100
AcDbEntity
  8
0
100
AcDbVertex
100
AcDb2dVertex
 10
201.1401305555555
 20
173.0526694444444
 30
0.0
  0
VERTEX
  5
6C1
330
6B3
100
AcDbEntity
  8
0
100
AcDbVertex
100
AcDb2dVertex
 10
201.2731277777778
 20
173.0999416666666
 30
0.0
  0
VERTEX
  5
6C2
330
6B3
100
AcDbEntity
  8
0
100
AcDbVertex
100
AcDb2dVertex
 10
201.5613472222222
 20
173.1874305555556
 30
0.0
  0
VERTEX
  5
6C3
330
6B3
100
AcDbEntity
  8
0
100
AcDbVertex
100
AcDb2dVertex
 10
201.77125
 20
173.2749194444444
 30
0.0
  0
VERTEX
  5
6C4
330
6B3
100
AcDbEntity
  8
0
100
AcDbVertex
100
AcDb2dVertex
 10
201.9434055555556
 20
173.370875
 30
0.0
  0
VERTEX
  5
6C5
330
6B3
100
AcDbEntity
  8
0
100
AcDbVertex
100
AcDb2dVertex
 10
202.0771083333333
 20
173.4717694444444
 30
0.0
  0
VERTEX
  5
6C6
330
6B3
100
AcDbEntity
  8
0
100
AcDbVertex
100
AcDb2dVertex
 10
202.1296722222222
 20
173.5236277777778
 30
0.0
  0
VERTEX
  5
6C7
330
6B3
100
AcDbEntity
  8
0
100
AcDbVertex
100
AcDb2dVertex
 10
202.1730638888889
 20
173.5761916666667
 30
0.0
  0
VERTEX
  5
6C8
330
6B3
100
AcDbEntity
  8
0
100
AcDbVertex
100
AcDb2dVertex
 10
202.2065777777778
 20
173.6276972222222
 30
0.0
  0
VERTEX
  5
6C9
330
6B3
100
AcDbEntity
  8
0
100
AcDbVertex
100
AcDb2dVertex
 10
202.2298611111111
 20
173.67885
 30
0.0
  0
VERTEX
  5
6CA
330
6B3
100
AcDbEntity
  8
0
100
AcDbVertex
100
AcDb2dVertex
 10
202.244325
 20
173.72965
 30
0.0
  0
VERTEX
  5
6CB
330
6B3
100
AcDbEntity
  8
0
100
AcDbVertex
100
AcDb2dVertex
 10
202.2489111111111
 20
173.7783333333333
 30
0.0
  0
VERTEX
  5
6CC
330
6B3
100
AcDbEntity
  8
0
100
AcDbVertex
100
AcDb2dVertex
 10
202.2422083333333
 20
173.8376
 30
0.0
  0
VERTEX
  5
6CD
330
6B3
100
AcDbEntity
  8
0
100
AcDbVertex
100
AcDb2dVertex
 10
202.0929833333333
 20
174.5851361111111
 30
0.0
  0
VERTEX
  5
6CE
330
6B3
100
AcDbEntity
  8
0
100
AcDbVertex
100
AcDb2dVertex
 10
201.977625
 20
175.3390222222222
 30
0.0
  0
VERTEX
  5
6CF
330
6B3
100
AcDbEntity
  8
0
100
AcDbVertex
100
AcDb2dVertex
 10
201.9638666666666
 20
175.396525
 30
0.0
  0
VERTEX
  5
6D0
330
6B3
100
AcDbEntity
  8
0
100
AcDbVertex
100
AcDb2dVertex
 10
201.9423472222222
 20
175.4416805555556
 30
0.0
  0
VERTEX
  5
6D1
330
6B3
100
AcDbEntity
  8
0
100
AcDbVertex
100
AcDb2dVertex
 10
201.9113027777778
 20
175.4840138888889
 30
0.0
  0
VERTEX
  5
6D2
330
6B3
100
AcDbEntity
  8
0
100
AcDbVertex
100
AcDb2dVertex
 10
201.8717916666667
 20
175.523525
 30
0.0
  0
VERTEX
  5
6D3
330
6B3
100
AcDbEntity
  8
0
100
AcDbVertex
100
AcDb2dVertex
 10
201.8224027777778
 20
175.5609194444444
 30
0.0
  0
VERTEX
  5
6D4
330
6B3
100
AcDbEntity
  8
0
100
AcDbVertex
100
AcDb2dVertex
 10
201.7645472222222
 20
175.5951388888889
 30
0.0
  0
VERTEX
  5
6D5
330
6B3
100
AcDbEntity
  8
0
100
AcDbVertex
100
AcDb2dVertex
 10
201.6975194444444
 20
175.6261833333333
 30
0.0
  0
VERTEX
  5
6D6
330
6B3
100
AcDbEntity
  8
0
100
AcDbVertex
100
AcDb2dVertex
 10
201.5370055555555
 20
175.675925
 30
0.0
  0
VERTEX
  5
6D7
330
6B3
100
AcDbEntity
  8
0
100
AcDbVertex
100
AcDb2dVertex
 10
201.342625
 20
175.7069694444444
 30
0.0
  0
VERTEX
  5
6D8
330
6B3
100
AcDbEntity
  8
0
100
AcDbVertex
100
AcDb2dVertex
 10
201.1157888888889
 20
175.7175527777778
 30
0.0
  0
VERTEX
  5
6D9
330
6B3
100
AcDbEntity
  8
0
100
AcDbVertex
100
AcDb2dVertex
 10
200.8148694444444
 20
175.7002666666667
 30
0.0
  0
VERTEX
  5
6DA
330
6B3
100
AcDbEntity
  8
0
100
AcDbVertex
100
AcDb2dVertex
 10
200.6734055555555
 20
175.6992083333333
 30
0.0
  0
VERTEX
  5
6DB
330
6B3
100
AcDbEntity
  8
0
100
AcDbVertex
100
AcDb2dVertex
 10
200.4077638888889
 20
175.7200222222222
 30
0.0
  0
VERTEX
  5
6DC
330
6B3
100
AcDbEntity
  8
0
100
AcDbVertex
100
AcDb2dVertex
 10
200.2320805555555
 20
175.7443638888889
 30
0.0
  0
VERTEX
  5
6DD
330
6B3
100
AcDbEntity
  8
0
100
AcDbVertex
100
AcDb2dVertex
 10
200.0182972222222
 20
175.7821111111111
 30
0.0
  0
VERTEX
  5
6DE
330
6B3
100
AcDbEntity
  8
0
100
AcDbVertex
100
AcDb2dVertex
 10
199.7798194444445
 20
175.8353805555555
 30
0.0
  0
VERTEX
  5
6DF
330
6B3
100
AcDbEntity
  8
0
100
AcDbVertex
100
AcDb2dVertex
 10
199.5134722222222
 20
175.9069944444445
 30
0.0
  0
VERTEX
  5
6E0
330
6B3
100
AcDbEntity
  8
0
100
AcDbVertex
100
AcDb2dVertex
 10
199.2146694444444
 20
175.999775
 30
0.0
  0
VERTEX
  5
6E1
330
6B3
100
AcDbEntity
  8
0
100
AcDbVertex
100
AcDb2dVertex
 10
198.8950527777777
 20
176.1144277777778
 30
0.0
  0
VERTEX
  5
6E2
330
6B3
100
AcDbEntity
  8
0
100
AcDbVertex
100
AcDb2dVertex
 10
198.5500361111111
 20
176.2551861111111
 30
0.0
  0
VERTEX
  5
6E3
330
6B3
100
AcDbEntity
  8
0
100
AcDbVertex
100
AcDb2dVertex
 10
198.1817361111111
 20
176.4241666666667
 30
0.0
  0
VERTEX
  5
6E4
330
6B3
100
AcDbEntity
  8
0
100
AcDbVertex
100
AcDb2dVertex
 10
197.7926222222222
 20
176.6217222222222
 30
0.0
  0
VERTEX
  5
6E5
330
6B3
100
AcDbEntity
  8
0
100
AcDbVertex
100
AcDb2dVertex
 10
197.4267916666667
 20
176.8270388888889
 30
0.0
  0
VERTEX
  5
6E6
330
6B3
100
AcDbEntity
  8
0
100
AcDbVertex
100
AcDb2dVertex
 10
197.4267916666667
 20
176.8280972222222
 30
0.0
  0
SEQEND
  5
6E7
330
6B3
100
AcDbEntity
  8
0
 62
     7
  0
SPLINE
  5
6E8
330
1F
100
AcDbEntity
  8
0
 62
     7
100
AcDbSpline
210
0.0
220
0.0
230
1.0
 70
    12
 71
     3
 72
     8
 73
     4
 74
     0
 42
0.000000001
 43
0.0
 40
0.0
 40
0.0
 40
0.0
 40
0.0
 40
1.0
 40
1.0
 40
1.0
 40
1.0
 10
197.4267916666667
 20
176.8280972222222
 30
0.0
 41
1.0
 10
197.4098583333333
 20
177.3170472222222
 30
0.0
 41
1.0
 10
197.4098583333333
 20
177.8059972222222
 30
0.0
 41
1.0
 10
197.4267916666667
 20
178.2949472222222
 30
0.0
 41
1.0
  0
POLYLINE
  5
6E9
330
1F
100
AcDbEntity
  8
0
 62
     7
100
AcDb2dPolyline
 66
     1
 10
0.0
 20
0.0
 30
0.0
  0
VERTEX
  5
6EA
330
6E9
100
AcDbEntity
  8
0
100
AcDbVertex
100
AcDb2dVertex
 10
197.4267916666667
 20
178.2949472222222
 30
0.0
  0
VERTEX
  5
6EB
330
6E9
100
AcDbEntity
  8
0
100
AcDbVertex
100
AcDb2dVertex
 10
197.4267916666667
 20
178.2956527777778
 30
0.0
  0
VERTEX
  5
6EC
330
6E9
100
AcDbEntity
  8
0
100
AcDbVertex
100
AcDb2dVertex
 10
197.7926222222222
 20
178.5009694444444
 30
0.0
  0
VERTEX
  5
6ED
330
6E9
100
AcDbEntity
  8
0
100
AcDbVertex
100
AcDb2dVertex
 10
198.1817361111111
 20
178.6988777777778
 30
0.0
  0
VERTEX
  5
6EE
330
6E9
100
AcDbEntity
  8
0
100
AcDbVertex
100
AcDb2dVertex
 10
198.5500361111111
 20
178.8668
 30
0.0
  0
VERTEX
  5
6EF
330
6E9
100
AcDbEntity
  8
0
100
AcDbVertex
100
AcDb2dVertex
 10
198.8950527777777
 20
179.0082638888889
 30
0.0
  0
VERTEX
  5
6F0
330
6E9
100
AcDbEntity
  8
0
100
AcDbVertex
100
AcDb2dVertex
 10
199.2146694444444
 20
179.1222111111111
 30
0.0
  0
VERTEX
  5
6F1
330
6E9
100
AcDbEntity
  8
0
100
AcDbVertex
100
AcDb2dVertex
 10
199.5134722222222
 20
179.21605
 30
0.0
  0
VERTEX
  5
6F2
330
6E9
100
AcDbEntity
  8
0
100
AcDbVertex
100
AcDb2dVertex
 10
199.7798194444445
 20
179.2873111111111
 30
0.0
  0
VERTEX
  5
6F3
330
6E9
100
AcDbEntity
  8
0
100
AcDbVertex
100
AcDb2dVertex
 10
200.0182972222222
 20
179.3405805555555
 30
0.0
  0
VERTEX
  5
6F4
330
6E9
100
AcDbEntity
  8
0
100
AcDbVertex
100
AcDb2dVertex
 10
200.2320805555555
 20
179.3786805555555
 30
0.0
  0
VERTEX
  5
6F5
330
6E9
100
AcDbEntity
  8
0
100
AcDbVertex
100
AcDb2dVertex
 10
200.4077638888889
 20
179.4030222222222
 30
0.0
  0
VERTEX
  5
6F6
330
6E9
100
AcDbEntity
  8
0
100
AcDbVertex
100
AcDb2dVertex
 10
200.6734055555555
 20
179.4227777777778
 30
0.0
  0
VERTEX
  5
6F7
330
6E9
100
AcDbEntity
  8
0
100
AcDbVertex
100
AcDb2dVertex
 10
200.8148694444444
 20
179.4220722222222
 30
0.0
  0
VERTEX
  5
6F8
330
6E9
100
AcDbEntity
  8
0
100
AcDbVertex
100
AcDb2dVertex
 10
201.1157888888889
 20
179.4051388888889
 30
0.0
  0
VERTEX
  5
6F9
330
6E9
100
AcDbEntity
  8
0
100
AcDbVertex
100
AcDb2dVertex
 10
201.342625
 20
179.4157222222222
 30
0.0
  0
VERTEX
  5
6FA
330
6E9
100
AcDbEntity
  8
0
100
AcDbVertex
100
AcDb2dVertex
 10
201.5370055555555
 20
179.4471194444444
 30
0.0
  0
VERTEX
  5
6FB
330
6E9
100
AcDbEntity
  8
0
100
AcDbVertex
100
AcDb2dVertex
 10
201.6975194444444
 20
179.4965083333333
 30
0.0
  0
VERTEX
  5
6FC
330
6E9
100
AcDbEntity
  8
0
100
AcDbVertex
100
AcDb2dVertex
 10
201.7645472222222
 20
179.5275527777778
 30
0.0
  0
VERTEX
  5
6FD
330
6E9
100
AcDbEntity
  8
0
100
AcDbVertex
100
AcDb2dVertex
 10
201.8224027777778
 20
179.5610666666666
 30
0.0
  0
VERTEX
  5
6FE
330
6E9
100
AcDbEntity
  8
0
100
AcDbVertex
100
AcDb2dVertex
 10
201.8717916666667
 20
179.5991666666667
 30
0.0
  0
VERTEX
  5
6FF
330
6E9
100
AcDbEntity
  8
0
100
AcDbVertex
100
AcDb2dVertex
 10
201.9113027777778
 20
179.6386777777778
 30
0.0
  0
VERTEX
  5
700
330
6E9
100
AcDbEntity
  8
0
100
AcDbVertex
100
AcDb2dVertex
 10
201.9423472222222
 20
179.6813638888889
 30
0.0
  0
VERTEX
  5
701
330
6E9
100
AcDbEntity
  8
0
100
AcDbVertex
100
AcDb2dVertex
 10
201.9638666666666
 20
179.7254611111111
 30
0.0
  0
VERTEX
  5
702
330
6E9
100
AcDbEntity
  8
0
100
AcDbVertex
100
AcDb2dVertex
 10
201.977625
 20
179.7840222222222
 30
0.0
  0
VERTEX
  5
703
330
6E9
100
AcDbEntity
  8
0
100
AcDbVertex
100
AcDb2dVertex
 10
202.0929833333333
 20
180.5375555555555
 30
0.0
  0
VERTEX
  5
704
330
6E9
100
AcDbEntity
  8
0
100
AcDbVertex
100
AcDb2dVertex
 10
202.2422083333333
 20
181.2850916666667
 30
0.0
  0
VERTEX
  5
705
330
6E9
100
AcDbEntity
  8
0
100
AcDbVertex
100
AcDb2dVertex
 10
202.2489111111111
 20
181.3443583333333
 30
0.0
  0
VERTEX
  5
706
330
6E9
100
AcDbEntity
  8
0
100
AcDbVertex
100
AcDb2dVertex
 10
202.244325
 20
181.3930416666667
 30
0.0
  0
VERTEX
  5
707
330
6E9
100
AcDbEntity
  8
0
100
AcDbVertex
100
AcDb2dVertex
 10
202.2298611111111
 20
181.4441944444444
 30
0.0
  0
VERTEX
  5
708
330
6E9
100
AcDbEntity
  8
0
100
AcDbVertex
100
AcDb2dVertex
 10
202.2065777777778
 20
181.4949944444444
 30
0.0
  0
VERTEX
  5
709
330
6E9
100
AcDbEntity
  8
0
100
AcDbVertex
100
AcDb2dVertex
 10
202.1730638888889
 20
181.5468527777778
 30
0.0
  0
VERTEX
  5
70A
330
6E9
100
AcDbEntity
  8
0
100
AcDbVertex
100
AcDb2dVertex
 10
202.1296722222222
 20
181.5994166666667
 30
0.0
  0
VERTEX
  5
70B
330
6E9
100
AcDbEntity
  8
0
100
AcDbVertex
100
AcDb2dVertex
 10
202.0771083333333
 20
181.6509222222222
 30
0.0
  0
VERTEX
  5
70C
330
6E9
100
AcDbEntity
  8
0
100
AcDbVertex
100
AcDb2dVertex
 10
201.9434055555556
 20
181.7521694444444
 30
0.0
  0
VERTEX
  5
70D
330
6E9
100
AcDbEntity
  8
0
100
AcDbVertex
100
AcDb2dVertex
 10
201.77125
 20
181.848125
 30
0.0
  0
VERTEX
  5
70E
330
6E9
100
AcDbEntity
  8
0
100
AcDbVertex
100
AcDb2dVertex
 10
201.5613472222222
 20
181.9352611111111
 30
0.0
  0
VERTEX
  5
70F
330
6E9
100
AcDbEntity
  8
0
100
AcDbVertex
100
AcDb2dVertex
 10
201.2731277777778
 20
182.02275
 30
0.0
  0
VERTEX
  5
710
330
6E9
100
AcDbEntity
  8
0
100
AcDbVertex
100
AcDb2dVertex
 10
201.1401305555555
 20
182.0700222222222
 30
0.0
  0
VERTEX
  5
711
330
6E9
100
AcDbEntity
  8
0
100
AcDbVertex
100
AcDb2dVertex
 10
200.8974194444444
 20
182.1793833333333
 30
0.0
  0
VERTEX
  5
712
330
6E9
100
AcDbEntity
  8
0
100
AcDbVertex
100
AcDb2dVertex
 10
200.7400805555556
 20
182.2622861111111
 30
0.0
  0
VERTEX
  5
713
330
6E9
100
AcDbEntity
  8
0
100
AcDbVertex
100
AcDb2dVertex
 10
200.5531083333333
 20
182.3712944444444
 30
0.0
  0
VERTEX
  5
714
330
6E9
100
AcDbEntity
  8
0
100
AcDbVertex
100
AcDb2dVertex
 10
200.3470861111111
 20
182.5035861111111
 30
0.0
  0
VERTEX
  5
715
330
6E9
100
AcDbEntity
  8
0
100
AcDbVertex
100
AcDb2dVertex
 10
200.12025
 20
182.6616305555555
 30
0.0
  0
VERTEX
  5
716
330
6E9
100
AcDbEntity
  8
0
100
AcDbVertex
100
AcDb2dVertex
 10
199.8715416666667
 20
182.8510722222222
 30
0.0
  0
VERTEX
  5
717
330
6E9
100
AcDbEntity
  8
0
100
AcDbVertex
100
AcDb2dVertex
 10
199.6115444444444
 20
183.0683833333333
 30
0.0
  0
VERTEX
  5
718
330
6E9
100
AcDbEntity
  8
0
100
AcDbVertex
100
AcDb2dVertex
 10
199.3346138888889
 20
183.3188555555556
 30
0.0
  0
VERTEX
  5
719
330
6E9
100
AcDbEntity
  8
0
100
AcDbVertex
100
AcDb2dVertex
 10
199.0463944444444
 20
183.6031944444445
 30
0.0
  0
VERTEX
  5
71A
330
6E9
100
AcDbEntity
  8
0
100
AcDbVertex
100
AcDb2dVertex
 10
198.7482972222222
 20
183.9217527777778
 30
0.0
  0
VERTEX
  5
71B
330
6E9
100
AcDbEntity
  8
0
100
AcDbVertex
100
AcDb2dVertex
 10
198.4745416666667
 20
184.2396055555556
 30
0.0
  0
VERTEX
  5
71C
330
6E9
100
AcDbEntity
  8
0
100
AcDbVertex
100
AcDb2dVertex
 10
198.4745416666667
 20
184.2403111111111
 30
0.0
  0
SEQEND
  5
71D
330
6E9
100
AcDbEntity
  8
0
 62
     7
  0
SPLINE
  5
71E
330
1F
100
AcDbEntity
  8
0
 62
     7
100
AcDbSpline
210
0.0
220
0.0
230
1.0
 70
    12
 71
     3
 72
     8
 73
     4
 74
     0
 42
0.000000001
 43
0.0
 40
0.0
 40
0.0
 40
0.0
 40
0.0
 40
1.0
 40
1.0
 40
1.0
 40
1.0
 10
198.4745416666667
 20
184.2403111111111
 30
0.0
 41
1.0
 10
198.6258833333333
 20
184.7059777777777
 30
0.0
 41
1.0
 10
198.7934527777778
 20
185.166
 30
0.0
 41
1.0
 10
198.9765444444444
 20
185.6193194444444
 30
0.0
 41
1.0
  0
POLYLINE
  5
71F
330
1F
100
AcDbEntity
  8
0
 62
     7
100
AcDb2dPolyline
 66
     1
 10
0.0
 20
0.0
 30
0.0
  0
VERTEX
  5
720
330
71F
100
AcDbEntity
  8
0
100
AcDbVertex
100
AcDb2dVertex
 10
198.9765444444444
 20
185.6193194444444
 30
0.0
  0
VERTEX
  5
721
330
71F
100
AcDbEntity
  8
0
100
AcDbVertex
100
AcDb2dVertex
 10
198.9765444444444
 20
185.620025
 30
0.0
  0
VERTEX
  5
722
330
71F
100
AcDbEntity
  8
0
100
AcDbVertex
100
AcDb2dVertex
 10
199.3910583333333
 20
185.6877583333333
 30
0.0
  0
VERTEX
  5
723
330
71F
100
AcDbEntity
  8
0
100
AcDbVertex
100
AcDb2dVertex
 10
199.8246222222222
 20
185.7410277777778
 30
0.0
  0
VERTEX
  5
724
330
71F
100
AcDbEntity
  8
0
100
AcDbVertex
100
AcDb2dVertex
 10
200.2282
 20
185.7727777777778
 30
0.0
  0
VERTEX
  5
725
330
71F
100
AcDbEntity
  8
0
100
AcDbVertex
100
AcDb2dVertex
 10
200.6010861111111
 20
185.7872416666667
 30
0.0
  0
VERTEX
  5
726
330
71F
100
AcDbEntity
  8
0
100
AcDbVertex
100
AcDb2dVertex
 10
200.9401055555556
 20
185.7858305555555
 30
0.0
  0
VERTEX
  5
727
330
71F
100
AcDbEntity
  8
0
100
AcDbVertex
100
AcDb2dVertex
 10
201.2526666666667
 20
185.7713666666666
 30
0.0
  0
VERTEX
  5
728
330
71F
100
AcDbEntity
  8
0
100
AcDbVertex
100
AcDb2dVertex
 10
201.5271277777778
 20
185.747025
 30
0.0
  0
VERTEX
  5
729
330
71F
100
AcDbEntity
  8
0
100
AcDbVertex
100
AcDb2dVertex
 10
201.7705444444444
 20
185.7149222222222
 30
0.0
  0
VERTEX
  5
72A
330
71F
100
AcDbEntity
  8
0
100
AcDbVertex
100
AcDb2dVertex
 10
201.9836222222222
 20
185.6785861111111
 30
0.0
  0
VERTEX
  5
72B
330
71F
100
AcDbEntity
  8
0
100
AcDbVertex
100
AcDb2dVertex
 10
202.1578944444444
 20
185.6404861111111
 30
0.0
  0
VERTEX
  5
72C
330
71F
100
AcDbEntity
  8
0
100
AcDbVertex
100
AcDb2dVertex
 10
202.4133055555556
 20
185.569225
 30
0.0
  0
VERTEX
  5
72D
330
71F
100
AcDbEntity
  8
0
100
AcDbVertex
100
AcDb2dVertex
 10
202.5463027777778
 20
185.5194833333333
 30
0.0
  0
VERTEX
  5
72E
330
71F
100
AcDbEntity
  8
0
100
AcDbVertex
100
AcDb2dVertex
 10
202.8232333333333
 20
185.40095
 30
0.0
  0
VERTEX
  5
72F
330
71F
100
AcDbEntity
  8
0
100
AcDbVertex
100
AcDb2dVertex
 10
203.0398388888889
 20
185.3332166666667
 30
0.0
  0
VERTEX
  5
730
330
71F
100
AcDbEntity
  8
0
100
AcDbVertex
100
AcDb2dVertex
 10
203.2331611111111
 20
185.296175
 30
0.0
  0
VERTEX
  5
731
330
71F
100
AcDbEntity
  8
0
100
AcDbVertex
100
AcDb2dVertex
 10
203.4010833333333
 20
185.2877083333333
 30
0.0
  0
VERTEX
  5
732
330
71F
100
AcDbEntity
  8
0
100
AcDbVertex
100
AcDb2dVertex
 10
203.4741083333333
 20
185.2937055555555
 30
0.0
  0
VERTEX
  5
733
330
71F
100
AcDbEntity
  8
0
100
AcDbVertex
100
AcDb2dVertex
 10
203.5411361111111
 20
185.3060527777778
 30
0.0
  0
VERTEX
  5
734
330
71F
100
AcDbEntity
  8
0
100
AcDbVertex
100
AcDb2dVertex
 10
203.5996972222222
 20
185.3240444444444
 30
0.0
  0
VERTEX
  5
735
330
71F
100
AcDbEntity
  8
0
100
AcDbVertex
100
AcDb2dVertex
 10
203.6512027777778
 20
185.3483861111111
 30
0.0
  0
VERTEX
  5
736
330
71F
100
AcDbEntity
  8
0
100
AcDbVertex
100
AcDb2dVertex
 10
203.6945944444444
 20
185.3773138888889
 30
0.0
  0
VERTEX
  5
737
330
71F
100
AcDbEntity
  8
0
100
AcDbVertex
100
AcDb2dVertex
 10
203.7295194444444
 20
185.4122388888889
 30
0.0
  0
VERTEX
  5
738
330
71F
100
AcDbEntity
  8
0
100
AcDbVertex
100
AcDb2dVertex
 10
203.7623277777778
 20
185.4619805555556
 30
0.0
  0
VERTEX
  5
739
330
71F
100
AcDbEntity
  8
0
100
AcDbVertex
100
AcDb2dVertex
 10
204.1288638888889
 20
186.1301416666666
 30
0.0
  0
VERTEX
  5
73A
330
71F
100
AcDbEntity
  8
0
100
AcDbVertex
100
AcDb2dVertex
 10
204.5250333333333
 20
186.782075
 30
0.0
  0
VERTEX
  5
73B
330
71F
100
AcDbEntity
  8
0
100
AcDbVertex
100
AcDb2dVertex
 10
204.5518444444444
 20
186.8353444444444
 30
0.0
  0
VERTEX
  5
73C
330
71F
100
AcDbEntity
  8
0
100
AcDbVertex
100
AcDb2dVertex
 10
204.5638388888889
 20
186.8833222222222
 30
0.0
  0
VERTEX
  5
73D
330
71F
100
AcDbEntity
  8
0
100
AcDbVertex
100
AcDb2dVertex
 10
204.5677194444444
 20
186.9355333333333
 30
0.0
  0
VERTEX
  5
73E
330
71F
100
AcDbEntity
  8
0
100
AcDbVertex
100
AcDb2dVertex
 10
204.5624277777778
 20
186.9919777777777
 30
0.0
  0
VERTEX
  5
73F
330
71F
100
AcDbEntity
  8
0
100
AcDbVertex
100
AcDb2dVertex
 10
204.5486694444444
 20
187.05195
 30
0.0
  0
VERTEX
  5
740
330
71F
100
AcDbEntity
  8
0
100
AcDbVertex
100
AcDb2dVertex
 10
204.5267972222222
 20
187.1158027777778
 30
0.0
  0
VERTEX
  5
741
330
71F
100
AcDbEntity
  8
0
100
AcDbVertex
100
AcDb2dVertex
 10
204.4946944444444
 20
187.182125
 30
0.0
  0
VERTEX
  5
742
330
71F
100
AcDbEntity
  8
0
100
AcDbVertex
100
AcDb2dVertex
 10
204.403325
 20
187.3235888888889
 30
0.0
  0
VERTEX
  5
743
330
71F
100
AcDbEntity
  8
0
100
AcDbVertex
100
AcDb2dVertex
 10
204.2749138888889
 20
187.4717555555555
 30
0.0
  0
VERTEX
  5
744
330
71F
100
AcDbEntity
  8
0
100
AcDbVertex
100
AcDb2dVertex
 10
204.1076972222222
 20
187.6262722222222
 30
0.0
  0
VERTEX
  5
745
330
71F
100
AcDbEntity
  8
0
100
AcDbVertex
100
AcDb2dVertex
 10
203.8663972222222
 20
187.8065416666667
 30
0.0
  0
VERTEX
  5
746
330
71F
100
AcDbEntity
  8
0
100
AcDbVertex
100
AcDb2dVertex
 10
203.7577416666666
 20
187.8968527777778
 30
0.0
  0
VERTEX
  5
747
330
71F
100
AcDbEntity
  8
0
100
AcDbVertex
100
AcDb2dVertex
 10
203.5675944444444
 20
188.0824138888889
 30
0.0
  0
VERTEX
  5
748
330
71F
100
AcDbEntity
  8
0
100
AcDbVertex
100
AcDb2dVertex
 10
203.44765
 20
188.2147055555556
 30
0.0
  0
VERTEX
  5
749
330
71F
100
AcDbEntity
  8
0
100
AcDbVertex
100
AcDb2dVertex
 10
203.3090083333333
 20
188.3805111111111
 30
0.0
  0
VERTEX
  5
74A
330
71F
100
AcDbEntity
  8
0
100
AcDbVertex
100
AcDb2dVertex
 10
203.1601361111111
 20
188.5752444444445
 30
0.0
  0
VERTEX
  5
74B
330
71F
100
AcDbEntity
  8
0
100
AcDbVertex
100
AcDb2dVertex
 10
203.0017388888889
 20
188.8010222222222
 30
0.0
  0
VERTEX
  5
74C
330
71F
100
AcDbEntity
  8
0
100
AcDbVertex
100
AcDb2dVertex
 10
202.8331111111111
 20
189.0649
 30
0.0
  0
VERTEX
  5
74D
330
71F
100
AcDbEntity
  8
0
100
AcDbVertex
100
AcDb2dVertex
 10
202.6627194444444
 20
189.3577055555555
 30
0.0
  0
VERTEX
  5
74E
330
71F
100
AcDbEntity
  8
0
100
AcDbVertex
100
AcDb2dVertex
 10
202.4884472222222
 20
189.6879055555555
 30
0.0
  0
VERTEX
  5
74F
330
71F
100
AcDbEntity
  8
0
100
AcDbVertex
100
AcDb2dVertex
 10
202.3145277777778
 20
190.0530305555556
 30
0.0
  0
VERTEX
  5
750
330
71F
100
AcDbEntity
  8
0
100
AcDbVertex
100
AcDb2dVertex
 10
202.1434305555556
 20
190.4551972222222
 30
0.0
  0
VERTEX
  5
751
330
71F
100
AcDbEntity
  8
0
100
AcDbVertex
100
AcDb2dVertex
 10
201.9949111111111
 20
190.8474861111111
 30
0.0
  0
VERTEX
  5
752
330
71F
100
AcDbEntity
  8
0
100
AcDbVertex
100
AcDb2dVertex
 10
201.9949111111111
 20
190.8485444444444
 30
0.0
  0
SEQEND
  5
753
330
71F
100
AcDbEntity
  8
0
 62
     7
  0
SPLINE
  5
754
330
1F
100
AcDbEntity
  8
0
 62
     7
100
AcDbSpline
210
0.0
220
0.0
230
1.0
 70
    12
 71
     3
 72
     8
 73
     4
 74
     0
 42
0.000000001
 43
0.0
 40
0.0
 40
0.0
 40
0.0
 40
0.0
 40
1.0
 40
1.0
 40
1.0
 40
1.0
 10
201.9949111111111
 20
190.8485444444444
 30
0.0
 41
1.0
 10
202.2968888888889
 20
191.2330722222222
 30
0.0
 41
1.0
 10
202.6108611111111
 20
191.608075
 30
0.0
 41
1.0
 10
202.9378861111111
 20
191.9717888888889
 30
0.0
 41
1.0
  0
POLYLINE
  5
755
330
1F
100
AcDbEntity
  8
0
 62
     7
100
AcDb2dPolyline
 66
     1
 10
0.0
 20
0.0
 30
0.0
  0
VERTEX
  5
756
330
755
100
AcDbEntity
  8
0
100
AcDbVertex
100
AcDb2dVertex
 10
202.9378861111111
 20
191.9717888888889
 30
0.0
  0
VERTEX
  5
757
330
755
100
AcDbEntity
  8
0
100
AcDbVertex
100
AcDb2dVertex
 10
202.9385916666667
 20
191.9724944444444
 30
0.0
  0
VERTEX
  5
758
330
755
100
AcDbEntity
  8
0
100
AcDbVertex
100
AcDb2dVertex
 10
203.3516944444444
 20
191.8941777777778
 30
0.0
  0
VERTEX
  5
759
330
755
100
AcDbEntity
  8
0
100
AcDbVertex
100
AcDb2dVertex
 10
203.7767916666667
 20
191.7961055555556
 30
0.0
  0
VERTEX
  5
75A
330
755
100
AcDbEntity
  8
0
100
AcDbVertex
100
AcDb2dVertex
 10
204.1669638888889
 20
191.6881555555555
 30
0.0
  0
VERTEX
  5
75B
330
755
100
AcDbEntity
  8
0
100
AcDbVertex
100
AcDb2dVertex
 10
204.5222111111111
 20
191.5738555555556
 30
0.0
  0
VERTEX
  5
75C
330
755
100
AcDbEntity
  8
0
100
AcDbVertex
100
AcDb2dVertex
 10
204.8400638888889
 20
191.4567333333333
 30
0.0
  0
VERTEX
  5
75D
330
755
100
AcDbEntity
  8
0
100
AcDbVertex
100
AcDb2dVertex
 10
205.1289888888889
 20
191.3357305555556
 30
0.0
  0
VERTEX
  5
75E
330
755
100
AcDbEntity
  8
0
100
AcDbVertex
100
AcDb2dVertex
 10
205.3791083333333
 20
191.2196666666667
 30
0.0
  0
VERTEX
  5
75F
330
755
100
AcDbEntity
  8
0
100
AcDbVertex
100
AcDb2dVertex
 10
205.5967722222222
 20
191.1071305555555
 30
0.0
  0
VERTEX
  5
760
330
755
100
AcDbEntity
  8
0
100
AcDbVertex
100
AcDb2dVertex
 10
205.78445
 20
190.9988277777778
 30
0.0
  0
VERTEX
  5
761
330
755
100
AcDbEntity
  8
0
100
AcDbVertex
100
AcDb2dVertex
 10
205.9350861111111
 20
190.9039305555555
 30
0.0
  0
VERTEX
  5
762
330
755
100
AcDbEntity
  8
0
100
AcDbVertex
100
AcDb2dVertex
 10
206.1509861111111
 20
190.7487083333333
 30
0.0
  0
VERTEX
  5
763
330
755
100
AcDbEntity
  8
0
100
AcDbVertex
100
AcDb2dVertex
 10
206.2589361111111
 20
190.6576916666667
 30
0.0
  0
VERTEX
  5
764
330
755
100
AcDbEntity
  8
0
100
AcDbVertex
100
AcDb2dVertex
 10
206.4780111111111
 20
190.4513166666667
 30
0.0
  0
VERTEX
  5
765
330
755
100
AcDbEntity
  8
0
100
AcDbVertex
100
AcDb2dVertex
 10
206.6589861111111
 20
190.3130277777778
 30
0.0
  0
VERTEX
  5
766
330
755
100
AcDbEntity
  8
0
100
AcDbVertex
100
AcDb2dVertex
 10
206.8279666666667
 20
190.2124861111111
 30
0.0
  0
VERTEX
  5
767
330
755
100
AcDbEntity
  8
0
100
AcDbVertex
100
AcDb2dVertex
 10
206.9821305555555
 20
190.1472222222222
 30
0.0
  0
VERTEX
  5
768
330
755
100
AcDbEntity
  8
0
100
AcDbVertex
100
AcDb2dVertex
 10
207.0537444444444
 20
190.1274666666667
 30
0.0
  0
VERTEX
  5
769
330
755
100
AcDbEntity
  8
0
100
AcDbVertex
100
AcDb2dVertex
 10
207.1200666666666
 20
190.1168833333333
 30
0.0
  0
VERTEX
  5
76A
330
755
100
AcDbEntity
  8
0
100
AcDbVertex
100
AcDb2dVertex
 10
207.18145
 20
190.1137083333333
 30
0.0
  0
VERTEX
  5
76B
330
755
100
AcDbEntity
  8
0
100
AcDbVertex
100
AcDb2dVertex
 10
207.2386
 20
190.1182944444444
 30
0.0
  0
VERTEX
  5
76C
330
755
100
AcDbEntity
  8
0
100
AcDbVertex
100
AcDb2dVertex
 10
207.2886944444444
 20
190.1313472222222
 30
0.0
  0
VERTEX
  5
76D
330
755
100
AcDbEntity
  8
0
100
AcDbVertex
100
AcDb2dVertex
 10
207.3345555555556
 20
190.1511027777778
 30
0.0
  0
VERTEX
  5
76E
330
755
100
AcDbEntity
  8
0
100
AcDbVertex
100
AcDb2dVertex
 10
207.381475
 20
190.1867333333333
 30
0.0
  0
VERTEX
  5
76F
330
755
100
AcDbEntity
  8
0
100
AcDbVertex
100
AcDb2dVertex
 10
207.9550916666667
 20
190.6901472222222
 30
0.0
  0
VERTEX
  5
770
330
755
100
AcDbEntity
  8
0
100
AcDbVertex
100
AcDb2dVertex
 10
208.5495222222222
 20
191.1671027777778
 30
0.0
  0
VERTEX
  5
771
330
755
100
AcDbEntity
  8
0
100
AcDbVertex
100
AcDb2dVertex
 10
208.5929138888889
 20
191.208025
 30
0.0
  0
VERTEX
  5
772
330
755
100
AcDbEntity
  8
0
100
AcDbVertex
100
AcDb2dVertex
 10
208.6211361111111
 20
191.2485944444444
 30
0.0
  0
VERTEX
  5
773
330
755
100
AcDbEntity
  8
0
100
AcDbVertex
100
AcDb2dVertex
 10
208.6423027777778
 20
191.2962194444444
 30
0.0
  0
VERTEX
  5
774
330
755
100
AcDbEntity
  8
0
100
AcDbVertex
100
AcDb2dVertex
 10
208.6567666666667
 20
191.3512527777778
 30
0.0
  0
VERTEX
  5
775
330
755
100
AcDbEntity
  8
0
100
AcDbVertex
100
AcDb2dVertex
 10
208.6645277777778
 20
191.4126361111111
 30
0.0
  0
VERTEX
  5
776
330
755
100
AcDbEntity
  8
0
100
AcDbVertex
100
AcDb2dVertex
 10
208.6652333333333
 20
191.4796638888889
 30
0.0
  0
VERTEX
  5
777
330
755
100
AcDbEntity
  8
0
100
AcDbVertex
100
AcDb2dVertex
 10
208.6585305555556
 20
191.5533944444444
 30
0.0
  0
VERTEX
  5
778
330
755
100
AcDbEntity
  8
0
100
AcDbVertex
100
AcDb2dVertex
 10
208.6211361111111
 20
191.7167305555556
 30
0.0
  0
VERTEX
  5
779
330
755
100
AcDbEntity
  8
0
100
AcDbVertex
100
AcDb2dVertex
 10
208.5512861111111
 20
191.9008805555555
 30
0.0
  0
VERTEX
  5
77A
330
755
100
AcDbEntity
  8
0
100
AcDbVertex
100
AcDb2dVertex
 10
208.4461583333333
 20
192.1023166666666
 30
0.0
  0
VERTEX
  5
77B
330
755
100
AcDbEntity
  8
0
100
AcDbVertex
100
AcDb2dVertex
 10
208.2810583333333
 20
192.3549055555555
 30
0.0
  0
VERTEX
  5
77C
330
755
100
AcDbEntity
  8
0
100
AcDbVertex
100
AcDb2dVertex
 10
208.2097972222222
 20
192.4766138888889
 30
0.0
  0
VERTEX
  5
77D
330
755
100
AcDbEntity
  8
0
100
AcDbVertex
100
AcDb2dVertex
 10
208.0947916666667
 20
192.7168555555556
 30
0.0
  0
VERTEX
  5
77E
330
755
100
AcDbEntity
  8
0
100
AcDbVertex
100
AcDb2dVertex
 10
208.0270583333333
 20
192.88125
 30
0.0
  0
VERTEX
  5
77F
330
755
100
AcDbEntity
  8
0
100
AcDbVertex
100
AcDb2dVertex
 10
207.9543861111111
 20
193.0851555555556
 30
0.0
  0
VERTEX
  5
780
330
755
100
AcDbEntity
  8
0
100
AcDbVertex
100
AcDb2dVertex
 10
207.8803027777778
 20
193.3183416666667
 30
0.0
  0
VERTEX
  5
781
330
755
100
AcDbEntity
  8
0
100
AcDbVertex
100
AcDb2dVertex
 10
207.8090416666667
 20
193.5853944444444
 30
0.0
  0
VERTEX
  5
782
330
755
100
AcDbEntity
  8
0
100
AcDbVertex
100
AcDb2dVertex
 10
207.7406027777778
 20
193.8905472222222
 30
0.0
  0
VERTEX
  5
783
330
755
100
AcDbEntity
  8
0
100
AcDbVertex
100
AcDb2dVertex
 10
207.6802777777778
 20
194.224275
 30
0.0
  0
VERTEX
  5
784
330
755
100
AcDbEntity
  8
0
100
AcDbVertex
100
AcDb2dVertex
 10
207.6294777777778
 20
194.5939861111111
 30
0.0
  0
VERTEX
  5
785
330
755
100
AcDbEntity
  8
0
100
AcDbVertex
100
AcDb2dVertex
 10
207.5913777777778
 20
194.9968583333333
 30
0.0
  0
VERTEX
  5
786
330
755
100
AcDbEntity
  8
0
100
AcDbVertex
100
AcDb2dVertex
 10
207.5677416666666
 20
195.4325388888889
 30
0.0
  0
VERTEX
  5
787
330
755
100
AcDbEntity
  8
0
100
AcDbVertex
100
AcDb2dVertex
 10
207.56245
 20
195.8523444444444
 30
0.0
  0
VERTEX
  5
788
330
755
100
AcDbEntity
  8
0
100
AcDbVertex
100
AcDb2dVertex
 10
207.5631555555555
 20
195.85305
 30
0.0
  0
SEQEND
  5
789
330
755
100
AcDbEntity
  8
0
 62
     7
  0
SPLINE
  5
78A
330
1F
100
AcDbEntity
  8
0
 62
     7
100
AcDbSpline
210
0.0
220
0.0
230
1.0
 70
    12
 71
     3
 72
     8
 73
     4
 74
     0
 42
0.000000001
 43
0.0
 40
0.0
 40
0.0
 40
0.0
 40
0.0
 40
1.0
 40
1.0
 40
1.0
 40
1.0
 10
207.5631555555555
 20
195.85305
 30
0.0
 41
1.0
 10
207.9787277777777
 20
196.1116361111111
 30
0.0
 41
1.0
 10
208.4020611111111
 20
196.3568166666666
 30
0.0
 41
1.0
 10
208.8342138888889
 20
196.586475
 30
0.0
 41
1.0
  0
POLYLINE
  5
78B
330
1F
100
AcDbEntity
  8
0
 62
     7
100
AcDb2dPolyline
 66
     1
 10
0.0
 20
0.0
 30
0.0
  0
VERTEX
  5
78C
330
78B
100
AcDbEntity
  8
0
100
AcDbVertex
100
AcDb2dVertex
 10
208.8342138888889
 20
196.586475
 30
0.0
  0
VERTEX
  5
78D
330
78B
100
AcDbEntity
  8
0
100
AcDbVertex
100
AcDb2dVertex
 10
208.8349194444444
 20
196.5871805555556
 30
0.0
  0
VERTEX
  5
78E
330
78B
100
AcDbEntity
  8
0
100
AcDbVertex
100
AcDb2dVertex
 10
209.1954583333333
 20
196.3726916666666
 30
0.0
  0
VERTEX
  5
78F
330
78B
100
AcDbEntity
  8
0
100
AcDbVertex
100
AcDb2dVertex
 10
209.5619944444445
 20
196.1345666666666
 30
0.0
  0
VERTEX
  5
790
330
78B
100
AcDbEntity
  8
0
100
AcDbVertex
100
AcDb2dVertex
 10
209.8911361111111
 20
195.8996166666666
 30
0.0
  0
VERTEX
  5
791
330
78B
100
AcDbEntity
  8
0
100
AcDbVertex
100
AcDb2dVertex
 10
210.1864111111111
 20
195.6706638888889
 30
0.0
  0
VERTEX
  5
792
330
78B
100
AcDbEntity
  8
0
100
AcDbVertex
100
AcDb2dVertex
 10
210.4449972222222
 20
195.4515888888889
 30
0.0
  0
VERTEX
  5
793
330
78B
100
AcDbEntity
  8
0
100
AcDbVertex
100
AcDb2dVertex
 10
210.6753611111111
 20
195.2395694444444
 30
0.0
  0
VERTEX
  5
794
330
78B
100
AcDbEntity
  8
0
100
AcDbVertex
100
AcDb2dVertex
 10
210.8700944444444
 20
195.0448361111111
 30
0.0
  0
VERTEX
  5
795
330
78B
100
AcDbEntity
  8
0
100
AcDbVertex
100
AcDb2dVertex
 10
211.0359
 20
194.8638611111111
 30
0.0
  0
VERTEX
  5
796
330
78B
100
AcDbEntity
  8
0
100
AcDbVertex
100
AcDb2dVertex
 10
211.1756
 20
194.6987611111111
 30
0.0
  0
VERTEX
  5
797
330
78B
100
AcDbEntity
  8
0
100
AcDbVertex
100
AcDb2dVertex
 10
211.2842555555555
 20
194.5580027777778
 30
0.0
  0
VERTEX
  5
798
330
78B
100
AcDbEntity
  8
0
100
AcDbVertex
100
AcDb2dVertex
 10
211.4341861111111
 20
194.3382222222222
 30
0.0
  0
VERTEX
  5
799
330
78B
100
AcDbEntity
  8
0
100
AcDbVertex
100
AcDb2dVertex
 10
211.5040361111111
 20
194.2158083333333
 30
0.0
  0
VERTEX
  5
79A
330
78B
100
AcDbEntity
  8
0
100
AcDbVertex
100
AcDb2dVertex
 10
211.6402083333333
 20
193.9466388888889
 30
0.0
  0
VERTEX
  5
79B
330
78B
100
AcDbEntity
  8
0
100
AcDbVertex
100
AcDb2dVertex
 10
211.7626222222222
 20
193.7550805555555
 30
0.0
  0
VERTEX
  5
79C
330
78B
100
AcDbEntity
  8
0
100
AcDbVertex
100
AcDb2dVertex
 10
211.8875055555555
 20
193.6030333333333
 30
0.0
  0
VERTEX
  5
79D
330
78B
100
AcDbEntity
  8
0
100
AcDbVertex
100
AcDb2dVertex
 10
212.0099194444444
 20
193.4887333333333
 30
0.0
  0
VERTEX
  5
79E
330
78B
100
AcDbEntity
  8
0
100
AcDbVertex
100
AcDb2dVertex
 10
212.0698916666666
 20
193.4453416666666
 30
0.0
  0
VERTEX
  5
79F
330
78B
100
AcDbEntity
  8
0
100
AcDbVertex
100
AcDb2dVertex
 10
212.1291583333333
 20
193.4128861111111
 30
0.0
  0
VERTEX
  5
7A0
330
78B
100
AcDbEntity
  8
0
100
AcDbVertex
100
AcDb2dVertex
 10
212.1856027777777
 20
193.3885444444444
 30
0.0
  0
VERTEX
  5
7A1
330
78B
100
AcDbEntity
  8
0
100
AcDbVertex
100
AcDb2dVertex
 10
212.2402833333333
 20
193.3740805555555
 30
0.0
  0
VERTEX
  5
7A2
330
78B
100
AcDbEntity
  8
0
100
AcDbVertex
100
AcDb2dVertex
 10
212.2928472222222
 20
193.3687888888889
 30
0.0
  0
VERTEX
  5
7A3
330
78B
100
AcDbEntity
  8
0
100
AcDbVertex
100
AcDb2dVertex
 10
212.3422361111111
 20
193.3723166666666
 30
0.0
  0
VERTEX
  5
7A4
330
78B
100
AcDbEntity
  8
0
100
AcDbVertex
100
AcDb2dVertex
 10
212.3993861111111
 20
193.38925
 30
0.0
  0
VERTEX
  5
7A5
330
78B
100
AcDbEntity
  8
0
100
AcDbVertex
100
AcDb2dVertex
 10
213.1095277777778
 20
193.6661805555555
 30
0.0
  0
VERTEX
  5
7A6
330
78B
100
AcDbEntity
  8
0
100
AcDbVertex
100
AcDb2dVertex
 10
213.8313111111111
 20
193.9110083333333
 30
0.0
  0
VERTEX
  5
7A7
330
78B
100
AcDbEntity
  8
0
100
AcDbVertex
100
AcDb2dVertex
 10
213.8859916666667
 20
193.9346444444444
 30
0.0
  0
VERTEX
  5
7A8
330
78B
100
AcDbEntity
  8
0
100
AcDbVertex
100
AcDb2dVertex
 10
213.9262083333333
 20
193.9635722222222
 30
0.0
  0
VERTEX
  5
7A9
330
78B
100
AcDbEntity
  8
0
100
AcDbVertex
100
AcDb2dVertex
 10
213.9628972222222
 20
194.0006138888889
 30
0.0
  0
VERTEX
  5
7AA
330
78B
100
AcDbEntity
  8
0
100
AcDbVertex
100
AcDb2dVertex
 10
213.9957055555555
 20
194.0471805555555
 30
0.0
  0
VERTEX
  5
7AB
330
78B
100
AcDbEntity
  8
0
100
AcDbVertex
100
AcDb2dVertex
 10
214.023575
 20
194.1018611111111
 30
0.0
  0
VERTEX
  5
7AC
330
78B
100
AcDbEntity
  8
0
100
AcDbVertex
100
AcDb2dVertex
 10
214.0472111111111
 20
194.1650083333333
 30
0.0
  0
VERTEX
  5
7AD
330
78B
100
AcDbEntity
  8
0
100
AcDbVertex
100
AcDb2dVertex
 10
214.0655555555556
 20
194.2362694444444
 30
0.0
  0
VERTEX
  5
7AE
330
78B
100
AcDbEntity
  8
0
100
AcDbVertex
100
AcDb2dVertex
 10
214.0867222222222
 20
194.4031333333333
 30
0.0
  0
VERTEX
  5
7AF
330
78B
100
AcDbEntity
  8
0
100
AcDbVertex
100
AcDb2dVertex
 10
214.0839
 20
194.5999833333333
 30
0.0
  0
VERTEX
  5
7B0
330
78B
100
AcDbEntity
  8
0
100
AcDbVertex
100
AcDb2dVertex
 10
214.0542666666666
 20
194.8250555555556
 30
0.0
  0
VERTEX
  5
7B1
330
78B
100
AcDbEntity
  8
0
100
AcDbVertex
100
AcDb2dVertex
 10
213.9858277777778
 20
195.1185666666667
 30
0.0
  0
VERTEX
  5
7B2
330
78B
100
AcDbEntity
  8
0
100
AcDbVertex
100
AcDb2dVertex
 10
213.9604277777778
 20
195.2579138888889
 30
0.0
  0
VERTEX
  5
7B3
330
78B
100
AcDbEntity
  8
0
100
AcDbVertex
100
AcDb2dVertex
 10
213.9339694444444
 20
195.5224972222222
 30
0.0
  0
VERTEX
  5
7B4
330
78B
100
AcDbEntity
  8
0
100
AcDbVertex
100
AcDb2dVertex
 10
213.9272666666667
 20
195.7002972222222
 30
0.0
  0
VERTEX
  5
7B5
330
78B
100
AcDbEntity
  8
0
100
AcDbVertex
100
AcDb2dVertex
 10
213.9279722222222
 20
195.9172555555555
 30
0.0
  0
VERTEX
  5
7B6
330
78B
100
AcDbEntity
  8
0
100
AcDbVertex
100
AcDb2dVertex
 10
213.9385555555556
 20
196.1613777777778
 30
0.0
  0
VERTEX
  5
7B7
330
78B
100
AcDbEntity
  8
0
100
AcDbVertex
100
AcDb2dVertex
 10
213.9628972222222
 20
196.4365444444444
 30
0.0
  0
VERTEX
  5
7B8
330
78B
100
AcDbEntity
  8
0
100
AcDbVertex
100
AcDb2dVertex
 10
214.0031138888889
 20
196.7466361111111
 30
0.0
  0
VERTEX
  5
7B9
330
78B
100
AcDbEntity
  8
0
100
AcDbVertex
100
AcDb2dVertex
 10
214.0602638888889
 20
197.0807166666667
 30
0.0
  0
VERTEX
  5
7BA
330
78B
100
AcDbEntity
  8
0
100
AcDbVertex
100
AcDb2dVertex
 10
214.1392861111111
 20
197.4458416666667
 30
0.0
  0
VERTEX
  5
7BB
330
78B
100
AcDbEntity
  8
0
100
AcDbVertex
100
AcDb2dVertex
 10
214.2405333333333
 20
197.837425
 30
0.0
  0
VERTEX
  5
7BC
330
78B
100
AcDbEntity
  8
0
100
AcDbVertex
100
AcDb2dVertex
 10
214.3682388888889
 20
198.2547611111111
 30
0.0
  0
VERTEX
  5
7BD
330
78B
100
AcDbEntity
  8
0
100
AcDbVertex
100
AcDb2dVertex
 10
214.5065277777778
 20
198.6509305555556
 30
0.0
  0
VERTEX
  5
7BE
330
78B
100
AcDbEntity
  8
0
100
AcDbVertex
100
AcDb2dVertex
 10
214.5072333333333
 20
198.6509305555556
 30
0.0
  0
SEQEND
  5
7BF
330
78B
100
AcDbEntity
  8
0
 62
     7
  0
SPLINE
  5
7C0
330
1F
100
AcDbEntity
  8
0
 62
     7
100
AcDbSpline
210
0.0
220
0.0
230
1.0
 70
    12
 71
     3
 72
     8
 73
     4
 74
     0
 42
0.000000001
 43
0.0
 40
0.0
 40
0.0
 40
0.0
 40
0.0
 40
1.0
 40
1.0
 40
1.0
 40
1.0
 10
214.5072333333333
 20
198.6509305555556
 30
0.0
 41
1.0
 10
214.9856
 20
198.7528833333333
 30
0.0
 41
1.0
 10
215.4678472222222
 20
198.83755
 30
0.0
 41
1.0
 10
215.9522111111111
 20
198.9059888888889
 30
0.0
 41
1.0
  0
POLYLINE
  5
7C1
330
1F
100
AcDbEntity
  8
0
 62
     7
100
AcDb2dPolyline
 66
     1
 10
0.0
 20
0.0
 30
0.0
  0
VERTEX
  5
7C2
330
7C1
100
AcDbEntity
  8
0
100
AcDbVertex
100
AcDb2dVertex
 10
215.9522111111111
 20
198.9059888888889
 30
0.0
  0
VERTEX
  5
7C3
330
7C1
100
AcDbEntity
  8
0
100
AcDbVertex
100
AcDb2dVertex
 10
215.9532694444444
 20
198.9066944444444
 30
0.0
  0
VERTEX
  5
7C4
330
7C1
100
AcDbEntity
  8
0
100
AcDbVertex
100
AcDb2dVertex
 10
216.2185583333333
 20
198.5810805555555
 30
0.0
  0
VERTEX
  5
7C5
330
7C1
100
AcDbEntity
  8
0
100
AcDbVertex
100
AcDb2dVertex
 10
216.4817305555555
 20
198.2328888888889
 30
0.0
  0
VERTEX
  5
7C6
330
7C1
100
AcDbEntity
  8
0
100
AcDbVertex
100
AcDb2dVertex
 10
216.7113888888889
 20
197.8988083333333
 30
0.0
  0
VERTEX
  5
7C7
330
7C1
100
AcDbEntity
  8
0
100
AcDbVertex
100
AcDb2dVertex
 10
216.90965
 20
197.583425
 30
0.0
  0
VERTEX
  5
7C8
330
7C1
100
AcDbEntity
  8
0
100
AcDbVertex
100
AcDb2dVertex
 10
217.077925
 20
197.2892083333333
 30
0.0
  0
VERTEX
  5
7C9
330
7C1
100
AcDbEntity
  8
0
100
AcDbVertex
100
AcDb2dVertex
 10
217.2215055555555
 20
197.0108666666667
 30
0.0
  0
VERTEX
  5
7CA
330
7C1
100
AcDbEntity
  8
0
100
AcDbVertex
100
AcDb2dVertex
 10
217.3379222222222
 20
196.7603944444444
 30
0.0
  0
VERTEX
  5
7CB
330
7C1
100
AcDbEntity
  8
0
100
AcDbVertex
100
AcDb2dVertex
 10
217.4321138888889
 20
196.5346166666666
 30
0.0
  0
VERTEX
  5
7CC
330
7C1
100
AcDbEntity
  8
0
100
AcDbVertex
100
AcDb2dVertex
 10
217.5069027777778
 20
196.3314166666667
 30
0.0
  0
VERTEX
  5
7CD
330
7C1
100
AcDbEntity
  8
0
100
AcDbVertex
100
AcDb2dVertex
 10
217.5615833333333
 20
196.1620833333333
 30
0.0
  0
VERTEX
  5
7CE
330
7C1
100
AcDbEntity
  8
0
100
AcDbVertex
100
AcDb2dVertex
 10
217.6268472222222
 20
195.9042027777778
 30
0.0
  0
VERTEX
  5
7CF
330
7C1
100
AcDbEntity
  8
0
100
AcDbVertex
100
AcDb2dVertex
 10
217.6511888888889
 20
195.7648555555556
 30
0.0
  0
VERTEX
  5
7D0
330
7C1
100
AcDbEntity
  8
0
100
AcDbVertex
100
AcDb2dVertex
 10
217.6861138888889
 20
195.4660527777778
 30
0.0
  0
VERTEX
  5
7D1
330
7C1
100
AcDbEntity
  8
0
100
AcDbVertex
100
AcDb2dVertex
 10
217.7365611111111
 20
195.2441555555556
 30
0.0
  0
VERTEX
  5
7D2
330
7C1
100
AcDbEntity
  8
0
100
AcDbVertex
100
AcDb2dVertex
 10
217.8011194444445
 20
195.0578888888889
 30
0.0
  0
VERTEX
  5
7D3
330
7C1
100
AcDbEntity
  8
0
100
AcDbVertex
100
AcDb2dVertex
 10
217.8773194444445
 20
194.9086638888889
 30
0.0
  0
VERTEX
  5
7D4
330
7C1
100
AcDbEntity
  8
0
100
AcDbVertex
100
AcDb2dVertex
 10
217.9189472222222
 20
194.8479861111111
 30
0.0
  0
VERTEX
  5
7D5
330
7C1
100
AcDbEntity
  8
0
100
AcDbVertex
100
AcDb2dVertex
 10
217.9630444444444
 20
194.7968333333333
 30
0.0
  0
VERTEX
  5
7D6
330
7C1
100
AcDbEntity
  8
0
100
AcDbVertex
100
AcDb2dVertex
 10
218.0078472222222
 20
194.7552055555555
 30
0.0
  0
VERTEX
  5
7D7
330
7C1
100
AcDbEntity
  8
0
100
AcDbVertex
100
AcDb2dVertex
 10
218.0544138888889
 20
194.7223972222222
 30
0.0
  0
VERTEX
  5
7D8
330
7C1
100
AcDbEntity
  8
0
100
AcDbVertex
100
AcDb2dVertex
 10
218.1013333333333
 20
194.6994666666667
 30
0.0
  0
VERTEX
  5
7D9
330
7C1
100
AcDbEntity
  8
0
100
AcDbVertex
100
AcDb2dVertex
 10
218.1493111111111
 20
194.6857083333333
 30
0.0
  0
VERTEX
  5
7DA
330
7C1
100
AcDbEntity
  8
0
100
AcDbVertex
100
AcDb2dVertex
 10
218.2085777777778
 20
194.6828861111111
 30
0.0
  0
VERTEX
  5
7DB
330
7C1
100
AcDbEntity
  8
0
100
AcDbVertex
100
AcDb2dVertex
 10
218.9705777777778
 20
194.6994666666667
 30
0.0
  0
VERTEX
  5
7DC
330
7C1
100
AcDbEntity
  8
0
100
AcDbVertex
100
AcDb2dVertex
 10
219.7336361111111
 20
194.6828861111111
 30
0.0
  0
VERTEX
  5
7DD
330
7C1
100
AcDbEntity
  8
0
100
AcDbVertex
100
AcDb2dVertex
 10
219.7929027777778
 20
194.6857083333333
 30
0.0
  0
VERTEX
  5
7DE
330
7C1
100
AcDbEntity
  8
0
100
AcDbVertex
100
AcDb2dVertex
 10
219.8408805555555
 20
194.6994666666667
 30
0.0
  0
VERTEX
  5
7DF
330
7C1
100
AcDbEntity
  8
0
100
AcDbVertex
100
AcDb2dVertex
 10
219.8878
 20
194.7223972222222
 30
0.0
  0
VERTEX
  5
7E0
330
7C1
100
AcDbEntity
  8
0
100
AcDbVertex
100
AcDb2dVertex
 10
219.9343666666666
 20
194.7552055555555
 30
0.0
  0
VERTEX
  5
7E1
330
7C1
100
AcDbEntity
  8
0
100
AcDbVertex
100
AcDb2dVertex
 10
219.9791694444444
 20
194.7968333333333
 30
0.0
  0
VERTEX
  5
7E2
330
7C1
100
AcDbEntity
  8
0
100
AcDbVertex
100
AcDb2dVertex
 10
220.0232666666666
 20
194.8479861111111
 30
0.0
  0
VERTEX
  5
7E3
330
7C1
100
AcDbEntity
  8
0
100
AcDbVertex
100
AcDb2dVertex
 10
220.0652472222222
 20
194.9086638888889
 30
0.0
  0
VERTEX
  5
7E4
330
7C1
100
AcDbEntity
  8
0
100
AcDbVertex
100
AcDb2dVertex
 10
220.1410944444444
 20
195.0578888888889
 30
0.0
  0
VERTEX
  5
7E5
330
7C1
100
AcDbEntity
  8
0
100
AcDbVertex
100
AcDb2dVertex
 10
220.2056527777778
 20
195.2441555555556
 30
0.0
  0
VERTEX
  5
7E6
330
7C1
100
AcDbEntity
  8
0
100
AcDbVertex
100
AcDb2dVertex
 10
220.2561
 20
195.4660527777778
 30
0.0
  0
VERTEX
  5
7E7
330
7C1
100
AcDbEntity
  8
0
100
AcDbVertex
100
AcDb2dVertex
 10
220.291025
 20
195.7648555555556
 30
0.0
  0
VERTEX
  5
7E8
330
7C1
100
AcDbEntity
  8
0
100
AcDbVertex
100
AcDb2dVertex
 10
220.3153666666666
 20
195.9042027777778
 30
0.0
  0
VERTEX
  5
7E9
330
7C1
100
AcDbEntity
  8
0
100
AcDbVertex
100
AcDb2dVertex
 10
220.3806305555555
 20
196.1620833333333
 30
0.0
  0
VERTEX
  5
7EA
330
7C1
100
AcDbEntity
  8
0
100
AcDbVertex
100
AcDb2dVertex
 10
220.4353111111111
 20
196.3314166666667
 30
0.0
  0
VERTEX
  5
7EB
330
7C1
100
AcDbEntity
  8
0
100
AcDbVertex
100
AcDb2dVertex
 10
220.5101
 20
196.5346166666666
 30
0.0
  0
VERTEX
  5
7EC
330
7C1
100
AcDbEntity
  8
0
100
AcDbVertex
100
AcDb2dVertex
 10
220.6042916666667
 20
196.7603944444444
 30
0.0
  0
VERTEX
  5
7ED
330
7C1
100
AcDbEntity
  8
0
100
AcDbVertex
100
AcDb2dVertex
 10
220.7207083333333
 20
197.0108666666667
 30
0.0
  0
VERTEX
  5
7EE
330
7C1
100
AcDbEntity
  8
0
100
AcDbVertex
100
AcDb2dVertex
 10
220.8642888888889
 20
197.2892083333333
 30
0.0
  0
VERTEX
  5
7EF
330
7C1
100
AcDbEntity
  8
0
100
AcDbVertex
100
AcDb2dVertex
 10
221.0325638888889
 20
197.583425
 30
0.0
  0
VERTEX
  5
7F0
330
7C1
100
AcDbEntity
  8
0
100
AcDbVertex
100
AcDb2dVertex
 10
221.230825
 20
197.8988083333333
 30
0.0
  0
VERTEX
  5
7F1
330
7C1
100
AcDbEntity
  8
0
100
AcDbVertex
100
AcDb2dVertex
 10
221.4604833333333
 20
198.2328888888889
 30
0.0
  0
VERTEX
  5
7F2
330
7C1
100
AcDbEntity
  8
0
100
AcDbVertex
100
AcDb2dVertex
 10
221.7236555555556
 20
198.5810805555555
 30
0.0
  0
VERTEX
  5
7F3
330
7C1
100
AcDbEntity
  8
0
100
AcDbVertex
100
AcDb2dVertex
 10
221.9892972222222
 20
198.9066944444444
 30
0.0
  0
VERTEX
  5
7F4
330
7C1
100
AcDbEntity
  8
0
100
AcDbVertex
100
AcDb2dVertex
 10
221.9900027777778
 20
198.9059888888889
 30
0.0
  0
SEQEND
  5
7F5
330
7C1
100
AcDbEntity
  8
0
 62
     7
  0
SPLINE
  5
7F6
330
1F
100
AcDbEntity
  8
0
 62
     7
100
AcDbSpline
210
0.0
220
0.0
230
1.0
 70
    12
 71
     3
 72
     8
 73
     4
 74
     0
 42
0.000000001
 43
0.0
 40
0.0
 40
0.0
 40
0.0
 40
0.0
 40
1.0
 40
1.0
 40
1.0
 40
1.0
 10
218.9709305555556
 20
180.0613055555555
 30
0.0
 41
1.0
 10
220.3520555555556
 20
180.0613055555555
 30
0.0
 41
1.0
 10
221.4710666666666
 20
178.9419416666667
 30
0.0
 41
1.0
 10
221.4710666666666
 20
177.5611694444444
 30
0.0
 41
1.0
  0
SPLINE
  5
7F7
330
1F
100
AcDbEntity
  8
0
 62
     7
100
AcDbSpline
210
0.0
220
0.0
230
1.0
 70
    12
 71
     3
 72
     8
 73
     4
 74
     0
 42
0.000000001
 43
0.0
 40
0.0
 40
0.0
 40
0.0
 40
0.0
 40
1.0
 40
1.0
 40
1.0
 40
1.0
 10
221.4710666666666
 20
177.5611694444444
 30
0.0
 41
1.0
 10
221.4710666666666
 20
176.18075
 30
0.0
 41
1.0
 10
220.3520555555556
 20
175.0617388888889
 30
0.0
 41
1.0
 10
218.9709305555556
 20
175.0617388888889
 30
0.0
 41
1.0
  0
SPLINE
  5
7F8
330
1F
100
AcDbEntity
  8
0
 62
     7
100
AcDbSpline
210
0.0
220
0.0
230
1.0
 70
    12
 71
     3
 72
     8
 73
     4
 74
     0
 42
0.000000001
 43
0.0
 40
0.0
 40
0.0
 40
0.0
 40
0.0
 40
1.0
 40
1.0
 40
1.0
 40
1.0
 10
218.9709305555556
 20
175.0617388888889
 30
0.0
 41
1.0
 10
217.5905111111111
 20
175.0617388888889
 30
0.0
 41
1.0
 10
216.4711472222222
 20
176.18075
 30
0.0
 41
1.0
 10
216.4711472222222
 20
177.5611694444444
 30
0.0
 41
1.0
  0
SPLINE
  5
7F9
330
1F
100
AcDbEntity
  8
0
 62
     7
100
AcDbSpline
210
0.0
220
0.0
230
1.0
 70
    12
 71
     3
 72
     8
 73
     4
 74
     0
 42
0.000000001
 43
0.0
 40
0.0
 40
0.0
 40
0.0
 40
0.0
 40
1.0
 40
1.0
 40
1.0
 40
1.0
 10
216.4711472222222
 20
177.5611694444444
 30
0.0
 41
1.0
 10
216.4711472222222
 20
178.9419416666667
 30
0.0
 41
1.0
 10
217.5905111111111
 20
180.0613055555555
 30
0.0
 41
1.0
 10
218.9709305555556
 20
180.0613055555555
 30
0.0
 41
1.0
  0
POLYLINE
  5
7FA
330
1F
100
AcDbEntity
  8
0
 62
     7
100
AcDb2dPolyline
 66
     1
 10
0.0
 20
0.0
 30
0.0
  0
VERTEX
  5
7FB
330
7FA
100
AcDbEntity
  8
0
100
AcDbVertex
100
AcDb2dVertex
 10
189.0451444444444
 20
206.9412083333333
 30
0.0
  0
VERTEX
  5
7FC
330
7FA
100
AcDbEntity
  8
0
100
AcDbVertex
100
AcDb2dVertex
 10
249.0434722222222
 20
206.9412083333333
 30
0.0
  0
VERTEX
  5
7FD
330
7FA
100
AcDbEntity
  8
0
100
AcDbVertex
100
AcDb2dVertex
 10
249.0434722222222
 20
148.1814833333333
 30
0.0
  0
VERTEX
  5
7FE
330
7FA
100
AcDbEntity
  8
0
100
AcDbVertex
100
AcDb2dVertex
 10
189.0451444444444
 20
148.1814833333333
 30
0.0
  0
VERTEX
  5
7FF
330
7FA
100
AcDbEntity
  8
0
100
AcDbVertex
100
AcDb2dVertex
 10
189.0451444444444
 20
206.9412083333333
 30
0.0
  0
SEQEND
  5
800
330
7FA
100
AcDbEntity
  8
0
 62
     7
  0
ENDSEC
  0
SECTION
  2
OBJECTS
  0
DICTIONARY
  5
C
330
0
100
AcDbDictionary
281
     1
  3
ACAD_GROUP
350
D
  3
ACAD_LAYOUT
350
1A
  3
ACAD_MLEADERSTYLE
350
802
  3
ACAD_MLINESTYLE
350
17
  3
ACAD_PLOTSETTINGS
350
19
  3
ACAD_PLOTSTYLENAME
350
E
  3
ACAD_TABLESTYLE
350
801
  3
ACAD_VISUALSTYLE
350
2A
  0
DICTIONARY
  5
D
102
{ACAD_REACTORS
330
C
102
}
330
C
100
AcDbDictionary
281
     1
  0
DICTIONARY
  5
1A
102
{ACAD_REACTORS
330
C
102
}
330
C
100
AcDbDictionary
281
     1
  3
Layout1
350
1E
  3
Layout2
350
26
  3
Model
350
22
  0
DICTIONARY
  5
802
102
{ACAD_REACTORS
330
C
102
}
330
C
100
AcDbDictionary
281
     1
  0
DICTIONARY
  5
17
102
{ACAD_REACTORS
330
C
102
}
330
C
100
AcDbDictionary
281
     1
  3
Standard
350
18
  0
DICTIONARY
  5
19
102
{ACAD_REACTORS
330
C
102
}
330
C
100
AcDbDictionary
281
     1
  0
ACDBDICTIONARYWDFLT
  5
E
102
{ACAD_REACTORS
330
C
102
}
330
C
100
AcDbDictionary
281
     1
  3
Normal
350
F
100
AcDbDictionaryWithDefault
340
F
  0
DICTIONARY
  5
801
102
{ACAD_REACTORS
330
C
102
}
330
C
100
AcDbDictionary
281
     1
  0
DICTIONARY
  5
2A
102
{ACAD_REACTORS
330
C
102
}
330
C
100
AcDbDictionary
281
     1
  3
2dWireframe
350
2F
  3
3D Hidden
350
31
  3
3dWireframe
350
30
  3
Basic
350
32
  3
Brighten
350
36
  3
ColorChange
350
3A
  3
Conceptual
350
34
  3
Dim
350
35
  3
Facepattern
350
39
  3
Flat
350
2B
  3
FlatWithEdges
350
2C
  3
Gouraud
350
2D
  3
GouraudWithEdges
350
2E
  3
Linepattern
350
38
  3
Realistic
350
33
  3
Thicken
350
37
  0
LAYOUT
  5
1E
102
{ACAD_REACTORS
330
1A
102
}
330
1A
100
AcDbPlotSettings
  1

  2
none_device
  4

  6

 40
0.0
 41
0.0
 42
0.0
 43
0.0
 44
0.0
 45
0.0
 46
0.0
 47
0.0
 48
0.0
 49
0.0
140
0.0
141
0.0
142
1.0
143
1.0
 70
   688
 72
     0
 73
     0
 74
     5
  7

 75
    16
 76
     0
 77
     2
 78
   300
147
1.0
148
0.0
149
0.0
100
AcDbLayout
  1
Layout1
 70
     1
 71
     1
 10
0.0
 20
0.0
 11
420.0
 21
297.0
 12
0.0
 22
0.0
 32
0.0
 14
1.000000000000000E+20
 24
1.000000000000000E+20
 34
1.000000000000000E+20
 15
-1.000000000000000E+20
 25
-1.000000000000000E+20
 35
-1.000000000000000E+20
146
0.0
 13
0.0
 23
0.0
 33
0.0
 16
1.0
 26
0.0
 36
0.0
 17
0.0
 27
1.0
 37
0.0
 76
     0
330
1B
  0
LAYOUT
  5
26
102
{ACAD_REACTORS
330
1A
102
}
330
1A
100
AcDbPlotSettings
  1

  2
none_device
  4

  6

 40
0.0
 41
0.0
 42
0.0
 43
0.0
 44
0.0
 45
0.0
 46
0.0
 47
0.0
 48
0.0
 49
0.0
140
0.0
141
0.0
142
1.0
143
1.0
 70
   688
 72
     0
 73
     0
 74
     5
  7

 75
    16
 76
     0
 77
     2
 78
   300
147
1.0
148
0.0
149
0.0
100
AcDbLayout
  1
Layout2
 70
     1
 71
     2
 10
0.0
 20
0.0
 11
0.0
 21
0.0
 12
0.0
 22
0.0
 32
0.0
 14
0.0
 24
0.0
 34
0.0
 15
0.0
 25
0.0
 35
0.0
146
0.0
 13
0.0
 23
0.0
 33
0.0
 16
1.0
 26
0.0
 36
0.0
 17
0.0
 27
1.0
 37
0.0
 76
     0
330
23
  0
LAYOUT
  5
22
102
{ACAD_REACTORS
330
1A
102
}
330
1A
100
AcDbPlotSettings
  1

  2
none_device
  4

  6

 40
0.0
 41
0.0
 42
0.0
 43
0.0
 44
0.0
 45
0.0
 46
0.0
 47
0.0
 48
0.0
 49
0.0
140
0.0
141
0.0
142
1.0
143
1.0
 70
  1712
 72
     0
 73
     0
 74
     0
  7

 75
     0
 76
     0
 77
     2
 78
   300
147
1.0
148
0.0
149
0.0
100
AcDbLayout
  1
Model
 70
     1
 71
     0
 10
0.0
 20
0.0
 11
420.0
 21
297.0
 12
0.0
 22
0.0
 32
0.0
 14
1.000000000000000E+20
 24
1.000000000000000E+20
 34
1.000000000000000E+20
 15
-1.000000000000000E+20
 25
-1.000000000000000E+20
 35
-1.000000000000000E+20
146
0.0
 13
0.0
 23
0.0
 33
0.0
 16
1.0
 26
0.0
 36
0.0
 17
0.0
 27
1.0
 37
0.0
 76
     0
330
1F
331
29
  0
MLINESTYLE
  5
18
102
{ACAD_REACTORS
330
17
102
}
330
17
100
AcDbMlineStyle
  2
Standard
 70
     0
  3

 62
   256
 51
90.0
 52
90.0
 71
     2
 49
0.5
 62
   256
  6
BYLAYER
 49
-0.5
 62
   256
  6
BYLAYER
  0
ACDBPLACEHOLDER
  5
F
102
{ACAD_REACTORS
330
E
102
}
330
E
  0
VISUALSTYLE
  5
2F
102
{ACAD_REACTORS
330
2A
102
}
330
2A
100
AcDbVisualStyle
  2
2dWireframe
 70
     4
 71
     0
 72
     2
 73
     0
 90
        0
 40
-0.6
 41
-30.0
 62
     5
 63
     7
421
 16777215
 74
     1
 91
        4
 64
     7
 65
   257
 75
     1
175
     1
 42
1.0
 92
        0
 66
   257
 43
1.0
 76
     1
 77
     6
 78
     2
 67
     7
 79
     5
170
     0
171
     0
290
     0
174
     0
 93
        1
 44
0.0
173
     0
291
     0
 45
0.0
1001
ACAD
1000
AcDbSavedByObjectVersion
1070
     0
  0
VISUALSTYLE
  5
31
102
{ACAD_REACTORS
330
2A
102
}
330
2A
100
AcDbVisualStyle
  2
3D Hidden
 70
     6
 71
     1
 72
     2
 73
     2
 90
        0
 40
-0.6
 41
-30.0
 62
     5
 63
     7
421
 16777215
 74
     2
 91
        2
 64
     7
 65
   257
 75
     2
175
     1
 42
40.0
 92
        0
 66
   257
 43
1.0
 76
     1
 77
     6
 78
     2
 67
     7
 79
     3
170
     0
171
     0
290
     0
174
     0
 93
        1
 44
0.0
173
     0
291
     0
 45
0.0
1001
ACAD
1000
AcDbSavedByObjectVersion
1070
     0
  0
VISUALSTYLE
  5
30
102
{ACAD_REACTORS
330
2A
102
}
330
2A
100
AcDbVisualStyle
  2
3dWireframe
 70
     5
 71
     0
 72
     2
 73
     0
 90
        0
 40
-0.6
 41
-30.0
 62
     5
 63
     7
421
 16777215
 74
     1
 91
        4
 64
     7
 65
   257
 75
     1
175
     1
 42
1.0
 92
        0
 66
   257
 43
1.0
 76
     1
 77
     6
 78
     2
 67
     7
 79
     5
170
     0
171
     0
290
     0
174
     0
 93
        1
 44
0.0
173
     0
291
     0
 45
0.0
1001
ACAD
1000
AcDbSavedByObjectVersion
1070
     0
  0
VISUALSTYLE
  5
32
102
{ACAD_REACTORS
330
2A
102
}
330
2A
100
AcDbVisualStyle
  2
Basic
 70
     7
 71
     1
 72
     0
 73
     1
 90
        0
 40
-0.6
 41
-30.0
 62
     5
 63
     7
421
 16777215
 74
     0
 91
        4
 64
     7
 65
   257
 75
     1
175
     1
 42
1.0
 92
        8
 66
     7
 43
1.0
 76
     1
 77
     6
 78
     2
 67
     7
 79
     5
170
     0
171
     0
290
     0
174
     0
 93
        1
 44
0.0
173
     0
291
     1
 45
0.0
1001
ACAD
1000
AcDbSavedByObjectVersion
1070
     0
  0
VISUALSTYLE
  5
36
102
{ACAD_REACTORS
330
2A
102
}
330
2A
100
AcDbVisualStyle
  2
Brighten
 70
    12
 71
     2
 72
     2
 73
     0
 90
        0
 40
-0.6
 41
-30.0
 62
     5
 63
     7
421
 16777215
 74
     1
 91
        4
 64
     7
 65
   257
 75
     1
175
     1
 42
1.0
 92
        8
 66
     7
 43
1.0
 76
     1
 77
     6
 78
     2
 67
     7
 79
     5
170
     0
171
     0
290
     0
174
     0
 93
        1
 44
50.0
173
     0
291
     1
 45
0.0
1001
ACAD
1000
AcDbSavedByObjectVersion
1070
     0
  0
VISUALSTYLE
  5
3A
102
{ACAD_REACTORS
330
2A
102
}
330
2A
100
AcDbVisualStyle
  2
ColorChange
 70
    16
 71
     2
 72
     2
 73
     3
 90
        0
 40
-0.6
 41
-30.0
 62
     5
 63
     8
421
  8421504
 74
     1
 91
        4
 64
     7
 65
   257
 75
     1
175
     1
 42
1.0
 92
        8
 66
     8
424
  8421504
 43
1.0
 76
     1
 77
     6
 78
     2
 67
     7
 79
     5
170
     0
171
     0
290
     0
174
     0
 93
        1
 44
0.0
173
     0
291
     1
 45
0.0
1001
ACAD
1000
AcDbSavedByObjectVersion
1070
     0
  0
VISUALSTYLE
  5
34
102
{ACAD_REACTORS
330
2A
102
}
330
2A
100
AcDbVisualStyle
  2
Conceptual
 70
     9
 71
     3
 72
     2
 73
     0
 90
        0
 40
-0.6
 41
-30.0
 62
     5
 63
     7
421
 16777215
 74
     2
 91
        2
 64
     7
 65
   257
 75
     1
175
     1
 42
40.0
 92
        8
 66
     7
 43
1.0
 76
     1
 77
     6
 78
     2
 67
     7
 79
     3
170
     0
171
     0
290
     0
174
     0
 93
        1
 44
0.0
173
     0
291
     0
 45
0.0
1001
ACAD
1000
AcDbSavedByObjectVersion
1070
     0
  0
VISUALSTYLE
  5
35
102
{ACAD_REACTORS
330
2A
102
}
330
2A
100
AcDbVisualStyle
  2
Dim
 70
    11
 71
     2
 72
     2
 73
     0
 90
        0
 40
-0.6
 41
-30.0
 62
     5
 63
     7
421
 16777215
 74
     1
 91
        4
 64
     7
 65
   257
 75
     1
175
     1
 42
1.0
 92
        8
 66
     7
 43
1.0
 76
     1
 77
     6
 78
     2
 67
     7
 79
     5
170
     0
171
     0
290
     0
174
     0
 93
        1
 44
-50.0
173
     0
291
     1
 45
0.0
1001
ACAD
1000
AcDbSavedByObjectVersion
1070
     0
  0
VISUALSTYLE
  5
39
102
{ACAD_REACTORS
330
2A
102
}
330
2A
100
AcDbVisualStyle
  2
Facepattern
 70
    15
 71
     2
 72
     2
 73
     0
 90
        0
 40
-0.6
 41
-30.0
 62
     5
 63
     7
421
 16777215
 74
     1
 91
        4
 64
     7
 65
   257
 75
     1
175
     1
 42
1.0
 92
        8
 66
     7
 43
1.0
 76
     1
 77
     6
 78
     2
 67
     7
 79
     5
170
     0
171
     0
290
     0
174
     0
 93
        1
 44
0.0
173
     0
291
     1
 45
0.0
1001
ACAD
1000
AcDbSavedByObjectVersion
1070
     0
  0
VISUALSTYLE
  5
2B
102
{ACAD_REACTORS
330
2A
102
}
330
2A
100
AcDbVisualStyle
  2
Flat
 70
     0
 71
     2
 72
     1
 73
     1
 90
        2
 40
-0.6
 41
30.0
 62
     5
 63
     7
421
 16777215
 74
     0
 91
        4
 64
     7
 65
   257
 75
     1
175
     1
 42
1.0
 92
        8
 66
     7
 43
1.0
 76
     1
 77
     6
 78
     2
 67
     7
 79
     5
170
     0
171
     0
290
     0
174
     0
 93
       13
 44
0.0
173
     0
291
     1
 45
0.0
1001
ACAD
1000
AcDbSavedByObjectVersion
1070
     0
  0
VISUALSTYLE
  5
2C
102
{ACAD_REACTORS
330
2A
102
}
330
2A
100
AcDbVisualStyle
  2
FlatWithEdges
 70
     1
 71
     2
 72
     1
 73
     1
 90
        2
 40
-0.6
 41
30.0
 62
     5
 63
     7
421
 16777215
 74
     1
 91
        4
 64
     7
 65
   257
 75
     1
175
     1
 42
1.0
 92
        0
 66
   257
 43
1.0
 76
     1
 77
     6
 78
     2
 67
     7
 79
     5
170
     0
171
     0
290
     0
174
     0
 93
       13
 44
0.0
173
     0
291
     1
 45
0.0
1001
ACAD
1000
AcDbSavedByObjectVersion
1070
     0
  0
VISUALSTYLE
  5
2D
102
{ACAD_REACTORS
330
2A
102
}
330
2A
100
AcDbVisualStyle
  2
Gouraud
 70
     2
 71
     2
 72
     2
 73
     1
 90
        2
 40
-0.6
 41
30.0
 62
     5
 63
     7
421
 16777215
 74
     0
 91
        4
 64
     7
 65
   257
 75
     1
175
     1
 42
1.0
 92
        0
 66
     7
 43
1.0
 76
     1
 77
     6
 78
     2
 67
     7
 79
     5
170
     0
171
     0
290
     0
174
     0
 93
       13
 44
0.0
173
     0
291
     1
 45
0.0
1001
ACAD
1000
AcDbSavedByObjectVersion
1070
     0
  0
VISUALSTYLE
  5
2E
102
{ACAD_REACTORS
330
2A
102
}
330
2A
100
AcDbVisualStyle
  2
GouraudWithEdges
 70
     3
 71
     2
 72
     2
 73
     1
 90
        2
 40
-0.6
 41
30.0
 62
     5
 63
     7
421
 16777215
 74
     1
 91
        4
 64
     7
 65
   257
 75
     1
175
     1
 42
1.0
 92
        0
 66
   257
 43
1.0
 76
     1
 77
     6
 78
     2
 67
     7
 79
     5
170
     0
171
     0
290
     0
174
     0
 93
       13
 44
0.0
173
     0
291
     1
 45
0.0
1001
ACAD
1000
AcDbSavedByObjectVersion
1070
     0
  0
VISUALSTYLE
  5
38
102
{ACAD_REACTORS
330
2A
102
}
330
2A
100
AcDbVisualStyle
  2
Linepattern
 70
    14
 71
     2
 72
     2
 73
     0
 90
        0
 40
-0.6
 41
-30.0
 62
     5
 63
     7
421
 16777215
 74
     1
 91
        4
 64
     7
 65
   257
 75
     7
175
     7
 42
1.0
 92
        8
 66
     7
 43
1.0
 76
     1
 77
     6
 78
     2
 67
     7
 79
     5
170
     0
171
     0
290
     0
174
     0
 93
        1
 44
0.0
173
     0
291
     1
 45
0.0
1001
ACAD
1000
AcDbSavedByObjectVersion
1070
     0
  0
VISUALSTYLE
  5
33
102
{ACAD_REACTORS
330
2A
102
}
330
2A
100
AcDbVisualStyle
  2
Realistic
 70
     8
 71
     2
 72
     2
 73
     0
 90
        0
 40
-0.6
 41
-30.0
 62
     5
 63
     7
421
 16777215
 74
     1
 91
        0
 64
     7
 65
   257
 75
     1
175
     1
 42
1.0
 92
        8
 66
     8
424
  7895160
 43
1.0
 76
     1
 77
     6
 78
     2
 67
     7
 79
     5
170
     0
171
     0
290
     0
174
     0
 93
       13
 44
0.0
173
     0
291
     0
 45
0.0
1001
ACAD
1000
AcDbSavedByObjectVersion
1070
     0
  0
VISUALSTYLE
  5
37
102
{ACAD_REACTORS
330
2A
102
}
330
2A
100
AcDbVisualStyle
  2
Thicken
 70
    13
 71
     2
 72
     2
 73
     0
 90
        0
 40
-0.6
 41
-30.0
 62
     5
 63
     7
421
 16777215
 74
     1
 91
        4
 64
     7
 65
   257
 75
     1
175
     1
 42
1.0
 92
       12
 66
     7
 43
1.0
 76
     1
 77
     6
 78
     2
 67
     7
 79
     5
170
     0
171
     0
290
     0
174
     0
 93
        1
 44
0.0
173
     0
291
     1
 45
0.0
1001
ACAD
1000
AcDbSavedByObjectVersion
1070
     0
  0
ENDSEC
  0
EOF
