  0
SECTION
  2
HEADER
  9
$ACADVER
  1
AC1015
  9
$ACADMAINTVER
 70
           6
  9
$DWGCODEPAGE
  3
ANSI_1252
  9
$INSBASE
 10
0.0
 20
0.0
 30
0.0
  9
$EXTMIN
 10
-5.899130243029
 20
0.0
 30
-0.000000217586
  9
$EXTMAX
 10
2438.4
 20
2463.844151371
 30
0.000000217586
  9
$LIMMIN
 10
0.0
 20
0.0
  9
$LIMMAX
 10
297.0
 20
210.0
  9
$ORTHOMODE
 70
           0
  9
$REGENMODE
 70
           1
  9
$FILLMODE
 70
           1
  9
$QTEXTMODE
 70
           0
  9
$MIRRTEXT
 70
           1
  9
$LTSCALE
 40
1.0
  9
$ATTMODE
 70
           1
  9
$TEXTSIZE
 40
5.0440917015
  9
$TRACEWID
 40
1.0
  9
$TEXTSTYLE
  7
STANDARD
  9
$CLAYER
  8
0
  9
$CELTYPE
  6
Continuous
  9
$CECOLOR
 62
           7
  9
$CELTSCALE
 40
1.0
  9
$DISPSILH
 70
           0
  9
$DIMSCALE
 40
1.0
  9
$DIMASZ
 40
50.0
  9
$DIMEXO
 40
0.0625
  9
$DIMDLI
 40
0.375
  9
$DIMRND
 40
0.01
  9
$DIMDLE
 40
0.0
  9
$DIMEXE
 40
0.125
  9
$DIMTP
 40
0.0
  9
$DIMTM
 40
0.0
  9
$DIMTXT
 40
30.0
  9
$DIMCEN
 40
0.09
  9
$DIMTSZ
 40
0.0
  9
$DIMTOL
 70
           0
  9
$DIMLIM
 70
           0
  9
$DIMTIH
 70
           1
  9
$DIMTOH
 70
           1
  9
$DIMSE1
 70
           0
  9
$DIMSE2
 70
           0
  9
$DIMTAD
 70
           1
  9
$DIMZIN
 70
           0
  9
$DIMBLK
  1

  9
$DIMASO
 70
           0
  9
$DIMSHO
 70
           1
  9
$DIMPOST
  1
<>mm
  9
$DIMAPOST
  1
<>
  9
$DIMALT
 70
           0
  9
$DIMALTD
 70
           2
  9
$DIMALTF
 40
1.0
  9
$DIMLFAC
 40
1.0
  9
$DIMTOFL
 70
           1
  9
$DIMTVP
 40
0.0
  9
$DIMTIX
 70
           0
  9
$DIMSOXD
 70
           0
  9
$DIMSAH
 70
           0
  9
$DIMBLK1
  1

  9
$DIMBLK2
  1

  9
$DIMSTYLE
  2
STANDARD
  9
$DIMCLRD
 70
           7
  9
$DIMCLRE
 70
           7
  9
$DIMCLRT
 70
           7
  9
$DIMTFAC
 40
1.0
  9
$DIMGAP
 40
0.0625
  9
$DIMJUST
 70
           0
  9
$DIMSD1
 70
           0
  9
$DIMSD2
 70
           0
  9
$DIMTOLJ
 70
           1
  9
$DIMTZIN
 70
           0
  9
$DIMALTZ
 70
           0
  9
$DIMALTTZ
 70
           0
  9
$DIMUPT
 70
           0
  9
$DIMDEC
 70
           2
  9
$DIMTDEC
 70
           2
  9
$DIMALTU
 70
           2
  9
$DIMALTTD
 70
           2
  9
$DIMTXSTY
  7
STANDARD
  9
$DIMAUNIT
 70
           0
  9
$DIMADEC
 70
           2
  9
$DIMALTRND
 40
0.0
  9
$DIMAZIN
 70
           0
  9
$DIMDSEP
 70
           0
  9
$DIMATFIT
 70
           0
  9
$DIMFRAC
 70
           0
  9
$DIMLDRBLK
  1

  9
$DIMLUNIT
 70
           2
  9
$DIMLWD
 70
           0
  9
$DIMLWE
 70
           0
  9
$DIMTMOVE
 70
           0
  9
$LUNITS
 70
           2
  9
$LUPREC
 70
           2
  9
$SKETCHINC
 40
1.0
  9
$FILLETRAD
 40
1.0
  9
$AUNITS
 70
           0
  9
$AUPREC
 70
           2
  9
$MENU
  1
acad
  9
$ELEVATION
 40
0.0
  9
$PELEVATION
 40
0.0
  9
$THICKNESS
 40
0.0
  9
$LIMCHECK
 70
           0
  9
$CHAMFERA
 40
0.0
  9
$CHAMFERB
 40
0.0
  9
$CHAMFERC
 40
0.0
  9
$CHAMFERD
 40
0.0
  9
$SKPOLY
 70
           0
  9
$TDCREATE
 40
0.000000000
  9
$TDUCREATE
 40
0.000000000
  9
$TDUPDATE
 40
0.000000000
  9
$TDUUPDATE
 40
0.000000000
  9
$TDINDWG
 40
0.0000000000
  9
$TDUSRTIMER
 40
0.0000000000
  9
$USRTIMER
 70
           1
  9
$ANGBASE
 50
0.0
  9
$ANGDIR
 70
           0
  9
$PDMODE
 70
           0
  9
$PDSIZE
 40
0.0
  9
$PLINEWID
 40
0.0
  9
$SPLFRAME
 70
           0
  9
$SPLINETYPE
 70
           6
  9
$SPLINESEGS
 70
          20
  9
$HANDSEED
  5
A1
  9
$SURFTAB1
 70
           6
  9
$SURFTAB2
 70
           6
  9
$SURFTYPE
 70
           6
  9
$SURFU
 70
           6
  9
$SURFV
 70
           6
  9
$UCSBASE
  2

  9
$UCSNAME
  2

  9
$UCSORG
 10
7.4779246679
 20
511.00799706369997
 30
7.4779246679
  9
$UCSXDIR
 10
1.0
 20
0.0
 30
0.0
  9
$UCSYDIR
 10
0.0
 20
-1.0
 30
0.0
  9
$UCSORTHOREF
  2

  9
$UCSORTHOVIEW
 70
           0
  9
$UCSORGTOP
 10
0.0
 20
0.0
 30
0.0
  9
$UCSORGBOTTOM
 10
0.0
 20
0.0
 30
0.0
  9
$UCSORGLEFT
 10
0.0
 20
0.0
 30
0.0
  9
$UCSORGRIGHT
 10
0.0
 20
0.0
 30
0.0
  9
$UCSORGFRONT
 10
0.0
 20
0.0
 30
0.0
  9
$UCSORGBACK
 10
0.0
 20
0.0
 30
0.0
  9
$PUCSBASE
  2

  9
$PUCSNAME
  2

  9
$PUCSORG
 10
0.0
 20
0.0
 30
0.0
  9
$PUCSXDIR
 10
1.0
 20
0.0
 30
0.0
  9
$PUCSYDIR
 10
0.0
 20
1.0
 30
0.0
  9
$PUCSORTHOREF
  2

  9
$PUCSORTHOVIEW
 70
           0
  9
$PUCSORGTOP
 10
0.0
 20
0.0
 30
0.0
  9
$PUCSORGBOTTOM
 10
0.0
 20
0.0
 30
0.0
  9
$PUCSORGLEFT
 10
0.0
 20
0.0
 30
0.0
  9
$PUCSORGRIGHT
 10
0.0
 20
0.0
 30
0.0
  9
$PUCSORGFRONT
 10
0.0
 20
0.0
 30
0.0
  9
$PUCSORGBACK
 10
0.0
 20
0.0
 30
0.0
  9
$USERI1
 70
           0
  9
$USERI2
 70
           0
  9
$USERI3
 70
           0
  9
$USERI4
 70
           0
  9
$USERI5
 70
           0
  9
$USERR1
 40
0.0
  9
$USERR2
 40
0.0
  9
$USERR3
 40
0.0
  9
$USERR4
 40
0.0
  9
$USERR5
 40
0.0
  9
$WORLDVIEW
 70
           1
  9
$SHADEDGE
 70
           3
  9
$SHADEDIF
 70
          70
  9
$TILEMODE
 70
           1
  9
$MAXACTVP
 70
          16
  9
$PINSBASE
 10
0.0
 20
0.0
 30
0.0
  9
$PLIMCHECK
 70
           0
  9
$PEXTMIN
 10
0.0
 20
0.0
 30
0.0
  9
$PEXTMAX
 10
297.0
 20
210.0
 30
0.0
  9
$PLIMMIN
 10
0.0
 20
0.0
  9
$PLIMMAX
 10
297.0
 20
210.0
  9
$UNITMODE
 70
           0
  9
$VISRETAIN
 70
           0
  9
$PLINEGEN
 70
           1
  9
$PSLTSCALE
 70
           1
  9
$TREEDEPTH
 70
        3020
  9
$CMLSTYLE
  2
STANDARD
  9
$CMLJUST
 70
           0
  9
$CMLSCALE
 40
1.0
  9
$PROXYGRAPHICS
 70
           0
  9
$MEASUREMENT
 70
           0
  9
$CELWEIGHT
370
           0
  9
$ENDCAPS
280
           0
  9
$JOINSTYLE
280
           0
  9
$LWDISPLAY
290
           0
  9
$INSUNITS
 70
           0
  9
$HYPERLINKBASE
  1

  9
$STYLESHEET
  1

  9
$XEDIT
290
           1
  9
$CEPSNTYPE
380
           0
  9
$PSTYLEMODE
290
           1
  9
$FINGERPRINTGUID
  2

  9
$VERSIONGUID
  2

  9
$EXTNAMES
290
           1
  9
$PSVPSCALE
 40
0.0
  0
ENDSEC
  0
SECTION
  2
CLASSES
  0
CLASS
  1
LWPOLYLINE
  2
AcDbPolyline
  3
AutoCAD 2000
 90
        0
280
           0
281
           1
  0
CLASS
  1
IMAGE
  2
AcDbRasterImage
  3
ISM
 90
    32895
280
           0
281
           1
  0
CLASS
  1
OLE2FRAME
  2
AcDbOle2Frame
  3
AutoCAD 2000
 90
    32768
280
           0
281
           1
  0
CLASS
  1
HATCH
  2
AcDbHatch
  3
AutoCAD 2000
 90
    32768
280
           0
281
           1
  0
CLASS
  1
DICTIONARYVAR
  2
AcDbDictionaryVar
  3
AutoCAD 2000
 90
    32768
280
           0
281
           0
  0
CLASS
  1
RASTERVARIABLES
  2
AcDbRasterVariables
  3
ISM
 90
    32768
280
           0
281
           0
  0
CLASS
  1
IMAGEDEF
  2
AcDbRasterImageDef
  3
ISM
 90
    32768
280
           0
281
           0
  0
CLASS
  1
IMAGEDEF_REACTOR
  2
AcDbRasterImageDefReactor
  3
ISM
 90
    32769
280
           0
281
           0
  0
CLASS
  1
IDBUFFER
  2
AcDbIdBuffer
  3
AutoCAD 2000
 90
    32768
280
           0
281
           0
  0
CLASS
  1
SPATIAL_FILTER
  2
AcDbSpatialFilter
  3
AutoCAD 2000
 90
    32768
280
           0
281
           0
  0
CLASS
  1
XRECORD
  2
AcDbXrecord
  3
AutoCAD 2000
 90
    32768
280
           0
281
           0
  0
CLASS
  1
SORTENTSTABLE
  2
AcDbSortentsTable
  3
AutoCAD 2000
 90
    32768
280
           0
281
           0
  0
CLASS
  1
LAYER_INDEX
  2
AcDbLayerIndex
  3
AutoCAD 2000
 90
    32768
280
           0
281
           0
  0
CLASS
  1
SPATIAL_INDEX
  2
AcDbSpatialIndex
  3
AutoCAD 2000
 90
    32768
280
           0
281
           0
  0
CLASS
  1
OBJECT_PTR
  2
CAseDLPNTableRecord
  3
"ASE-LPNTableRecord"
 90
    32769
280
           0
281
           0
  0
CLASS
  1
LAYOUT
  2
AcDbLayout
  3
AutoCAD 2000
 90
        0
280
           0
281
           0
  0
CLASS
  1
PLOTSETTINGS
  2
AcDbPlotSettings
  3
AutoCAD 2000
 90
    32768
280
           0
281
           0
  0
CLASS
  1
ACDBDICTIONARYWDFLT
  2
AcDbDictionaryWithDefault
  3
AutoCAD 2000
 90
        0
280
           0
281
           0
  0
CLASS
  1
ACDBPLACEHOLDER
  2
AcDbPlaceHolder
  3
AutoCAD 2000
 90
        0
280
           0
281
           0
  0
ENDSEC
  0
SECTION
  2
TABLES
  0
TABLE
  2
VPORT
  5
7
100
AcDbSymbolTable
 70
           1
  0
VPORT
  5
15
100
AcDbSymbolTableRecord
100
AcDbViewportTableRecord
  2
*ACTIVE
 70
           0
 10
0.0
 20
0.0
 11
1.0
 21
1.0
 12
0.0
 22
0.0
 13
0.0
 23
0.0
 14
5.0
 24
5.0
 15
5.0
 25
5.0
 16
0.0
 26
0.0
 36
1.0
 17
2527.06146116326
 27
1175.122239825253
 37
0.0
 40
4542.299119743268
 41
1.468434343434
 42
50.0
 43
0.0
 44
0.0
 50
0.0
 51
0.0
 71
           0
 72
         100
 73
           1
 74
           1
 75
           0
 76
           1
 77
           0
 78
           0
281
           0
 65
           0
110
0.0
120
0.0
130
0.0
111
1.0
121
0.0
131
0.0
112
0.0
122
1.0
132
0.0
345
0
346
0
 79
           0
146
0.0
  0
ENDTAB
  0
TABLE
  2
LTYPE
  5
4
100
AcDbSymbolTable
 70
          15
  0
LTYPE
  5
11
100
AcDbSymbolTableRecord
100
AcDbLinetypeTableRecord
  2
ByBlock
 70
          64
  3

 72
          65
 73
           0
 40
0.0
  0
LTYPE
  5
12
100
AcDbSymbolTableRecord
100
AcDbLinetypeTableRecord
  2
ByLayer
 70
          64
  3

 72
          65
 73
           0
 40
0.0
  0
LTYPE
  5
13
100
AcDbSymbolTableRecord
100
AcDbLinetypeTableRecord
  2
Continuous
 70
          64
  3
Solid line
 72
          65
 73
           0
 40
0.0
  0
LTYPE
  5
24
100
AcDbSymbolTableRecord
100
AcDbLinetypeTableRecord
  2
BORDER
 70
           0
  3
BORDER
 72
          65
 73
           6
 40
1.75
 49
0.5
 74
           0
 49
-0.25
 74
           0
 49
0.5
 74
           0
 49
-0.25
 74
           0
 49
0.0
 74
           0
 49
-0.25
 74
           0
  0
LTYPE
  5
25
100
AcDbSymbolTableRecord
100
AcDbLinetypeTableRecord
  2
CENTER
 70
           0
  3
CENTER
 72
          65
 73
           4
 40
2.0
 49
1.25
 74
           0
 49
-0.25
 74
           0
 49
0.25
 74
           0
 49
-0.25
 74
           0
  0
LTYPE
  5
26
100
AcDbSymbolTableRecord
100
AcDbLinetypeTableRecord
  2
DASHDOT
 70
           0
  3
DASHDOT
 72
          65
 73
           4
 40
1.0
 49
0.5
 74
           0
 49
-0.25
 74
           0
 49
0.0
 74
           0
 49
-0.25
 74
           0
  0
LTYPE
  5
27
100
AcDbSymbolTableRecord
100
AcDbLinetypeTableRecord
  2
DASHED
 70
           0
  3
DASHED
 72
          65
 73
           2
 40
0.75
 49
0.5
 74
           0
 49
-0.25
 74
           0
  0
LTYPE
  5
28
100
AcDbSymbolTableRecord
100
AcDbLinetypeTableRecord
  2
DIVIDE
 70
           0
  3
DIVIDE
 72
          65
 73
           6
 40
1.25
 49
0.5
 74
           0
 49
-0.25
 74
           0
 49
0.0
 74
           0
 49
-0.25
 74
           0
 49
0.0
 74
           0
 49
-0.25
 74
           0
  0
LTYPE
  5
29
100
AcDbSymbolTableRecord
100
AcDbLinetypeTableRecord
  2
DOT
 70
           0
  3
DOT
 72
          65
 73
           2
 40
0.25
 49
0.0
 74
           0
 49
-0.25
 74
           0
  0
LTYPE
  5
2A
100
AcDbSymbolTableRecord
100
AcDbLinetypeTableRecord
  2
HIDDEN
 70
           0
  3
HIDDEN
 72
          65
 73
           2
 40
0.375
 49
0.25
 74
           0
 49
-0.125
 74
           0
  0
LTYPE
  5
2B
100
AcDbSymbolTableRecord
100
AcDbLinetypeTableRecord
  2
PHANTOM
 70
           0
  3
PHANTOM
 72
          65
 73
           6
 40
2.5
 49
1.25
 74
           0
 49
-0.25
 74
           0
 49
0.25
 74
           0
 49
-0.25
 74
           0
 49
0.25
 74
           0
 49
-0.25
 74
           0
  0
LTYPE
  5
2C
100
AcDbSymbolTableRecord
100
AcDbLinetypeTableRecord
  2
$INVISIBLE
 70
           0
  3
$INVISIBLE
 72
          65
 73
           2
 40
200.0
 49
-100.0
 74
           0
 49
-100.0
 74
           0
  0
LTYPE
  5
2D
100
AcDbSymbolTableRecord
100
AcDbLinetypeTableRecord
  2
$AUXILIARY
 70
           0
  3
$AUXILIARY
 72
          65
 73
           2
 40
0.10000000149
 49
0.050000000745
 74
           0
 49
-0.050000000745
 74
           0
  0
LTYPE
  5
2E
100
AcDbSymbolTableRecord
100
AcDbLinetypeTableRecord
  2
$CONSTRUCTION
 70
           0
  3
$CONSTRUCTION
 72
          65
 73
           4
 40
0.3
 49
0.2
 74
           0
 49
-0.05
 74
           0
 49
0.0
 74
           0
 49
-0.05
 74
           0
  0
LTYPE
  5
2F
100
AcDbSymbolTableRecord
100
AcDbLinetypeTableRecord
  2
$SNAPEXT
 70
           0
  3
$SNAPEXT
 72
          65
 73
           2
 40
0.04
 49
0.02
 74
           0
 49
-0.02
 74
           0
  0
ENDTAB
  0
TABLE
  2
LAYER
  5
2
100
AcDbSymbolTable
 70
           2
  0
LAYER
  5
14
100
AcDbSymbolTableRecord
100
AcDbLayerTableRecord
  2
0
 70
           0
 62
           7
  6
Continuous
290
           1
370
           0
390
0
1001
TCAD
1000
TCW_LAYER_ORDER
1002
{
1071
        0
1002
}
  0
LAYER
  5
30
100
AcDbSymbolTableRecord
100
AcDbLayerTableRecord
  2
$CONSTRUCTION
 70
           0
 62
           9
  6
$CONSTRUCTION
290
           1
370
           0
390
0
1001
TCAD
1000
TCW_LAYER_ORDER
1002
{
1071
        0
1002
}
  0
ENDTAB
  0
TABLE
  2
STYLE
  5
3
100
AcDbSymbolTable
 70
           1
  0
STYLE
  5
17
100
AcDbSymbolTableRecord
100
AcDbTextStyleTableRecord
  2
STANDARD
 70
           0
 40
0.0
 41
1.0
 50
0.0
 71
           0
 42
0.15000000596
  3

  4

1001
ACAD
1000
Times New Roman
1071
      290
  0
ENDTAB
  0
TABLE
  2
VIEW
  5
5
100
AcDbSymbolTable
 70
           1
  0
VIEW
  5
31
100
AcDbSymbolTableRecord
100
AcDbViewTableRecord
  2
View_0
 70
           0
 40
8.267716535433
 10
5.846456692913
 20
4.133858267717
 41
11.692913385827
 11
0.0
 21
0.0
 31
1.0
 12
0.0
 22
0.0
 32
0.0
 42
45.247172312671
 43
0.0
 44
0.0
 50
0.0
 71
           0
281
           0
 72
           0
110
0.0
120
0.0
130
0.0
111
1.0
121
0.0
131
0.0
112
0.0
122
1.0
132
0.0
  0
ENDTAB
  0
TABLE
  2
UCS
  5
6
100
AcDbSymbolTable
 70
           0
  0
ENDTAB
  0
TABLE
  2
APPID
  5
8
100
AcDbSymbolTable
 70
           2
  0
APPID
  5
16
100
AcDbSymbolTableRecord
100
AcDbRegAppTableRecord
  2
ACAD
 70
           0
  0
APPID
  5
23
100
AcDbSymbolTableRecord
100
AcDbRegAppTableRecord
  2
TCAD
 70
           0
  0
ENDTAB
  0
TABLE
  2
DIMSTYLE
  5
9
100
AcDbSymbolTable
 70
           1
100
AcDbDimStyleTable
 71
           0
  0
DIMSTYLE
105
18
100
AcDbSymbolTableRecord
100
AcDbDimStyleTableRecord
  2
STANDARD
 70
           0
  3
<>mm
  4
<>
 40
1.0
 41
50.0
 42
0.0625
 43
0.375
 44
0.125
 45
0.01
 46
0.0
 47
0.0
 48
0.0
 71
           0
 72
           0
 73
           1
 74
           1
 75
           0
 76
           0
 77
           1
 78
           0
 79
           0
140
30.0
141
0.09
142
0.0
143
1.0
144
1.0
145
0.0
146
1.0
147
0.0625
148
0.01
170
           0
171
           2
172
           1
173
           0
174
           0
175
           0
176
           7
177
           7
178
           7
179
           2
271
           2
272
           2
273
           2
274
           2
275
           0
276
           0
277
           2
278
          46
279
           0
280
           0
281
           0
282
           0
283
           1
284
           0
285
           0
286
           0
288
           0
340
17
341
0
342
0
343
0
344
0
371
          -2
372
          -2
  0
ENDTAB
  0
TABLE
  2
BLOCK_RECORD
  5
1
100
AcDbSymbolTable
 70
           4
  0
BLOCK_RECORD
  5
A
100
AcDbSymbolTableRecord
100
AcDbBlockTableRecord
  2
*MODEL_SPACE
340
9F
  0
BLOCK_RECORD
  5
B
100
AcDbSymbolTableRecord
100
AcDbBlockTableRecord
  2
*PAPER_SPACE
340
A0
  0
BLOCK_RECORD
  5
37
100
AcDbSymbolTableRecord
100
AcDbBlockTableRecord
  2
*E0
340
0
102
{BLKREFS
331
3B
102
}
  0
BLOCK_RECORD
  5
4D
100
AcDbSymbolTableRecord
100
AcDbBlockTableRecord
  2
*E1
340
0
102
{BLKREFS
331
51
102
}
  0
BLOCK_RECORD
  5
52
100
AcDbSymbolTableRecord
100
AcDbBlockTableRecord
  2
*E2
340
0
102
{BLKREFS
331
56
102
}
  0
BLOCK_RECORD
  5
6F
100
AcDbSymbolTableRecord
100
AcDbBlockTableRecord
  2
*E3
340
0
102
{BLKREFS
331
73
102
}
  0
ENDTAB
  0
ENDSEC
  0
SECTION
  2
BLOCKS
  0
BLOCK
  5
D
100
AcDbEntity
  8
0
100
AcDbBlockBegin
  2
*MODEL_SPACE
 70
           0
 10
0.0
 20
0.0
 30
0.0
  3
*MODEL_SPACE
  1

  0
ENDBLK
  5
E
100
AcDbEntity
  8
0
100
AcDbBlockEnd
  0
BLOCK
  5
F
100
AcDbEntity
 67
           1
  8
0
100
AcDbBlockBegin
  2
*PAPER_SPACE
 70
           0
 10
0.0
 20
0.0
 30
0.0
  3
*PAPER_SPACE
  1

  0
ENDBLK
  5
10
100
AcDbEntity
 67
           1
  8
0
100
AcDbBlockEnd
  0
BLOCK
  5
38
100
AcDbEntity
  8
0
100
AcDbBlockBegin
  2
*E0
 70
           1
 10
0.0
 20
0.0
 30
0.0
  3
*E0
  1

  0
LWPOLYLINE
  5
39
100
AcDbEntity
  8
0
370
           0
  6
Continuous
 62
           7
100
AcDbPolyline
 90
      181
 70
           0
 38
-0.0
 10
-2177.477924667944
 20
291.007997063737
 10
-2169.007624427812
 20
287.597369359151
 10
-2160.481360213458
 20
284.17099167229
 10
-2151.905306726555
 20
280.730722323536
 10
-2143.285638668771
 20
277.27841963327
 10
-2134.628530741779
 20
273.815941921871
 10
-2125.940157647249
 20
270.34514750972
 10
-2117.226694086853
 20
266.867894717198
 10
-2108.494314762259
 20
263.386041864685
 10
-2099.74919437514
 20
259.901447272562
 10
-2090.997507627166
 20
256.415969261209
 10
-2082.245429220009
 20
252.931466151007
 10
-2073.499133855338
 20
249.449796262336
 10
-2064.764796234824
 20
245.972817915578
 10
-2056.048591060139
 20
242.502389431112
 10
-2047.356693032953
 20
239.040369129319
 10
-2038.695276854937
 20
235.58861533058
 10
-2030.070517227762
 20
232.148986355274
 10
-2021.488588853098
 20
228.723340523784
 10
-2012.955666432617
 20
225.313536156489
 10
-2004.477924667988
 20
221.921431573769
 10
-1992.451186971299
 20
217.112851993386
 10
-1980.38446503333
 20
212.304971530348
 10
-1968.278751625814
 20
207.502392456455
 10
-1956.135039520487
 20
202.709717043508
 10
-1943.954321489081
 20
197.931547563305
 10
-1931.737590303331
 20
193.172486287647
 10
-1919.485838734972
 20
188.437135488333
 10
-1907.200059555738
 20
183.730097437163
 10
-1894.881245537362
 20
179.055974405937
 10
-1882.53038945158
 20
174.419368666454
 10
-1870.148484070127
 20
169.824882490514
 10
-1857.736522164735
 20
165.277118149918
 10
-1845.295496507139
 20
160.780677916464
 10
-1832.826399869074
 20
156.340164061952
 10
-1820.330225022274
 20
151.960178858182
 10
-1807.807964738473
 20
147.645324576954
 10
-1795.260611789405
 20
143.400203490068
 10
-1782.689158946804
 20
139.229417869323
 10
-1770.094598982406
 20
135.137569986519
 10
-1757.477924667944
 20
131.129262113456
 10
-1745.090408448958
 20
127.287836403166
 10
-1732.69640569854
 20
123.538291624823
 10
-1720.295024105596
 20
119.876460999557
 10
-1707.88537135903
 20
116.298177748495
 10
-1695.466555147748
 20
112.799275092765
 10
-1683.037683160655
 20
109.375586253495
 10
-1670.597863086656
 20
106.022944451814
 10
-1658.146202614656
 20
102.737182908849
 10
-1645.681809433559
 20
99.514134845729
 10
-1633.203791232271
 20
96.349633483581
 10
-1620.711255699697
 20
93.239512043534
 10
-1608.203310524742
 20
90.179603746715
 10
-1595.679063396311
 20
87.165741814254
 10
-1583.137622003309
 20
84.193759467278
 10
-1570.578094034642
 20
81.259489926914
 10
-1557.999587179213
 20
78.358766414291
 10
-1545.401209125928
 20
75.487422150538
 10
-1532.782067563692
 20
72.641290356782
 10
-1520.14127018141
 20
69.816204254151
 10
-1507.477924667988
 20
67.007997063774
 10
-1495.103765906992
 20
64.3327180702
 10
-1482.711098728614
 20
61.768477303152
 10
-1470.300800128048
 20
59.309931180905
 10
-1457.87374710049
 20
56.95173612173
 10
-1445.430816641135
 20
54.688548543901
 10
-1432.972885745179
 20
52.515024865692
 10
-1420.500831407815
 20
50.425821505375
 10
-1408.015530624241
 20
48.415594881223
 10
-1395.517860389651
 20
46.47900141151
 10
-1383.00869769924
 20
44.610697514509
 10
-1370.488919548203
 20
42.805339608493
 10
-1357.959402931736
 20
41.057584111735
 10
-1345.421024845035
 20
39.362087442508
 10
-1332.874662283293
 20
37.713506019086
 10
-1320.321192241707
 20
36.10649625974
 10
-1307.761491715472
 20
34.535714582746
 10
-1295.196437699783
 20
32.995817406375
 10
-1282.626907189835
 20
31.481461148901
 10
-1270.053777180824
 20
29.987302228598
 10
-1257.477924667944
 20
28.507997063737
 10
-1245.275987310684
 20
27.091507363822
 10
-1233.066029918153
 20
25.701813064235
 10
-1220.848545958638
 20
24.34087790878
 10
-1208.624028900427
 20
23.01066564126
 10
-1196.392972211804
 20
21.713140005478
 10
-1184.155869361058
 20
20.450264745239
 10
-1171.913213816473
 20
19.224003604345
 10
-1159.665499046338
 20
18.0363203266
 10
-1147.413218518937
 20
16.889178655808
 10
-1135.156865702558
 20
15.784542335772
 10
-1122.896934065487
 20
14.724375110295
 10
-1110.633917076011
 20
13.710640723182
 10
-1098.368308202416
 20
12.745302918236
 10
-1086.100600912989
 20
11.830325439259
 10
-1073.831288676015
 20
10.967672030057
 10
-1061.560864959783
 20
10.159306434432
 10
-1049.289823232577
 20
9.407192396187
 10
-1037.018656962685
 20
8.713293659127
 10
-1024.747859618393
 20
8.079573967055
 10
-1012.477924667988
 20
7.507997063774
 10
-999.73726582952
 20
6.984661369052
 10
-986.994709156237
 20
6.533284906536
 10
-974.250407073914
 20
6.150178605852
 10
-961.504512008328
 20
5.831653396628
 10
-948.757176385254
 20
5.574020208493
 10
-936.008552630467
 20
5.373589971073
 10
-923.258793169743
 20
5.226673613996
 10
-910.508050428858
 20
5.129582066889
 10
-897.756476833587
 20
5.07862625938
 10
-885.004224809705
 20
5.070117121097
 10
-872.251446782989
 20
5.100365581668
 10
-859.498295179213
 20
5.165682570718
 10
-846.744922424154
 20
5.262379017878
 10
-833.991480943587
 20
5.386765852773
 10
-821.238123163287
 20
5.535154005031
 10
-808.48500150903
 20
5.70385440428
 10
-795.732268406592
 20
5.889177980148
 10
-782.980076281748
 20
6.087435662261
 10
-770.228577560273
 20
6.294938380249
 10
-757.477924667944
 20
6.507997063737
 10
-744.962847372467
 20
6.74082772002
 10
-732.447998301607
 20
7.01797397523
 10
-719.933603931882
 20
7.33936865663
 10
-707.419890739814
 20
7.704944591479
 10
-694.907085201922
 20
8.114634607041
 10
-682.395413794725
 20
8.568371530577
 10
-669.885102994743
 20
9.066088189347
 10
-657.376379278495
 20
9.607717410614
 10
-644.869469122501
 20
10.193192021639
 10
-632.36459900328
 20
10.822444849683
 10
-619.861995397354
 20
11.495408722009
 10
-607.361884781239
 20
12.212016465877
 10
-594.864493631458
 20
12.972200908549
 10
-582.370048424528
 20
13.775894877287
 10
-569.878775636971
 20
14.623031199352
 10
-557.390901745304
 20
15.513542702006
 10
-544.906653226049
 20
16.447362212509
 10
-532.426256555724
 20
17.424422558125
 10
-519.949938210849
 20
18.444656566114
 10
-507.477924667944
 20
19.507997063737
 10
-494.936072607491
 20
20.634122488516
 10
-482.400855227585
 20
21.826879435439
 10
-469.87190099481
 20
23.082160450379
 10
-457.34883837575
 20
24.395858079213
 10
-444.831295836987
 20
25.763864867814
 10
-432.318901845105
 20
27.182073362058
 10
-419.811284866687
 20
28.646376107818
 10
-407.308073368317
 20
30.15266565097
 10
-394.808895816578
 20
31.696834537389
 10
-382.313380678054
 20
33.274775312948
 10
-369.821156419327
 20
34.882380523523
 10
-357.331851506982
 20
36.515542714989
 10
-344.845094407601
 20
38.17015443322
 10
-332.360513587768
 20
39.842108224091
 10
-319.877737514066
 20
41.527296633476
 10
-307.396394653079
 20
43.221612207251
 10
-294.91611347139
 20
44.92094749129
 10
-282.436522435582
 20
46.621195031467
 10
-269.957250012239
 20
48.318247373658
 10
-257.477924667944
 20
50.007997063737
 10
-244.956394491888
 20
51.706529891216
 10
-232.436947923034
 20
53.421033675205
 10
-219.919615415902
 20
55.151503908436
 10
-207.404427425013
 20
56.89793608364
 10
-194.891414404886
 20
58.660325693547
 10
-182.38060681004
 20
60.43866823089
 10
-169.872035094997
 20
62.232959188398
 10
-157.365729714276
 20
64.043194058803
 10
-144.861721122396
 20
65.869368334837
 10
-132.360039773877
 20
67.711477509229
 10
-119.86071612324
 20
69.569517074712
 10
-107.363780625004
 20
71.443482524016
 10
-94.869263733689
 20
73.333369349872
 10
-82.377195903815
 20
75.239173045011
 10
-69.887607589902
 20
77.160889102165
 10
-57.400529246469
 20
79.098513014064
 10
-44.915991328037
 20
81.05204027344
 10
-32.434024289126
 20
83.021466373023
 10
-19.954658584255
 20
85.006786805545
 10
-7.477924667944
 20
87.007997063737
210
0.0
220
0.0
230
-1.0
  0
ENDBLK
  5
3A
100
AcDbEntity
  8
0
100
AcDbBlockEnd
  0
BLOCK
  5
4E
100
AcDbEntity
  8
0
100
AcDbBlockBegin
  2
*E1
 70
           1
 10
0.0
 20
0.0
 30
0.0
  3
*E1
  1

  0
LWPOLYLINE
  5
4F
100
AcDbEntity
  8
0
370
           0
  6
Continuous
 62
           7
100
AcDbPolyline
 90
        4
 70
           1
 10
13.477924667944
 20
940.420424229858
 10
13.477924667944
 20
82.66571557043
 10
5.477924667944
 20
82.66571557043
 10
5.477924667944
 20
940.420424229858
  0
ENDBLK
  5
50
100
AcDbEntity
  8
0
100
AcDbBlockEnd
  0
BLOCK
  5
53
100
AcDbEntity
  8
0
100
AcDbBlockBegin
  2
*E2
 70
           1
 10
0.0
 20
0.0
 30
0.0
  3
*E2
  1

  0
LWPOLYLINE
  5
54
100
AcDbEntity
  8
0
370
           0
  6
Continuous
 62
           7
100
AcDbPolyline
 90
        4
 70
           1
 10
2171.477924667944
 20
283.162029599111
 10
2171.477924667944
 20
742.623245257671
 10
2179.477924667944
 20
742.623245257671
 10
2179.477924667944
 20
283.162029599111
  0
ENDBLK
  5
55
100
AcDbEntity
  8
0
100
AcDbBlockEnd
  0
BLOCK
  5
70
100
AcDbEntity
  8
0
100
AcDbBlockBegin
  2
*E3
 70
           1
 10
0.0
 20
0.0
 30
0.0
  3
*E3
  1

  0
LWPOLYLINE
  5
71
100
AcDbEntity
  8
0
370
           0
  6
Continuous
 62
           7
100
AcDbPolyline
 90
      181
 70
           0
 38
-0.0
 10
-2177.477924667944
 20
731.007997063737
 10
-2169.007624427812
 20
734.418624768323
 10
-2160.481360213458
 20
737.845002455184
 10
-2151.905306726555
 20
741.285271803938
 10
-2143.285638668771
 20
744.737574494204
 10
-2134.628530741779
 20
748.200052205603
 10
-2125.940157647249
 20
751.670846617754
 10
-2117.226694086853
 20
755.148099410276
 10
-2108.494314762259
 20
758.629952262789
 10
-2099.74919437514
 20
762.114546854912
 10
-2090.997507627166
 20
765.600024866265
 10
-2082.245429220009
 20
769.084527976467
 10
-2073.499133855338
 20
772.566197865138
 10
-2064.764796234824
 20
776.043176211896
 10
-2056.048591060139
 20
779.513604696362
 10
-2047.356693032953
 20
782.975624998155
 10
-2038.695276854937
 20
786.427378796894
 10
-2030.070517227762
 20
789.867007772199
 10
-2021.488588853098
 20
793.29265360369
 10
-2012.955666432617
 20
796.702457970985
 10
-2004.477924667988
 20
800.094562553705
 10
-1992.451186971299
 20
804.903142134088
 10
-1980.38446503333
 20
809.711022597126
 10
-1968.278751625814
 20
814.513601671019
 10
-1956.135039520487
 20
819.306277083966
 10
-1943.954321489081
 20
824.084446564169
 10
-1931.737590303331
 20
828.843507839827
 10
-1919.485838734972
 20
833.578858639141
 10
-1907.200059555738
 20
838.285896690311
 10
-1894.881245537362
 20
842.960019721537
 10
-1882.53038945158
 20
847.59662546102
 10
-1870.148484070127
 20
852.19111163696
 10
-1857.736522164735
 20
856.738875977556
 10
-1845.295496507139
 20
861.235316211011
 10
-1832.826399869074
 20
865.675830065522
 10
-1820.330225022274
 20
870.055815269292
 10
-1807.807964738473
 20
874.37066955052
 10
-1795.260611789405
 20
878.615790637406
 10
-1782.689158946804
 20
882.786576258151
 10
-1770.094598982406
 20
886.878424140955
 10
-1757.477924667944
 20
890.886732014018
 10
-1745.090408448958
 20
894.728157724308
 10
-1732.69640569854
 20
898.477702502651
 10
-1720.295024105596
 20
902.139533127917
 10
-1707.88537135903
 20
905.717816378979
 10
-1695.466555147748
 20
909.216719034709
 10
-1683.037683160655
 20
912.640407873979
 10
-1670.597863086656
 20
915.99304967566
 10
-1658.146202614656
 20
919.278811218625
 10
-1645.681809433559
 20
922.501859281745
 10
-1633.203791232271
 20
925.666360643893
 10
-1620.711255699697
 20
928.77648208394
 10
-1608.203310524742
 20
931.836390380759
 10
-1595.679063396311
 20
934.85025231322
 10
-1583.137622003309
 20
937.822234660197
 10
-1570.578094034642
 20
940.75650420056
 10
-1557.999587179213
 20
943.657227713182
 10
-1545.401209125928
 20
946.528571976936
 10
-1532.782067563692
 20
949.374703770692
 10
-1520.14127018141
 20
952.199789873323
 10
-1507.477924667988
 20
955.0079970637
 10
-1495.103765906992
 20
957.683276057274
 10
-1482.711098728614
 20
960.247516824322
 10
-1470.300800128048
 20
962.706062946569
 10
-1457.87374710049
 20
965.064258005744
 10
-1445.430816641135
 20
967.327445583573
 10
-1432.972885745179
 20
969.500969261782
 10
-1420.500831407815
 20
971.590172622099
 10
-1408.015530624241
 20
973.600399246251
 10
-1395.517860389651
 20
975.536992715963
 10
-1383.00869769924
 20
977.405296612965
 10
-1370.488919548203
 20
979.210654518981
 10
-1357.959402931736
 20
980.958410015739
 10
-1345.421024845035
 20
982.653906684966
 10
-1332.874662283293
 20
984.302488108388
 10
-1320.321192241707
 20
985.909497867734
 10
-1307.761491715472
 20
987.480279544728
 10
-1295.196437699783
 20
989.020176721099
 10
-1282.626907189835
 20
990.534532978573
 10
-1270.053777180824
 20
992.028691898876
 10
-1257.477924667944
 20
993.507997063737
 10
-1245.275987310684
 20
994.924486763652
 10
-1233.066029918153
 20
996.314181063238
 10
-1220.848545958638
 20
997.675116218694
 10
-1208.624028900427
 20
999.005328486214
 10
-1196.392972211804
 20
1000.302854121996
 10
-1184.155869361058
 20
1001.565729382235
 10
-1171.913213816473
 20
1002.791990523129
 10
-1159.665499046338
 20
1003.979673800874
 10
-1147.413218518937
 20
1005.126815471666
 10
-1135.156865702558
 20
1006.231451791702
 10
-1122.896934065487
 20
1007.291619017179
 10
-1110.633917076011
 20
1008.305353404292
 10
-1098.368308202416
 20
1009.270691209238
 10
-1086.100600912989
 20
1010.185668688215
 10
-1073.831288676015
 20
1011.048322097417
 10
-1061.560864959783
 20
1011.856687693042
 10
-1049.289823232577
 20
1012.608801731287
 10
-1037.018656962685
 20
1013.302700468347
 10
-1024.747859618393
 20
1013.936420160419
 10
-1012.477924667988
 20
1014.5079970637
 10
-999.73726582952
 20
1015.031332758422
 10
-986.994709156237
 20
1015.482709220938
 10
-974.250407073914
 20
1015.865815521622
 10
-961.504512008328
 20
1016.184340730846
 10
-948.757176385254
 20
1016.441973918981
 10
-936.008552630467
 20
1016.642404156401
 10
-923.258793169743
 20
1016.789320513479
 10
-910.508050428858
 20
1016.886412060585
 10
-897.756476833587
 20
1016.937367868094
 10
-885.004224809705
 20
1016.945877006377
 10
-872.251446782989
 20
1016.915628545806
 10
-859.498295179213
 20
1016.850311556756
 10
-846.744922424154
 20
1016.753615109596
 10
-833.991480943587
 20
1016.629228274701
 10
-821.238123163287
 20
1016.480840122443
 10
-808.48500150903
 20
1016.312139723194
 10
-795.732268406592
 20
1016.126816147326
 10
-782.980076281748
 20
1015.928558465213
 10
-770.228577560273
 20
1015.721055747225
 10
-757.477924667944
 20
1015.507997063737
 10
-744.962847372467
 20
1015.275166407454
 10
-732.447998301607
 20
1014.998020152244
 10
-719.933603931882
 20
1014.676625470844
 10
-707.419890739814
 20
1014.311049535995
 10
-694.907085201922
 20
1013.901359520433
 10
-682.395413794725
 20
1013.447622596897
 10
-669.885102994743
 20
1012.949905938127
 10
-657.376379278495
 20
1012.40827671686
 10
-644.869469122501
 20
1011.822802105835
 10
-632.36459900328
 20
1011.193549277791
 10
-619.861995397354
 20
1010.520585405465
 10
-607.361884781239
 20
1009.803977661597
 10
-594.864493631458
 20
1009.043793218925
 10
-582.370048424528
 20
1008.240099250187
 10
-569.878775636971
 20
1007.392962928122
 10
-557.390901745304
 20
1006.502451425469
 10
-544.906653226049
 20
1005.568631914965
 10
-532.426256555724
 20
1004.591571569349
 10
-519.949938210849
 20
1003.571337561361
 10
-507.477924667944
 20
1002.507997063737
 10
-494.936072607491
 20
1001.381871638958
 10
-482.400855227585
 20
1000.189114692035
 10
-469.87190099481
 20
998.933833677095
 10
-457.34883837575
 20
997.620136048261
 10
-444.831295836987
 20
996.25212925966
 10
-432.318901845105
 20
994.833920765416
 10
-419.811284866687
 20
993.369618019656
 10
-407.308073368317
 20
991.863328476504
 10
-394.808895816578
 20
990.319159590085
 10
-382.313380678054
 20
988.741218814526
 10
-369.821156419327
 20
987.133613603951
 10
-357.331851506982
 20
985.500451412485
 10
-344.845094407601
 20
983.845839694254
 10
-332.360513587768
 20
982.173885903383
 10
-319.877737514066
 20
980.488697493998
 10
-307.396394653079
 20
978.794381920223
 10
-294.91611347139
 20
977.095046636184
 10
-282.436522435582
 20
975.394799096007
 10
-269.957250012239
 20
973.697746753816
 10
-257.477924667944
 20
972.007997063737
 10
-244.956394491888
 20
970.309464236258
 10
-232.436947923034
 20
968.594960452269
 10
-219.919615415902
 20
966.864490219038
 10
-207.404427425013
 20
965.118058043834
 10
-194.891414404886
 20
963.355668433927
 10
-182.38060681004
 20
961.577325896584
 10
-169.872035094997
 20
959.783034939076
 10
-157.365729714276
 20
957.97280006867
 10
-144.861721122396
 20
956.146625792637
 10
-132.360039773877
 20
954.304516618245
 10
-119.86071612324
 20
952.446477052762
 10
-107.363780625004
 20
950.572511603458
 10
-94.869263733689
 20
948.682624777602
 10
-82.377195903815
 20
946.776821082463
 10
-69.887607589902
 20
944.855105025309
 10
-57.400529246469
 20
942.91748111341
 10
-44.915991328037
 20
940.963953854034
 10
-32.434024289126
 20
938.994527754451
 10
-19.954658584255
 20
937.009207321929
 10
-7.477924667944
 20
935.007997063737
210
0.0
220
0.0
230
-1.0
  0
ENDBLK
  5
72
100
AcDbEntity
  8
0
100
AcDbBlockEnd
  0
ENDSEC
  0
SECTION
  2
ENTITIES
  0
LWPOLYLINE
  5
32
100
AcDbEntity
  8
0
370
           0
  6
Continuous
 62
           7
100
AcDbPolyline
 90
        4
 70
           1
 10
0.0
 20
0.0
 10
2438.4
 20
0.0
 10
2438.4
 20
1219.2
 10
0.0
 20
1219.2
1001
TCAD
1000
TCW_CUSTOM_DATA
1002
{
1000
#$AUX@_ToolInfo Properties
1070
           8
1000
Insert^ JLine^ JRectangle@Line Rectangle
1002
}
  0
LINE
  5
33
100
AcDbEntity
  8
0
370
           0
  6
Continuous
 62
           7
100
AcDbLine
 10
7.477924667944
 20
511.007997063737
 30
0.0
 11
7.477924667944
 21
935.007997063737
 31
0.0
1001
TCAD
1000
TCW_CUSTOM_DATA
1002
{
1000
#$AUX@_ToolInfo Properties
1070
           8
1000
Insert^ JLine^ JSingle@Line Single
1002
}
  0
LINE
  5
34
100
AcDbEntity
  8
0
370
           0
  6
Continuous
 62
           7
100
AcDbLine
 10
2177.477924667944
 20
511.007997063737
 30
0.0
 11
2177.477924667944
 21
731.007997063737
 31
0.0
1001
TCAD
1000
TCW_CUSTOM_DATA
1002
{
1000
#$AUX@_ToolInfo Properties
1070
           8
1000
Insert^ JLine^ JSingle@Line Single
1002
}
  0
LINE
  5
35
100
AcDbEntity
  8
0
370
           0
  6
Continuous
 62
           7
100
AcDbLine
 10
7.477924667944
 20
511.007997063737
 30
-0.0
 11
7.477924667944
 21
87.007997063737
 31
-0.0
1001
TCAD
1000
TCW_CUSTOM_DATA
1002
{
1000
#$AUX@_ToolInfo Properties
1070
           8
1000
Insert^ JLine^ JSingle@Line Single
1002
}
  0
LINE
  5
36
100
AcDbEntity
  8
0
370
           0
  6
Continuous
 62
           7
100
AcDbLine
 10
2177.477924667944
 20
511.007997063737
 30
-0.0
 11
2177.477924667944
 21
291.007997063737
 31
-0.0
1001
TCAD
1000
TCW_CUSTOM_DATA
1002
{
1000
#$AUX@_ToolInfo Properties
1070
           8
1000
Insert^ JLine^ JSingle@Line Single
1002
}
  0
INSERT
  5
3B
100
AcDbEntity
  8
0
  6
Continuous
 62
           7
100
AcDbBlockReference
  2
*E0
 10
0.0
 20
0.0
 30
0.0
1001
TCAD
1000
TCW_CUSTOM_DATA
1002
{
1000
#$AUX@_ToolInfo Properties
1070
           8
1000
Insert^ JCurve^ JBezier@Curve Bezier
1002
}
1000
TC25ExternalObject
1002
{
1000
TCW30CURVE
1000

1070
           0
1071
        0
1040
1.0
1040
0.0
1000
Continuous
1000
0
1070
          12
1010
1.0
1020
0.0
1030
0.0
1010
0.0
1020
-1.0
1030
0.0
1010
0.0
1020
0.0
1030
-1.0
1010
7.477924667944
1020
511.007997063737
1030
0.0
1070
          21
1071
       28
1071
      162
1010
2170.0
1020
220.0
1030
0.0
1071
     6274
1010
2113.731599872456
1020
242.680888488817
1030
0.0
1071
     6274
1010
2053.320621352122
1020
266.535663821269
1030
0.0
1071
      130
1010
1997.000000000044
1020
289.086565489968
1030
0.0
1071
     6274
1010
1916.957235652466
1020
321.13586581301
1030
0.0
1071
     6274
1010
1834.182670437217
1020
353.445376432995
1030
0.0
1071
      130
1010
1750.0
1020
379.878734950281
1030
0.0
1071
     6274
1010
1667.436197397984
1020
405.803768967314
1030
0.0
1071
     6274
1010
1584.49944677354
1020
425.325622263021
1030
0.0
1071
      130
1010
1500.000000000044
1020
443.999999999963
1030
0.0
1071
     6274
1010
1417.569251862894
1020
462.217195338273
1030
0.0
1071
     6274
1010
1333.846142887213
1020
472.67560345968
1030
0.0
1071
      130
1010
1250.0
1020
482.5
1030
0.0
1071
     6274
1010
1168.68158099869
1020
492.028218792073
1030
0.0
1071
     6274
1010
1086.795595093599
1020
499.900993815847
1030
0.0
1071
      130
1010
1005.000000000044
1020
503.499999999963
1030
0.0
1071
     6274
1010
920.068939250251
1020
507.236966672953
1030
0.0
1071
     6274
1010
835.001194461098
1020
505.930713174098
1030
0.0
1071
      130
1010
750.0
1020
504.5
1030
0.0
1071
     6274
1010
666.565893895918
1020
503.095663560624
1030
0.0
1071
     6274
1010
583.131904331646
1020
498.732475676853
1030
0.0
1071
      130
1010
500.0
1020
491.5
1030
0.0
1071
     6274
1010
416.364711698672
1020
484.223729917785
1030
0.0
1071
     6274
1010
333.196504328287
1020
472.231528084319
1030
0.0
1071
      130
1010
250.0
1020
461.0
1030
0.0
1071
     6274
1010
166.516254478993
1020
449.729694354664
1030
0.0
1071
     6274
1010
83.169385803495
1020
437.39435779069
1030
0.0
1071
      162
1010
0.0
1020
424.0
1030
0.0
1070
           3
1071
-2147483643
1070
           1
1000
#$AUX@_ToolInfo Properties
1070
           8
1000
Insert^ JCurve^ JBezier@Curve Bezier
1000
$SPLINESEGS
1070
          18
1070
          20
1000
$SPLFRAME
1070
          18
1070
           0
1000
$SPLINETYPE
1070
          18
1070
           1
1000
$SHOWCONTRPTS
1070
          18
1070
           1
1000
$CURVESMOOTH
1070
          18
1070
           1
1002
}
  0
LINE
  5
3C
100
AcDbEntity
  8
0
370
           0
  6
Continuous
 62
           7
100
AcDbLine
 10
13.477924667944
 20
935.970369238193
 30
0.0
 11
13.477924667944
 21
86.045624889279
 31
0.0
1001
TCAD
1000
TCW_CUSTOM_DATA
1002
{
1000
#$AUX@_ToolInfo Properties
1070
           8
1000
Insert^ JLine^ JSingle@Line Single
1002
}
  0
LINE
  5
3D
100
AcDbEntity
  8
0
370
           0
  6
Continuous
 62
           7
100
AcDbLine
 10
2171.477924667944
 20
288.595756342873
 30
0.0
 11
2171.477924667944
 21
733.420237784599
 31
0.0
1001
TCAD
1000
TCW_CUSTOM_DATA
1002
{
1000
#$AUX@_ToolInfo Properties
1070
           8
1000
Insert^ JLine^ JSingle@Line Single
1002
}
  0
LINE
  5
3E
100
AcDbEntity
  8
0
370
           0
  6
Continuous
 62
           7
100
AcDbLine
 10
1018.4779246679
 20
531.5079970637
 30
0.0
 11
1408.4779246679
 21
531.5079970637
 31
0.0
1001
TCAD
1000
TCW_CUSTOM_DATA
1002
{
1000
#$AUX@_ToolInfo Properties
1070
           8
1000
Insert^ JLine^ JSingle@Line Single
1002
}
  0
LINE
  5
3F
100
AcDbEntity
  8
0
370
           0
  6
Continuous
 62
           7
100
AcDbLine
 10
1018.4779246679
 20
490.5079970637
 30
0.0
 11
1408.4779246679
 21
490.5079970637
 31
0.0
1001
TCAD
1000
TCW_CUSTOM_DATA
1002
{
1000
#$AUX@_ToolInfo Properties
1070
           8
1000
Insert^ JLine^ JSingle@Line Single
1002
}
  0
LINE
  5
40
100
AcDbEntity
  8
0
370
           0
  6
Continuous
 62
           7
100
AcDbLine
 10
1408.4779246679
 20
490.5079970637
 30
0.0
 11
1408.4779246679
 21
531.5079970637
 31
0.0
1001
TCAD
1000
TCW_CUSTOM_DATA
1002
{
1000
#$AUX@_ToolInfo Properties
1070
           8
1000
Insert^ JLine^ JSingle@Line Single
1002
}
  0
LINE
  5
41
100
AcDbEntity
  8
0
370
           0
  6
Continuous
 62
           7
100
AcDbLine
 10
1018.4779246679
 20
490.5079970637
 30
0.0
 11
1018.4779246679
 21
531.5079970637
 31
0.0
1001
TCAD
1000
TCW_CUSTOM_DATA
1002
{
1000
#$AUX@_ToolInfo Properties
1070
           8
1000
Insert^ JLine^ JSingle@Line Single
1002
}
  0
ARC
  5
42
100
AcDbEntity
  8
0
370
           0
  6
Continuous
 62
           7
100
AcDbCircle
 10
2114.481824227409
 20
950.637118083446
 30
0.0
 40
100.10637406021
100
AcDbArc
 50
0.252555188612
 51
73.211613413083
1001
TCAD
1000
TCW_CUSTOM_DATA
1002
{
1000
#$AUX@_ToolInfo Properties
1070
           8
1000
Insert^ JArc^ JCenterAndPoint@Arc CenterAndPoint
1002
}
  0
LINE
  5
43
100
AcDbEntity
  8
0
370
           0
  6
Continuous
 62
           7
100
AcDbLine
 10
2214.58722576803
 20
951.078377501247
 30
0.0
 11
2214.663568205349
 21
570.996971702712
 31
0.0
1001
TCAD
1000
TCW_CUSTOM_DATA
1002
{
1000
#$AUX@_ToolInfo Properties
1070
           8
1000
Insert^ JLine^ JSingle@Line Single
1002
}
  0
ARC
  5
44
100
AcDbEntity
  8
0
370
           0
  6
Continuous
 62
           7
100
AcDbCircle
 10
2409.885619327574
 20
1073.547702524902
 30
0.0
 40
38.551370320986
100
AcDbArc
 50
172.505616919819
 51
269.669981575684
1001
TCAD
1000
TCW_CUSTOM_DATA
1002
{
1000
#$AUX@_ToolInfo Properties
1070
           8
1000
Insert^ JArc^ JTriplePoint132@Arc TriplePoint132
1002
}
  0
ARC
  5
45
100
AcDbEntity
  8
0
370
           0
  6
Continuous
 62
           7
100
AcDbCircle
 10
2114.481824227409
 20
191.356825321979
 30
0.0
 40
100.10637406021
100
AcDbArc
 50
-73.211613413083
 51
-0.252555188612
1001
TCAD
1000
TCW_CUSTOM_DATA
1002
{
1000
#$AUX@_ToolInfo Properties
1070
           8
1000
Insert^ JArc^ JCenterAndPoint@Arc CenterAndPoint
1002
}
  0
LINE
  5
46
100
AcDbEntity
  8
0
370
           0
  6
Continuous
 62
           7
100
AcDbLine
 10
2214.587225768029
 20
190.915565904178
 30
0.0
 11
2214.663568205348
 21
570.996971702712
 31
-0.0
210
0.0
220
0.0
230
-1.0
1001
TCAD
1000
TCW_CUSTOM_DATA
1002
{
1000
#$AUX@_ToolInfo Properties
1070
           8
1000
Insert^ JLine^ JSingle@Line Single
1002
}
  0
ARC
  5
47
100
AcDbEntity
  8
0
370
           0
  6
Continuous
 62
           7
100
AcDbCircle
 10
2409.885619327575
 20
68.446240880522
 30
0.0
 40
38.551370320986
100
AcDbArc
 50
90.330018424316
 51
187.494383080181
1001
TCAD
1000
TCW_CUSTOM_DATA
1002
{
1000
#$AUX@_ToolInfo Properties
1070
           8
1000
Insert^ JArc^ JTriplePoint132@Arc TriplePoint132
1002
}
  0
LINE
  5
48
100
AcDbEntity
  8
0
370
           0
  6
Continuous
 62
           7
100
AcDbLine
 10
2371.66356820535
 20
63.418024334291
 30
0.0
 11
2054.663568205347
 21
16.877858129305
 31
-0.0
210
0.0
220
0.0
230
-1.0
1001
TCAD
1000
TCW_CUSTOM_DATA
1002
{
1000
#$AUX@_ToolInfo Properties
1070
           8
1000
Insert^ JLine^ JSingle@Line Single
1002
}
  0
LINE
  5
49
100
AcDbEntity
  8
0
370
           0
  6
Continuous
 62
           7
100
AcDbLine
 10
2409.663568205348
 20
692.99697170271
 30
0.0
 11
2402.663568205349
 21
685.996971702711
 31
0.0
  0
LINE
  5
4A
100
AcDbEntity
  8
0
370
           0
  6
Continuous
 62
           7
100
AcDbLine
 10
2409.663568205348
 20
448.99697170271
 30
0.0
 11
2402.66356820535
 21
455.996971702709
 31
0.0
  0
LINE
  5
4B
100
AcDbEntity
  8
0
370
           0
  6
Continuous
 62
           7
100
AcDbLine
 10
2402.66356820535
 20
570.996971702703
 30
0.0
 11
2402.66356820535
 21
455.996971702706
 31
0.0
1001
TCAD
1000
TCW_CUSTOM_DATA
1002
{
1000
#$AUX@_ToolInfo Properties
1070
           8
1000
Insert^ JLine^ JSingle@Line Single
1002
}
  0
LINE
  5
4C
100
AcDbEntity
  8
0
370
           0
  6
Continuous
 62
           7
100
AcDbLine
 10
2402.663568205349
 20
570.996971702709
 30
0.0
 11
2402.663568205349
 21
685.996971702707
 31
0.0
1001
TCAD
1000
TCW_CUSTOM_DATA
1002
{
1000
#$AUX@_ToolInfo Properties
1070
           8
1000
Insert^ JLine^ JSingle@Line Single
1002
}
  0
INSERT
  5
51
100
AcDbEntity
  8
0
  6
Continuous
 62
           7
100
AcDbBlockReference
  2
*E1
 10
0.0
 20
0.0
 30
0.0
1001
TCAD
1000
TCW_CUSTOM_DATA
1002
{
1000
#$AUX@_ToolInfo Properties
1070
           8
1000
Insert^ JDoubleLine^ JSingle@DoubleLine Single
1002
}
1000
TC25ExternalObject
1002
{
1000
TCW25DblLine
1000

1070
           0
1071
        0
1040
1.0
1040
0.0
1000
Continuous
1000
0
1070
          21
1071
        2
1071
      178
1010
13.477924667944
1020
940.420424229858
1030
0.0
1071
      178
1010
13.477924667944
1020
82.66571557043
1030
0.0
1070
           3
1071
-2147483641
1070
           1
1000
#$AUX@_ToolInfo Properties
1070
           8
1000
Insert^ JDoubleLine^ JSingle@DoubleLine Single
1000
$DLINEWID
1070
           5
1040
8.0
1000
$DLINEALG
1070
          18
1070
           2
1000
$DLINECS
1070
          18
1070
           1
1000
$DLINECE
1070
          18
1070
           1
1000
$DLINETS
1070
           5
1040
0.0
1000
$DLINETE
1070
           5
1040
0.0
1000
ExplodeScale
1070
           5
1040
1.0
1002
}
  0
INSERT
  5
56
100
AcDbEntity
  8
0
  6
Continuous
 62
           7
100
AcDbBlockReference
  2
*E2
 10
0.0
 20
0.0
 30
0.0
1001
TCAD
1000
TCW_CUSTOM_DATA
1002
{
1000
#$AUX@_ToolInfo Properties
1070
           8
1000
Insert^ JDoubleLine^ JSingle@DoubleLine Single
1002
}
1000
TC25ExternalObject
1002
{
1000
TCW25DblLine
1000

1070
           0
1071
        0
1040
1.0
1040
0.0
1000
Continuous
1000
0
1070
          21
1071
        2
1071
      178
1010
2171.477924667944
1020
283.162029599111
1030
0.0
1071
      178
1010
2171.477924667944
1020
742.623245257671
1030
0.0
1070
           3
1071
-2147483641
1070
           1
1000
#$AUX@_ToolInfo Properties
1070
           8
1000
Insert^ JDoubleLine^ JSingle@DoubleLine Single
1000
$DLINEWID
1070
           5
1040
8.0
1000
$DLINEALG
1070
          18
1070
           2
1000
$DLINECS
1070
          18
1070
           1
1000
$DLINECE
1070
          18
1070
           1
1000
$DLINETS
1070
           5
1040
0.0
1000
$DLINETE
1070
           5
1040
0.0
1000
ExplodeScale
1070
           5
1040
1.0
1002
}
  0
LWPOLYLINE
  5
57
100
AcDbEntity
  8
0
370
           0
  6
Continuous
 62
           7
100
AcDbPolyline
 90
        4
 70
           1
 38
-0.000000217586
 10
8.358316753618
 20
1253.484789503105
 10
1071.358316753617
 20
1253.484789503104
 10
1071.358316753618
 20
1543.484789503104
 10
8.358316753618
 20
1543.484789503105
1001
TCAD
1000
TCW_CUSTOM_DATA
1002
{
1000
#$AUX@_ToolInfo Properties
1070
           8
1000
Insert^ JLine^ JRectangle@Line Rectangle
1002
}
  0
LWPOLYLINE
  5
58
100
AcDbEntity
  8
0
370
           0
  6
Continuous
 62
           7
100
AcDbPolyline
 90
        4
 70
           1
 38
-0.000000217586
 10
-5.899130243029
 20
1244.644151370999
 10
2432.500869756971
 20
1244.644151370999
 10
2432.500869756971
 20
2463.844151371
 10
-5.899130243029
 20
2463.844151371
1001
TCAD
1000
TCW_CUSTOM_DATA
1002
{
1000
#$AUX@_ToolInfo Properties
1070
           8
1000
Insert^ JLine^ JRectangle@Line Rectangle
1002
}
  0
LINE
  5
59
100
AcDbEntity
  8
0
370
           0
  6
Continuous
 62
           7
100
AcDbLine
 10
2143.396324043771
 20
95.517178891849
 30
0.0
 11
2028.740781343884
 21
78.754608042639
 31
-0.0
210
0.0
220
0.0
230
-1.0
1001
TCAD
1000
TCW_CUSTOM_DATA
1002
{
1000
#$AUX@_ToolInfo Properties
1070
           8
1000
Insert^ JLine^ JSingle@Line Single
1002
}
  0
ARC
  5
5A
100
AcDbEntity
  8
0
370
           0
  6
Continuous
 62
           7
100
AcDbCircle
 10
2035.953304970869
 20
65.339103145618
 30
0.0
 40
15.231423725701
100
AcDbArc
 50
118.26362838431
 51
199.445319098646
1001
TCAD
1000
TCW_CUSTOM_DATA
1002
{
1000
#$AUX@_ToolInfo Properties
1070
           8
1000
Insert^ JArc^ JTriplePoint132@Arc TriplePoint132
1002
}
  0
ARC
  5
5B
100
AcDbEntity
  8
0
370
           0
  6
Continuous
 62
           7
100
AcDbCircle
 10
2058.473708068267
 20
54.138089286096
 30
0.0
 40
6.243895797301
100
AcDbArc
 50
-6.406853445893
 51
100.942762517705
1001
TCAD
1000
TCW_CUSTOM_DATA
1002
{
1000
#$AUX@_ToolInfo Properties
1070
           8
1000
Insert^ JArc^ JTriplePoint132@Arc TriplePoint132
1002
}
  0
LINE
  5
5C
100
AcDbEntity
  8
0
370
           0
  6
Continuous
 62
           7
100
AcDbLine
 10
2054.663568205341
 20
16.877858129304
 30
0.0
 11
2064.678608105593
 21
53.441346683447
 31
0.0
210
0.0
220
0.0
230
-1.0
1001
TCAD
1000
TCW_REFPOINT
1002
{
1010
2047.185643537441
1020
494.130138934396
1030
0.0
1002
}
1000
TCW_CUSTOM_DATA
1002
{
1000
#$AUX@_ToolInfo Properties
1070
           8
1000
Insert^ JLine^ JSingle@Line Single
1002
}
  0
LINE
  5
5D
100
AcDbEntity
  8
0
370
           0
  6
Continuous
 62
           7
100
AcDbLine
 10
2057.288440118953
 20
60.268454252057
 30
0.0
 11
2021.590687225135
 21
60.268454252057
 31
-0.0
210
0.0
220
0.0
230
-1.0
1001
TCAD
1000
TCW_CUSTOM_DATA
1002
{
1000
#$AUX@_ToolInfo Properties
1070
           8
1000
Insert^ JLine^ JSingle@Line Single
1002
}
  0
LINE
  5
5E
100
AcDbEntity
  8
0
370
           0
  6
Continuous
 62
           7
100
AcDbLine
 10
2409.663568205348
 20
448.99697170271
 30
-0.0
 11
2409.663568205348
 21
388.99697170271
 31
-0.0
1001
TCAD
1000
TCW_CUSTOM_DATA
1002
{
1000
#$AUX@_ToolInfo Properties
1070
           8
1000
Insert^ JLine^ JSingle@Line Single
1002
}
  0
LINE
  5
5F
100
AcDbEntity
  8
0
370
           0
  6
Continuous
 62
           7
100
AcDbLine
 10
2409.663568205348
 20
692.99697170271
 30
-0.0
 11
2409.663568205348
 21
752.99697170271
 31
-0.0
1001
TCAD
1000
TCW_CUSTOM_DATA
1002
{
1000
#$AUX@_ToolInfo Properties
1070
           8
1000
Insert^ JLine^ JSingle@Line Single
1002
}
  0
LINE
  5
60
100
AcDbEntity
  8
0
370
           0
  6
Continuous
 62
           7
100
AcDbLine
 10
2409.663568205348
 20
832.99697170271
 30
-0.0
 11
2402.66356820535
 21
825.996971702712
 31
0.0
210
0.0
220
0.0
230
-1.0
1001
TCAD
1000
TCW_CUSTOM_DATA
1002
{
1000
#$AUX@_ToolInfo Properties
1070
           8
1000
Insert^ JLine^ JSingle@Line Single
1002
}
  0
LINE
  5
61
100
AcDbEntity
  8
0
370
           0
  6
Continuous
 62
           7
100
AcDbLine
 10
2409.663568205348
 20
752.99697170271
 30
-0.0
 11
2402.66356820535
 21
759.996971702708
 31
0.0
210
0.0
220
0.0
230
-1.0
1001
TCAD
1000
TCW_CUSTOM_DATA
1002
{
1000
#$AUX@_ToolInfo Properties
1070
           8
1000
Insert^ JLine^ JSingle@Line Single
1002
}
  0
LINE
  5
62
100
AcDbEntity
  8
0
370
           0
  6
Continuous
 62
           7
100
AcDbLine
 10
2402.66356820535
 20
759.996971702708
 30
0.0
 11
2402.66356820535
 21
825.996971702712
 31
0.0
1001
TCAD
1000
TCW_CUSTOM_DATA
1002
{
1000
#$AUX@_ToolInfo Properties
1070
           8
1000
Insert^ JLine^ JSingle@Line Single
1002
}
  0
LINE
  5
63
100
AcDbEntity
  8
0
370
           0
  6
Continuous
 62
           7
100
AcDbLine
 10
2409.663568205348
 20
1034.996971702712
 30
-0.0
 11
2409.663568205348
 21
832.99697170271
 31
-0.0
1001
TCAD
1000
TCW_CUSTOM_DATA
1002
{
1000
#$AUX@_ToolInfo Properties
1070
           8
1000
Insert^ JLine^ JSingle@Line Single
1002
}
  0
LINE
  5
64
100
AcDbEntity
  8
0
370
           0
  6
Continuous
 62
           7
100
AcDbLine
 10
2402.66356820535
 20
381.996971702712
 30
0.0
 11
2402.66356820535
 21
315.996971702708
 31
0.0
1001
TCAD
1000
TCW_CUSTOM_DATA
1002
{
1000
#$AUX@_ToolInfo Properties
1070
           8
1000
Insert^ JLine^ JSingle@Line Single
1002
}
  0
LINE
  5
65
100
AcDbEntity
  8
0
370
           0
  6
Continuous
 62
           7
100
AcDbLine
 10
2409.663568205348
 20
388.99697170271
 30
-0.0
 11
2402.66356820535
 21
381.996971702712
 31
0.0
210
0.0
220
0.0
230
-1.0
1001
TCAD
1000
TCW_CUSTOM_DATA
1002
{
1000
#$AUX@_ToolInfo Properties
1070
           8
1000
Insert^ JLine^ JSingle@Line Single
1002
}
  0
LINE
  5
66
100
AcDbEntity
  8
0
370
           0
  6
Continuous
 62
           7
100
AcDbLine
 10
2409.663568205348
 20
308.99697170271
 30
-0.0
 11
2402.66356820535
 21
315.996971702708
 31
0.0
210
0.0
220
0.0
230
-1.0
1001
TCAD
1000
TCW_CUSTOM_DATA
1002
{
1000
#$AUX@_ToolInfo Properties
1070
           8
1000
Insert^ JLine^ JSingle@Line Single
1002
}
  0
LINE
  5
67
100
AcDbEntity
  8
0
370
           0
  6
Continuous
 62
           7
100
AcDbLine
 10
2409.663568205348
 20
308.99697170271
 30
-0.0
 11
2409.663568205349
 21
106.996971702712
 31
-0.0
1001
TCAD
1000
TCW_CUSTOM_DATA
1002
{
1000
#$AUX@_ToolInfo Properties
1070
           8
1000
Insert^ JLine^ JSingle@Line Single
1002
}
  0
XLINE
  5
68
100
AcDbEntity
  8
$CONSTRUCTION
  6
$CONSTRUCTION
 62
           9
100
AcDbXline
 10
-985.546038439845
 20
570.996971702712
 30
0.0
 11
1.0
 21
0.0
 31
0.0
1001
TCAD
1000
TCW_CUSTOM_DATA
1002
{
1000
#$AUX@_ToolInfo Properties
1070
           8
1000
Insert^ JConstruction^ JHorizontalLine@Construction HorizontalLine
1002
}
  0
LINE
  5
69
100
AcDbEntity
  8
0
370
           0
  6
Continuous
 62
           7
100
AcDbLine
 10
2371.663568205399
 20
1078.575919071124
 30
-0.0
 11
2054.663568205401
 21
1125.11608527614
 31
0.0
210
0.0
220
0.0
230
-1.0
1001
TCAD
1000
TCW_CUSTOM_DATA
1002
{
1000
#$AUX@_ToolInfo Properties
1070
           8
1000
Insert^ JLine^ JSingle@Line Single
1002
}
  0
LINE
  5
6A
100
AcDbEntity
  8
0
370
           0
  6
Continuous
 62
           7
100
AcDbLine
 10
2143.396324043817
 20
1046.476764513587
 30
-0.0
 11
2028.740781343932
 21
1063.239335362808
 31
0.0
210
0.0
220
0.0
230
-1.0
1001
TCAD
1000
TCW_CUSTOM_DATA
1002
{
1000
#$AUX@_ToolInfo Properties
1070
           8
1000
Insert^ JLine^ JSingle@Line Single
1002
}
  0
ARC
  5
6B
100
AcDbEntity
  8
0
370
           0
  6
Continuous
 62
           7
100
AcDbCircle
 10
2035.953304970918
 20
1076.654840259829
 30
0.0
 40
15.231423725701
100
AcDbArc
 50
160.55468090135
 51
241.736371615685
1001
TCAD
1000
TCW_CUSTOM_DATA
1002
{
1000
#$AUX@_ToolInfo Properties
1070
           8
1000
Insert^ JArc^ JTriplePoint132@Arc TriplePoint132
1002
}
  0
ARC
  5
6C
100
AcDbEntity
  8
0
370
           0
  6
Continuous
 62
           7
100
AcDbCircle
 10
2058.473708068318
 20
1087.855854119349
 30
0.0
 40
6.243895797301
100
AcDbArc
 50
-100.942762517715
 51
6.406853445884
1001
TCAD
1000
TCW_CUSTOM_DATA
1002
{
1000
#$AUX@_ToolInfo Properties
1070
           8
1000
Insert^ JArc^ JTriplePoint132@Arc TriplePoint132
1002
}
  0
LINE
  5
6D
100
AcDbEntity
  8
0
370
           0
  6
Continuous
 62
           7
100
AcDbLine
 10
2054.663568205395
 20
1125.116085276141
 30
-0.0
 11
2064.678608105644
 21
1088.552596721997
 31
0.0
210
0.0
220
0.0
230
-1.0
1001
TCAD
1000
TCW_REFPOINT
1002
{
1010
2477.738142151772
1020
729.226394388861
1030
0.0
1002
}
1000
TCW_CUSTOM_DATA
1002
{
1000
#$AUX@_ToolInfo Properties
1070
           8
1000
Insert^ JLine^ JSingle@Line Single
1002
}
  0
LINE
  5
6E
100
AcDbEntity
  8
0
370
           0
  6
Continuous
 62
           7
100
AcDbLine
 10
2057.288440119003
 20
1081.725489153388
 30
-0.0
 11
2021.590687225185
 21
1081.725489153391
 31
0.0
210
0.0
220
0.0
230
-1.0
1001
TCAD
1000
TCW_CUSTOM_DATA
1002
{
1000
#$AUX@_ToolInfo Properties
1070
           8
1000
Insert^ JLine^ JSingle@Line Single
1002
}
  0
INSERT
  5
73
100
AcDbEntity
  8
0
  6
Continuous
 62
           7
100
AcDbBlockReference
  2
*E3
 10
0.0
 20
0.0
 30
0.0
1001
TCAD
1000
TCW_CUSTOM_DATA
1002
{
1000
#$AUX@_ToolInfo Properties
1070
           8
1000
Insert^ JCurve^ JBezier@Curve Bezier
1002
}
1000
TC25ExternalObject
1002
{
1000
TCW30CURVE
1000

1070
           0
1071
        0
1040
1.0
1040
0.0
1000
Continuous
1000
0
1070
          12
1010
1.0
1020
0.0
1030
0.0
1010
0.0
1020
-1.0
1030
0.0
1010
0.0
1020
0.0
1030
-1.0
1010
7.477924667944
1020
511.007997063737
1030
0.0
1070
          21
1071
       28
1071
      162
1010
2170.0
1020
-220.0
1030
0.0
1071
     6274
1010
2113.731599872456
1020
-242.680888488817
1030
0.0
1071
     6274
1010
2053.320621352122
1020
-266.535663821269
1030
0.0
1071
      130
1010
1997.000000000044
1020
-289.086565489968
1030
0.0
1071
     6274
1010
1916.957235652466
1020
-321.13586581301
1030
0.0
1071
     6274
1010
1834.182670437217
1020
-353.445376432995
1030
0.0
1071
      130
1010
1750.0
1020
-379.878734950281
1030
0.0
1071
     6274
1010
1667.436197397984
1020
-405.803768967314
1030
0.0
1071
     6274
1010
1584.49944677354
1020
-425.325622263021
1030
0.0
1071
      130
1010
1500.000000000044
1020
-443.999999999963
1030
0.0
1071
     6274
1010
1417.569251862894
1020
-462.217195338273
1030
0.0
1071
     6274
1010
1333.846142887213
1020
-472.67560345968
1030
0.0
1071
      130
1010
1250.0
1020
-482.5
1030
0.0
1071
     6274
1010
1168.68158099869
1020
-492.028218792073
1030
0.0
1071
     6274
1010
1086.795595093599
1020
-499.900993815847
1030
0.0
1071
      130
1010
1005.000000000044
1020
-503.499999999963
1030
0.0
1071
     6274
1010
920.068939250251
1020
-507.236966672953
1030
0.0
1071
     6274
1010
835.001194461098
1020
-505.930713174098
1030
0.0
1071
      130
1010
750.0
1020
-504.5
1030
0.0
1071
     6274
1010
666.565893895918
1020
-503.095663560624
1030
0.0
1071
     6274
1010
583.131904331646
1020
-498.732475676853
1030
0.0
1071
      130
1010
500.0
1020
-491.5
1030
0.0
1071
     6274
1010
416.364711698672
1020
-484.223729917785
1030
0.0
1071
     6274
1010
333.196504328287
1020
-472.231528084319
1030
0.0
1071
      130
1010
250.0
1020
-461.0
1030
0.0
1071
     6274
1010
166.516254478993
1020
-449.729694354664
1030
0.0
1071
     6274
1010
83.169385803495
1020
-437.39435779069
1030
0.0
1071
      162
1010
0.0
1020
-424.0
1030
0.0
1070
           3
1071
-2147483643
1070
           1
1000
#$AUX@_ToolInfo Properties
1070
           8
1000
Insert^ JCurve^ JBezier@Curve Bezier
1000
$SPLINESEGS
1070
          18
1070
          20
1000
$SPLFRAME
1070
          18
1070
           0
1000
$SPLINETYPE
1070
          18
1070
           1
1000
$SHOWCONTRPTS
1070
          18
1070
           1
1000
$CURVESMOOTH
1070
          18
1070
           1
1002
}
  0
LINE
  5
74
102
{ACAD_REACTORS
330
7C
102
}
100
AcDbEntity
  8
0
370
           0
  6
Continuous
 62
           7
100
AcDbLine
 10
2075.396268400049
 20
1253.334262346996
 30
-0.000000217586
 11
1740.745717224626
 21
1318.78129464131
 31
-0.000000217586
1001
TCAD
1000
TCW_CUSTOM_DATA
1002
{
1000
#$AUX@_ToolInfo Properties
1070
           8
1000
Insert^ JLine^ JSingle@Line Single
1002
}
  0
LINE
  5
75
102
{ACAD_REACTORS
330
7C
102
}
100
AcDbEntity
  8
0
370
           0
  6
Continuous
 62
           7
100
AcDbLine
 10
2097.309151253812
 20
1373.021929906241
 30
-0.000000217586
 11
2075.39626840005
 21
1253.334262346996
 31
-0.000000217586
1001
TCAD
1000
TCW_CUSTOM_DATA
1002
{
1000
#$AUX@_ToolInfo Properties
1070
           8
1000
Insert^ JLine^ JSingle@Line Single
1002
}
  0
ARC
  5
76
102
{ACAD_REACTORS
330
7C
102
}
100
AcDbEntity
  8
0
370
           0
  6
Continuous
 62
           7
100
AcDbCircle
 10
2205.317584626735
 20
1746.549101884328
 30
0.0
 40
388.829486903481
100
AcDbArc
 50
-147.715887331715
 51
-106.127657420708
1001
TCAD
1000
TCW_CUSTOM_DATA
1002
{
1000
#$AUX@_ToolInfo Properties
1070
           8
1000
Insert^ JArc^ JTriplePoint132@Arc TriplePoint132
1002
}
  0
ARC
  5
77
102
{ACAD_REACTORS
330
7C
102
}
100
AcDbEntity
  8
0
370
           0
  6
Continuous
 62
           7
100
AcDbCircle
 10
1448.169136163355
 20
1586.052587388925
 30
0.0
 40
46.61157645728
100
AcDbArc
 50
139.987632654615
 51
238.6595511265
1001
TCAD
1000
TCW_CUSTOM_DATA
1002
{
1000
#$AUX@_ToolInfo Properties
1070
           8
1000
Insert^ JArc^ JTriplePoint132@Arc TriplePoint132
1002
}
  0
ARC
  5
78
102
{ACAD_REACTORS
330
7C
102
}
100
AcDbEntity
  8
0
370
           0
  6
Continuous
 62
           7
100
AcDbCircle
 10
1568.159029925462
 20
1578.871967303726
 30
0.0
 40
149.399126911445
100
AcDbArc
 50
53.60639216348
 51
136.869558057685
1001
TCAD
1000
TCW_CUSTOM_DATA
1002
{
1000
#$AUX@_ToolInfo Properties
1070
           8
1000
Insert^ JArc^ JTriplePoint132@Arc TriplePoint132
1002
}
  0
LINE
  5
79
102
{ACAD_REACTORS
330
7C
102
}
100
AcDbEntity
  8
0
370
           0
  6
Continuous
 62
           7
100
AcDbLine
 10
1876.597260047408
 20
1538.868293685568
 30
-0.000000217586
 11
1656.801877270111
 21
1699.132288010662
 31
-0.000000217586
1001
TCAD
1000
TCW_CUSTOM_DATA
1002
{
1000
#$AUX@_ToolInfo Properties
1070
           8
1000
Insert^ JLine^ JSingle@Line Single
1002
}
  0
LINE
  5
7A
102
{ACAD_REACTORS
330
7C
102
}
100
AcDbEntity
  8
0
370
           0
  6
Continuous
 62
           7
100
AcDbLine
 10
1412.469065047932
 20
1616.021637794077
 30
-0.000000217586
 11
1459.127675299187
 21
1681.01041662748
 31
-0.000000217586
1001
TCAD
1000
TCW_CUSTOM_DATA
1002
{
1000
#$AUX@_ToolInfo Properties
1070
           8
1000
Insert^ JLine^ JSingle@Line Single
1002
}
  0
LINE
  5
7B
102
{ACAD_REACTORS
330
7C
102
}
100
AcDbEntity
  8
0
370
           0
  6
Continuous
 62
           7
100
AcDbLine
 10
1423.925420411775
 20
1546.242019616167
 30
-0.000000217586
 11
1740.745717224626
 21
1318.78129464131
 31
-0.000000217586
1001
TCAD
1000
TCW_CUSTOM_DATA
1002
{
1000
#$AUX@_ToolInfo Properties
1070
           8
1000
Insert^ JLine^ JSingle@Line Single
1002
}
  0
LINE
  5
7D
102
{ACAD_REACTORS
330
81
102
}
100
AcDbEntity
  8
0
370
           0
  6
Continuous
 62
           7
100
AcDbLine
 10
2414.750231819324
 20
1252.097555465411
 30
0.000000217586
 11
2414.750231819324
 21
1642.097555465411
 31
0.000000217586
  0
LINE
  5
7E
102
{ACAD_REACTORS
330
81
102
}
100
AcDbEntity
  8
0
370
           0
  6
Continuous
 62
           7
100
AcDbLine
 10
2414.750231819324
 20
1642.097555465411
 30
0.000000217586
 11
2106.750231819324
 21
1642.097555465411
 31
0.000000217586
  0
LINE
  5
7F
102
{ACAD_REACTORS
330
81
102
}
100
AcDbEntity
  8
0
370
           0
  6
Continuous
 62
           7
100
AcDbLine
 10
2106.750231819324
 20
1642.097555465411
 30
0.000000217586
 11
2106.750231819324
 21
1252.097555465411
 31
0.000000217586
  0
LINE
  5
80
102
{ACAD_REACTORS
330
81
102
}
100
AcDbEntity
  8
0
370
           0
  6
Continuous
 62
           7
100
AcDbLine
 10
2106.750231819324
 20
1252.097555465411
 30
0.000000217586
 11
2414.750231819324
 21
1252.097555465411
 31
0.000000217586
  0
LINE
  5
82
102
{ACAD_REACTORS
330
86
102
}
100
AcDbEntity
  8
0
370
           0
  6
Continuous
 62
           7
100
AcDbLine
 10
1389.020870014623
 20
1256.958832061641
 30
0.000000217586
 11
1389.020870014623
 21
1646.958832061641
 31
0.000000217586
  0
LINE
  5
83
102
{ACAD_REACTORS
330
86
102
}
100
AcDbEntity
  8
0
370
           0
  6
Continuous
 62
           7
100
AcDbLine
 10
1389.020870014623
 20
1646.958832061641
 30
0.000000217586
 11
1081.020870014623
 21
1646.958832061641
 31
0.000000217586
  0
LINE
  5
84
102
{ACAD_REACTORS
330
86
102
}
100
AcDbEntity
  8
0
370
           0
  6
Continuous
 62
           7
100
AcDbLine
 10
1081.020870014623
 20
1646.958832061641
 30
0.000000217586
 11
1081.020870014623
 21
1256.958832061641
 31
0.000000217586
  0
LINE
  5
85
102
{ACAD_REACTORS
330
86
102
}
100
AcDbEntity
  8
0
370
           0
  6
Continuous
 62
           7
100
AcDbLine
 10
1081.020870014623
 20
1256.958832061641
 30
0.000000217586
 11
1389.020870014623
 21
1256.958832061641
 31
0.000000217586
  0
LINE
  5
87
102
{ACAD_REACTORS
330
8C
102
}
100
AcDbEntity
  8
0
370
           0
  6
Continuous
 62
           7
100
AcDbLine
 10
2161.217551070476
 20
844.870552188865
 30
0.000000002022
 11
2012.731192871117
 21
821.239296087221
 31
0.000000002022
1001
TCAD
1000
TCW_CUSTOM_DATA
1002
{
1000
#$AUX@_ToolInfo Properties
1070
           8
1000
Insert^  JLine^  JSingle@Line Single
1002
}
  0
LINE
  5
88
102
{ACAD_REACTORS
330
8C
102
}
100
AcDbEntity
  8
0
370
           0
  6
Continuous
 62
           7
100
AcDbLine
 10
2161.217551083979
 20
844.870552193958
 30
0.0
 11
2163.899087817065
 21
994.824689543236
 31
0.0
1001
TCAD
1000
TCW_CUSTOM_DATA
1002
{
1000
#$AUX@_ToolInfo Properties
1070
           8
1000
Insert^ JLine^ JSingle@Line Single
1002
}
  0
LINE
  5
89
102
{ACAD_REACTORS
330
8C
102
}
100
AcDbEntity
  8
0
370
           0
  6
Continuous
 62
           7
100
AcDbLine
 10
2012.73119287081
 20
821.239296087178
 30
0.0
 11
2009.866618751134
 21
839.007235302397
 31
0.0
1001
TCAD
1000
TCW_CUSTOM_DATA
1002
{
1000
#$AUX@_ToolInfo Properties
1070
           8
1000
Insert^ JLine^ JSingle@Line Single
1002
}
  0
LINE
  5
8A
102
{ACAD_REACTORS
330
8C
102
}
100
AcDbEntity
  8
0
370
           0
  6
Continuous
 62
           7
100
AcDbLine
 10
2163.899087817065
 20
994.824689543236
 30
0.0
 11
2118.91284661228
 21
995.629150563166
 31
0.0
1001
TCAD
1000
TCW_CUSTOM_DATA
1002
{
1000
#$AUX@_ToolInfo Properties
1070
           8
1000
Insert^ JLine^ JPerpendicular@Line Perpendicular
1002
}
  0
ARC
  5
8B
102
{ACAD_REACTORS
330
8C
102
}
100
AcDbEntity
  8
0
370
           0
  6
Continuous
 62
           7
100
AcDbCircle
 10
1949.737432387813
 20
997.143553527029
 30
0.0
 40
169.182192308635
100
AcDbArc
 50
-69.181373625581
 51
-0.512879375247
1001
TCAD
1000
TCW_CUSTOM_DATA
1002
{
1000
#$AUX@_ToolInfo Properties
1070
           8
1000
Insert^ JArc^ JTriplePoint132@Arc TriplePoint132
1002
}
  0
LINE
  5
8D
102
{ACAD_REACTORS
330
92
102
}
100
AcDbEntity
  8
0
370
           0
  6
Continuous
 62
           7
100
AcDbLine
 10
2021.665708419332
 20
901.785705236267
 30
0.000000002022
 11
1875.086118168172
 21
868.562974264816
 31
0.000000002022
1001
TCAD
1000
TCW_CUSTOM_DATA
1002
{
1000
#$AUX@_ToolInfo Properties
1070
           8
1000
Insert^  JLine^  JSingle@Line Single
1002
}
  0
LINE
  5
8E
102
{ACAD_REACTORS
330
92
102
}
100
AcDbEntity
  8
0
370
           0
  6
Continuous
 62
           7
100
AcDbLine
 10
2021.665708432706
 20
901.785705242261
 30
0.0
 11
2014.594647351381
 21
1051.5395432888
 31
0.0
1001
TCAD
1000
TCW_CUSTOM_DATA
1002
{
1000
#$AUX@_ToolInfo Properties
1070
           8
1000
Insert^ JLine^ JSingle@Line Single
1002
}
  0
LINE
  5
8F
102
{ACAD_REACTORS
330
92
102
}
100
AcDbEntity
  8
0
370
           0
  6
Continuous
 62
           7
100
AcDbLine
 10
1875.086118168124
 20
868.562974264805
 30
0.0
 11
1871.0739162322
 21
886.100353977695
 31
0.0
1001
TCAD
1000
TCW_CUSTOM_DATA
1002
{
1000
#$AUX@_ToolInfo Properties
1070
           8
1000
Insert^ JLine^ JSingle@Line Single
1002
}
  0
LINE
  5
90
102
{ACAD_REACTORS
330
92
102
}
100
AcDbEntity
  8
0
370
           0
  6
Continuous
 62
           7
100
AcDbLine
 10
2014.594647351381
 20
1051.5395432888
 30
0.0
 11
1969.668495937396
 21
1049.418224964455
 31
0.0
1001
TCAD
1000
TCW_CUSTOM_DATA
1002
{
1000
#$AUX@_ToolInfo Properties
1070
           8
1000
Insert^ JLine^ JPerpendicular@Line Perpendicular
1002
}
  0
ARC
  5
91
102
{ACAD_REACTORS
330
92
102
}
100
AcDbEntity
  8
0
370
           0
  6
Continuous
 62
           7
100
AcDbCircle
 10
1800.817249944125
 20
1039.933706064711
 30
0.0
 40
169.117412977575
100
AcDbArc
 50
-65.453519730153
 51
3.214974520115
1001
TCAD
1000
TCW_CUSTOM_DATA
1002
{
1000
#$AUX@_ToolInfo Properties
1070
           8
1000
Insert^ JArc^ JTriplePoint132@Arc TriplePoint132
1002
}
  0
LINE
  5
93
102
{ACAD_REACTORS
330
98
102
}
100
AcDbEntity
  8
0
370
           0
  6
Continuous
 62
           7
100
AcDbLine
 10
1896.919962262406
 20
964.299320822129
 30
0.0
 11
1758.455373060049
 21
906.653175998009
 31
0.0
1001
TCAD
1000
TCW_CUSTOM_DATA
1002
{
1000
#$AUX@_ToolInfo Properties
1070
           8
1000
Insert^ JLine^ JSingle@Line Single
1002
}
  0
LINE
  5
94
102
{ACAD_REACTORS
330
98
102
}
100
AcDbEntity
  8
0
370
           0
  6
Continuous
 62
           7
100
AcDbLine
 10
1896.919962262406
 20
964.299320822129
 30
0.0
 11
1900.513959420445
 21
1114.241268367265
 31
0.0
1001
TCAD
1000
TCW_CUSTOM_DATA
1002
{
1000
#$AUX@_ToolInfo Properties
1070
           8
1000
Insert^ JLine^ JSingle@Line Single
1002
}
  0
LINE
  5
95
102
{ACAD_REACTORS
330
98
102
}
100
AcDbEntity
  8
0
370
           0
  6
Continuous
 62
           7
100
AcDbLine
 10
1900.513959420445
 20
1114.241268367265
 30
0.0
 11
1855.531367642612
 21
1115.319439922392
 31
0.0
1001
TCAD
1000
TCW_CUSTOM_DATA
1002
{
1000
#$AUX@_ToolInfo Properties
1070
           8
1000
Insert^ JLine^ JSingle@Line Single
1002
}
  0
LINE
  5
96
102
{ACAD_REACTORS
330
98
102
}
100
AcDbEntity
  8
0
370
           0
  6
Continuous
 62
           7
100
AcDbLine
 10
1758.455373060049
 20
906.653175998009
 30
0.0
 11
1750.769230264825
 21
925.115113190221
 31
0.0
1001
TCAD
1000
TCW_CUSTOM_DATA
1002
{
1000
#$AUX@_ToolInfo Properties
1070
           8
1000
Insert^ JLine^ JPerpendicular@Line Perpendicular
1002
}
  0
ARC
  5
97
102
{ACAD_REACTORS
330
98
102
}
100
AcDbEntity
  8
0
370
           0
  6
Continuous
 62
           7
100
AcDbCircle
 10
1635.551978779874
 20
1112.528206807382
 30
0.0
 40
219.997074865328
100
AcDbArc
 50
-58.417736669379
 51
0.726965270541
1001
TCAD
1000
TCW_CUSTOM_DATA
1002
{
1000
#$AUX@_ToolInfo Properties
1070
           8
1000
Insert^ JArc^ JTriplePoint132@Arc TriplePoint132
1002
}
  0
LINE
  5
99
102
{ACAD_REACTORS
330
9E
102
}
100
AcDbEntity
  8
0
370
           0
  6
Continuous
 62
           7
100
AcDbLine
 10
1771.826810707517
 20
1001.635878001404
 30
0.00000001711
 11
1629.415185682781
 21
954.495886037297
 31
0.00000001711
1001
TCAD
1000
TCW_CUSTOM_DATA
1002
{
1000
#$AUX@_ToolInfo Properties
1070
           8
1000
Insert^ JLine^ JSingle@Line Single
1002
}
  0
LINE
  5
9A
102
{ACAD_REACTORS
330
9E
102
}
100
AcDbEntity
  8
0
370
           0
  6
Continuous
 62
           7
100
AcDbLine
 10
1771.826810707517
 20
1001.635878001404
 30
0.00000001711
 11
1786.623078400473
 21
1150.916734066445
 31
0.00000001711
1001
TCAD
1000
TCW_CUSTOM_DATA
1002
{
1000
#$AUX@_ToolInfo Properties
1070
           8
1000
Insert^ JLine^ JSingle@Line Single
1002
}
  0
LINE
  5
9B
102
{ACAD_REACTORS
330
9E
102
}
100
AcDbEntity
  8
0
370
           0
  6
Continuous
 62
           7
100
AcDbLine
 10
1786.623078400473
 20
1150.916734066445
 30
0.00000001711
 11
1741.839154051068
 21
1155.356190107948
 31
0.00000001711
1001
TCAD
1000
TCW_CUSTOM_DATA
1002
{
1000
#$AUX@_ToolInfo Properties
1070
           8
1000
Insert^ JLine^ JSingle@Line Single
1002
}
  0
LINE
  5
9C
102
{ACAD_REACTORS
330
9E
102
}
100
AcDbEntity
  8
0
370
           0
  6
Continuous
 62
           7
100
AcDbLine
 10
1629.415185682781
 20
954.495886037297
 30
0.00000001711
 11
1623.129679663308
 21
973.484341701072
 31
0.00000001711
1001
TCAD
1000
TCW_CUSTOM_DATA
1002
{
1000
#$AUX@_ToolInfo Properties
1070
           8
1000
Insert^ JLine^ JPerpendicular@Line Perpendicular
1002
}
  0
ARC
  5
9D
102
{ACAD_REACTORS
330
9E
102
}
100
AcDbEntity
  8
0
370
           0
  6
Continuous
 62
           7
100
AcDbCircle
 10
1522.228350510927
 20
1169.023820972596
 30
0.0
 40
220.0364763754
100
AcDbArc
 50
-62.705579599614
 51
-3.560877659704
1001
TCAD
1000
TCW_CUSTOM_DATA
1002
{
1000
#$AUX@_ToolInfo Properties
1070
           8
1000
Insert^ JArc^ JTriplePoint132@Arc TriplePoint132
1002
}
  0
ENDSEC
  0
SECTION
  2
OBJECTS
  0
DICTIONARY
  5
19
100
AcDbDictionary
280
           0
281
           1
  3
ACAD_GROUP
350
1A
  3
ACAD_MLINESTYLE
350
1B
  3
ACAD_LAYOUT
350
1E
  3
ACAD_PLOTSETTINGS
350
22
  3
ACAD_PLOTSTYLENAME
350
1F
  0
DICTIONARY
  5
1A
102
{ACAD_REACTORS
330
19
102
}
100
AcDbDictionary
280
           0
281
           1
  3

350
7C
  3

350
81
  3

350
86
  3

350
8C
  3

350
92
  3

350
98
  3

350
9E
  0
DICTIONARY
  5
1B
102
{ACAD_REACTORS
330
19
102
}
100
AcDbDictionary
280
           0
281
           1
  3
Standard
350
1C
  0
MLINESTYLE
  5
1C
100
AcDbMlineStyle
  2
STANDARD
 70
           0
  3

 62
         256
 51
90.0
 52
90.0
 71
           3
 49
0.25
 62
           7
  6
ByLayer
 49
0.0
 62
           7
  6
ByLayer
 49
-0.25
 62
           7
  6
ByLayer
  0
ACDBDICTIONARYWDFLT
  5
1F
102
{ACAD_REACTORS
330
19
102
}
100
AcDbDictionary
281
           1
  3
Normal
350
1D
100
AcDbDictionaryWithDefault
340
1D
  0
ACDBPLACEHOLDER
  5
1D
102
{ACAD_REACTORS
330
1F
102
}
  0
LAYOUT
  5
21
102
{ACAD_REACTORS
330
1E
102
}
100
AcDbPlotSettings
  1

  2

  4

  6

 40
0.0
 41
0.0
 42
0.0
 43
0.0
 44
0.0
 45
0.0
 46
0.0
 47
0.0
 48
0.0
 49
0.0
140
0.0
141
0.0
142
1.0
143
1.0
 70
           0
 72
           0
 73
           0
 74
           0
  7

 75
           0
147
1.0
148
0.0
149
0.0
100
AcDbLayout
  1
Layout1
 70
           0
 71
           0
 10
0.0
 20
0.0
 11
0.0
 21
0.0
 12
0.0
 22
0.0
 32
0.0
 14
0.0
 24
0.0
 34
0.0
 15
0.0
 25
0.0
 35
0.0
146
0.0
 13
0.0
 23
0.0
 33
0.0
 16
0.0
 26
0.0
 36
0.0
 17
0.0
 27
0.0
 37
0.0
 76
           0
330
B
331
0
345
0
346
0
  0
DICTIONARY
  5
1E
102
{ACAD_REACTORS
330
19
102
}
100
AcDbDictionary
280
           0
281
           1
  3
Model
350
9F
  3
Paper 1
350
A0
  0
DICTIONARY
  5
22
102
{ACAD_REACTORS
330
19
102
}
100
AcDbDictionary
280
           0
281
           1
  0
GROUP
  5
7C
102
{ACAD_REACTORS
330
1A
102
}
100
AcDbGroup
300

 70
           1
 71
           1
340
74
340
75
340
76
340
77
340
78
340
79
340
7A
340
7B
  0
GROUP
  5
81
102
{ACAD_REACTORS
330
1A
102
}
100
AcDbGroup
300

 70
           1
 71
           1
340
7D
340
7E
340
7F
340
80
  0
GROUP
  5
86
102
{ACAD_REACTORS
330
1A
102
}
100
AcDbGroup
300

 70
           1
 71
           1
340
82
340
83
340
84
340
85
  0
GROUP
  5
8C
102
{ACAD_REACTORS
330
1A
102
}
100
AcDbGroup
300

 70
           1
 71
           1
340
87
340
88
340
89
340
8A
340
8B
  0
GROUP
  5
92
102
{ACAD_REACTORS
330
1A
102
}
100
AcDbGroup
300

 70
           1
 71
           1
340
8D
340
8E
340
8F
340
90
340
91
  0
GROUP
  5
98
102
{ACAD_REACTORS
330
1A
102
}
100
AcDbGroup
300

 70
           1
 71
           1
340
93
340
94
340
95
340
96
340
97
  0
GROUP
  5
9E
102
{ACAD_REACTORS
330
1A
102
}
100
AcDbGroup
300

 70
           1
 71
           1
340
99
340
9A
340
9B
340
9C
340
9D
  0
LAYOUT
  5
9F
100
AcDbPlotSettings
  1

  2

  4

  6

 40
0.0
 41
0.0
 42
0.0
 43
0.0
 44
0.0
 45
0.0
 46
0.0
 47
0.0
 48
0.0
 49
0.0
140
0.0
141
0.0
142
1.0
143
1.0
 70
           0
 72
           1
 73
           0
 74
           0
  7

 75
           0
147
1.0
148
0.0
149
0.0
100
AcDbLayout
  1
Model
 70
           0
 71
           0
 10
0.0
 20
0.0
 11
0.0
 21
0.0
 12
0.0
 22
0.0
 32
0.0
 14
0.0
 24
0.0
 34
0.0
 15
0.0
 25
0.0
 35
0.0
146
0.0
 13
0.0
 23
0.0
 33
0.0
 16
0.0
 26
0.0
 36
0.0
 17
0.0
 27
0.0
 37
0.0
 76
           0
330
A
331
0
345
0
346
0
  0
LAYOUT
  5
A0
100
AcDbPlotSettings
  1

  2

  4

  6

 40
7.0
 41
7.0
 42
7.0
 43
7.0
 44
11.692913385827
 45
8.267716535433
 46
-7.0
 47
-7.0
 48
0.0
 49
0.0
140
0.0
141
0.0
142
1.0
143
25.4
 70
           0
 72
           1
 73
           0
 74
           0
  7

 75
           0
147
1.0
148
0.0
149
0.0
100
AcDbLayout
  1
Paper 1
 70
           1
 71
           1
 10
0.0
 20
0.0
 11
11.692913385827
 21
8.267716535433
 12
0.0
 22
0.0
 32
0.0
 14
0.0
 24
0.0
 34
0.0
 15
0.0
 25
0.0
 35
0.0
146
0.0
 13
0.0
 23
0.0
 33
0.0
 16
0.0
 26
0.0
 36
0.0
 17
0.0
 27
0.0
 37
0.0
 76
           0
330
B
331
0
345
0
346
0
  0
ENDSEC
  0
EOF
