0
SECTION
2
HEADER
9
$INSUNITS
70
4
9
$ACADVER
1
AC1014
9
$HANDSEED
5
FFFF
0
ENDSEC
0
SECTION
2
TABLES
0
TABLE
2
VPORT
5
8
100
AcDbSymbolTable
0
ENDTAB
0
TABLE
2
LTYPE
5
5
100
AcDbSymbolTable
0
LTYPE
5
14
100
AcDbSymbolTableRecord
100
AcDbLinetypeTableRecord
2
BYBLOCK
70
0
0
LTYPE
5
15
100
AcDbSymbolTableRecord
100
AcDbLinetypeTableRecord
2
BYLAYER
70
0
0
ENDTAB
0
TABLE
2
LAYER
5
2
100
AcDbSymbolTable
70
2
0
LAYER
5
50
100
AcDbSymbolTableRecord
100
AcDbLayerTableRecord
2
0
70
0
6
CONTINUOUS
0
ENDTAB
0
TABLE
2
STYLE
5
3
100
AcDbSymbolTable
70
1
0
STYLE
5
11
100
AcDbSymbolTableRecord
100
AcDbTextStyleTableRecord
2
STANDARD
70
0
0
ENDTAB
0
TABLE
2
VIEW
5
6
100
AcDbSymbolTable
70
0
0
ENDTAB
0
TABLE
2
UCS
5
7
100
AcDbSymbolTable
70
0
0
ENDTAB
0
TABLE
2
APPID
5
9
100
AcDbSymbolTable
70
2
0
APPID
5
12
100
AcDbSymbolTableRecord
100
AcDbRegAppTableRecord
2
ACAD
70
0
0
ENDTAB
0
TABLE
2
DIMSTYLE
5
A
100
AcDbSymbolTable
70
1
0
ENDTAB
0
TABLE
2
BLOCK_RECORD
5
1
100
AcDbSymbolTable
70
1
0
BLOCK_RECORD
5
1F
100
AcDbSymbolTableRecord
100
AcDbBlockTableRecord
2
*MODEL_SPACE
0
BLOCK_RECORD
5
1B
100
AcDbSymbolTableRecord
100
AcDbBlockTableRecord
2
*PAPER_SPACE
0
ENDTAB
0
ENDSEC
0
SECTION
2
BLOCKS
0
BLOCK
5
20
100
AcDbEntity
100
AcDbBlockBegin
2
*MODEL_SPACE
0
ENDBLK
5
21
100
AcDbEntity
100
AcDbBlockEnd
0
BLOCK
5
1C
100
AcDbEntity
100
AcDbBlockBegin
2
*PAPER_SPACE
0
ENDBLK
5
1D
100
AcDbEntity
100
AcDbBlockEnd
0
ENDSEC
0
SECTION
2
ENTITIES
0
CIRCLE
5
100
100
AcDbEntity
8
0
100
AcDbCircle
10
6.2499999999995302
20
341.41988670545317
30
0
40
1.6500000000000024
210
0
220
-0
230
1
0
CIRCLE
5
101
100
AcDbEntity
8
0
100
AcDbCircle
10
6.2499999999995373
20
293.21988670545397
30
0
40
1.4999999999999858
210
0
220
-0
230
1
0
CIRCLE
5
102
100
AcDbEntity
8
0
100
AcDbCircle
10
7.9950000000000356
20
278.72944335272712
30
0
40
1.6500000000000015
210
0
220
0
230
1
0
CIRCLE
5
103
100
AcDbEntity
8
0
100
AcDbCircle
10
-8.0049999999999635
20
278.72944335272712
30
0
40
1.6499999999999881
210
0
220
0
230
1
0
CIRCLE
5
104
100
AcDbEntity
8
0
100
AcDbCircle
10
9.0000000000000284
20
408.42429365619773
30
0
40
1.6499999999999682
210
0
220
0
230
1
0
CIRCLE
5
105
100
AcDbEntity
8
0
100
AcDbCircle
10
-8.9999999999999716
20
408.42429365619773
30
0
40
1.6499999999999926
210
0
220
0
230
1
0
CIRCLE
5
106
100
AcDbEntity
8
0
100
AcDbCircle
10
-7.9999999999999902
20
366.772503816822
30
0
40
1.5270632938682616
210
0
220
0
230
1
0
CIRCLE
5
107
100
AcDbEntity
8
0
100
AcDbCircle
10
-9.6508715389484088e-14
20
426.42429365619773
30
0
40
1.6499999999999992
210
0
220
0
230
1
0
CIRCLE
5
108
100
AcDbEntity
8
0
100
AcDbCircle
10
8.0000000000000142
20
366.772503816822
30
0
40
1.5270632938682616
210
0
220
0
230
1
0
CIRCLE
5
109
100
AcDbEntity
8
0
100
AcDbCircle
10
8.7400000000000517
20
157.23899999999998
30
0
40
1.6500000000000004
210
-0
220
0
230
1
0
CIRCLE
5
110
100
AcDbEntity
8
0
100
AcDbCircle
10
-39.83000000000095
20
178.06899999999939
30
0
40
1.649999999999987
210
-0
220
0
230
1
0
CIRCLE
5
111
100
AcDbEntity
8
0
100
AcDbCircle
10
-8.7499999999999662
20
157.23899999999998
30
0
40
1.6499999999999981
210
-0
220
0
230
1
0
CIRCLE
5
112
100
AcDbEntity
8
0
100
AcDbCircle
10
-8.7499999999999556
20
107.23899999999998
30
0
40
1.6499999999999937
210
-0
220
0
230
1
0
CIRCLE
5
113
100
AcDbEntity
8
0
100
AcDbCircle
10
7.9399999999985234
20
187.31899999999857
30
0
40
1.6499999999999992
210
-0
220
0
230
1
0
CIRCLE
5
114
100
AcDbEntity
8
0
100
AcDbCircle
10
1.9399999999986335
20
196.81899999999848
30
0
40
1.649999999999997
210
-0
220
0
230
1
0
CIRCLE
5
115
100
AcDbEntity
8
0
100
AcDbCircle
10
8.7400000000000553
20
107.23899999999998
30
0
40
1.6500000000000004
210
-0
220
0
230
1
0
LWPOLYLINE
5
116
100
AcDbEntity
8
0
100
AcDbPolyline
90
24
70
1
43
0.0
10
-11.000000000000165
20
435
42
0.41421356237310203
10
-16.000000000000142
20
430
10
-16.000000000000199
20
390.77350269189753
42
-0.26794919243117449
10
-21.000000000001862
20
382.1132486540522
10
-54.948726346352998
20
362.51294235935029
42
0.23716020140288152
10
-59.881793392318947
20
355.00775501238456
10
-79.042026930108548
20
190.23814833082497
42
0.36072377732144995
10
-72.081130863160666
20
179.53498236985541
10
-26.291743531475468
20
165.28147658567326
42
-0.32834560642641369
10
-15.749999999999972
20
150.95932768053831
10
-15.749999999999979
20
107.5
42
0.4142135623730962
10
-8.2499999999999787
20
100
10
8.2500000000000195
20
100
42
0.4142135623730962
10
15.750000000000012
20
107.5
10
15.749999999999984
20
150.95932768053839
42
-0.32834560642641125
10
26.29174353147533
20
165.28147658567335
10
72.081130863160581
20
179.53498236985607
42
0.36072377732144306
10
79.042026930108364
20
190.2381483308256
10
59.88179339231904
20
355.00775501238508
42
0.23716020140288774
10
54.948726346353013
20
362.51294235935092
10
21.000000000001666
20
382.11324865405226
42
-0.26794919243117926
10
15.999999999999837
20
390.7735026918977
10
15.999999999999837
20
430
42
0.41421356237310203
10
10.999999999999837
20
435
0
CIRCLE
5
117
100
AcDbEntity
8
0
100
AcDbCircle
10
6.2499999999995302
20
341.41988670545317
30
0
40
1.6500000000000024
210
-0
220
0
230
1
0
CIRCLE
5
118
100
AcDbEntity
8
0
100
AcDbCircle
10
6.2499999999995373
20
293.21988670545397
30
0
40
1.4999999999999858
210
-0
220
0
230
1
0
CIRCLE
5
119
100
AcDbEntity
8
0
100
AcDbCircle
10
7.9950000000000356
20
278.72944335272712
30
0
40
1.6500000000000015
210
0
220
-0
230
1
0
CIRCLE
5
120
100
AcDbEntity
8
0
100
AcDbCircle
10
-8.0049999999999635
20
278.72944335272712
30
0
40
1.6499999999999881
210
0
220
-0
230
1
0
CIRCLE
5
121
100
AcDbEntity
8
0
100
AcDbCircle
10
9.0000000000000284
20
408.42429365619773
30
0
40
1.6499999999999682
210
0
220
-0
230
1
0
CIRCLE
5
122
100
AcDbEntity
8
0
100
AcDbCircle
10
-8.9999999999999716
20
408.42429365619773
30
0
40
1.6499999999999926
210
0
220
-0
230
1
0
CIRCLE
5
123
100
AcDbEntity
8
0
100
AcDbCircle
10
-7.9999999999999902
20
366.772503816822
30
0
40
1.5270632938682616
210
0
220
-0
230
1
0
CIRCLE
5
124
100
AcDbEntity
8
0
100
AcDbCircle
10
-9.6508715389484088e-14
20
426.42429365619773
30
0
40
1.6499999999999992
210
0
220
-0
230
1
0
CIRCLE
5
125
100
AcDbEntity
8
0
100
AcDbCircle
10
8.0000000000000142
20
366.772503816822
30
0
40
1.5270632938682616
210
0
220
-0
230
1
0
CIRCLE
5
126
100
AcDbEntity
8
0
100
AcDbCircle
10
8.7400000000000517
20
157.23899999999998
30
0
40
1.6500000000000004
210
0
220
0
230
1
0
CIRCLE
5
127
100
AcDbEntity
8
0
100
AcDbCircle
10
-39.83000000000095
20
178.06899999999939
30
0
40
1.649999999999987
210
0
220
0
230
1
0
CIRCLE
5
128
100
AcDbEntity
8
0
100
AcDbCircle
10
-8.7499999999999662
20
157.23899999999998
30
0
40
1.6499999999999981
210
0
220
0
230
1
0
CIRCLE
5
129
100
AcDbEntity
8
0
100
AcDbCircle
10
-8.7499999999999556
20
107.23899999999998
30
0
40
1.6499999999999937
210
0
220
0
230
1
0
CIRCLE
5
130
100
AcDbEntity
8
0
100
AcDbCircle
10
7.9399999999985234
20
187.31899999999857
30
0
40
1.6499999999999992
210
0
220
0
230
1
0
CIRCLE
5
131
100
AcDbEntity
8
0
100
AcDbCircle
10
1.9399999999986335
20
196.81899999999848
30
0
40
1.649999999999997
210
0
220
0
230
1
0
CIRCLE
5
132
100
AcDbEntity
8
0
100
AcDbCircle
10
8.7400000000000553
20
107.23899999999998
30
0
40
1.6500000000000004
210
0
220
0
230
1
0
LWPOLYLINE
5
133
100
AcDbEntity
8
0
100
AcDbPolyline
90
24
70
1
43
0.0
10
-11.000000000000165
20
435
42
0.41421356237309503
10
-16.000000000000163
20
430
10
-16.000000000000178
20
390.77350269189753
42
-0.26794919243117721
10
-21.000000000001897
20
382.1132486540522
10
-54.948726346352998
20
362.51294235935035
42
0.2371602014028831
10
-59.881793392318954
20
355.00775501238451
10
-79.042026930108563
20
190.23814833082497
42
0.36072377732144933
10
-72.081130863160666
20
179.53498236985541
10
-26.291743531475472
20
165.28147658567326
42
-0.32834560642641414
10
-15.749999999999973
20
150.95932768053831
10
-15.749999999999979
20
107.5
42
0.41421356237309503
10
-8.2499999999999822
20
100
10
8.2500000000000178
20
100
42
0.41421356237309509
10
15.750000000000018
20
107.5
10
15.749999999999938
20
150.95932768053839
42
-0.32834560642641075
10
26.291743531475316
20
165.28147658567337
10
72.081130863160567
20
179.5349823698561
42
0.36072377732144639
10
79.042026930108364
20
190.2381483308256
10
59.88179339231904
20
355.00775501238508
42
0.23716020140288574
10
54.94872634635297
20
362.51294235935092
10
21.000000000001712
20
382.11324865405231
42
-0.2679491924311771
10
15.999999999999833
20
390.7735026918977
10
15.999999999999837
20
430
42
0.41421356237309503
10
10.999999999999837
20
435
0
ENDSEC
0
SECTION
2
OBJECTS
0
DICTIONARY
5
C
100
AcDbDictionary
3
ACAD_GROUP
350
D
3
ACAD_MLINESTYLE
350
17
0
DICTIONARY
5
D
100
AcDbDictionary
0
DICTIONARY
5
1A
330
C
100
AcDbDictionary
0
DICTIONARY
5
17
100
AcDbDictionary
0
ENDSEC
0
EOF
