  0
SECTION
  2
HEADER
  9
$ACADVER
  1
AC1015
  9
$ACADMAINTVER
 70
     6
  9
$DWGCODEPAGE
  3
ANSI_1252
  9
$INSBASE
 10
0.0
 20
0.0
 30
0.0
  9
$EXTMIN
 10
12.0
 20
13.6815841975
 30
0.0
  9
$EXTMAX
 10
437.9578341028
 20
329.9325147903
 30
0.0
  9
$LIMMIN
 10
0.0
 20
0.0
  9
$LIMMAX
 10
420.0
 20
297.0
  9
$ORTHOMODE
 70
     0
  9
$REGENMODE
 70
     1
  9
$FILLMODE
 70
     1
  9
$QTEXTMODE
 70
     0
  9
$MIRRTEXT
 70
     1
  9
$LTSCALE
 40
1.0
  9
$ATTMODE
 70
     1
  9
$TEXTSIZE
 40
3.5
  9
$TRACEWID
 40
1.0
  9
$TEXTSTYLE
  7
Standard
  9
$CLAYER
  8
0
  9
$CELTYPE
  6
ByLayer
  9
$CECOLOR
 62
   256
  9
$CELTSCALE
 40
1.0
  9
$DISPSILH
 70
     0
  9
$DIMSCALE
 40
1.0
  9
$DIMASZ
 40
3.302
  9
$DIMEXO
 40
1.0
  9
$DIMDLI
 40
3.75
  9
$DIMRND
 40
0.0
  9
$DIMDLE
 40
0.0
  9
$DIMEXE
 40
1.0
  9
$DIMTP
 40
0.0
  9
$DIMTM
 40
0.0
  9
$DIMTXT
 40
3.5
  9
$DIMCEN
 40
2.5
  9
$DIMTSZ
 40
0.0
  9
$DIMTOL
 70
     0
  9
$DIMLIM
 70
     0
  9
$DIMTIH
 70
     1
  9
$DIMTOH
 70
     1
  9
$DIMSE1
 70
     0
  9
$DIMSE2
 70
     0
  9
$DIMTAD
 70
     1
  9
$DIMZIN
 70
     1
  9
$DIMBLK
  1

  9
$DIMASO
 70
     1
  9
$DIMSHO
 70
     1
  9
$DIMPOST
  1

  9
$DIMAPOST
  1

  9
$DIMALT
 70
     0
  9
$DIMALTD
 70
     3
  9
$DIMALTF
 40
0.0393700787
  9
$DIMLFAC
 40
1.0
  9
$DIMTOFL
 70
     1
  9
$DIMTVP
 40
0.0
  9
$DIMTIX
 70
     0
  9
$DIMSOXD
 70
     0
  9
$DIMSAH
 70
     0
  9
$DIMBLK1
  1

  9
$DIMBLK2
  1

  9
$DIMSTYLE
  2
ISO-25
  9
$DIMCLRD
 70
     0
  9
$DIMCLRE
 70
     0
  9
$DIMCLRT
 70
     0
  9
$DIMTFAC
 40
1.0
  9
$DIMGAP
 40
1.524
  9
$DIMJUST
 70
     0
  9
$DIMSD1
 70
     0
  9
$DIMSD2
 70
     0
  9
$DIMTOLJ
 70
     0
  9
$DIMTZIN
 70
     1
  9
$DIMALTZ
 70
     0
  9
$DIMALTTZ
 70
     0
  9
$DIMUPT
 70
     0
  9
$DIMDEC
 70
     2
  9
$DIMTDEC
 70
     2
  9
$DIMALTU
 70
     2
  9
$DIMALTTD
 70
     3
  9
$DIMTXSTY
  7
Standard
  9
$DIMAUNIT
 70
     0
  9
$DIMADEC
 70
     2
  9
$DIMALTRND
 40
0.0
  9
$DIMAZIN
 70
     0
  9
$DIMDSEP
 70
    44
  9
$DIMATFIT
 70
     3
  9
$DIMFRAC
 70
     0
  9
$DIMLDRBLK
  1

  9
$DIMLUNIT
 70
     2
  9
$DIMLWD
 70
    -2
  9
$DIMLWE
 70
    -2
  9
$DIMTMOVE
 70
     0
  9
$LUNITS
 70
     2
  9
$LUPREC
 70
     2
  9
$SKETCHINC
 40
1.0
  9
$FILLETRAD
 40
10.0
  9
$AUNITS
 70
     0
  9
$AUPREC
 70
     2
  9
$MENU
  1
.
  9
$ELEVATION
 40
0.0
  9
$PELEVATION
 40
0.0
  9
$THICKNESS
 40
0.0
  9
$LIMCHECK
 70
     0
  9
$CHAMFERA
 40
0.0
  9
$CHAMFERB
 40
0.0
  9
$CHAMFERC
 40
0.0
  9
$CHAMFERD
 40
0.0
  9
$SKPOLY
 70
     0
  9
$TDCREATE
 40
2458469.77007022
  9
$TDUCREATE
 40
2458469.728403553
  9
$TDUPDATE
 40
2458469.77010897
  9
$TDUUPDATE
 40
2458469.728442303
  9
$TDINDWG
 40
0.0000000116
  9
$TDUSRTIMER
 40
0.0000000116
  9
$USRTIMER
 70
     1
  9
$ANGBASE
 50
0.0
  9
$ANGDIR
 70
     0
  9
$PDMODE
 70
     0
  9
$PDSIZE
 40
-1.0
  9
$PLINEWID
 40
0.0
  9
$SPLFRAME
 70
     0
  9
$SPLINETYPE
 70
     6
  9
$SPLINESEGS
 70
     8
  9
$HANDSEED
  5
60A
  9
$SURFTAB1
 70
     6
  9
$SURFTAB2
 70
     6
  9
$SURFTYPE
 70
     6
  9
$SURFU
 70
     6
  9
$SURFV
 70
     6
  9
$UCSBASE
  2

  9
$UCSNAME
  2

  9
$UCSORG
 10
0.0
 20
0.0
 30
0.0
  9
$UCSXDIR
 10
1.0
 20
0.0
 30
0.0
  9
$UCSYDIR
 10
0.0
 20
1.0
 30
0.0
  9
$UCSORTHOREF
  2

  9
$UCSORTHOVIEW
 70
     0
  9
$UCSORGTOP
 10
0.0
 20
0.0
 30
0.0
  9
$UCSORGBOTTOM
 10
0.0
 20
0.0
 30
0.0
  9
$UCSORGLEFT
 10
0.0
 20
0.0
 30
0.0
  9
$UCSORGRIGHT
 10
0.0
 20
0.0
 30
0.0
  9
$UCSORGFRONT
 10
0.0
 20
0.0
 30
0.0
  9
$UCSORGBACK
 10
0.0
 20
0.0
 30
0.0
  9
$PUCSBASE
  2

  9
$PUCSNAME
  2

  9
$PUCSORG
 10
0.0
 20
0.0
 30
0.0
  9
$PUCSXDIR
 10
1.0
 20
0.0
 30
0.0
  9
$PUCSYDIR
 10
0.0
 20
1.0
 30
0.0
  9
$PUCSORTHOREF
  2

  9
$PUCSORTHOVIEW
 70
     0
  9
$PUCSORGTOP
 10
0.0
 20
0.0
 30
0.0
  9
$PUCSORGBOTTOM
 10
0.0
 20
0.0
 30
0.0
  9
$PUCSORGLEFT
 10
0.0
 20
0.0
 30
0.0
  9
$PUCSORGRIGHT
 10
0.0
 20
0.0
 30
0.0
  9
$PUCSORGFRONT
 10
0.0
 20
0.0
 30
0.0
  9
$PUCSORGBACK
 10
0.0
 20
0.0
 30
0.0
  9
$USERI1
 70
     0
  9
$USERI2
 70
     0
  9
$USERI3
 70
     0
  9
$USERI4
 70
     0
  9
$USERI5
 70
     0
  9
$USERR1
 40
0.0
  9
$USERR2
 40
0.0
  9
$USERR3
 40
0.0
  9
$USERR4
 40
0.0
  9
$USERR5
 40
0.0
  9
$WORLDVIEW
 70
     1
  9
$SHADEDGE
 70
     3
  9
$SHADEDIF
 70
    70
  9
$TILEMODE
 70
     1
  9
$MAXACTVP
 70
    64
  9
$PINSBASE
 10
0.0
 20
0.0
 30
0.0
  9
$PLIMCHECK
 70
     0
  9
$PEXTMIN
 10
1.0000000000E+20
 20
1.0000000000E+20
 30
1.0000000000E+20
  9
$PEXTMAX
 10
-1.0000000000E+20
 20
-1.0000000000E+20
 30
-1.0000000000E+20
  9
$PLIMMIN
 10
0.0
 20
0.0
  9
$PLIMMAX
 10
420.0
 20
297.0
  9
$UNITMODE
 70
     0
  9
$VISRETAIN
 70
     1
  9
$PLINEGEN
 70
     0
  9
$PSLTSCALE
 70
     1
  9
$TREEDEPTH
 70
  3020
  9
$CMLSTYLE
  2
Standard
  9
$CMLJUST
 70
     0
  9
$CMLSCALE
 40
20.0
  9
$PROXYGRAPHICS
 70
     1
  9
$MEASUREMENT
 70
     1
  9
$CELWEIGHT
370
    -1
  9
$ENDCAPS
280
     0
  9
$JOINSTYLE
280
     0
  9
$LWDISPLAY
290
     1
  9
$INSUNITS
 70
     4
  9
$HYPERLINKBASE
  1

  9
$STYLESHEET
  1

  9
$XEDIT
290
     1
  9
$CEPSNTYPE
380
     0
  9
$PSTYLEMODE
290
     1
  9
$FINGERPRINTGUID
  2
{718A3D37-5CEA-44B3-AEB6-EDAB2A5F3C0D}
  9
$VERSIONGUID
  2
{FAEB1C32-E019-11D5-929B-00C0DF256EC4}
  9
$EXTNAMES
290
     1
  9
$PSVPSCALE
 40
0.0
  9
$OLESTARTUP
290
     0
  0
ENDSEC
  0
SECTION
  2
CLASSES
  0
CLASS
  1
ACDBDICTIONARYWDFLT
  2
AcDbDictionaryWithDefault
  3
ObjectDBX Classes
 90
        0
280
     0
281
     0
  0
CLASS
  1
VISUALSTYLE
  2
AcDbVisualStyle
  3
ObjectDBX Classes
 90
     4095
280
     0
281
     0
  0
CLASS
  1
MATERIAL
  2
AcDbMaterial
  3
ObjectDBX Classes
 90
     1153
280
     0
281
     0
  0
CLASS
  1
SCALE
  2
AcDbScale
  3
ObjectDBX Classes
 90
     1153
280
     0
281
     0
  0
CLASS
  1
TABLESTYLE
  2
AcDbTableStyle
  3
ObjectDBX Classes
 90
     4095
280
     0
281
     0
  0
CLASS
  1
MLEADERSTYLE
  2
AcDbMLeaderStyle
  3
ACDB_MLEADERSTYLE_CLASS
 90
     4095
280
     0
281
     0
  0
CLASS
  1
SUN
  2
AcDbSun
  3
SCENEOE
 90
     1153
280
     0
281
     0
  0
CLASS
  1
ACDBPLACEHOLDER
  2
AcDbPlaceHolder
  3
ObjectDBX Classes
 90
        0
280
     0
281
     0
  0
CLASS
  1
LAYOUT
  2
AcDbLayout
  3
ObjectDBX Classes
 90
        0
280
     0
281
     0
  0
ENDSEC
  0
SECTION
  2
TABLES
  0
TABLE
  2
VPORT
  5
8
330
0
100
AcDbSymbolTable
 70
     1
  0
VPORT
  5
29
330
8
100
AcDbSymbolTableRecord
100
AcDbViewportTableRecord
  2
*Active
 70
     0
 10
0.0
 20
0.0
 11
1.0
 21
1.0
 12
224.9789170514
 22
171.8070494939
 13
0.0
 23
0.0
 14
10.0
 24
10.0
 15
10.0
 25
10.0
 16
0.0
 26
0.0
 36
1.0
 17
0.0
 27
0.0
 37
0.0
 40
322.5759492046
 41
1.3468982789
 42
50.0
 43
0.0
 44
0.0
 50
0.0
 51
0.0
 71
     0
 72
   100
 73
     1
 74
     3
 75
     0
 76
     0
 77
     0
 78
     0
281
     0
 65
     1
110
0.0
120
0.0
130
0.0
111
1.0
121
0.0
131
0.0
112
0.0
122
1.0
132
0.0
 79
     0
146
0.0
  0
ENDTAB
  0
TABLE
  2
LTYPE
  5
5
330
0
100
AcDbSymbolTable
 70
     6
  0
LTYPE
  5
14
330
5
100
AcDbSymbolTableRecord
100
AcDbLinetypeTableRecord
  2
ByBlock
 70
     0
  3

 72
    65
 73
     0
 40
0.0
  0
LTYPE
  5
15
330
5
100
AcDbSymbolTableRecord
100
AcDbLinetypeTableRecord
  2
ByLayer
 70
     0
  3

 72
    65
 73
     0
 40
0.0
  0
LTYPE
  5
16
330
5
100
AcDbSymbolTableRecord
100
AcDbLinetypeTableRecord
  2
Continuous
 70
     0
  3
Solid line
 72
    65
 73
     0
 40
0.0
  0
LTYPE
  5
6E
330
5
100
AcDbSymbolTableRecord
100
AcDbLinetypeTableRecord
  2
HIDDEN
 70
     0
  3
Hidden __ __ __ __ __ __ __ __ __ __ __ __ __ __
 72
    65
 73
     2
 40
1.905
 49
1.27
 74
     0
 49
-0.635
 74
     0
  0
LTYPE
  5
6F
330
5
100
AcDbSymbolTableRecord
100
AcDbLinetypeTableRecord
  2
PHANTOM
 70
     0
  3
Phantom ______  __  __  ______  __  __  ______
 72
    65
 73
     6
 40
12.7
 49
6.35
 74
     0
 49
-1.27
 74
     0
 49
1.27
 74
     0
 49
-1.27
 74
     0
 49
1.27
 74
     0
 49
-1.27
 74
     0
  0
LTYPE
  5
70
330
5
100
AcDbSymbolTableRecord
100
AcDbLinetypeTableRecord
  2
CENTER
 70
     0
  3
Center ____ _ ____ _ ____ _ ____ _ ____ _ ____
 72
    65
 73
     4
 40
10.16
 49
6.35
 74
     0
 49
-1.27
 74
     0
 49
1.27
 74
     0
 49
-1.27
 74
     0
  0
LTYPE
  5
71
330
5
100
AcDbSymbolTableRecord
100
AcDbLinetypeTableRecord
  2
CENTERX2
 70
     0
  3
Center (2x) ________  __  ________  __  _____
 72
    65
 73
     4
 40
20.32
 49
12.7
 74
     0
 49
-2.54
 74
     0
 49
2.54
 74
     0
 49
-2.54
 74
     0
  0
LTYPE
  5
72
330
5
100
AcDbSymbolTableRecord
100
AcDbLinetypeTableRecord
  2
DOT2
 70
     0
  3
Dot (.5x) ........................................
 72
    65
 73
     2
 40
0.635
 49
0.0
 74
     0
 49
-0.635
 74
     0
  0
ENDTAB
  0
TABLE
  2
LAYER
  5
2
330
0
100
AcDbSymbolTable
 70
     1
  0
LAYER
  5
10
330
2
100
AcDbSymbolTableRecord
100
AcDbLayerTableRecord
  2
0
 70
     0
 62
     7
  6
Continuous
370
    -3
390
F
  0
ENDTAB
  0
TABLE
  2
STYLE
  5
3
330
0
100
AcDbSymbolTable
 70
     2
  0
STYLE
  5
11
330
3
100
AcDbSymbolTableRecord
100
AcDbTextStyleTableRecord
  2
Standard
 70
     0
 40
0.0
 41
1.0
 50
0.0
 71
     0
 42
3.5
  3
txt
  4

  0
STYLE
  5
608
330
3
100
AcDbSymbolTableRecord
100
AcDbTextStyleTableRecord
  2
SLDTEXTSTYLE0
 70
     0
 40
0.0
 41
0.7
 50
0.0
 71
     0
 42
3.5
  3
TXT
  4
bigfont
  0
ENDTAB
  0
TABLE
  2
VIEW
  5
6
330
0
100
AcDbSymbolTable
 70
     0
  0
ENDTAB
  0
TABLE
  2
UCS
  5
7
330
0
100
AcDbSymbolTable
 70
     0
  0
ENDTAB
  0
TABLE
  2
APPID
  5
9
330
0
100
AcDbSymbolTable
 70
     1
  0
APPID
  5
12
330
9
100
AcDbSymbolTableRecord
100
AcDbRegAppTableRecord
  2
ACAD
 70
     0
  0
ENDTAB
  0
TABLE
  2
DIMSTYLE
  5
A
330
0
100
AcDbSymbolTable
 70
     1
100
AcDbDimStyleTable
  0
DIMSTYLE
105
27
330
A
100
AcDbSymbolTableRecord
100
AcDbDimStyleTableRecord
  2
ISO-25
 70
     0
 41
2.5
 42
0.625
 43
3.75
 44
1.25
 73
     0
 74
     0
 77
     1
 78
     8
140
2.5
141
2.5
143
0.0393700787
147
0.625
171
     3
172
     1
178
     0
271
     2
272
     2
274
     3
278
    44
283
     0
284
     8
340
11
  0
ENDTAB
  0
TABLE
  2
BLOCK_RECORD
  5
1
330
0
100
AcDbSymbolTable
 70
     1
  0
BLOCK_RECORD
  5
1F
330
1
100
AcDbSymbolTableRecord
100
AcDbBlockTableRecord
  2
*Model_Space
340
22
  0
BLOCK_RECORD
  5
1B
330
1
100
AcDbSymbolTableRecord
100
AcDbBlockTableRecord
  2
*Paper_Space
340
1E
  0
BLOCK_RECORD
  5
23
330
1
100
AcDbSymbolTableRecord
100
AcDbBlockTableRecord
  2
*Paper_Space0
340
26
  0
ENDTAB
  0
ENDSEC
  0
SECTION
  2
BLOCKS
  0
BLOCK
  5
20
330
1F
100
AcDbEntity
  8
0
100
AcDbBlockBegin
  2
*Model_Space
 70
     0
 10
0.0
 20
0.0
 30
0.0
  3
*Model_Space
  1

  0
ENDBLK
  5
21
330
1F
100
AcDbEntity
  8
0
100
AcDbBlockEnd
  0
BLOCK
  5
1C
330
1B
100
AcDbEntity
 67
     1
  8
0
100
AcDbBlockBegin
  2
*Paper_Space
 70
     0
 10
0.0
 20
0.0
 30
0.0
  3
*Paper_Space
  1

  0
ENDBLK
  5
1D
330
1B
100
AcDbEntity
 67
     1
  8
0
100
AcDbBlockEnd
  0
BLOCK
  5
24
330
23
100
AcDbEntity
  8
0
100
AcDbBlockBegin
  2
*Paper_Space0
 70
     0
 10
0.0
 20
0.0
 30
0.0
  3
*Paper_Space0
  1

  0
ENDBLK
  5
25
330
23
100
AcDbEntity
  8
0
100
AcDbBlockEnd
  0
ENDSEC
  0
SECTION
  2
ENTITIES
  0
CIRCLE
  5
73
330
1F
100
AcDbEntity
  8
0
  6
Continuous
 62
     7
100
AcDbCircle
 10
353.0311215624
 20
210.4939089459
 30
0.0
 40
8.0
  0
CIRCLE
  5
74
330
1F
100
AcDbEntity
  8
0
  6
Continuous
 62
     7
100
AcDbCircle
 10
353.0311215624
 20
210.4939089459
 30
0.0
 40
2.199999999999989
  0
CIRCLE
  5
75
330
1F
100
AcDbEntity
  8
0
  6
Continuous
 62
     7
100
AcDbCircle
 10
284.0
 20
316.0
 30
0.0
 40
7.999999999999943
  0
CIRCLE
  5
76
330
1F
100
AcDbEntity
  8
0
  6
Continuous
 62
     7
100
AcDbCircle
 10
284.0
 20
316.0
 30
0.0
 40
2.199999999999932
  0
CIRCLE
  5
77
330
1F
100
AcDbEntity
  8
0
  6
Continuous
 62
     7
100
AcDbCircle
 10
98.7979471048
 20
144.357585457
 30
0.0
 40
7.999999999999986
  0
CIRCLE
  5
78
330
1F
100
AcDbEntity
  8
0
  6
Continuous
 62
     7
100
AcDbCircle
 10
98.7979471048
 20
144.357585457
 30
0.0
 40
2.200000000000003
  0
CIRCLE
  5
79
330
1F
100
AcDbEntity
  8
0
  6
Continuous
 62
     7
100
AcDbCircle
 10
53.8359222791
 20
21.6815841975
 30
0.0
 40
8.0
  0
CIRCLE
  5
7A
330
1F
100
AcDbEntity
  8
0
  6
Continuous
 62
     7
100
AcDbCircle
 10
53.8359222791
 20
21.6815841975
 30
0.0
 40
2.199999999999996
  0
CIRCLE
  5
7B
330
1F
100
AcDbEntity
  8
0
  6
Continuous
 62
     7
100
AcDbCircle
 10
360.0
 20
316.0
 30
0.0
 40
8.000000000000057
  0
CIRCLE
  5
7C
330
1F
100
AcDbEntity
  8
0
  6
Continuous
 62
     7
100
AcDbCircle
 10
360.0
 20
316.0
 30
0.0
 40
2.200000000000045
  0
CIRCLE
  5
7D
330
1F
100
AcDbEntity
  8
0
  6
Continuous
 62
     7
100
AcDbCircle
 10
284.2443819566
 20
208.0915695009
 30
0.0
 40
8.0
  0
CIRCLE
  5
7E
330
1F
100
AcDbEntity
  8
0
  6
Continuous
 62
     7
100
AcDbCircle
 10
284.2443819566
 20
208.0915695009
 30
0.0
 40
2.200000000000045
  0
CIRCLE
  5
7F
330
1F
100
AcDbEntity
  8
0
  6
Continuous
 62
     7
100
AcDbCircle
 10
253.5
 20
165.5
 30
0.0
 40
2.099999999999881
  0
CIRCLE
  5
80
330
1F
100
AcDbEntity
  8
0
  6
Continuous
 62
     7
100
AcDbCircle
 10
20.0
 20
285.0
 30
0.0
 40
2.5
  0
CIRCLE
  5
81
330
1F
100
AcDbEntity
  8
0
  6
Continuous
 62
     7
100
AcDbCircle
 10
248.0
 20
285.0
 30
0.0
 40
2.0
  0
CIRCLE
  5
82
330
1F
100
AcDbEntity
  8
0
  6
Continuous
 62
     7
100
AcDbCircle
 10
70.0
 20
282.0
 30
0.0
 40
2.5
  0
CIRCLE
  5
83
330
1F
100
AcDbEntity
  8
0
  6
Continuous
 62
     7
100
AcDbCircle
 10
316.0
 20
321.5
 30
0.0
 40
2.200000000000045
  0
CIRCLE
  5
84
330
1F
100
AcDbEntity
  8
0
  6
Continuous
 62
     7
100
AcDbCircle
 10
403.0
 20
322.0
 30
0.0
 40
2.199999999999932
  0
CIRCLE
  5
85
330
1F
100
AcDbEntity
  8
0
  6
Continuous
 62
     7
100
AcDbCircle
 10
166.9740919305
 20
116.2980622106
 30
0.0
 40
2.100000000000051
  0
CIRCLE
  5
86
330
1F
100
AcDbEntity
  8
0
  6
Continuous
 62
     7
100
AcDbCircle
 10
297.5738548899
 20
186.5081596684
 30
0.0
 40
2.099999999999966
  0
CIRCLE
  5
87
330
1F
100
AcDbEntity
  8
0
  6
Continuous
 62
     7
100
AcDbCircle
 10
321.1138569348
 20
86.9894545401
 30
0.0
 40
2.200000000023181
  0
CIRCLE
  5
88
330
1F
100
AcDbEntity
  8
0
  6
Continuous
 62
     7
100
AcDbCircle
 10
221.205073863
 20
181.8719986431
 30
0.0
 40
2.300000000000097
  0
CIRCLE
  5
89
330
1F
100
AcDbEntity
  8
0
  6
Continuous
 62
     7
100
AcDbCircle
 10
230.7090860686
 20
169.7775700505
 30
0.0
 40
1.767075864189877
  0
CIRCLE
  5
8A
330
1F
100
AcDbEntity
  8
0
  6
Continuous
 62
     7
100
AcDbCircle
 10
153.7901160111
 20
70.3578297632
 30
0.0
 40
2.299999999999983
  0
CIRCLE
  5
8B
330
1F
100
AcDbEntity
  8
0
  6
Continuous
 62
     7
100
AcDbCircle
 10
53.8359222791
 20
21.6815841975
 30
0.0
 40
8.0
  0
CIRCLE
  5
8C
330
1F
100
AcDbEntity
  8
0
  6
Continuous
 62
     7
100
AcDbCircle
 10
53.8359222791
 20
21.6815841975
 30
0.0
 40
2.199999999999996
  0
CIRCLE
  5
8D
330
1F
100
AcDbEntity
  8
0
  6
Continuous
 62
     7
100
AcDbCircle
 10
141.2662707971
 20
238.5611452091
 30
0.0
 40
7.999999999999972
  0
CIRCLE
  5
8E
330
1F
100
AcDbEntity
  8
0
  6
Continuous
 62
     7
100
AcDbCircle
 10
141.2662707971
 20
238.5611452091
 30
0.0
 40
2.199999999999989
  0
ARC
  5
8F
330
1F
100
AcDbEntity
  8
0
  6
Continuous
 62
     7
100
AcDbCircle
 10
154.6468783956
 20
118.9760336562
 30
0.0
 40
2.000000000000403
100
AcDbArc
 50
105.0000000001
 51
120.0
  0
ARC
  5
90
330
1F
100
AcDbEntity
  8
0
  6
Continuous
 62
     7
100
AcDbCircle
 10
153.9829236445
 20
118.5926992019
 30
0.0
 40
2.000000000000634
100
AcDbArc
 50
120.0
 51
135.0
  0
ARC
  5
91
330
1F
100
AcDbEntity
  8
0
  6
Continuous
 62
     7
100
AcDbCircle
 10
153.4408068604
 20
118.0505824178
 30
0.0
 40
1.999999999986764
100
AcDbArc
 50
135.0000000005
 51
136.8665389424
  0
ARC
  5
92
330
1F
100
AcDbEntity
  8
0
  6
Continuous
 62
     7
100
AcDbCircle
 10
148.769272426
 20
117.7757190228
 30
0.0
 40
1.999999999999756
100
AcDbArc
 50
58.4137023499
 51
67.5000000004
  0
ARC
  5
93
330
1F
100
AcDbEntity
  8
0
  6
Continuous
 62
     7
100
AcDbCircle
 10
148.347922411
 20
117.9502479136
 30
0.0
 40
2.000000000000843
100
AcDbArc
 50
67.5
 51
82.4999999999
  0
ARC
  5
94
330
1F
100
AcDbEntity
  8
0
  6
Continuous
 62
     7
100
AcDbCircle
 10
146.9072435353
 20
118.6492333001
 30
0.0
 40
2.000000000003339
100
AcDbArc
 50
40.8760439032
 51
52.5
  0
ARC
  5
95
330
1F
100
AcDbEntity
  8
0
  6
Continuous
 62
     7
100
AcDbCircle
 10
146.2082581488
 20
119.1855836513
 30
0.0
 40
2.000000000000433
100
AcDbArc
 50
52.5000000003
 51
67.5000000003
  0
ARC
  5
96
330
1F
100
AcDbEntity
  8
0
  6
Continuous
 62
     7
100
AcDbCircle
 10
145.394272426
 20
119.5227475773
 30
0.0
 40
1.999999999997784
100
AcDbArc
 50
67.5000000001
 51
82.5000000001
  0
ARC
  5
97
330
1F
100
AcDbEntity
  8
0
  6
Continuous
 62
     7
100
AcDbCircle
 10
144.5207581488
 20
119.6377479136
 30
0.0
 40
2.000000000000373
100
AcDbArc
 50
82.5
 51
97.5
  0
ARC
  5
98
330
1F
100
AcDbEntity
  8
0
  6
Continuous
 62
     7
100
AcDbCircle
 10
143.6472438715
 20
119.5227475773
 30
0.0
 40
2.000000000000935
100
AcDbArc
 50
97.5000000001
 51
112.5
  0
ARC
  5
99
330
1F
100
AcDbEntity
  8
0
  6
Continuous
 62
     7
100
AcDbCircle
 10
142.8332581488
 20
119.1855836513
 30
0.0
 40
2.000000000000101
100
AcDbArc
 50
112.5000000001
 51
127.5000000001
  0
ARC
  5
9A
330
1F
100
AcDbEntity
  8
0
  6
Continuous
 62
     7
100
AcDbCircle
 10
142.1342727623
 20
118.6492333001
 30
0.0
 40
1.999999999997975
100
AcDbArc
 50
127.5
 51
142.5
  0
ARC
  5
9B
330
1F
100
AcDbEntity
  8
0
  6
Continuous
 62
     7
100
AcDbCircle
 10
141.597922411
 20
117.9502479136
 30
0.0
 40
2.000000000002315
100
AcDbArc
 50
142.4999999999
 51
157.4999999999
  0
ARC
  5
9C
330
1F
100
AcDbEntity
  8
0
  6
Continuous
 62
     7
100
AcDbCircle
 10
141.260758485
 20
117.1362621908
 30
0.0
 40
1.999999999998566
100
AcDbArc
 50
157.5
 51
172.5
  0
ARC
  5
9D
330
1F
100
AcDbEntity
  8
0
  6
Continuous
 62
     7
100
AcDbCircle
 10
141.1457581488
 20
116.2627479136
 30
0.0
 40
1.999999999995935
100
AcDbArc
 50
172.5
 51
187.5
  0
ARC
  5
9E
330
1F
100
AcDbEntity
  8
0
  6
Continuous
 62
     7
100
AcDbCircle
 10
141.260758485
 20
115.3892336363
 30
0.0
 40
2.000000000002237
100
AcDbArc
 50
187.4999999999
 51
202.4999999999
  0
ARC
  5
9F
330
1F
100
AcDbEntity
  8
0
  6
Continuous
 62
     7
100
AcDbCircle
 10
141.597922411
 20
114.5752479136
 30
0.0
 40
1.999999999998995
100
AcDbArc
 50
202.5000000001
 51
217.5000000001
  0
ARC
  5
A0
330
1F
100
AcDbEntity
  8
0
  6
Continuous
 62
     7
100
AcDbCircle
 10
142.1342727623
 20
113.8762625271
 30
0.0
 40
2.000000000004007
100
AcDbArc
 50
217.5000000001
 51
232.4999999999
  0
ARC
  5
A1
330
1F
100
AcDbEntity
  8
0
  6
Continuous
 62
     7
100
AcDbCircle
 10
142.8332581488
 20
113.3399121758
 30
0.0
 40
2.000000000000347
100
AcDbArc
 50
232.5000000001
 51
247.5000000002
  0
ARC
  5
A2
330
1F
100
AcDbEntity
  8
0
  6
Continuous
 62
     7
100
AcDbCircle
 10
143.6472438715
 20
113.0027482498
 30
0.0
 40
1.999999999997921
100
AcDbArc
 50
247.5000000001
 51
262.5000000001
  0
ARC
  5
A3
330
1F
100
AcDbEntity
  8
0
  6
Continuous
 62
     7
100
AcDbCircle
 10
144.5207581488
 20
112.8877479136
 30
0.0
 40
2.00000000000033
100
AcDbArc
 50
262.5
 51
277.5
  0
ARC
  5
A4
330
1F
100
AcDbEntity
  8
0
  6
Continuous
 62
     7
100
AcDbCircle
 10
145.394272426
 20
113.0027482498
 30
0.0
 40
2.000000000000828
100
AcDbArc
 50
277.4999999999
 51
292.4999999999
  0
ARC
  5
A5
330
1F
100
AcDbEntity
  8
0
  6
Continuous
 62
     7
100
AcDbCircle
 10
146.2082581488
 20
113.3399121758
 30
0.0
 40
1.999999999998173
100
AcDbArc
 50
292.4999999997
 51
307.4999999997
  0
ARC
  5
A6
330
1F
100
AcDbEntity
  8
0
  6
Continuous
 62
     7
100
AcDbCircle
 10
146.9072435353
 20
113.876262527
 30
0.0
 40
1.99999999999915
100
AcDbArc
 50
307.5
 51
319.1239560969
  0
ARC
  5
A7
330
1F
100
AcDbEntity
  8
0
  6
Continuous
 62
     7
100
AcDbCircle
 10
148.347922411
 20
114.5752479136
 30
0.0
 40
1.999999999997104
100
AcDbArc
 50
277.5
 51
292.5
  0
ARC
  5
A8
330
1F
100
AcDbEntity
  8
0
  6
Continuous
 62
     7
100
AcDbCircle
 10
148.769272426
 20
114.7497768043
 30
0.0
 40
2.000000000000295
100
AcDbArc
 50
292.4999999996
 51
301.5862976501
  0
ARC
  5
A9
330
1F
100
AcDbEntity
  8
0
  6
Continuous
 62
     7
100
AcDbCircle
 10
153.4408068604
 20
114.4749134094
 30
0.0
 40
1.999999999986802
100
AcDbArc
 50
223.13346106
 51
225.0000000018
  0
ARC
  5
AA
330
1F
100
AcDbEntity
  8
0
  6
Continuous
 62
     7
100
AcDbCircle
 10
153.9829236445
 20
113.9327966252
 30
0.0
 40
2.000000000001382
100
AcDbArc
 50
225.0000000003
 51
240.0000000003
  0
ARC
  5
AB
330
1F
100
AcDbEntity
  8
0
  6
Continuous
 62
     7
100
AcDbCircle
 10
154.6468783956
 20
113.549462171
 30
0.0
 40
1.999999999997879
100
AcDbArc
 50
239.9999999997
 51
254.9999999998
  0
ARC
  5
AC
330
1F
100
AcDbEntity
  8
0
  6
Continuous
 62
     7
100
AcDbCircle
 10
157.2779723562
 20
110.6377479135
 30
0.0
 40
1.99999999999794
100
AcDbArc
 50
202.4999999997
 51
217.4999999997
  0
ARC
  5
AD
330
1F
100
AcDbEntity
  8
0
  6
Continuous
 62
     7
100
AcDbCircle
 10
159.0658068604
 20
108.3077966252
 30
0.0
 40
2.000000000000711
100
AcDbArc
 50
217.4999999997
 51
232.4999999997
  0
ARC
  5
AE
330
1F
100
AcDbEntity
  8
0
  6
Continuous
 62
     7
100
AcDbCircle
 10
161.3957581488
 20
106.519962121
 30
0.0
 40
2.000000000000092
100
AcDbArc
 50
232.5000000003
 51
247.5000000003
  0
ARC
  5
AF
330
1F
100
AcDbEntity
  8
0
  6
Continuous
 62
     7
100
AcDbCircle
 10
164.3074724062
 20
103.8888681604
 30
0.0
 40
1.999999999997462
100
AcDbArc
 50
195.0000000001
 51
210.0
  0
ARC
  5
B0
330
1F
100
AcDbEntity
  8
0
  6
Continuous
 62
     7
100
AcDbCircle
 10
164.6908068604
 20
103.2249134093
 30
0.0
 40
2.000000000002043
100
AcDbArc
 50
210.0
 51
225.0
  0
ARC
  5
B1
330
1F
100
AcDbEntity
  8
0
  6
Continuous
 62
     7
100
AcDbCircle
 10
165.2329236445
 20
102.6827966252
 30
0.0
 40
2.000000000001467
100
AcDbArc
 50
225.0000000006
 51
226.8665389424
  0
ARC
  5
B2
330
1F
100
AcDbEntity
  8
0
  6
Continuous
 62
     7
100
AcDbCircle
 10
165.5077870395
 20
98.0112621908
 30
0.0
 40
1.999999999997875
100
AcDbArc
 50
148.4137023492
 51
157.4999999998
  0
ARC
  5
B3
330
1F
100
AcDbEntity
  8
0
  6
Continuous
 62
     7
100
AcDbCircle
 10
165.3332581488
 20
97.5899121758
 30
0.0
 40
2.000000000001755
100
AcDbArc
 50
157.5
 51
172.4999999999
  0
ARC
  5
B4
330
1F
100
AcDbEntity
  8
0
  6
Continuous
 62
     7
100
AcDbCircle
 10
164.6342727623
 20
96.1492333001
 30
0.0
 40
1.99999999999891
100
AcDbArc
 50
130.8760439031
 51
142.5
  0
ARC
  5
B5
330
1F
100
AcDbEntity
  8
0
  6
Continuous
 62
     7
100
AcDbCircle
 10
164.097922411
 20
95.4502479136
 30
0.0
 40
1.999999999998548
100
AcDbArc
 50
142.4999999999
 51
157.4999999999
  0
ARC
  5
B6
330
1F
100
AcDbEntity
  8
0
  6
Continuous
 62
     7
100
AcDbCircle
 10
163.760758485
 20
94.6362621908
 30
0.0
 40
1.999999999999015
100
AcDbArc
 50
157.5
 51
172.5
  0
ARC
  5
B7
330
1F
100
AcDbEntity
  8
0
  6
Continuous
 62
     7
100
AcDbCircle
 10
163.6457581488
 20
93.7627479135
 30
0.0
 40
2.000000000000045
100
AcDbArc
 50
172.4999999995
 51
187.4999999996
  0
ARC
  5
B8
330
1F
100
AcDbEntity
  8
0
  6
Continuous
 62
     7
100
AcDbCircle
 10
163.760758485
 20
92.8892336363
 30
0.0
 40
2.000000000000398
100
AcDbArc
 50
187.4999999999
 51
202.4999999999
  0
ARC
  5
B9
330
1F
100
AcDbEntity
  8
0
  6
Continuous
 62
     7
100
AcDbCircle
 10
164.097922411
 20
92.0752479136
 30
0.0
 40
2.000000000001258
100
AcDbArc
 50
202.5000000001
 51
217.5000000001
  0
ARC
  5
BA
330
1F
100
AcDbEntity
  8
0
  6
Continuous
 62
     7
100
AcDbCircle
 10
164.6342727623
 20
91.3762625271
 30
0.0
 40
1.999999999998196
100
AcDbArc
 50
217.5
 51
232.5
  0
ARC
  5
BB
330
1F
100
AcDbEntity
  8
0
  6
Continuous
 62
     7
100
AcDbCircle
 10
165.3332581488
 20
90.8399121758
 30
0.0
 40
1.999999999999859
100
AcDbArc
 50
232.5000000003
 51
247.5000000003
  0
ARC
  5
BC
330
1F
100
AcDbEntity
  8
0
  6
Continuous
 62
     7
100
AcDbCircle
 10
166.1472438716
 20
90.5027482498
 30
0.0
 40
2.000000000000882
100
AcDbArc
 50
247.4999999997
 51
262.4999999997
  0
ARC
  5
BD
330
1F
100
AcDbEntity
  8
0
  6
Continuous
 62
     7
100
AcDbCircle
 10
167.0207581488
 20
90.3877479136
 30
0.0
 40
2.000000000000417
100
AcDbArc
 50
262.5
 51
277.5
  0
ARC
  5
BE
330
1F
100
AcDbEntity
  8
0
  6
Continuous
 62
     7
100
AcDbCircle
 10
167.894272426
 20
90.5027482498
 30
0.0
 40
1.999999999997877
100
AcDbArc
 50
277.4999999999
 51
292.4999999999
  0
ARC
  5
BF
330
1F
100
AcDbEntity
  8
0
  6
Continuous
 62
     7
100
AcDbCircle
 10
168.7082581488
 20
90.8399121758
 30
0.0
 40
1.99999999999884
100
AcDbArc
 50
292.5000000001
 51
307.5000000001
  0
ARC
  5
C0
330
1F
100
AcDbEntity
  8
0
  6
Continuous
 62
     7
100
AcDbCircle
 10
169.4072435353
 20
91.3762625271
 30
0.0
 40
1.999999999999478
100
AcDbArc
 50
307.5
 51
322.5
  0
ARC
  5
C1
330
1F
100
AcDbEntity
  8
0
  6
Continuous
 62
     7
100
AcDbCircle
 10
169.9435938865
 20
92.0752479136
 30
0.0
 40
2.000000000001019
100
AcDbArc
 50
322.4999999999
 51
337.4999999999
  0
ARC
  5
C2
330
1F
100
AcDbEntity
  8
0
  6
Continuous
 62
     7
100
AcDbCircle
 10
170.2807578125
 20
92.8892336363
 30
0.0
 40
2.000000000000698
100
AcDbArc
 50
337.5000000001
 51
352.5000000001
  0
ARC
  5
C3
330
1F
100
AcDbEntity
  8
0
  6
Continuous
 62
     7
100
AcDbCircle
 10
170.3957581488
 20
93.7627479136
 30
0.0
 40
1.999999999999399
100
AcDbArc
 50
352.5
 51
7.5
  0
ARC
  5
C4
330
1F
100
AcDbEntity
  8
0
  6
Continuous
 62
     7
100
AcDbCircle
 10
170.2807578125
 20
94.6362621908
 30
0.0
 40
2.000000000000018
100
AcDbArc
 50
7.5
 51
22.5
  0
ARC
  5
C5
330
1F
100
AcDbEntity
  8
0
  6
Continuous
 62
     7
100
AcDbCircle
 10
169.9435938865
 20
95.4502479136
 30
0.0
 40
2.00000000000133
100
AcDbArc
 50
22.5000000001
 51
37.5000000001
  0
ARC
  5
C6
330
1F
100
AcDbEntity
  8
0
  6
Continuous
 62
     7
100
AcDbCircle
 10
169.4072435353
 20
96.1492333001
 30
0.0
 40
1.999999999999758
100
AcDbArc
 50
37.5
 51
49.1239560969
  0
ARC
  5
C7
330
1F
100
AcDbEntity
  8
0
  6
Continuous
 62
     7
100
AcDbCircle
 10
168.7082581488
 20
97.5899121758
 30
0.0
 40
2.000000000001771
100
AcDbArc
 50
7.4999999999
 51
22.4999999999
  0
ARC
  5
C8
330
1F
100
AcDbEntity
  8
0
  6
Continuous
 62
     7
100
AcDbCircle
 10
168.533729258
 20
98.0112621908
 30
0.0
 40
1.999999999997119
100
AcDbArc
 50
22.4999999996
 51
31.5862976501
  0
ARC
  5
C9
330
1F
100
AcDbEntity
  8
0
  6
Continuous
 62
     7
100
AcDbCircle
 10
168.808592653
 20
102.6827966252
 30
0.0
 40
2.000000000021711
100
AcDbArc
 50
313.1334610576
 51
314.9999999996
  0
ARC
  5
CA
330
1F
100
AcDbEntity
  8
0
  6
Continuous
 62
     7
100
AcDbCircle
 10
169.3507094371
 20
103.2249134093
 30
0.0
 40
1.999999999999102
100
AcDbArc
 50
315.0000000001
 51
330.0
  0
ARC
  5
CB
330
1F
100
AcDbEntity
  8
0
  6
Continuous
 62
     7
100
AcDbCircle
 10
169.7340438914
 20
103.8888681604
 30
0.0
 40
1.999999999996837
100
AcDbArc
 50
329.9999999997
 51
344.9999999998
  0
ARC
  5
CC
330
1F
100
AcDbEntity
  8
0
  6
Continuous
 62
     7
100
AcDbCircle
 10
172.6457581488
 20
106.519962121
 30
0.0
 40
2.000000000002337
100
AcDbArc
 50
292.5000000001
 51
307.5000000001
  0
ARC
  5
CD
330
1F
100
AcDbEntity
  8
0
  6
Continuous
 62
     7
100
AcDbCircle
 10
174.9757094371
 20
108.3077966252
 30
0.0
 40
2.00000000000108
100
AcDbArc
 50
307.5000000003
 51
322.5000000003
  0
ARC
  5
CE
330
1F
100
AcDbEntity
  8
0
  6
Continuous
 62
     7
100
AcDbCircle
 10
176.7635439413
 20
110.6377479136
 30
0.0
 40
1.999999999997915
100
AcDbArc
 50
322.4999999999
 51
337.4999999999
  0
ARC
  5
CF
330
1F
100
AcDbEntity
  8
0
  6
Continuous
 62
     7
100
AcDbCircle
 10
179.3946379019
 20
113.549462171
 30
0.0
 40
1.999999999997949
100
AcDbArc
 50
285.0000000002
 51
300.0000000003
  0
ARC
  5
D0
330
1F
100
AcDbEntity
  8
0
  6
Continuous
 62
     7
100
AcDbCircle
 10
180.058592653
 20
113.9327966252
 30
0.0
 40
2.000000000001406
100
AcDbArc
 50
299.9999999997
 51
314.9999999997
  0
ARC
  5
D1
330
1F
100
AcDbEntity
  8
0
  6
Continuous
 62
     7
100
AcDbCircle
 10
180.6007094371
 20
114.4749134093
 30
0.0
 40
1.999999999987569
100
AcDbArc
 50
315.0000000005
 51
316.8665389424
  0
ARC
  5
D2
330
1F
100
AcDbEntity
  8
0
  6
Continuous
 62
     7
100
AcDbCircle
 10
185.2722438716
 20
114.7497768043
 30
0.0
 40
1.99999999999628
100
AcDbArc
 50
238.4137023492
 51
247.4999999998
  0
ARC
  5
D3
330
1F
100
AcDbEntity
  8
0
  6
Continuous
 62
     7
100
AcDbCircle
 10
185.6935938865
 20
114.5752479136
 30
0.0
 40
2.000000000000745
100
AcDbArc
 50
247.5
 51
262.5
  0
ARC
  5
D4
330
1F
100
AcDbEntity
  8
0
  6
Continuous
 62
     7
100
AcDbCircle
 10
187.1342727623
 20
113.876262527
 30
0.0
 40
1.99999999999923
100
AcDbArc
 50
220.8760439031
 51
232.5
  0
ARC
  5
D5
330
1F
100
AcDbEntity
  8
0
  6
Continuous
 62
     7
100
AcDbCircle
 10
187.8332581488
 20
113.3399121758
 30
0.0
 40
2.000000000000071
100
AcDbArc
 50
232.4999999999
 51
247.4999999999
  0
ARC
  5
D6
330
1F
100
AcDbEntity
  8
0
  6
Continuous
 62
     7
100
AcDbCircle
 10
188.6472438716
 20
113.0027482498
 30
0.0
 40
2.000000000000893
100
AcDbArc
 50
247.5
 51
262.4999999999
  0
ARC
  5
D7
330
1F
100
AcDbEntity
  8
0
  6
Continuous
 62
     7
100
AcDbCircle
 10
189.5207581488
 20
112.8877479136
 30
0.0
 40
2.000000000000305
100
AcDbArc
 50
262.5
 51
277.5
  0
ARC
  5
D8
330
1F
100
AcDbEntity
  8
0
  6
Continuous
 62
     7
100
AcDbCircle
 10
190.394272426
 20
113.0027482498
 30
0.0
 40
1.999999999999441
100
AcDbArc
 50
277.4999999999
 51
292.4999999999
  0
ARC
  5
D9
330
1F
100
AcDbEntity
  8
0
  6
Continuous
 62
     7
100
AcDbCircle
 10
191.2082581488
 20
113.3399121758
 30
0.0
 40
2.000000000000958
100
AcDbArc
 50
292.5000000003
 51
307.5000000002
  0
ARC
  5
DA
330
1F
100
AcDbEntity
  8
0
  6
Continuous
 62
     7
100
AcDbCircle
 10
191.9072435353
 20
113.8762625271
 30
0.0
 40
1.999999999998062
100
AcDbArc
 50
307.4999999997
 51
322.4999999997
  0
ARC
  5
DB
330
1F
100
AcDbEntity
  8
0
  6
Continuous
 62
     7
100
AcDbCircle
 10
192.4435938865
 20
114.5752479135
 30
0.0
 40
2.000000000002354
100
AcDbArc
 50
322.5000000001
 51
337.5000000002
  0
ARC
  5
DC
330
1F
100
AcDbEntity
  8
0
  6
Continuous
 62
     7
100
AcDbCircle
 10
192.7807578125
 20
115.3892336363
 30
0.0
 40
1.999999999997789
100
AcDbArc
 50
337.5000000001
 51
352.5000000001
  0
ARC
  5
DD
330
1F
100
AcDbEntity
  8
0
  6
Continuous
 62
     7
100
AcDbCircle
 10
192.8957581488
 20
116.2627479135
 30
0.0
 40
2.000000000000278
100
AcDbArc
 50
352.5000000011
 51
7.5000000012
  0
ARC
  5
DE
330
1F
100
AcDbEntity
  8
0
  6
Continuous
 62
     7
100
AcDbCircle
 10
192.7807578125
 20
117.1362621908
 30
0.0
 40
1.999999999999051
100
AcDbArc
 50
7.4999999997
 51
22.4999999999
  0
ARC
  5
DF
330
1F
100
AcDbEntity
  8
0
  6
Continuous
 62
     7
100
AcDbCircle
 10
192.4435938865
 20
117.9502479136
 30
0.0
 40
2.000000000002832
100
AcDbArc
 50
22.5
 51
37.4999999998
  0
ARC
  5
E0
330
1F
100
AcDbEntity
  8
0
  6
Continuous
 62
     7
100
AcDbCircle
 10
191.9072435353
 20
118.6492333001
 30
0.0
 40
1.999999999998068
100
AcDbArc
 50
37.5
 51
52.5000000001
  0
ARC
  5
E1
330
1F
100
AcDbEntity
  8
0
  6
Continuous
 62
     7
100
AcDbCircle
 10
191.2082581488
 20
119.1855836513
 30
0.0
 40
1.999999999997917
100
AcDbArc
 50
52.4999999999
 51
67.4999999999
  0
ARC
  5
E2
330
1F
100
AcDbEntity
  8
0
  6
Continuous
 62
     7
100
AcDbCircle
 10
190.394272426
 20
119.5227475773
 30
0.0
 40
2.000000000001475
100
AcDbArc
 50
67.5000000001
 51
82.5000000001
  0
ARC
  5
E3
330
1F
100
AcDbEntity
  8
0
  6
Continuous
 62
     7
100
AcDbCircle
 10
189.5207581488
 20
119.6377479136
 30
0.0
 40
2.000000000000273
100
AcDbArc
 50
82.5
 51
97.5
  0
ARC
  5
E4
330
1F
100
AcDbEntity
  8
0
  6
Continuous
 62
     7
100
AcDbCircle
 10
188.6472438715
 20
119.5227475773
 30
0.0
 40
1.999999999998836
100
AcDbArc
 50
97.4999999999
 51
112.4999999999
  0
ARC
  5
E5
330
1F
100
AcDbEntity
  8
0
  6
Continuous
 62
     7
100
AcDbCircle
 10
187.8332581488
 20
119.1855836513
 30
0.0
 40
2.000000000001185
100
AcDbArc
 50
112.5000000003
 51
127.5000000002
  0
ARC
  5
E6
330
1F
100
AcDbEntity
  8
0
  6
Continuous
 62
     7
100
AcDbCircle
 10
187.1342727623
 20
118.6492333001
 30
0.0
 40
2.000000000002583
100
AcDbArc
 50
127.5
 51
139.1239560968
  0
ARC
  5
E7
330
1F
100
AcDbEntity
  8
0
  6
Continuous
 62
     7
100
AcDbCircle
 10
185.6935938865
 20
117.9502479136
 30
0.0
 40
1.999999999999348
100
AcDbArc
 50
97.5000000003
 51
112.5000000003
  0
ARC
  5
E8
330
1F
100
AcDbEntity
  8
0
  6
Continuous
 62
     7
100
AcDbCircle
 10
185.2722438715
 20
117.7757190228
 30
0.0
 40
2.00000000000424
100
AcDbArc
 50
112.4999999997
 51
121.5862976501
  0
ARC
  5
E9
330
1F
100
AcDbEntity
  8
0
  6
Continuous
 62
     7
100
AcDbCircle
 10
180.6007094372
 20
118.0505824177
 30
0.0
 40
1.999999999986772
100
AcDbArc
 50
43.13346106
 51
45.0000000018
  0
ARC
  5
EA
330
1F
100
AcDbEntity
  8
0
  6
Continuous
 62
     7
100
AcDbCircle
 10
180.058592653
 20
118.5926992019
 30
0.0
 40
2.000000000003724
100
AcDbArc
 50
45.0
 51
60.0
  0
ARC
  5
EB
330
1F
100
AcDbEntity
  8
0
  6
Continuous
 62
     7
100
AcDbCircle
 10
179.3946379019
 20
118.9760336562
 30
0.0
 40
1.999999999997942
100
AcDbArc
 50
59.9999999997
 51
74.9999999998
  0
ARC
  5
EC
330
1F
100
AcDbEntity
  8
0
  6
Continuous
 62
     7
100
AcDbCircle
 10
176.7635439413
 20
121.8877479136
 30
0.0
 40
1.999999999999083
100
AcDbArc
 50
22.5000000001
 51
37.5000000001
  0
ARC
  5
ED
330
1F
100
AcDbEntity
  8
0
  6
Continuous
 62
     7
100
AcDbCircle
 10
174.9757094371
 20
124.2176992019
 30
0.0
 40
1.999999999998248
100
AcDbArc
 50
37.5
 51
52.5
  0
ARC
  5
EE
330
1F
100
AcDbEntity
  8
0
  6
Continuous
 62
     7
100
AcDbCircle
 10
172.6457581488
 20
126.0055337061
 30
0.0
 40
1.999999999997737
100
AcDbArc
 50
52.5
 51
67.4999999999
  0
ARC
  5
EF
330
1F
100
AcDbEntity
  8
0
  6
Continuous
 62
     7
100
AcDbCircle
 10
169.7340438914
 20
128.6366276667
 30
0.0
 40
2.000000000000893
100
AcDbArc
 50
15.0000000004
 51
30.0000000004
  0
ARC
  5
F0
330
1F
100
AcDbEntity
  8
0
  6
Continuous
 62
     7
100
AcDbCircle
 10
169.3507094371
 20
129.3005824178
 30
0.0
 40
1.999999999999735
100
AcDbArc
 50
30.0
 51
44.9999999999
  0
ARC
  5
F1
330
1F
100
AcDbEntity
  8
0
  6
Continuous
 62
     7
100
AcDbCircle
 10
168.8085926529
 20
129.8426992019
 30
0.0
 40
2.000000000021312
100
AcDbArc
 50
44.999999998
 51
46.86653894
  0
ARC
  5
F2
330
1F
100
AcDbEntity
  8
0
  6
Continuous
 62
     7
100
AcDbCircle
 10
168.533729258
 20
134.5142336363
 30
0.0
 40
2.000000000000158
100
AcDbArc
 50
328.4137023496
 51
337.5
  0
ARC
  5
F3
330
1F
100
AcDbEntity
  8
0
  6
Continuous
 62
     7
100
AcDbCircle
 10
168.7082581488
 20
134.9355836513
 30
0.0
 40
1.999999999998131
100
AcDbArc
 50
337.5000000001
 51
352.5000000001
  0
ARC
  5
F4
330
1F
100
AcDbEntity
  8
0
  6
Continuous
 62
     7
100
AcDbCircle
 10
169.4072435353
 20
136.3762625271
 30
0.0
 40
1.999999999999577
100
AcDbArc
 50
310.8760439032
 51
322.4999999999
  0
ARC
  5
F5
330
1F
100
AcDbEntity
  8
0
  6
Continuous
 62
     7
100
AcDbCircle
 10
169.9435938865
 20
137.0752479136
 30
0.0
 40
2.000000000006717
100
AcDbArc
 50
322.4999999999
 51
337.4999999999
  0
ARC
  5
F6
330
1F
100
AcDbEntity
  8
0
  6
Continuous
 62
     7
100
AcDbCircle
 10
170.2807578125
 20
137.8892336363
 30
0.0
 40
1.999999999997844
100
AcDbArc
 50
337.5
 51
352.5
  0
ARC
  5
F7
330
1F
100
AcDbEntity
  8
0
  6
Continuous
 62
     7
100
AcDbCircle
 10
170.3957581488
 20
138.7627479136
 30
0.0
 40
2.000000000002694
100
AcDbArc
 50
352.5
 51
7.5
  0
ARC
  5
F8
330
1F
100
AcDbEntity
  8
0
  6
Continuous
 62
     7
100
AcDbCircle
 10
170.2807578125
 20
139.6362621908
 30
0.0
 40
1.999999999997816
100
AcDbArc
 50
7.4999999999
 51
22.4999999999
  0
ARC
  5
F9
330
1F
100
AcDbEntity
  8
0
  6
Continuous
 62
     7
100
AcDbCircle
 10
169.9435938865
 20
140.4502479136
 30
0.0
 40
1.999999999996821
100
AcDbArc
 50
22.5000000001
 51
37.5000000001
  0
ARC
  5
FA
330
1F
100
AcDbEntity
  8
0
  6
Continuous
 62
     7
100
AcDbCircle
 10
169.4072435353
 20
141.1492333001
 30
0.0
 40
2.000000000000505
100
AcDbArc
 50
37.4999999997
 51
52.4999999997
  0
ARC
  5
FB
330
1F
100
AcDbEntity
  8
0
  6
Continuous
 62
     7
100
AcDbCircle
 10
168.7082581488
 20
141.6855836513
 30
0.0
 40
2.000000000000683
100
AcDbArc
 50
52.4999999998
 51
67.4999999997
  0
ARC
  5
FC
330
1F
100
AcDbEntity
  8
0
  6
Continuous
 62
     7
100
AcDbCircle
 10
167.894272426
 20
142.0227475773
 30
0.0
 40
2.000000000000947
100
AcDbArc
 50
67.4999999997
 51
82.4999999997
  0
ARC
  5
FD
330
1F
100
AcDbEntity
  8
0
  6
Continuous
 62
     7
100
AcDbCircle
 10
167.0207581488
 20
142.1377479136
 30
0.0
 40
1.999999999998668
100
AcDbArc
 50
82.5
 51
97.5
  0
ARC
  5
FE
330
1F
100
AcDbEntity
  8
0
  6
Continuous
 62
     7
100
AcDbCircle
 10
166.1472438715
 20
142.0227475773
 30
0.0
 40
1.999999999998833
100
AcDbArc
 50
97.4999999997
 51
112.4999999999
  0
ARC
  5
FF
330
1F
100
AcDbEntity
  8
0
  6
Continuous
 62
     7
100
AcDbCircle
 10
165.3332581488
 20
141.6855836513
 30
0.0
 40
2.000000000003402
100
AcDbArc
 50
112.5
 51
127.4999999998
  0
ARC
  5
100
330
1F
100
AcDbEntity
  8
0
  6
Continuous
 62
     7
100
AcDbCircle
 10
164.6342727623
 20
141.1492333001
 30
0.0
 40
1.999999999997047
100
AcDbArc
 50
127.5
 51
142.5
  0
ARC
  5
101
330
1F
100
AcDbEntity
  8
0
  6
Continuous
 62
     7
100
AcDbCircle
 10
164.097922411
 20
140.4502479136
 30
0.0
 40
1.999999999996814
100
AcDbArc
 50
142.4999999999
 51
157.5
  0
ARC
  5
102
330
1F
100
AcDbEntity
  8
0
  6
Continuous
 62
     7
100
AcDbCircle
 10
163.760758485
 20
139.6362621908
 30
0.0
 40
1.999999999997873
100
AcDbArc
 50
157.5000000001
 51
172.5000000001
  0
ARC
  5
103
330
1F
100
AcDbEntity
  8
0
  6
Continuous
 62
     7
100
AcDbCircle
 10
163.6457581488
 20
138.7627479136
 30
0.0
 40
1.999999999999651
100
AcDbArc
 50
172.5
 51
187.5
  0
ARC
  5
104
330
1F
100
AcDbEntity
  8
0
  6
Continuous
 62
     7
100
AcDbCircle
 10
163.760758485
 20
137.8892336363
 30
0.0
 40
1.999999999998243
100
AcDbArc
 50
187.4999999999
 51
202.4999999999
  0
ARC
  5
105
330
1F
100
AcDbEntity
  8
0
  6
Continuous
 62
     7
100
AcDbCircle
 10
164.097922411
 20
137.0752479136
 30
0.0
 40
2.000000000003436
100
AcDbArc
 50
202.4999999998
 51
217.4999999999
  0
ARC
  5
106
330
1F
100
AcDbEntity
  8
0
  6
Continuous
 62
     7
100
AcDbCircle
 10
164.6342727623
 20
136.376262527
 30
0.0
 40
2.000000000000227
100
AcDbArc
 50
217.5
 51
229.1239560969
  0
ARC
  5
107
330
1F
100
AcDbEntity
  8
0
  6
Continuous
 62
     7
100
AcDbCircle
 10
165.3332581488
 20
134.9355836513
 30
0.0
 40
2.000000000000155
100
AcDbArc
 50
187.4999999996
 51
202.4999999995
  0
ARC
  5
108
330
1F
100
AcDbEntity
  8
0
  6
Continuous
 62
     7
100
AcDbCircle
 10
165.5077870395
 20
134.5142336363
 30
0.0
 40
1.999999999999927
100
AcDbArc
 50
202.5000000003
 51
211.5862976507
  0
ARC
  5
109
330
1F
100
AcDbEntity
  8
0
  6
Continuous
 62
     7
100
AcDbCircle
 10
165.2329236446
 20
129.8426992019
 30
0.0
 40
1.999999999998924
100
AcDbArc
 50
133.13346106
 51
135.000000002
  0
ARC
  5
10A
330
1F
100
AcDbEntity
  8
0
  6
Continuous
 62
     7
100
AcDbCircle
 10
164.6908068604
 20
129.3005824178
 30
0.0
 40
1.999999999998991
100
AcDbArc
 50
134.9999999997
 51
149.9999999997
  0
ARC
  5
10B
330
1F
100
AcDbEntity
  8
0
  6
Continuous
 62
     7
100
AcDbCircle
 10
164.3074724062
 20
128.6366276667
 30
0.0
 40
2.000000000000952
100
AcDbArc
 50
150.0000000002
 51
165.0000000001
  0
ARC
  5
10C
330
1F
100
AcDbEntity
  8
0
  6
Continuous
 62
     7
100
AcDbCircle
 10
161.3957581488
 20
126.0055337061
 30
0.0
 40
2.000000000000109
100
AcDbArc
 50
112.5000000001
 51
127.5000000001
  0
ARC
  5
10D
330
1F
100
AcDbEntity
  8
0
  6
Continuous
 62
     7
100
AcDbCircle
 10
159.0658068604
 20
124.2176992019
 30
0.0
 40
2.000000000000683
100
AcDbArc
 50
127.5000000003
 51
142.5000000003
  0
ARC
  5
10E
330
1F
100
AcDbEntity
  8
0
  6
Continuous
 62
     7
100
AcDbCircle
 10
157.2779723562
 20
121.8877479136
 30
0.0
 40
2.000000000001278
100
AcDbArc
 50
142.5000000003
 51
157.5000000003
  0
ARC
  5
10F
330
1F
100
AcDbEntity
  8
0
  6
Continuous
 62
     7
100
AcDbCircle
 10
214.3372826809
 20
36.3264673595
 30
0.0
 40
0.1999999999992254
100
AcDbArc
 50
279.410580844
 51
294.4105808444
  0
ARC
  5
110
330
1F
100
AcDbEntity
  8
0
  6
Continuous
 62
     7
100
AcDbCircle
 10
213.796450493
 20
36.2368305552
 30
0.0
 40
0.2000000000009239
100
AcDbArc
 50
264.4105808436
 51
279.410580844
  0
ARC
  5
111
330
1F
100
AcDbEntity
  8
0
  6
Continuous
 62
     7
100
AcDbCircle
 10
213.250847003
 20
36.2902257214
 30
0.0
 40
0.2000000000003098
100
AcDbArc
 50
249.4105808428
 51
264.4105808436
  0
ARC
  5
112
330
1F
100
AcDbEntity
  8
0
  6
Continuous
 62
     7
100
AcDbCircle
 10
212.737654187
 20
36.4830140657
 30
0.0
 40
0.2000000000000016
100
AcDbArc
 50
234.4105808427
 51
249.4105808424
  0
ARC
  5
113
330
1F
100
AcDbEntity
  8
0
  6
Continuous
 62
     7
100
AcDbCircle
 10
212.2918452873
 20
36.8020573811
 30
0.0
 40
0.1999999999993879
100
AcDbArc
 50
219.410580842
 51
234.4105808424
  0
ARC
  5
114
330
1F
100
AcDbEntity
  8
0
  6
Continuous
 62
     7
100
AcDbCircle
 10
211.9438014437
 20
37.2256133929
 30
0.0
 40
0.2000000000011789
100
AcDbArc
 50
204.4105808424
 51
219.4105808416
  0
ARC
  5
115
330
1F
100
AcDbEntity
  8
0
  6
Continuous
 62
     7
100
AcDbCircle
 10
211.7172412691
 20
37.7248174588
 30
0.0
 40
0.2000000000000441
100
AcDbArc
 50
189.4105808441
 51
204.4105808444
  0
ARC
  5
116
330
1F
100
AcDbEntity
  8
0
  6
Continuous
 62
     7
100
AcDbCircle
 10
211.6276044648
 20
38.2656496466
 30
0.0
 40
0.1999999999996279
100
AcDbArc
 50
174.4105808478
 51
189.4105808484
  0
ARC
  5
117
330
1F
100
AcDbEntity
  8
0
  6
Continuous
 62
     7
100
AcDbCircle
 10
211.680999631
 20
38.8112531367
 30
0.0
 40
0.1999999999969423
100
AcDbArc
 50
159.4105808466
 51
174.4105808463
  0
ARC
  5
118
330
1F
100
AcDbEntity
  8
0
  6
Continuous
 62
     7
100
AcDbCircle
 10
211.8737879753
 20
39.3244459527
 30
0.0
 40
0.2000000000018491
100
AcDbArc
 50
144.4105808427
 51
159.4105808423
  0
ARC
  5
119
330
1F
100
AcDbEntity
  8
0
  6
Continuous
 62
     7
100
AcDbCircle
 10
212.1928312907
 20
39.7702548524
 30
0.0
 40
0.1999999999983876
100
AcDbArc
 50
129.4105808455
 51
144.4105808452
  0
ARC
  5
11A
330
1F
100
AcDbEntity
  8
0
  6
Continuous
 62
     7
100
AcDbCircle
 10
212.6163873025
 20
40.1182986959
 30
0.0
 40
0.2000000000019373
100
AcDbArc
 50
114.4105808431
 51
129.4105808437
  0
ARC
  5
11B
330
1F
100
AcDbEntity
  8
0
  6
Continuous
 62
     7
100
AcDbCircle
 10
213.1155913684
 20
40.3448588706
 30
0.0
 40
0.1999999999988587
100
AcDbArc
 50
99.4105808459
 51
114.4105808452
  0
ARC
  5
11C
330
1F
100
AcDbEntity
  8
0
  6
Continuous
 62
     7
100
AcDbCircle
 10
213.6564235562
 20
40.4344956749
 30
0.0
 40
0.2000000000011658
100
AcDbArc
 50
84.4105808443
 51
99.4105808436
  0
ARC
  5
11D
330
1F
100
AcDbEntity
  8
0
  6
Continuous
 62
     7
100
AcDbCircle
 10
214.2020270463
 20
40.3811005087
 30
0.0
 40
0.2000000000019205
100
AcDbArc
 50
69.4105808425
 51
84.410580842
  0
ARC
  5
11E
330
1F
100
AcDbEntity
  8
0
  6
Continuous
 62
     7
100
AcDbCircle
 10
214.7152198623
 20
40.1883121643
 30
0.0
 40
0.1999999999984543
100
AcDbArc
 50
54.4105808426
 51
69.4105808425
  0
ARC
  5
11F
330
1F
100
AcDbEntity
  8
0
  6
Continuous
 62
     7
100
AcDbCircle
 10
215.161028762
 20
39.869268849
 30
0.0
 40
0.200000000001174
100
AcDbArc
 50
39.4105808421
 51
54.4105808423
  0
ARC
  5
120
330
1F
100
AcDbEntity
  8
0
  6
Continuous
 62
     7
100
AcDbCircle
 10
215.5090726056
 20
39.4457128372
 30
0.0
 40
0.1999999999972843
100
AcDbArc
 50
24.4105808457
 51
39.4105808458
  0
ARC
  5
121
330
1F
100
AcDbEntity
  8
0
  6
Continuous
 62
     7
100
AcDbCircle
 10
215.7356327802
 20
38.9465087713
 30
0.0
 40
0.2000000000015776
100
AcDbArc
 50
9.4105808442
 51
24.4105808444
  0
ARC
  5
122
330
1F
100
AcDbEntity
  8
0
  6
Continuous
 62
     7
100
AcDbCircle
 10
215.8252695845
 20
38.4056765834
 30
0.0
 40
0.1999999999976302
100
AcDbArc
 50
354.4105808434
 51
9.4105808441
  0
ARC
  5
123
330
1F
100
AcDbEntity
  8
0
  6
Continuous
 62
     7
100
AcDbCircle
 10
215.7718744183
 20
37.8600730934
 30
0.0
 40
0.2000000000016652
100
AcDbArc
 50
339.4105808425
 51
354.4105808421
  0
ARC
  5
124
330
1F
100
AcDbEntity
  8
0
  6
Continuous
 62
     7
100
AcDbCircle
 10
215.5790860739
 20
37.3468802774
 30
0.0
 40
0.1999999999984401
100
AcDbArc
 50
324.4105808467
 51
339.410580846
  0
ARC
  5
125
330
1F
100
AcDbEntity
  8
0
  6
Continuous
 62
     7
100
AcDbCircle
 10
215.2600427586
 20
36.9010713777
 30
0.0
 40
0.1999999999993808
100
AcDbArc
 50
309.410580842
 51
324.4105808424
  0
ARC
  5
126
330
1F
100
AcDbEntity
  8
0
  6
Continuous
 62
     7
100
AcDbCircle
 10
214.8364867468
 20
36.5530275341
 30
0.0
 40
0.2000000000013387
100
AcDbArc
 50
294.4105808425
 51
309.4105808416
  0
ARC
  5
127
330
1F
100
AcDbEntity
  8
0
  6
Continuous
 62
     7
100
AcDbCircle
 10
152.6600266286
 20
58.1161116708
 30
0.0
 40
19.22443156927385
100
AcDbArc
 50
9.8104811037
 51
88.1874665842
  0
ARC
  5
128
330
1F
100
AcDbEntity
  8
0
  6
Continuous
 62
     7
100
AcDbCircle
 10
153.3201726399
 20
77.6529401997
 30
0.0
 40
0.3262013076609792
100
AcDbArc
 50
260.8115072608
 51
279.1884927422
  0
ARC
  5
129
330
1F
100
AcDbEntity
  8
0
  6
Continuous
 62
     7
100
AcDbCircle
 10
154.0417298493
 20
70.1215972407
 30
0.0
 40
7.240344523841993
100
AcDbArc
 50
95.305353001
 51
177.3590867067
  0
ARC
  5
12A
330
1F
100
AcDbEntity
  8
0
  6
Continuous
 62
     7
100
AcDbCircle
 10
253.5
 20
165.5
 30
0.0
 40
8.00000000000025
100
AcDbArc
 50
310.640872322
 51
233.2242731964
  0
ARC
  5
12B
330
1F
100
AcDbEntity
  8
0
  6
Continuous
 62
     7
100
AcDbCircle
 10
69.9699764367
 20
282.0002690902
 30
0.0
 40
8.077428876525712
100
AcDbArc
 50
239.2279313715
 51
298.9473711714
  0
ARC
  5
12C
330
1F
100
AcDbEntity
  8
0
  6
Continuous
 62
     7
100
AcDbCircle
 10
266.9971221178
 20
282.2418109142
 30
0.0
 40
2.283481133583001
100
AcDbArc
 50
282.9525121631
 51
77.0474878369
  0
ARC
  5
12D
330
1F
100
AcDbEntity
  8
0
  6
Continuous
 62
     7
100
AcDbCircle
 10
262.5776953483
 20
289.2530714757
 30
0.0
 40
5.253431592776634
100
AcDbArc
 50
184.1668519494
 51
296.944934215
  0
ARC
  5
12E
330
1F
100
AcDbEntity
  8
0
  6
Continuous
 62
     7
100
AcDbCircle
 10
20.0
 20
285.0
 30
0.0
 40
7.999999999999844
100
AcDbArc
 50
37.7677728139
 51
311.934303694
  0
ARC
  5
12F
330
1F
100
AcDbEntity
  8
0
  6
Continuous
 62
     7
100
AcDbCircle
 10
245.7249757523
 20
179.7460302887
 30
0.0
 40
11.06852978235142
100
AcDbArc
 50
210.3631090799
 51
211.8843148693
  0
ARC
  5
130
330
1F
100
AcDbEntity
  8
0
  6
Continuous
 62
     7
100
AcDbCircle
 10
221.205073863
 20
181.8719986431
 30
0.0
 40
7.000000000002371
100
AcDbArc
 50
175.3440908451
 51
220.4720200287
  0
ARC
  5
131
330
1F
100
AcDbEntity
  8
0
  6
Continuous
 62
     7
100
AcDbCircle
 10
230.7090860686
 20
169.7775700505
 30
0.0
 40
7.000000000002179
100
AcDbArc
 50
215.8497372674
 51
38.6670740421
  0
ARC
  5
132
330
1F
100
AcDbEntity
  8
0
  6
Continuous
 62
     7
100
AcDbCircle
 10
245.7249757523
 20
179.7460302887
 30
0.0
 40
11.06852978235137
100
AcDbArc
 50
88.8389177545
 51
210.3631090799
  0
ARC
  5
133
330
1F
100
AcDbEntity
  8
0
  6
Continuous
 62
     7
100
AcDbCircle
 10
321.1138569348
 20
86.9894545401
 30
0.0
 40
8.0000000000007
100
AcDbArc
 50
128.6077752204
 51
51.2433228572
  0
LINE
  5
134
330
1F
100
AcDbEntity
  8
0
  6
Continuous
 62
     7
100
AcDbLine
 10
166.4384152973
 20
121.9644148044
 30
0.0
 11
165.8560724458
 21
120.6094141319
 31
0.0
  0
LINE
  5
135
330
1F
100
AcDbEntity
  8
0
  6
Continuous
 62
     7
100
AcDbLine
 10
165.8560724458
 20
120.6094141319
 30
0.0
 11
164.7707581488
 21
120.1598622306
 31
0.0
  0
LINE
  5
136
330
1F
100
AcDbEntity
  8
0
  6
Continuous
 62
     7
100
AcDbLine
 10
164.7707581488
 20
120.1598622306
 30
0.0
 11
163.8387776334
 21
119.4447284289
 31
0.0
  0
LINE
  5
137
330
1F
100
AcDbEntity
  8
0
  6
Continuous
 62
     7
100
AcDbLine
 10
163.8387776334
 20
119.4447284289
 30
0.0
 11
163.1236438317
 21
118.5127479136
 31
0.0
  0
LINE
  5
138
330
1F
100
AcDbEntity
  8
0
  6
Continuous
 62
     7
100
AcDbLine
 10
163.1236438317
 20
118.5127479136
 30
0.0
 11
162.6740919305
 21
117.4274336165
 31
0.0
  0
LINE
  5
139
330
1F
100
AcDbEntity
  8
0
  6
Continuous
 62
     7
100
AcDbLine
 10
162.6740919305
 20
117.4274336165
 30
0.0
 11
161.3190912579
 21
116.845090765
 31
0.0
  0
LINE
  5
13A
330
1F
100
AcDbEntity
  8
0
  6
Continuous
 62
     7
100
AcDbLine
 10
161.3190912579
 20
116.845090765
 30
0.0
 11
161.0943153073
 21
117.3877479136
 31
0.0
  0
LINE
  5
13B
330
1F
100
AcDbEntity
  8
0
  6
Continuous
 62
     7
100
AcDbLine
 10
161.0943153073
 20
117.3877479136
 30
0.0
 11
160.7367484064
 21
117.8537381712
 31
0.0
  0
LINE
  5
13C
330
1F
100
AcDbEntity
  8
0
  6
Continuous
 62
     7
100
AcDbLine
 10
160.7367484064
 20
117.8537381712
 30
0.0
 11
160.2707581488
 21
118.2113050721
 31
0.0
  0
LINE
  5
13D
330
1F
100
AcDbEntity
  8
0
  6
Continuous
 62
     7
100
AcDbLine
 10
160.2707581488
 20
118.2113050721
 30
0.0
 11
159.7281010002
 21
118.4360810227
 31
0.0
  0
LINE
  5
13E
330
1F
100
AcDbEntity
  8
0
  6
Continuous
 62
     7
100
AcDbLine
 10
159.7281010002
 20
118.4360810227
 30
0.0
 11
159.483409803
 21
118.46829523
 31
0.0
  0
LINE
  5
13F
330
1F
100
AcDbEntity
  8
0
  6
Continuous
 62
     7
100
AcDbLine
 10
159.483409803
 20
118.46829523
 30
0.0
 11
160.200808094
 21
120.2002479136
 31
0.0
  0
LINE
  5
140
330
1F
100
AcDbEntity
  8
0
  6
Continuous
 62
     7
100
AcDbLine
 10
160.200808094
 20
120.2002479136
 30
0.0
 11
161.4522922469
 21
121.8312138154
 31
0.0
  0
LINE
  5
141
330
1F
100
AcDbEntity
  8
0
  6
Continuous
 62
     7
100
AcDbLine
 10
161.4522922469
 20
121.8312138154
 30
0.0
 11
163.0832581488
 21
123.0826979684
 31
0.0
  0
LINE
  5
142
330
1F
100
AcDbEntity
  8
0
  6
Continuous
 62
     7
100
AcDbLine
 10
163.0832581488
 20
123.0826979684
 30
0.0
 11
164.8152108324
 21
123.8000962593
 31
0.0
  0
LINE
  5
143
330
1F
100
AcDbEntity
  8
0
  6
Continuous
 62
     7
100
AcDbLine
 10
164.8152108324
 20
123.8000962593
 30
0.0
 11
164.8474250396
 21
123.5554050621
 31
0.0
  0
LINE
  5
144
330
1F
100
AcDbEntity
  8
0
  6
Continuous
 62
     7
100
AcDbLine
 10
164.8474250396
 20
123.5554050621
 30
0.0
 11
165.0722009902
 21
123.0127479136
 31
0.0
  0
LINE
  5
145
330
1F
100
AcDbEntity
  8
0
  6
Continuous
 62
     7
100
AcDbLine
 10
165.0722009902
 20
123.0127479136
 30
0.0
 11
165.4297678911
 21
122.5467576559
 31
0.0
  0
LINE
  5
146
330
1F
100
AcDbEntity
  8
0
  6
Continuous
 62
     7
100
AcDbLine
 10
165.4297678911
 20
122.5467576559
 30
0.0
 11
165.8957581488
 21
122.189190755
 31
0.0
  0
LINE
  5
147
330
1F
100
AcDbEntity
  8
0
  6
Continuous
 62
     7
100
AcDbLine
 10
165.8957581488
 20
122.189190755
 30
0.0
 11
166.4384152973
 21
121.9644148044
 31
0.0
  0
LINE
  5
148
330
1F
100
AcDbEntity
  8
0
  6
Continuous
 62
     7
100
AcDbLine
 10
168.1854438517
 20
120.6094141319
 30
0.0
 11
167.6031010002
 21
121.9644148044
 31
0.0
  0
LINE
  5
149
330
1F
100
AcDbEntity
  8
0
  6
Continuous
 62
     7
100
AcDbLine
 10
167.6031010002
 20
121.9644148044
 30
0.0
 11
168.1457581488
 21
122.189190755
 31
0.0
  0
LINE
  5
14A
330
1F
100
AcDbEntity
  8
0
  6
Continuous
 62
     7
100
AcDbLine
 10
168.1457581488
 20
122.189190755
 30
0.0
 11
168.6117484064
 21
122.5467576559
 31
0.0
  0
LINE
  5
14B
330
1F
100
AcDbEntity
  8
0
  6
Continuous
 62
     7
100
AcDbLine
 10
168.6117484064
 20
122.5467576559
 30
0.0
 11
168.9693153073
 21
123.0127479136
 31
0.0
  0
LINE
  5
14C
330
1F
100
AcDbEntity
  8
0
  6
Continuous
 62
     7
100
AcDbLine
 10
168.9693153073
 20
123.0127479136
 30
0.0
 11
169.1940912579
 21
123.5554050621
 31
0.0
  0
LINE
  5
14D
330
1F
100
AcDbEntity
  8
0
  6
Continuous
 62
     7
100
AcDbLine
 10
169.1940912579
 20
123.5554050621
 30
0.0
 11
169.2263054652
 21
123.8000962593
 31
0.0
  0
LINE
  5
14E
330
1F
100
AcDbEntity
  8
0
  6
Continuous
 62
     7
100
AcDbLine
 10
169.2263054652
 20
123.8000962593
 30
0.0
 11
170.9582581488
 21
123.0826979684
 31
0.0
  0
LINE
  5
14F
330
1F
100
AcDbEntity
  8
0
  6
Continuous
 62
     7
100
AcDbLine
 10
170.9582581488
 20
123.0826979684
 30
0.0
 11
172.5892240506
 21
121.8312138154
 31
0.0
  0
LINE
  5
150
330
1F
100
AcDbEntity
  8
0
  6
Continuous
 62
     7
100
AcDbLine
 10
172.5892240506
 20
121.8312138154
 30
0.0
 11
173.8407082036
 21
120.2002479136
 31
0.0
  0
LINE
  5
151
330
1F
100
AcDbEntity
  8
0
  6
Continuous
 62
     7
100
AcDbLine
 10
173.8407082036
 20
120.2002479136
 30
0.0
 11
174.5581064945
 21
118.46829523
 31
0.0
  0
LINE
  5
152
330
1F
100
AcDbEntity
  8
0
  6
Continuous
 62
     7
100
AcDbLine
 10
174.5581064945
 20
118.46829523
 30
0.0
 11
174.3134152973
 21
118.4360810227
 31
0.0
  0
LINE
  5
153
330
1F
100
AcDbEntity
  8
0
  6
Continuous
 62
     7
100
AcDbLine
 10
174.3134152973
 20
118.4360810227
 30
0.0
 11
173.7707581488
 21
118.2113050721
 31
0.0
  0
LINE
  5
154
330
1F
100
AcDbEntity
  8
0
  6
Continuous
 62
     7
100
AcDbLine
 10
173.7707581488
 20
118.2113050721
 30
0.0
 11
173.3047678911
 21
117.8537381712
 31
0.0
  0
LINE
  5
155
330
1F
100
AcDbEntity
  8
0
  6
Continuous
 62
     7
100
AcDbLine
 10
173.3047678911
 20
117.8537381712
 30
0.0
 11
172.9472009902
 21
117.3877479136
 31
0.0
  0
LINE
  5
156
330
1F
100
AcDbEntity
  8
0
  6
Continuous
 62
     7
100
AcDbLine
 10
172.9472009902
 20
117.3877479136
 30
0.0
 11
172.7224250396
 21
116.845090765
 31
0.0
  0
LINE
  5
157
330
1F
100
AcDbEntity
  8
0
  6
Continuous
 62
     7
100
AcDbLine
 10
172.7224250396
 20
116.845090765
 30
0.0
 11
171.3674243671
 21
117.4274336165
 31
0.0
  0
LINE
  5
158
330
1F
100
AcDbEntity
  8
0
  6
Continuous
 62
     7
100
AcDbLine
 10
171.3674243671
 20
117.4274336165
 30
0.0
 11
170.9178724658
 21
118.5127479136
 31
0.0
  0
LINE
  5
159
330
1F
100
AcDbEntity
  8
0
  6
Continuous
 62
     7
100
AcDbLine
 10
170.9178724658
 20
118.5127479136
 30
0.0
 11
170.2027386641
 21
119.4447284289
 31
0.0
  0
LINE
  5
15A
330
1F
100
AcDbEntity
  8
0
  6
Continuous
 62
     7
100
AcDbLine
 10
170.2027386641
 20
119.4447284289
 30
0.0
 11
169.2707581488
 21
120.1598622306
 31
0.0
  0
LINE
  5
15B
330
1F
100
AcDbEntity
  8
0
  6
Continuous
 62
     7
100
AcDbLine
 10
169.2707581488
 20
120.1598622306
 30
0.0
 11
168.1854438517
 21
120.6094141319
 31
0.0
  0
LINE
  5
15C
330
1F
100
AcDbEntity
  8
0
  6
Continuous
 62
     7
100
AcDbLine
 10
171.3674243671
 20
115.0980622106
 30
0.0
 11
172.7224250396
 21
115.6804050621
 31
0.0
  0
LINE
  5
15D
330
1F
100
AcDbEntity
  8
0
  6
Continuous
 62
     7
100
AcDbLine
 10
172.7224250396
 20
115.6804050621
 30
0.0
 11
172.9472009902
 21
115.1377479136
 31
0.0
  0
LINE
  5
15E
330
1F
100
AcDbEntity
  8
0
  6
Continuous
 62
     7
100
AcDbLine
 10
172.9472009902
 20
115.1377479136
 30
0.0
 11
173.3047678911
 21
114.6717576559
 31
0.0
  0
LINE
  5
15F
330
1F
100
AcDbEntity
  8
0
  6
Continuous
 62
     7
100
AcDbLine
 10
173.3047678911
 20
114.6717576559
 30
0.0
 11
173.7707581488
 21
114.314190755
 31
0.0
  0
LINE
  5
160
330
1F
100
AcDbEntity
  8
0
  6
Continuous
 62
     7
100
AcDbLine
 10
173.7707581488
 20
114.314190755
 30
0.0
 11
174.3134152973
 21
114.0894148044
 31
0.0
  0
LINE
  5
161
330
1F
100
AcDbEntity
  8
0
  6
Continuous
 62
     7
100
AcDbLine
 10
174.3134152973
 20
114.0894148044
 30
0.0
 11
174.5581064945
 21
114.0572005971
 31
0.0
  0
LINE
  5
162
330
1F
100
AcDbEntity
  8
0
  6
Continuous
 62
     7
100
AcDbLine
 10
174.5581064945
 20
114.0572005971
 30
0.0
 11
173.8407082036
 21
112.3252479136
 31
0.0
  0
LINE
  5
163
330
1F
100
AcDbEntity
  8
0
  6
Continuous
 62
     7
100
AcDbLine
 10
173.8407082036
 20
112.3252479136
 30
0.0
 11
172.5892240506
 21
110.6942820117
 31
0.0
  0
LINE
  5
164
330
1F
100
AcDbEntity
  8
0
  6
Continuous
 62
     7
100
AcDbLine
 10
172.5892240506
 20
110.6942820117
 30
0.0
 11
170.9582581488
 21
109.4427978587
 31
0.0
  0
LINE
  5
165
330
1F
100
AcDbEntity
  8
0
  6
Continuous
 62
     7
100
AcDbLine
 10
170.9582581488
 20
109.4427978587
 30
0.0
 11
169.2263054652
 21
108.7253995678
 31
0.0
  0
LINE
  5
166
330
1F
100
AcDbEntity
  8
0
  6
Continuous
 62
     7
100
AcDbLine
 10
169.2263054652
 20
108.7253995678
 30
0.0
 11
169.1940912579
 21
108.970090765
 31
0.0
  0
LINE
  5
167
330
1F
100
AcDbEntity
  8
0
  6
Continuous
 62
     7
100
AcDbLine
 10
169.1940912579
 20
108.970090765
 30
0.0
 11
168.9693153073
 21
109.5127479136
 31
0.0
  0
LINE
  5
168
330
1F
100
AcDbEntity
  8
0
  6
Continuous
 62
     7
100
AcDbLine
 10
168.9693153073
 20
109.5127479136
 30
0.0
 11
168.6117484064
 21
109.9787381712
 31
0.0
  0
LINE
  5
169
330
1F
100
AcDbEntity
  8
0
  6
Continuous
 62
     7
100
AcDbLine
 10
168.6117484064
 20
109.9787381712
 30
0.0
 11
168.1457581488
 21
110.3363050721
 31
0.0
  0
LINE
  5
16A
330
1F
100
AcDbEntity
  8
0
  6
Continuous
 62
     7
100
AcDbLine
 10
168.1457581488
 20
110.3363050721
 30
0.0
 11
167.6031010002
 21
110.5610810227
 31
0.0
  0
LINE
  5
16B
330
1F
100
AcDbEntity
  8
0
  6
Continuous
 62
     7
100
AcDbLine
 10
167.6031010002
 20
110.5610810227
 30
0.0
 11
168.1854438517
 21
111.9160816953
 31
0.0
  0
LINE
  5
16C
330
1F
100
AcDbEntity
  8
0
  6
Continuous
 62
     7
100
AcDbLine
 10
168.1854438517
 20
111.9160816953
 30
0.0
 11
169.2707581488
 21
112.3656335965
 31
0.0
  0
LINE
  5
16D
330
1F
100
AcDbEntity
  8
0
  6
Continuous
 62
     7
100
AcDbLine
 10
169.2707581488
 20
112.3656335965
 30
0.0
 11
170.2027386641
 21
113.0807673982
 31
0.0
  0
LINE
  5
16E
330
1F
100
AcDbEntity
  8
0
  6
Continuous
 62
     7
100
AcDbLine
 10
170.2027386641
 20
113.0807673982
 30
0.0
 11
170.9178724658
 21
114.0127479136
 31
0.0
  0
LINE
  5
16F
330
1F
100
AcDbEntity
  8
0
  6
Continuous
 62
     7
100
AcDbLine
 10
170.9178724658
 20
114.0127479136
 30
0.0
 11
171.3674243671
 21
115.0980622106
 31
0.0
  0
LINE
  5
170
330
1F
100
AcDbEntity
  8
0
  6
Continuous
 62
     7
100
AcDbLine
 10
161.3190912579
 20
115.6804050621
 30
0.0
 11
162.6740919305
 21
115.0980622106
 31
0.0
  0
LINE
  5
171
330
1F
100
AcDbEntity
  8
0
  6
Continuous
 62
     7
100
AcDbLine
 10
162.6740919305
 20
115.0980622106
 30
0.0
 11
163.1236438317
 21
114.0127479136
 31
0.0
  0
LINE
  5
172
330
1F
100
AcDbEntity
  8
0
  6
Continuous
 62
     7
100
AcDbLine
 10
163.1236438317
 20
114.0127479136
 30
0.0
 11
163.8387776334
 21
113.0807673982
 31
0.0
  0
LINE
  5
173
330
1F
100
AcDbEntity
  8
0
  6
Continuous
 62
     7
100
AcDbLine
 10
163.8387776334
 20
113.0807673982
 30
0.0
 11
164.7707581488
 21
112.3656335965
 31
0.0
  0
LINE
  5
174
330
1F
100
AcDbEntity
  8
0
  6
Continuous
 62
     7
100
AcDbLine
 10
164.7707581488
 20
112.3656335965
 30
0.0
 11
165.8560724458
 21
111.9160816953
 31
0.0
  0
LINE
  5
175
330
1F
100
AcDbEntity
  8
0
  6
Continuous
 62
     7
100
AcDbLine
 10
165.8560724458
 20
111.9160816953
 30
0.0
 11
166.4384152973
 21
110.5610810227
 31
0.0
  0
LINE
  5
176
330
1F
100
AcDbEntity
  8
0
  6
Continuous
 62
     7
100
AcDbLine
 10
166.4384152973
 20
110.5610810227
 30
0.0
 11
165.8957581488
 21
110.3363050721
 31
0.0
  0
LINE
  5
177
330
1F
100
AcDbEntity
  8
0
  6
Continuous
 62
     7
100
AcDbLine
 10
165.8957581488
 20
110.3363050721
 30
0.0
 11
165.4297678911
 21
109.9787381712
 31
0.0
  0
LINE
  5
178
330
1F
100
AcDbEntity
  8
0
  6
Continuous
 62
     7
100
AcDbLine
 10
165.4297678911
 20
109.9787381712
 30
0.0
 11
165.0722009902
 21
109.5127479136
 31
0.0
  0
LINE
  5
179
330
1F
100
AcDbEntity
  8
0
  6
Continuous
 62
     7
100
AcDbLine
 10
165.0722009902
 20
109.5127479136
 30
0.0
 11
164.8474250396
 21
108.970090765
 31
0.0
  0
LINE
  5
17A
330
1F
100
AcDbEntity
  8
0
  6
Continuous
 62
     7
100
AcDbLine
 10
164.8474250396
 20
108.970090765
 30
0.0
 11
164.8152108324
 21
108.7253995678
 31
0.0
  0
LINE
  5
17B
330
1F
100
AcDbEntity
  8
0
  6
Continuous
 62
     7
100
AcDbLine
 10
164.8152108324
 20
108.7253995678
 30
0.0
 11
163.0832581488
 21
109.4427978587
 31
0.0
  0
LINE
  5
17C
330
1F
100
AcDbEntity
  8
0
  6
Continuous
 62
     7
100
AcDbLine
 10
163.0832581488
 20
109.4427978587
 30
0.0
 11
161.4522922469
 21
110.6942820117
 31
0.0
  0
LINE
  5
17D
330
1F
100
AcDbEntity
  8
0
  6
Continuous
 62
     7
100
AcDbLine
 10
161.4522922469
 20
110.6942820117
 30
0.0
 11
160.200808094
 21
112.3252479136
 31
0.0
  0
LINE
  5
17E
330
1F
100
AcDbEntity
  8
0
  6
Continuous
 62
     7
100
AcDbLine
 10
160.200808094
 20
112.3252479136
 30
0.0
 11
159.483409803
 21
114.0572005971
 31
0.0
  0
LINE
  5
17F
330
1F
100
AcDbEntity
  8
0
  6
Continuous
 62
     7
100
AcDbLine
 10
159.483409803
 20
114.0572005971
 30
0.0
 11
159.7281010002
 21
114.0894148044
 31
0.0
  0
LINE
  5
180
330
1F
100
AcDbEntity
  8
0
  6
Continuous
 62
     7
100
AcDbLine
 10
159.7281010002
 20
114.0894148044
 30
0.0
 11
160.2707581488
 21
114.314190755
 31
0.0
  0
LINE
  5
181
330
1F
100
AcDbEntity
  8
0
  6
Continuous
 62
     7
100
AcDbLine
 10
160.2707581488
 20
114.314190755
 30
0.0
 11
160.7367484064
 21
114.6717576559
 31
0.0
  0
LINE
  5
182
330
1F
100
AcDbEntity
  8
0
  6
Continuous
 62
     7
100
AcDbLine
 10
160.7367484064
 20
114.6717576559
 30
0.0
 11
161.0943153073
 21
115.1377479136
 31
0.0
  0
LINE
  5
183
330
1F
100
AcDbEntity
  8
0
  6
Continuous
 62
     7
100
AcDbLine
 10
161.0943153073
 20
115.1377479136
 30
0.0
 11
161.3190912579
 21
115.6804050621
 31
0.0
  0
LINE
  5
184
330
1F
100
AcDbEntity
  8
0
  6
Continuous
 62
     7
100
AcDbLine
 10
346.1148067282
 20
291.5079974896
 30
0.0
 11
346.1148067282
 21
265.2814399015
 31
0.0
  0
LINE
  5
185
330
1F
100
AcDbEntity
  8
0
  6
Continuous
 62
     7
100
AcDbLine
 10
346.1148067282
 20
265.2814399015
 30
0.0
 11
286.1148067282
 21
265.2814399015
 31
0.0
  0
LINE
  5
186
330
1F
100
AcDbEntity
  8
0
  6
Continuous
 62
     7
100
AcDbLine
 10
286.1148067282
 20
265.2814399015
 30
0.0
 11
286.1148067282
 21
291.5079974896
 31
0.0
  0
LINE
  5
187
330
1F
100
AcDbEntity
  8
0
  6
Continuous
 62
     7
100
AcDbLine
 10
286.1148067282
 20
291.5079974896
 30
0.0
 11
281.1148067282
 21
291.5079974896
 31
0.0
  0
LINE
  5
188
330
1F
100
AcDbEntity
  8
0
  6
Continuous
 62
     7
100
AcDbLine
 10
281.1148067282
 20
291.5079974896
 30
0.0
 11
281.1148067282
 21
259.4235755253
 31
0.0
  0
LINE
  5
189
330
1F
100
AcDbEntity
  8
0
  6
Continuous
 62
     7
100
AcDbLine
 10
281.1148067282
 20
259.4235755253
 30
0.0
 11
286.1148067282
 21
257.3525077134
 31
0.0
  0
LINE
  5
18A
330
1F
100
AcDbEntity
  8
0
  6
Continuous
 62
     7
100
AcDbLine
 10
286.1148067282
 20
257.3525077134
 30
0.0
 11
286.1148067282
 21
259.4235755253
 31
0.0
  0
LINE
  5
18B
330
1F
100
AcDbEntity
  8
0
  6
Continuous
 62
     7
100
AcDbLine
 10
286.1148067282
 20
259.4235755253
 30
0.0
 11
286.1148067282
 21
260.2814399015
 31
0.0
  0
LINE
  5
18C
330
1F
100
AcDbEntity
  8
0
  6
Continuous
 62
     7
100
AcDbLine
 10
286.1148067282
 20
260.2814399015
 30
0.0
 11
346.1148067282
 21
260.2814399015
 31
0.0
  0
LINE
  5
18D
330
1F
100
AcDbEntity
  8
0
  6
Continuous
 62
     7
100
AcDbLine
 10
346.1148067282
 20
260.2814399015
 30
0.0
 11
346.1148067282
 21
259.4235755253
 31
0.0
  0
LINE
  5
18E
330
1F
100
AcDbEntity
  8
0
  6
Continuous
 62
     7
100
AcDbLine
 10
346.1148067282
 20
259.4235755253
 30
0.0
 11
346.1148067282
 21
257.3525077134
 31
0.0
  0
LINE
  5
18F
330
1F
100
AcDbEntity
  8
0
  6
Continuous
 62
     7
100
AcDbLine
 10
346.1148067282
 20
257.3525077134
 30
0.0
 11
351.1148067282
 21
259.4235755253
 31
0.0
  0
LINE
  5
190
330
1F
100
AcDbEntity
  8
0
  6
Continuous
 62
     7
100
AcDbLine
 10
351.1148067282
 20
259.4235755253
 30
0.0
 11
351.1148067282
 21
291.5079974896
 31
0.0
  0
LINE
  5
191
330
1F
100
AcDbEntity
  8
0
  6
Continuous
 62
     7
100
AcDbLine
 10
351.1148067282
 20
291.5079974896
 30
0.0
 11
346.1148067282
 21
291.5079974896
 31
0.0
  0
LINE
  5
192
330
1F
100
AcDbEntity
  8
0
  6
Continuous
 62
     7
100
AcDbLine
 10
346.1148067282
 20
260.2814399015
 30
0.0
 11
286.1148067282
 21
260.2814399015
 31
0.0
  0
LINE
  5
193
330
1F
100
AcDbEntity
  8
0
  6
Continuous
 62
     7
100
AcDbLine
 10
286.1148067282
 20
260.2814399015
 30
0.0
 11
286.1148067282
 21
259.4235755253
 31
0.0
  0
LINE
  5
194
330
1F
100
AcDbEntity
  8
0
  6
Continuous
 62
     7
100
AcDbLine
 10
286.1148067282
 20
259.4235755253
 30
0.0
 11
286.1148067282
 21
257.3525077134
 31
0.0
  0
LINE
  5
195
330
1F
100
AcDbEntity
  8
0
  6
Continuous
 62
     7
100
AcDbLine
 10
286.1148067282
 20
257.3525077134
 30
0.0
 11
292.821092669
 21
254.5746731236
 31
0.0
  0
LINE
  5
196
330
1F
100
AcDbEntity
  8
0
  6
Continuous
 62
     7
100
AcDbLine
 10
292.821092669
 20
254.5746731236
 30
0.0
 11
316.1148067282
 21
251.5079974896
 31
0.0
  0
LINE
  5
197
330
1F
100
AcDbEntity
  8
0
  6
Continuous
 62
     7
100
AcDbLine
 10
316.1148067282
 20
251.5079974896
 30
0.0
 11
339.4085207874
 21
254.5746731236
 31
0.0
  0
LINE
  5
198
330
1F
100
AcDbEntity
  8
0
  6
Continuous
 62
     7
100
AcDbLine
 10
339.4085207874
 20
254.5746731236
 30
0.0
 11
346.1148067282
 21
257.3525077134
 31
0.0
  0
LINE
  5
199
330
1F
100
AcDbEntity
  8
0
  6
Continuous
 62
     7
100
AcDbLine
 10
346.1148067282
 20
257.3525077134
 30
0.0
 11
346.1148067282
 21
259.4235755253
 31
0.0
  0
LINE
  5
19A
330
1F
100
AcDbEntity
  8
0
  6
Continuous
 62
     7
100
AcDbLine
 10
346.1148067282
 20
259.4235755253
 30
0.0
 11
346.1148067282
 21
260.2814399015
 31
0.0
  0
LINE
  5
19B
330
1F
100
AcDbEntity
  8
0
  6
Continuous
 62
     7
100
AcDbLine
 10
311.0205511034
 20
291.5079974896
 30
0.0
 11
298.9280476912
 21
291.5079974896
 31
0.0
  0
LINE
  5
19C
330
1F
100
AcDbEntity
  8
0
  6
Continuous
 62
     7
100
AcDbLine
 10
298.9280476912
 20
291.5079974896
 30
0.0
 11
311.0205511034
 21
306.0054573252
 31
0.0
  0
LINE
  5
19D
330
1F
100
AcDbEntity
  8
0
  6
Continuous
 62
     7
100
AcDbLine
 10
311.0205511034
 20
306.0054573252
 30
0.0
 11
311.0205511034
 21
291.5079974896
 31
0.0
  0
LINE
  5
19E
330
1F
100
AcDbEntity
  8
0
  6
Continuous
 62
     7
100
AcDbLine
 10
321.2276419466
 20
306.0002956164
 30
0.0
 11
333.3045570523
 21
291.5079974896
 31
0.0
  0
LINE
  5
19F
330
1F
100
AcDbEntity
  8
0
  6
Continuous
 62
     7
100
AcDbLine
 10
333.3045570523
 20
291.5079974896
 30
0.0
 11
321.2276419466
 21
291.5079974896
 31
0.0
  0
LINE
  5
1A0
330
1F
100
AcDbEntity
  8
0
  6
Continuous
 62
     7
100
AcDbLine
 10
321.2276419466
 20
291.5079974896
 30
0.0
 11
321.2276419466
 21
306.0002956164
 31
0.0
  0
LINE
  5
1A1
330
1F
100
AcDbEntity
  8
0
  6
Continuous
 62
     7
100
AcDbLine
 10
61.6593329808
 20
197.2281320809
 30
0.0
 11
61.6593329808
 21
239.8029007809
 31
0.0
  0
LINE
  5
1A2
330
1F
100
AcDbEntity
  8
0
  6
Continuous
 62
     7
100
AcDbLine
 10
61.6593329808
 20
239.8029007809
 30
0.0
 11
56.6593329808
 21
239.8029007809
 31
0.0
  0
LINE
  5
1A3
330
1F
100
AcDbEntity
  8
0
  6
Continuous
 62
     7
100
AcDbLine
 10
56.6593329808
 20
239.8029007809
 30
0.0
 11
56.6593329808
 21
250.5281320809
 31
0.0
  0
LINE
  5
1A4
330
1F
100
AcDbEntity
  8
0
  6
Continuous
 62
     7
100
AcDbLine
 10
56.6593329808
 20
250.5281320809
 30
0.0
 11
61.6593329808
 21
250.5281320809
 31
0.0
  0
LINE
  5
1A5
330
1F
100
AcDbEntity
  8
0
  6
Continuous
 62
     7
100
AcDbLine
 10
61.6593329808
 20
250.5281320809
 30
0.0
 11
61.6593329808
 21
255.2281320809
 31
0.0
  0
LINE
  5
1A6
330
1F
100
AcDbEntity
  8
0
  6
Continuous
 62
     7
100
AcDbLine
 10
61.6593329808
 20
255.2281320809
 30
0.0
 11
59.6593329808
 21
255.2281320809
 31
0.0
  0
LINE
  5
1A7
330
1F
100
AcDbEntity
  8
0
  6
Continuous
 62
     7
100
AcDbLine
 10
59.6593329808
 20
255.2281320809
 30
0.0
 11
59.6012993337
 21
255.8750133339
 31
0.0
  0
LINE
  5
1A8
330
1F
100
AcDbEntity
  8
0
  6
Continuous
 62
     7
100
AcDbLine
 10
59.6012993337
 20
255.8750133339
 30
0.0
 11
59.462096843
 21
256.5093995935
 31
0.0
  0
LINE
  5
1A9
330
1F
100
AcDbEntity
  8
0
  6
Continuous
 62
     7
100
AcDbLine
 10
59.462096843
 20
256.5093995935
 30
0.0
 11
59.243951209
 21
257.121147697
 31
0.0
  0
LINE
  5
1AA
330
1F
100
AcDbEntity
  8
0
  6
Continuous
 62
     7
100
AcDbLine
 10
59.243951209
 20
257.121147697
 30
0.0
 11
58.9503503485
 21
257.7004764417
 31
0.0
  0
LINE
  5
1AB
330
1F
100
AcDbEntity
  8
0
  6
Continuous
 62
     7
100
AcDbLine
 10
58.9503503485
 20
257.7004764417
 30
0.0
 11
58.5859886277
 21
258.2381229763
 31
0.0
  0
LINE
  5
1AC
330
1F
100
AcDbEntity
  8
0
  6
Continuous
 62
     7
100
AcDbLine
 10
58.5859886277
 20
258.2381229763
 30
0.0
 11
58.1566918035
 21
258.7254909035
 31
0.0
  0
LINE
  5
1AD
330
1F
100
AcDbEntity
  8
0
  6
Continuous
 62
     7
100
AcDbLine
 10
58.1566918035
 20
258.7254909035
 30
0.0
 11
57.6693238763
 21
259.1547877277
 31
0.0
  0
LINE
  5
1AE
330
1F
100
AcDbEntity
  8
0
  6
Continuous
 62
     7
100
AcDbLine
 10
57.6693238763
 20
259.1547877277
 30
0.0
 11
57.1316773417
 21
259.5191494486
 31
0.0
  0
LINE
  5
1AF
330
1F
100
AcDbEntity
  8
0
  6
Continuous
 62
     7
100
AcDbLine
 10
57.1316773417
 20
259.5191494486
 30
0.0
 11
56.5523485969
 21
259.812750309
 31
0.0
  0
LINE
  5
1B0
330
1F
100
AcDbEntity
  8
0
  6
Continuous
 62
     7
100
AcDbLine
 10
56.5523485969
 20
259.812750309
 30
0.0
 11
55.9406004935
 21
260.0308959431
 31
0.0
  0
LINE
  5
1B1
330
1F
100
AcDbEntity
  8
0
  6
Continuous
 62
     7
100
AcDbLine
 10
55.9406004935
 20
260.0308959431
 30
0.0
 11
55.3062142339
 21
260.1700984337
 31
0.0
  0
LINE
  5
1B2
330
1F
100
AcDbEntity
  8
0
  6
Continuous
 62
     7
100
AcDbLine
 10
55.3062142339
 20
260.1700984337
 30
0.0
 11
54.6593329808
 21
260.2281320809
 31
0.0
  0
LINE
  5
1B3
330
1F
100
AcDbEntity
  8
0
  6
Continuous
 62
     7
100
AcDbLine
 10
54.6593329808
 20
260.2281320809
 30
0.0
 11
54.6593329808
 21
262.2281320809
 31
0.0
  0
LINE
  5
1B4
330
1F
100
AcDbEntity
  8
0
  6
Continuous
 62
     7
100
AcDbLine
 10
54.6593329808
 20
262.2281320809
 30
0.0
 11
51.6593329808
 21
262.2281320809
 31
0.0
  0
LINE
  5
1B5
330
1F
100
AcDbEntity
  8
0
  6
Continuous
 62
     7
100
AcDbLine
 10
51.6593329808
 20
262.2281320809
 30
0.0
 11
51.6593329808
 21
52.2281320809
 31
0.0
  0
LINE
  5
1B6
330
1F
100
AcDbEntity
  8
0
  6
Continuous
 62
     7
100
AcDbLine
 10
51.6593329808
 20
52.2281320809
 30
0.0
 11
54.6593329808
 21
52.2281320809
 31
0.0
  0
LINE
  5
1B7
330
1F
100
AcDbEntity
  8
0
  6
Continuous
 62
     7
100
AcDbLine
 10
54.6593329808
 20
52.2281320809
 30
0.0
 11
54.6593329808
 21
54.2281320809
 31
0.0
  0
LINE
  5
1B8
330
1F
100
AcDbEntity
  8
0
  6
Continuous
 62
     7
100
AcDbLine
 10
54.6593329808
 20
54.2281320809
 30
0.0
 11
55.3062142339
 21
54.2861657281
 31
0.0
  0
LINE
  5
1B9
330
1F
100
AcDbEntity
  8
0
  6
Continuous
 62
     7
100
AcDbLine
 10
55.3062142339
 20
54.2861657281
 30
0.0
 11
55.9406004935
 21
54.4253682187
 31
0.0
  0
LINE
  5
1BA
330
1F
100
AcDbEntity
  8
0
  6
Continuous
 62
     7
100
AcDbLine
 10
55.9406004935
 20
54.4253682187
 30
0.0
 11
56.5523485969
 21
54.6435138528
 31
0.0
  0
LINE
  5
1BB
330
1F
100
AcDbEntity
  8
0
  6
Continuous
 62
     7
100
AcDbLine
 10
56.5523485969
 20
54.6435138528
 30
0.0
 11
57.1316773417
 21
54.9371147132
 31
0.0
  0
LINE
  5
1BC
330
1F
100
AcDbEntity
  8
0
  6
Continuous
 62
     7
100
AcDbLine
 10
57.1316773417
 20
54.9371147132
 30
0.0
 11
57.6693238763
 21
55.3014764341
 31
0.0
  0
LINE
  5
1BD
330
1F
100
AcDbEntity
  8
0
  6
Continuous
 62
     7
100
AcDbLine
 10
57.6693238763
 20
55.3014764341
 30
0.0
 11
58.1566918035
 21
55.7307732583
 31
0.0
  0
LINE
  5
1BE
330
1F
100
AcDbEntity
  8
0
  6
Continuous
 62
     7
100
AcDbLine
 10
58.1566918035
 20
55.7307732583
 30
0.0
 11
58.5859886277
 21
56.2181411855
 31
0.0
  0
LINE
  5
1BF
330
1F
100
AcDbEntity
  8
0
  6
Continuous
 62
     7
100
AcDbLine
 10
58.5859886277
 20
56.2181411855
 30
0.0
 11
58.9503503485
 21
56.75578772
 31
0.0
  0
LINE
  5
1C0
330
1F
100
AcDbEntity
  8
0
  6
Continuous
 62
     7
100
AcDbLine
 10
58.9503503485
 20
56.75578772
 30
0.0
 11
59.243951209
 21
57.3351164648
 31
0.0
  0
LINE
  5
1C1
330
1F
100
AcDbEntity
  8
0
  6
Continuous
 62
     7
100
AcDbLine
 10
59.243951209
 20
57.3351164648
 30
0.0
 11
59.462096843
 21
57.9468645683
 31
0.0
  0
LINE
  5
1C2
330
1F
100
AcDbEntity
  8
0
  6
Continuous
 62
     7
100
AcDbLine
 10
59.462096843
 20
57.9468645683
 30
0.0
 11
59.6012993337
 21
58.5812508278
 31
0.0
  0
LINE
  5
1C3
330
1F
100
AcDbEntity
  8
0
  6
Continuous
 62
     7
100
AcDbLine
 10
59.6012993337
 20
58.5812508278
 30
0.0
 11
59.6593329808
 21
59.2281320809
 31
0.0
  0
LINE
  5
1C4
330
1F
100
AcDbEntity
  8
0
  6
Continuous
 62
     7
100
AcDbLine
 10
59.6593329808
 20
59.2281320809
 30
0.0
 11
61.6593329808
 21
59.2281320809
 31
0.0
  0
LINE
  5
1C5
330
1F
100
AcDbEntity
  8
0
  6
Continuous
 62
     7
100
AcDbLine
 10
61.6593329808
 20
59.2281320809
 30
0.0
 11
61.6593329808
 21
63.9673036417
 31
0.0
  0
LINE
  5
1C6
330
1F
100
AcDbEntity
  8
0
  6
Continuous
 62
     7
100
AcDbLine
 10
61.6593329808
 20
63.9673036417
 30
0.0
 11
56.6593329808
 21
63.9673036417
 31
0.0
  0
LINE
  5
1C7
330
1F
100
AcDbEntity
  8
0
  6
Continuous
 62
     7
100
AcDbLine
 10
56.6593329808
 20
63.9673036417
 30
0.0
 11
56.6593329808
 21
74.6925349416
 31
0.0
  0
LINE
  5
1C8
330
1F
100
AcDbEntity
  8
0
  6
Continuous
 62
     7
100
AcDbLine
 10
56.6593329808
 20
74.6925349416
 30
0.0
 11
61.6593329808
 21
74.6925349416
 31
0.0
  0
LINE
  5
1C9
330
1F
100
AcDbEntity
  8
0
  6
Continuous
 62
     7
100
AcDbLine
 10
61.6593329808
 20
74.6925349416
 30
0.0
 11
61.6593329808
 21
117.2281320809
 31
0.0
  0
LINE
  5
1CA
330
1F
100
AcDbEntity
  8
0
  6
Continuous
 62
     7
100
AcDbLine
 10
61.6593329808
 20
117.2281320809
 30
0.0
 11
56.6593329808
 21
117.2281320809
 31
0.0
  0
LINE
  5
1CB
330
1F
100
AcDbEntity
  8
0
  6
Continuous
 62
     7
100
AcDbLine
 10
56.6593329808
 20
117.2281320809
 30
0.0
 11
56.6593329808
 21
127.2281320809
 31
0.0
  0
LINE
  5
1CC
330
1F
100
AcDbEntity
  8
0
  6
Continuous
 62
     7
100
AcDbLine
 10
56.6593329808
 20
127.2281320809
 30
0.0
 11
61.6593329808
 21
127.2281320809
 31
0.0
  0
LINE
  5
1CD
330
1F
100
AcDbEntity
  8
0
  6
Continuous
 62
     7
100
AcDbLine
 10
61.6593329808
 20
127.2281320809
 30
0.0
 11
61.6593329808
 21
129.5673063886
 31
0.0
  0
LINE
  5
1CE
330
1F
100
AcDbEntity
  8
0
  6
Continuous
 62
     7
100
AcDbLine
 10
61.6593329808
 20
129.5673063886
 30
0.0
 11
61.693761172
 21
129.9491208791
 31
0.0
  0
LINE
  5
1CF
330
1F
100
AcDbEntity
  8
0
  6
Continuous
 62
     7
100
AcDbLine
 10
61.693761172
 20
129.9491208791
 30
0.0
 11
62.0240780652
 21
131.2732170528
 31
0.0
  0
LINE
  5
1D0
330
1F
100
AcDbEntity
  8
0
  6
Continuous
 62
     7
100
AcDbLine
 10
62.0240780652
 20
131.2732170528
 30
0.0
 11
62.5542822548
 21
132.5306841276
 31
0.0
  0
LINE
  5
1D1
330
1F
100
AcDbEntity
  8
0
  6
Continuous
 62
     7
100
AcDbLine
 10
62.5542822548
 20
132.5306841276
 30
0.0
 11
63.2717347593
 21
133.6915466651
 31
0.0
  0
LINE
  5
1D2
330
1F
100
AcDbEntity
  8
0
  6
Continuous
 62
     7
100
AcDbLine
 10
63.2717347593
 20
133.6915466651
 30
0.0
 11
64.1593329808
 21
134.7281320809
 31
0.0
  0
LINE
  5
1D3
330
1F
100
AcDbEntity
  8
0
  6
Continuous
 62
     7
100
AcDbLine
 10
64.1593329808
 20
134.7281320809
 30
0.0
 11
65.1959183966
 21
135.6157303025
 31
0.0
  0
LINE
  5
1D4
330
1F
100
AcDbEntity
  8
0
  6
Continuous
 62
     7
100
AcDbLine
 10
65.1959183966
 20
135.6157303025
 30
0.0
 11
66.3567809341
 21
136.3331828069
 31
0.0
  0
LINE
  5
1D5
330
1F
100
AcDbEntity
  8
0
  6
Continuous
 62
     7
100
AcDbLine
 10
66.3567809341
 20
136.3331828069
 30
0.0
 11
67.614248009
 21
136.8633869965
 31
0.0
  0
LINE
  5
1D6
330
1F
100
AcDbEntity
  8
0
  6
Continuous
 62
     7
100
AcDbLine
 10
67.614248009
 20
136.8633869965
 30
0.0
 11
67.6593329808
 21
142.2281320809
 31
0.0
  0
LINE
  5
1D7
330
1F
100
AcDbEntity
  8
0
  6
Continuous
 62
     7
100
AcDbLine
 10
67.6593329808
 20
142.2281320809
 30
0.0
 11
61.6593329808
 21
142.2281320809
 31
0.0
  0
LINE
  5
1D8
330
1F
100
AcDbEntity
  8
0
  6
Continuous
 62
     7
100
AcDbLine
 10
61.6593329808
 20
142.2281320809
 30
0.0
 11
61.6593329808
 21
172.2281320809
 31
0.0
  0
LINE
  5
1D9
330
1F
100
AcDbEntity
  8
0
  6
Continuous
 62
     7
100
AcDbLine
 10
61.6593329808
 20
172.2281320809
 30
0.0
 11
67.6593329808
 21
172.2281320809
 31
0.0
  0
LINE
  5
1DA
330
1F
100
AcDbEntity
  8
0
  6
Continuous
 62
     7
100
AcDbLine
 10
67.6593329808
 20
172.2281320809
 30
0.0
 11
67.6593329808
 21
177.5816300005
 31
0.0
  0
LINE
  5
1DB
330
1F
100
AcDbEntity
  8
0
  6
Continuous
 62
     7
100
AcDbLine
 10
67.6593329808
 20
177.5816300005
 30
0.0
 11
67.614248009
 21
177.5928771653
 31
0.0
  0
LINE
  5
1DC
330
1F
100
AcDbEntity
  8
0
  6
Continuous
 62
     7
100
AcDbLine
 10
67.614248009
 20
177.5928771653
 30
0.0
 11
66.3567809341
 21
178.1230813549
 31
0.0
  0
LINE
  5
1DD
330
1F
100
AcDbEntity
  8
0
  6
Continuous
 62
     7
100
AcDbLine
 10
66.3567809341
 20
178.1230813549
 30
0.0
 11
65.1959183966
 21
178.8405338593
 31
0.0
  0
LINE
  5
1DE
330
1F
100
AcDbEntity
  8
0
  6
Continuous
 62
     7
100
AcDbLine
 10
65.1959183966
 20
178.8405338593
 30
0.0
 11
64.1593329808
 21
179.7281320809
 31
0.0
  0
LINE
  5
1DF
330
1F
100
AcDbEntity
  8
0
  6
Continuous
 62
     7
100
AcDbLine
 10
64.1593329808
 20
179.7281320809
 30
0.0
 11
63.2717347593
 21
180.7647174966
 31
0.0
  0
LINE
  5
1E0
330
1F
100
AcDbEntity
  8
0
  6
Continuous
 62
     7
100
AcDbLine
 10
63.2717347593
 20
180.7647174966
 30
0.0
 11
62.5542822548
 21
181.9255800341
 31
0.0
  0
LINE
  5
1E1
330
1F
100
AcDbEntity
  8
0
  6
Continuous
 62
     7
100
AcDbLine
 10
62.5542822548
 20
181.9255800341
 30
0.0
 11
62.0240780652
 21
183.183047109
 31
0.0
  0
LINE
  5
1E2
330
1F
100
AcDbEntity
  8
0
  6
Continuous
 62
     7
100
AcDbLine
 10
62.0240780652
 20
183.183047109
 30
0.0
 11
61.693761172
 21
184.5071432827
 31
0.0
  0
LINE
  5
1E3
330
1F
100
AcDbEntity
  8
0
  6
Continuous
 62
     7
100
AcDbLine
 10
61.693761172
 20
184.5071432827
 30
0.0
 11
61.6593329808
 21
184.8889577732
 31
0.0
  0
LINE
  5
1E4
330
1F
100
AcDbEntity
  8
0
  6
Continuous
 62
     7
100
AcDbLine
 10
61.6593329808
 20
184.8889577732
 30
0.0
 11
61.6593329808
 21
187.2281320809
 31
0.0
  0
LINE
  5
1E5
330
1F
100
AcDbEntity
  8
0
  6
Continuous
 62
     7
100
AcDbLine
 10
61.6593329808
 20
187.2281320809
 30
0.0
 11
56.6593329808
 21
187.2281320809
 31
0.0
  0
LINE
  5
1E6
330
1F
100
AcDbEntity
  8
0
  6
Continuous
 62
     7
100
AcDbLine
 10
56.6593329808
 20
187.2281320809
 30
0.0
 11
56.6593329808
 21
197.2281320809
 31
0.0
  0
LINE
  5
1E7
330
1F
100
AcDbEntity
  8
0
  6
Continuous
 62
     7
100
AcDbLine
 10
56.6593329808
 20
197.2281320809
 30
0.0
 11
61.6593329808
 21
197.2281320809
 31
0.0
  0
LINE
  5
1E8
330
1F
100
AcDbEntity
  8
0
  6
Continuous
 62
     7
100
AcDbLine
 10
78.3577725792
 20
262.7182258936
 30
0.0
 11
78.3577725792
 21
257.7182258936
 31
0.0
  0
LINE
  5
1E9
330
1F
100
AcDbEntity
  8
0
  6
Continuous
 62
     7
100
AcDbLine
 10
78.3577725792
 20
257.7182258936
 30
0.0
 11
112.3577725792
 21
257.7182258936
 31
0.0
  0
LINE
  5
1EA
330
1F
100
AcDbEntity
  8
0
  6
Continuous
 62
     7
100
AcDbLine
 10
112.3577725792
 20
257.7182258936
 30
0.0
 11
112.3577725792
 21
262.7400843144
 31
0.0
  0
LINE
  5
1EB
330
1F
100
AcDbEntity
  8
0
  6
Continuous
 62
     7
100
AcDbLine
 10
112.3577725792
 20
262.7400843144
 30
0.0
 11
78.3577725792
 21
262.7182258936
 31
0.0
  0
LINE
  5
1EC
330
1F
100
AcDbEntity
  8
0
  6
Continuous
 62
     7
100
AcDbLine
 10
297.5559027913
 20
179.4935053979
 30
0.0
 11
298.3028048601
 21
179.5076335576
 31
0.0
  0
LINE
  5
1ED
330
1F
100
AcDbEntity
  8
0
  6
Continuous
 62
     7
100
AcDbLine
 10
298.3028048601
 20
179.5076335576
 30
0.0
 11
299.0486383363
 21
179.5499978233
 31
0.0
  0
LINE
  5
1EE
330
1F
100
AcDbEntity
  8
0
  6
Continuous
 62
     7
100
AcDbLine
 10
299.0486383363
 20
179.5499978233
 30
0.0
 11
299.7923361562
 21
179.6205375846
 31
0.0
  0
LINE
  5
1EF
330
1F
100
AcDbEntity
  8
0
  6
Continuous
 62
     7
100
AcDbLine
 10
299.7923361562
 20
179.6205375846
 30
0.0
 11
300.5328343115
 21
179.7191519202
 31
0.0
  0
LINE
  5
1F0
330
1F
100
AcDbEntity
  8
0
  6
Continuous
 62
     7
100
AcDbLine
 10
300.5328343115
 20
179.7191519202
 30
0.0
 11
301.2690733718
 21
179.8456997426
 31
0.0
  0
LINE
  5
1F1
330
1F
100
AcDbEntity
  8
0
  6
Continuous
 62
     7
100
AcDbLine
 10
301.2690733718
 20
179.8456997426
 30
0.0
 11
302.0
 21
180.0
 31
0.0
  0
LINE
  5
1F2
330
1F
100
AcDbEntity
  8
0
  6
Continuous
 62
     7
100
AcDbLine
 10
302.0
 20
180.0
 30
0.0
 11
302.7245684596
 21
180.1818319349
 31
0.0
  0
LINE
  5
1F3
330
1F
100
AcDbEntity
  8
0
  6
Continuous
 62
     7
100
AcDbLine
 10
302.7245684596
 20
180.1818319349
 30
0.0
 11
303.4417421108
 21
180.3909354006
 31
0.0
  0
LINE
  5
1F4
330
1F
100
AcDbEntity
  8
0
  6
Continuous
 62
     7
100
AcDbLine
 10
303.4417421108
 20
180.3909354006
 30
0.0
 11
304.1504948933
 21
180.6270112326
 31
0.0
  0
LINE
  5
1F5
330
1F
100
AcDbEntity
  8
0
  6
Continuous
 62
     7
100
AcDbLine
 10
304.1504948933
 20
180.6270112326
 30
0.0
 11
304.8498127949
 21
180.8897216774
 31
0.0
  0
LINE
  5
1F6
330
1F
100
AcDbEntity
  8
0
  6
Continuous
 62
     7
100
AcDbLine
 10
304.8498127949
 20
180.8897216774
 30
0.0
 11
305.5386953015
 21
181.1786908752
 31
0.0
  0
LINE
  5
1F7
330
1F
100
AcDbEntity
  8
0
  6
Continuous
 62
     7
100
AcDbLine
 10
305.5386953015
 20
181.1786908752
 30
0.0
 11
306.2161568292
 21
181.4935053979
 31
0.0
  0
LINE
  5
1F8
330
1F
100
AcDbEntity
  8
0
  6
Continuous
 62
     7
100
AcDbLine
 10
306.2161568292
 20
181.4935053979
 30
0.0
 11
303.6180806178
 21
182.9935053979
 31
0.0
  0
LINE
  5
1F9
330
1F
100
AcDbEntity
  8
0
  6
Continuous
 62
     7
100
AcDbLine
 10
303.6180806178
 20
182.9935053979
 30
0.0
 11
303.9792963071
 21
183.6474056434
 31
0.0
  0
LINE
  5
1FA
330
1F
100
AcDbEntity
  8
0
  6
Continuous
 62
     7
100
AcDbLine
 10
303.9792963071
 20
183.6474056434
 30
0.0
 11
304.3155245148
 21
184.3144985137
 31
0.0
  0
LINE
  5
1FB
330
1F
100
AcDbEntity
  8
0
  6
Continuous
 62
     7
100
AcDbLine
 10
304.3155245148
 20
184.3144985137
 30
0.0
 11
304.6262841995
 21
184.9938295991
 31
0.0
  0
LINE
  5
1FC
330
1F
100
AcDbEntity
  8
0
  6
Continuous
 62
     7
100
AcDbLine
 10
304.6262841995
 20
184.9938295991
 30
0.0
 11
304.9111307574
 21
185.6844269809
 31
0.0
  0
LINE
  5
1FD
330
1F
100
AcDbEntity
  8
0
  6
Continuous
 62
     7
100
AcDbLine
 10
304.9111307574
 20
185.6844269809
 30
0.0
 11
305.1696566585
 21
186.3853026215
 31
0.0
  0
LINE
  5
1FE
330
1F
100
AcDbEntity
  8
0
  6
Continuous
 62
     7
100
AcDbLine
 10
305.1696566585
 20
186.3853026215
 30
0.0
 11
305.4014920299
 21
187.0954537785
 31
0.0
  0
LINE
  5
1FF
330
1F
100
AcDbEntity
  8
0
  6
Continuous
 62
     7
100
AcDbLine
 10
305.4014920299
 20
187.0954537785
 30
0.0
 11
305.6063051848
 21
187.8138644388
 31
0.0
  0
LINE
  5
200
330
1F
100
AcDbEntity
  8
0
  6
Continuous
 62
     7
100
AcDbLine
 10
305.6063051848
 20
187.8138644388
 30
0.0
 11
305.7838030972
 21
188.5395067724
 31
0.0
  0
LINE
  5
201
330
1F
100
AcDbEntity
  8
0
  6
Continuous
 62
     7
100
AcDbLine
 10
305.7838030972
 20
188.5395067724
 30
0.0
 11
305.9337318207
 21
189.2713426031
 31
0.0
  0
LINE
  5
202
330
1F
100
AcDbEntity
  8
0
  6
Continuous
 62
     7
100
AcDbLine
 10
305.9337318207
 20
189.2713426031
 30
0.0
 11
306.0558768524
 21
190.0083248936
 31
0.0
  0
LINE
  5
203
330
1F
100
AcDbEntity
  8
0
  6
Continuous
 62
     7
100
AcDbLine
 10
306.0558768524
 20
190.0083248936
 30
0.0
 11
306.1500634395
 21
190.7493992435
 31
0.0
  0
LINE
  5
204
330
1F
100
AcDbEntity
  8
0
  6
Continuous
 62
     7
100
AcDbLine
 10
306.1500634395
 20
190.7493992435
 30
0.0
 11
306.2161568292
 21
191.4935053979
 31
0.0
  0
LINE
  5
205
330
1F
100
AcDbEntity
  8
0
  6
Continuous
 62
     7
100
AcDbLine
 10
306.2161568292
 20
191.4935053979
 30
0.0
 11
303.6180806178
 21
189.9935053979
 31
0.0
  0
LINE
  5
206
330
1F
100
AcDbEntity
  8
0
  6
Continuous
 62
     7
100
AcDbLine
 10
303.6180806178
 20
189.9935053979
 30
0.0
 11
303.2323942383
 21
190.6332774838
 31
0.0
  0
LINE
  5
207
330
1F
100
AcDbEntity
  8
0
  6
Continuous
 62
     7
100
AcDbLine
 10
303.2323942383
 20
190.6332774838
 30
0.0
 11
302.8227889699
 21
191.2580060883
 31
0.0
  0
LINE
  5
208
330
1F
100
AcDbEntity
  8
0
  6
Continuous
 62
     7
100
AcDbLine
 10
302.8227889699
 20
191.2580060883
 30
0.0
 11
302.3898508347
 21
191.8667974125
 31
0.0
  0
LINE
  5
209
330
1F
100
AcDbEntity
  8
0
  6
Continuous
 62
     7
100
AcDbLine
 10
302.3898508347
 20
191.8667974125
 30
0.0
 11
301.9341992372
 21
192.4587804586
 31
0.0
  0
LINE
  5
20A
330
1F
100
AcDbEntity
  8
0
  6
Continuous
 62
     7
100
AcDbLine
 10
301.9341992372
 20
192.4587804586
 30
0.0
 11
301.456486078
 21
193.0331082768
 31
0.0
  0
LINE
  5
20B
330
1F
100
AcDbEntity
  8
0
  6
Continuous
 62
     7
100
AcDbLine
 10
301.456486078
 20
193.0331082768
 30
0.0
 11
300.9573948212
 21
193.5889591765
 31
0.0
  0
LINE
  5
20C
330
1F
100
AcDbEntity
  8
0
  6
Continuous
 62
     7
100
AcDbLine
 10
300.9573948212
 20
193.5889591765
 30
0.0
 11
300.4376395165
 21
194.1255379018
 31
0.0
  0
LINE
  5
20D
330
1F
100
AcDbEntity
  8
0
  6
Continuous
 62
     7
100
AcDbLine
 10
300.4376395165
 20
194.1255379018
 30
0.0
 11
299.8979637777
 21
194.6420767698
 31
0.0
  0
LINE
  5
20E
330
1F
100
AcDbEntity
  8
0
  6
Continuous
 62
     7
100
AcDbLine
 10
299.8979637777
 20
194.6420767698
 30
0.0
 11
299.3391397187
 21
195.1378367685
 31
0.0
  0
LINE
  5
20F
330
1F
100
AcDbEntity
  8
0
  6
Continuous
 62
     7
100
AcDbLine
 10
299.3391397187
 20
195.1378367685
 30
0.0
 11
298.7619668489
 21
195.6121086142
 31
0.0
  0
LINE
  5
210
330
1F
100
AcDbEntity
  8
0
  6
Continuous
 62
     7
100
AcDbLine
 10
298.7619668489
 20
195.6121086142
 30
0.0
 11
298.1672709293
 21
196.0642137662
 31
0.0
  0
LINE
  5
211
330
1F
100
AcDbEntity
  8
0
  6
Continuous
 62
     7
100
AcDbLine
 10
298.1672709293
 20
196.0642137662
 30
0.0
 11
297.5559027913
 21
196.4935053979
 31
0.0
  0
LINE
  5
212
330
1F
100
AcDbEntity
  8
0
  6
Continuous
 62
     7
100
AcDbLine
 10
297.5559027913
 20
196.4935053979
 30
0.0
 11
297.5559027913
 21
193.4935053979
 31
0.0
  0
LINE
  5
213
330
1F
100
AcDbEntity
  8
0
  6
Continuous
 62
     7
100
AcDbLine
 10
297.5559027913
 20
193.4935053979
 30
0.0
 11
296.8090007226
 21
193.4793772383
 31
0.0
  0
LINE
  5
214
330
1F
100
AcDbEntity
  8
0
  6
Continuous
 62
     7
100
AcDbLine
 10
296.8090007226
 20
193.4793772383
 30
0.0
 11
296.0631672464
 21
193.4370129726
 31
0.0
  0
LINE
  5
215
330
1F
100
AcDbEntity
  8
0
  6
Continuous
 62
     7
100
AcDbLine
 10
296.0631672464
 20
193.4370129726
 30
0.0
 11
295.3194694265
 21
193.3664732113
 31
0.0
  0
LINE
  5
216
330
1F
100
AcDbEntity
  8
0
  6
Continuous
 62
     7
100
AcDbLine
 10
295.3194694265
 20
193.3664732113
 30
0.0
 11
294.5789712711
 21
193.2678588757
 31
0.0
  0
LINE
  5
217
330
1F
100
AcDbEntity
  8
0
  6
Continuous
 62
     7
100
AcDbLine
 10
294.5789712711
 20
193.2678588757
 30
0.0
 11
293.8427322109
 21
193.1413110532
 31
0.0
  0
LINE
  5
218
330
1F
100
AcDbEntity
  8
0
  6
Continuous
 62
     7
100
AcDbLine
 10
293.8427322109
 20
193.1413110532
 30
0.0
 11
293.1118055827
 21
192.9870107959
 31
0.0
  0
LINE
  5
219
330
1F
100
AcDbEntity
  8
0
  6
Continuous
 62
     7
100
AcDbLine
 10
293.1118055827
 20
192.9870107959
 30
0.0
 11
292.3872371231
 21
192.8051788609
 31
0.0
  0
LINE
  5
21A
330
1F
100
AcDbEntity
  8
0
  6
Continuous
 62
     7
100
AcDbLine
 10
292.3872371231
 20
192.8051788609
 30
0.0
 11
291.6700634719
 21
192.5960753953
 31
0.0
  0
LINE
  5
21B
330
1F
100
AcDbEntity
  8
0
  6
Continuous
 62
     7
100
AcDbLine
 10
291.6700634719
 20
192.5960753953
 30
0.0
 11
290.9613106894
 21
192.3599995633
 31
0.0
  0
LINE
  5
21C
330
1F
100
AcDbEntity
  8
0
  6
Continuous
 62
     7
100
AcDbLine
 10
290.9613106894
 20
192.3599995633
 30
0.0
 11
290.2619927878
 21
192.0972891185
 31
0.0
  0
LINE
  5
21D
330
1F
100
AcDbEntity
  8
0
  6
Continuous
 62
     7
100
AcDbLine
 10
290.2619927878
 20
192.0972891185
 30
0.0
 11
289.5731102812
 21
191.8083199206
 31
0.0
  0
LINE
  5
21E
330
1F
100
AcDbEntity
  8
0
  6
Continuous
 62
     7
100
AcDbLine
 10
289.5731102812
 20
191.8083199206
 30
0.0
 11
288.8956487535
 21
191.4935053979
 31
0.0
  0
LINE
  5
21F
330
1F
100
AcDbEntity
  8
0
  6
Continuous
 62
     7
100
AcDbLine
 10
288.8956487535
 20
191.4935053979
 30
0.0
 11
291.4937249649
 21
189.9935053979
 31
0.0
  0
LINE
  5
220
330
1F
100
AcDbEntity
  8
0
  6
Continuous
 62
     7
100
AcDbLine
 10
291.4937249649
 20
189.9935053979
 30
0.0
 11
291.1325092756
 21
189.3396051524
 31
0.0
  0
LINE
  5
221
330
1F
100
AcDbEntity
  8
0
  6
Continuous
 62
     7
100
AcDbLine
 10
291.1325092756
 20
189.3396051524
 30
0.0
 11
290.7962810678
 21
188.6725122822
 31
0.0
  0
LINE
  5
222
330
1F
100
AcDbEntity
  8
0
  6
Continuous
 62
     7
100
AcDbLine
 10
290.7962810678
 20
188.6725122822
 30
0.0
 11
290.4855213831
 21
187.9931811968
 31
0.0
  0
LINE
  5
223
330
1F
100
AcDbEntity
  8
0
  6
Continuous
 62
     7
100
AcDbLine
 10
290.4855213831
 20
187.9931811968
 30
0.0
 11
290.2006748253
 21
187.302583815
 31
0.0
  0
LINE
  5
224
330
1F
100
AcDbEntity
  8
0
  6
Continuous
 62
     7
100
AcDbLine
 10
290.2006748253
 20
187.302583815
 30
0.0
 11
289.9421489242
 21
186.6017081743
 31
0.0
  0
LINE
  5
225
330
1F
100
AcDbEntity
  8
0
  6
Continuous
 62
     7
100
AcDbLine
 10
289.9421489242
 20
186.6017081743
 30
0.0
 11
289.7103135528
 21
185.8915570173
 31
0.0
  0
LINE
  5
226
330
1F
100
AcDbEntity
  8
0
  6
Continuous
 62
     7
100
AcDbLine
 10
289.7103135528
 20
185.8915570173
 30
0.0
 11
289.5055003979
 21
185.173146357
 31
0.0
  0
LINE
  5
227
330
1F
100
AcDbEntity
  8
0
  6
Continuous
 62
     7
100
AcDbLine
 10
289.5055003979
 20
185.173146357
 30
0.0
 11
289.3280024855
 21
184.4475040234
 31
0.0
  0
LINE
  5
228
330
1F
100
AcDbEntity
  8
0
  6
Continuous
 62
     7
100
AcDbLine
 10
289.3280024855
 20
184.4475040234
 30
0.0
 11
289.178073762
 21
183.7156681927
 31
0.0
  0
LINE
  5
229
330
1F
100
AcDbEntity
  8
0
  6
Continuous
 62
     7
100
AcDbLine
 10
289.178073762
 20
183.7156681927
 30
0.0
 11
289.0559287303
 21
182.9786859022
 31
0.0
  0
LINE
  5
22A
330
1F
100
AcDbEntity
  8
0
  6
Continuous
 62
     7
100
AcDbLine
 10
289.0559287303
 20
182.9786859022
 30
0.0
 11
288.9617421432
 21
182.2376115524
 31
0.0
  0
LINE
  5
22B
330
1F
100
AcDbEntity
  8
0
  6
Continuous
 62
     7
100
AcDbLine
 10
288.9617421432
 20
182.2376115524
 30
0.0
 11
288.8956487535
 21
181.4935053979
 31
0.0
  0
LINE
  5
22C
330
1F
100
AcDbEntity
  8
0
  6
Continuous
 62
     7
100
AcDbLine
 10
288.8956487535
 20
181.4935053979
 30
0.0
 11
291.4937249649
 21
182.9935053979
 31
0.0
  0
LINE
  5
22D
330
1F
100
AcDbEntity
  8
0
  6
Continuous
 62
     7
100
AcDbLine
 10
291.4937249649
 20
182.9935053979
 30
0.0
 11
291.8794113444
 21
182.353733312
 31
0.0
  0
LINE
  5
22E
330
1F
100
AcDbEntity
  8
0
  6
Continuous
 62
     7
100
AcDbLine
 10
291.8794113444
 20
182.353733312
 30
0.0
 11
292.2890166128
 21
181.7290047075
 31
0.0
  0
LINE
  5
22F
330
1F
100
AcDbEntity
  8
0
  6
Continuous
 62
     7
100
AcDbLine
 10
292.2890166128
 20
181.7290047075
 30
0.0
 11
292.721954748
 21
181.1202133834
 31
0.0
  0
LINE
  5
230
330
1F
100
AcDbEntity
  8
0
  6
Continuous
 62
     7
100
AcDbLine
 10
292.721954748
 20
181.1202133834
 30
0.0
 11
293.1776063455
 21
180.5282303372
 31
0.0
  0
LINE
  5
231
330
1F
100
AcDbEntity
  8
0
  6
Continuous
 62
     7
100
AcDbLine
 10
293.1776063455
 20
180.5282303372
 30
0.0
 11
293.6553195047
 21
179.953902519
 31
0.0
  0
LINE
  5
232
330
1F
100
AcDbEntity
  8
0
  6
Continuous
 62
     7
100
AcDbLine
 10
293.6553195047
 20
179.953902519
 30
0.0
 11
294.1544107615
 21
179.3980516194
 31
0.0
  0
LINE
  5
233
330
1F
100
AcDbEntity
  8
0
  6
Continuous
 62
     7
100
AcDbLine
 10
294.1544107615
 20
179.3980516194
 30
0.0
 11
294.6741660661
 21
178.861472894
 31
0.0
  0
LINE
  5
234
330
1F
100
AcDbEntity
  8
0
  6
Continuous
 62
     7
100
AcDbLine
 10
294.6741660661
 20
178.861472894
 30
0.0
 11
295.213841805
 21
178.344934026
 31
0.0
  0
LINE
  5
235
330
1F
100
AcDbEntity
  8
0
  6
Continuous
 62
     7
100
AcDbLine
 10
295.213841805
 20
178.344934026
 30
0.0
 11
295.772665864
 21
177.8491740274
 31
0.0
  0
LINE
  5
236
330
1F
100
AcDbEntity
  8
0
  6
Continuous
 62
     7
100
AcDbLine
 10
295.772665864
 20
177.8491740274
 30
0.0
 11
296.3498387338
 21
177.3749021817
 31
0.0
  0
LINE
  5
237
330
1F
100
AcDbEntity
  8
0
  6
Continuous
 62
     7
100
AcDbLine
 10
296.3498387338
 20
177.3749021817
 30
0.0
 11
296.9445346533
 21
176.9227970296
 31
0.0
  0
LINE
  5
238
330
1F
100
AcDbEntity
  8
0
  6
Continuous
 62
     7
100
AcDbLine
 10
296.9445346533
 20
176.9227970296
 30
0.0
 11
297.5559027913
 21
176.4935053979
 31
0.0
  0
LINE
  5
239
330
1F
100
AcDbEntity
  8
0
  6
Continuous
 62
     7
100
AcDbLine
 10
297.5559027913
 20
176.4935053979
 30
0.0
 11
297.5559027913
 21
179.4935053979
 31
0.0
  0
LINE
  5
23A
330
1F
100
AcDbEntity
  8
0
  6
Continuous
 62
     7
100
AcDbLine
 10
117.3577725793
 20
262.7400843144
 30
0.0
 11
112.3577725792
 21
262.7400843144
 31
0.0
  0
LINE
  5
23B
330
1F
100
AcDbEntity
  8
0
  6
Continuous
 62
     7
100
AcDbLine
 10
112.3577725792
 20
262.7400843144
 30
0.0
 11
112.3577725792
 21
202.7400843144
 31
0.0
  0
LINE
  5
23C
330
1F
100
AcDbEntity
  8
0
  6
Continuous
 62
     7
100
AcDbLine
 10
112.3577725792
 20
202.7400843144
 30
0.0
 11
117.3577725793
 21
202.7400843144
 31
0.0
  0
LINE
  5
23D
330
1F
100
AcDbEntity
  8
0
  6
Continuous
 62
     7
100
AcDbLine
 10
117.3577725793
 20
202.7400843144
 30
0.0
 11
117.3577725793
 21
262.7400843144
 31
0.0
  0
LINE
  5
23E
330
1F
100
AcDbEntity
  8
0
  6
Continuous
 62
     7
100
AcDbLine
 10
112.3577725792
 20
207.7182258935
 30
0.0
 11
112.3577725792
 21
257.7182258936
 31
0.0
  0
LINE
  5
23F
330
1F
100
AcDbEntity
  8
0
  6
Continuous
 62
     7
100
AcDbLine
 10
112.3577725792
 20
257.7182258936
 30
0.0
 11
78.3577725792
 21
257.7182258936
 31
0.0
  0
LINE
  5
240
330
1F
100
AcDbEntity
  8
0
  6
Continuous
 62
     7
100
AcDbLine
 10
78.3577725792
 20
257.7182258936
 30
0.0
 11
78.3577725792
 21
207.7182258935
 31
0.0
  0
LINE
  5
241
330
1F
100
AcDbEntity
  8
0
  6
Continuous
 62
     7
100
AcDbLine
 10
78.3577725792
 20
207.7182258935
 30
0.0
 11
112.3577725792
 21
207.7182258935
 31
0.0
  0
LINE
  5
242
330
1F
100
AcDbEntity
  8
0
  6
Continuous
 62
     7
100
AcDbLine
 10
112.3577725792
 20
202.7182258936
 30
0.0
 11
112.3577725792
 21
207.7182258935
 31
0.0
  0
LINE
  5
243
330
1F
100
AcDbEntity
  8
0
  6
Continuous
 62
     7
100
AcDbLine
 10
112.3577725792
 20
207.7182258935
 30
0.0
 11
78.3577725792
 21
207.7182258935
 31
0.0
  0
LINE
  5
244
330
1F
100
AcDbEntity
  8
0
  6
Continuous
 62
     7
100
AcDbLine
 10
78.3577725792
 20
207.7182258935
 30
0.0
 11
78.3577725792
 21
202.7400843144
 31
0.0
  0
LINE
  5
245
330
1F
100
AcDbEntity
  8
0
  6
Continuous
 62
     7
100
AcDbLine
 10
78.3577725792
 20
202.7400843144
 30
0.0
 11
112.3577725792
 21
202.7182258936
 31
0.0
  0
LINE
  5
246
330
1F
100
AcDbEntity
  8
0
  6
Continuous
 62
     7
100
AcDbLine
 10
24.485528716
 20
169.0460670806
 30
0.0
 11
24.485528716
 21
179.0460670806
 31
0.0
  0
LINE
  5
247
330
1F
100
AcDbEntity
  8
0
  6
Continuous
 62
     7
100
AcDbLine
 10
24.485528716
 20
179.0460670806
 30
0.0
 11
29.485528716
 21
179.0460670806
 31
0.0
  0
LINE
  5
248
330
1F
100
AcDbEntity
  8
0
  6
Continuous
 62
     7
100
AcDbLine
 10
29.485528716
 20
179.0460670806
 30
0.0
 11
29.485528716
 21
181.3852413883
 31
0.0
  0
LINE
  5
249
330
1F
100
AcDbEntity
  8
0
  6
Continuous
 62
     7
100
AcDbLine
 10
29.485528716
 20
181.3852413883
 30
0.0
 11
29.5199569071
 21
181.7670558788
 31
0.0
  0
LINE
  5
24A
330
1F
100
AcDbEntity
  8
0
  6
Continuous
 62
     7
100
AcDbLine
 10
29.5199569071
 20
181.7670558788
 30
0.0
 11
29.8502738004
 21
183.0911520525
 31
0.0
  0
LINE
  5
24B
330
1F
100
AcDbEntity
  8
0
  6
Continuous
 62
     7
100
AcDbLine
 10
29.8502738004
 20
183.0911520525
 30
0.0
 11
30.38047799
 21
184.3486191274
 31
0.0
  0
LINE
  5
24C
330
1F
100
AcDbEntity
  8
0
  6
Continuous
 62
     7
100
AcDbLine
 10
30.38047799
 20
184.3486191274
 30
0.0
 11
31.0979304944
 21
185.5094816649
 31
0.0
  0
LINE
  5
24D
330
1F
100
AcDbEntity
  8
0
  6
Continuous
 62
     7
100
AcDbLine
 10
31.0979304944
 20
185.5094816649
 30
0.0
 11
31.985528716
 21
186.5460670806
 31
0.0
  0
LINE
  5
24E
330
1F
100
AcDbEntity
  8
0
  6
Continuous
 62
     7
100
AcDbLine
 10
31.985528716
 20
186.5460670806
 30
0.0
 11
33.0221141317
 21
187.4336653022
 31
0.0
  0
LINE
  5
24F
330
1F
100
AcDbEntity
  8
0
  6
Continuous
 62
     7
100
AcDbLine
 10
33.0221141317
 20
187.4336653022
 30
0.0
 11
34.1829766692
 21
188.1511178066
 31
0.0
  0
LINE
  5
250
330
1F
100
AcDbEntity
  8
0
  6
Continuous
 62
     7
100
AcDbLine
 10
34.1829766692
 20
188.1511178066
 30
0.0
 11
35.4404437441
 21
188.6813219962
 31
0.0
  0
LINE
  5
251
330
1F
100
AcDbEntity
  8
0
  6
Continuous
 62
     7
100
AcDbLine
 10
35.4404437441
 20
188.6813219962
 30
0.0
 11
35.485528716
 21
194.0460670806
 31
0.0
  0
LINE
  5
252
330
1F
100
AcDbEntity
  8
0
  6
Continuous
 62
     7
100
AcDbLine
 10
35.485528716
 20
194.0460670806
 30
0.0
 11
29.485528716
 21
194.0460670806
 31
0.0
  0
LINE
  5
253
330
1F
100
AcDbEntity
  8
0
  6
Continuous
 62
     7
100
AcDbLine
 10
29.485528716
 20
194.0460670806
 30
0.0
 11
29.485528716
 21
224.0460670806
 31
0.0
  0
LINE
  5
254
330
1F
100
AcDbEntity
  8
0
  6
Continuous
 62
     7
100
AcDbLine
 10
29.485528716
 20
224.0460670806
 30
0.0
 11
35.485528716
 21
224.0460670806
 31
0.0
  0
LINE
  5
255
330
1F
100
AcDbEntity
  8
0
  6
Continuous
 62
     7
100
AcDbLine
 10
35.485528716
 20
224.0460670806
 30
0.0
 11
35.485528716
 21
229.3995650002
 31
0.0
  0
LINE
  5
256
330
1F
100
AcDbEntity
  8
0
  6
Continuous
 62
     7
100
AcDbLine
 10
35.485528716
 20
229.3995650002
 30
0.0
 11
35.4404437441
 21
229.410812165
 31
0.0
  0
LINE
  5
257
330
1F
100
AcDbEntity
  8
0
  6
Continuous
 62
     7
100
AcDbLine
 10
35.4404437441
 20
229.410812165
 30
0.0
 11
34.1829766692
 21
229.9410163546
 31
0.0
  0
LINE
  5
258
330
1F
100
AcDbEntity
  8
0
  6
Continuous
 62
     7
100
AcDbLine
 10
34.1829766692
 20
229.9410163546
 30
0.0
 11
33.0221141317
 21
230.658468859
 31
0.0
  0
LINE
  5
259
330
1F
100
AcDbEntity
  8
0
  6
Continuous
 62
     7
100
AcDbLine
 10
33.0221141317
 20
230.658468859
 30
0.0
 11
31.985528716
 21
231.5460670806
 31
0.0
  0
LINE
  5
25A
330
1F
100
AcDbEntity
  8
0
  6
Continuous
 62
     7
100
AcDbLine
 10
31.985528716
 20
231.5460670806
 30
0.0
 11
31.0979304944
 21
232.5826524964
 31
0.0
  0
LINE
  5
25B
330
1F
100
AcDbEntity
  8
0
  6
Continuous
 62
     7
100
AcDbLine
 10
31.0979304944
 20
232.5826524964
 30
0.0
 11
30.38047799
 21
233.7435150339
 31
0.0
  0
LINE
  5
25C
330
1F
100
AcDbEntity
  8
0
  6
Continuous
 62
     7
100
AcDbLine
 10
30.38047799
 20
233.7435150339
 30
0.0
 11
29.8502738004
 21
235.0009821088
 31
0.0
  0
LINE
  5
25D
330
1F
100
AcDbEntity
  8
0
  6
Continuous
 62
     7
100
AcDbLine
 10
29.8502738004
 20
235.0009821088
 30
0.0
 11
29.5199569071
 21
236.3250782824
 31
0.0
  0
LINE
  5
25E
330
1F
100
AcDbEntity
  8
0
  6
Continuous
 62
     7
100
AcDbLine
 10
29.5199569071
 20
236.3250782824
 30
0.0
 11
29.485528716
 21
236.7068927729
 31
0.0
  0
LINE
  5
25F
330
1F
100
AcDbEntity
  8
0
  6
Continuous
 62
     7
100
AcDbLine
 10
29.485528716
 20
236.7068927729
 30
0.0
 11
29.485528716
 21
239.0460670806
 31
0.0
  0
LINE
  5
260
330
1F
100
AcDbEntity
  8
0
  6
Continuous
 62
     7
100
AcDbLine
 10
29.485528716
 20
239.0460670806
 30
0.0
 11
24.485528716
 21
239.0460670806
 31
0.0
  0
LINE
  5
261
330
1F
100
AcDbEntity
  8
0
  6
Continuous
 62
     7
100
AcDbLine
 10
24.485528716
 20
239.0460670806
 30
0.0
 11
24.485528716
 21
249.0460670806
 31
0.0
  0
LINE
  5
262
330
1F
100
AcDbEntity
  8
0
  6
Continuous
 62
     7
100
AcDbLine
 10
24.485528716
 20
249.0460670806
 30
0.0
 11
29.485528716
 21
249.0460670806
 31
0.0
  0
LINE
  5
263
330
1F
100
AcDbEntity
  8
0
  6
Continuous
 62
     7
100
AcDbLine
 10
29.485528716
 20
249.0460670806
 30
0.0
 11
29.485528716
 21
257.0460670806
 31
0.0
  0
LINE
  5
264
330
1F
100
AcDbEntity
  8
0
  6
Continuous
 62
     7
100
AcDbLine
 10
29.485528716
 20
257.0460670806
 30
0.0
 11
27.485528716
 21
257.0460670806
 31
0.0
  0
LINE
  5
265
330
1F
100
AcDbEntity
  8
0
  6
Continuous
 62
     7
100
AcDbLine
 10
27.485528716
 20
257.0460670806
 30
0.0
 11
27.4274950688
 21
257.6929483337
 31
0.0
  0
LINE
  5
266
330
1F
100
AcDbEntity
  8
0
  6
Continuous
 62
     7
100
AcDbLine
 10
27.4274950688
 20
257.6929483337
 30
0.0
 11
27.2882925782
 21
258.3273345933
 31
0.0
  0
LINE
  5
267
330
1F
100
AcDbEntity
  8
0
  6
Continuous
 62
     7
100
AcDbLine
 10
27.2882925782
 20
258.3273345933
 30
0.0
 11
27.0701469441
 21
258.9390826967
 31
0.0
  0
LINE
  5
268
330
1F
100
AcDbEntity
  8
0
  6
Continuous
 62
     7
100
AcDbLine
 10
27.0701469441
 20
258.9390826967
 30
0.0
 11
26.7765460837
 21
259.5184114415
 31
0.0
  0
LINE
  5
269
330
1F
100
AcDbEntity
  8
0
  6
Continuous
 62
     7
100
AcDbLine
 10
26.7765460837
 20
259.5184114415
 30
0.0
 11
26.4121843628
 21
260.056057976
 31
0.0
  0
LINE
  5
26A
330
1F
100
AcDbEntity
  8
0
  6
Continuous
 62
     7
100
AcDbLine
 10
26.4121843628
 20
260.056057976
 30
0.0
 11
25.9828875386
 21
260.5434259033
 31
0.0
  0
LINE
  5
26B
330
1F
100
AcDbEntity
  8
0
  6
Continuous
 62
     7
100
AcDbLine
 10
25.9828875386
 20
260.5434259033
 30
0.0
 11
25.4955196114
 21
260.9727227275
 31
0.0
  0
LINE
  5
26C
330
1F
100
AcDbEntity
  8
0
  6
Continuous
 62
     7
100
AcDbLine
 10
25.4955196114
 20
260.9727227275
 30
0.0
 11
24.9578730768
 21
261.3370844483
 31
0.0
  0
LINE
  5
26D
330
1F
100
AcDbEntity
  8
0
  6
Continuous
 62
     7
100
AcDbLine
 10
24.9578730768
 20
261.3370844483
 30
0.0
 11
24.3785443321
 21
261.6306853088
 31
0.0
  0
LINE
  5
26E
330
1F
100
AcDbEntity
  8
0
  6
Continuous
 62
     7
100
AcDbLine
 10
24.3785443321
 20
261.6306853088
 30
0.0
 11
23.7667962286
 21
261.8488309428
 31
0.0
  0
LINE
  5
26F
330
1F
100
AcDbEntity
  8
0
  6
Continuous
 62
     7
100
AcDbLine
 10
23.7667962286
 20
261.8488309428
 30
0.0
 11
23.132409969
 21
261.9880334334
 31
0.0
  0
LINE
  5
270
330
1F
100
AcDbEntity
  8
0
  6
Continuous
 62
     7
100
AcDbLine
 10
23.132409969
 20
261.9880334334
 30
0.0
 11
22.485528716
 21
262.0460670806
 31
0.0
  0
LINE
  5
271
330
1F
100
AcDbEntity
  8
0
  6
Continuous
 62
     7
100
AcDbLine
 10
22.485528716
 20
262.0460670806
 30
0.0
 11
22.485528716
 21
264.0460670806
 31
0.0
  0
LINE
  5
272
330
1F
100
AcDbEntity
  8
0
  6
Continuous
 62
     7
100
AcDbLine
 10
22.485528716
 20
264.0460670806
 30
0.0
 11
19.485528716
 21
264.0460670806
 31
0.0
  0
LINE
  5
273
330
1F
100
AcDbEntity
  8
0
  6
Continuous
 62
     7
100
AcDbLine
 10
19.485528716
 20
264.0460670806
 30
0.0
 11
19.485528716
 21
154.0460670806
 31
0.0
  0
LINE
  5
274
330
1F
100
AcDbEntity
  8
0
  6
Continuous
 62
     7
100
AcDbLine
 10
19.485528716
 20
154.0460670806
 30
0.0
 11
22.485528716
 21
154.0460670806
 31
0.0
  0
LINE
  5
275
330
1F
100
AcDbEntity
  8
0
  6
Continuous
 62
     7
100
AcDbLine
 10
22.485528716
 20
154.0460670806
 30
0.0
 11
22.485528716
 21
156.0460670806
 31
0.0
  0
LINE
  5
276
330
1F
100
AcDbEntity
  8
0
  6
Continuous
 62
     7
100
AcDbLine
 10
22.485528716
 20
156.0460670806
 30
0.0
 11
23.132409969
 21
156.1041007278
 31
0.0
  0
LINE
  5
277
330
1F
100
AcDbEntity
  8
0
  6
Continuous
 62
     7
100
AcDbLine
 10
23.132409969
 20
156.1041007278
 30
0.0
 11
23.7667962286
 21
156.2433032184
 31
0.0
  0
LINE
  5
278
330
1F
100
AcDbEntity
  8
0
  6
Continuous
 62
     7
100
AcDbLine
 10
23.7667962286
 20
156.2433032184
 30
0.0
 11
24.3785443321
 21
156.4614488525
 31
0.0
  0
LINE
  5
279
330
1F
100
AcDbEntity
  8
0
  6
Continuous
 62
     7
100
AcDbLine
 10
24.3785443321
 20
156.4614488525
 30
0.0
 11
24.9578730768
 21
156.7550497129
 31
0.0
  0
LINE
  5
27A
330
1F
100
AcDbEntity
  8
0
  6
Continuous
 62
     7
100
AcDbLine
 10
24.9578730768
 20
156.7550497129
 30
0.0
 11
25.4955196114
 21
157.1194114338
 31
0.0
  0
LINE
  5
27B
330
1F
100
AcDbEntity
  8
0
  6
Continuous
 62
     7
100
AcDbLine
 10
25.4955196114
 20
157.1194114338
 30
0.0
 11
25.9828875386
 21
157.548708258
 31
0.0
  0
LINE
  5
27C
330
1F
100
AcDbEntity
  8
0
  6
Continuous
 62
     7
100
AcDbLine
 10
25.9828875386
 20
157.548708258
 30
0.0
 11
26.4121843628
 21
158.0360761852
 31
0.0
  0
LINE
  5
27D
330
1F
100
AcDbEntity
  8
0
  6
Continuous
 62
     7
100
AcDbLine
 10
26.4121843628
 20
158.0360761852
 30
0.0
 11
26.7765460837
 21
158.5737227198
 31
0.0
  0
LINE
  5
27E
330
1F
100
AcDbEntity
  8
0
  6
Continuous
 62
     7
100
AcDbLine
 10
26.7765460837
 20
158.5737227198
 30
0.0
 11
27.0701469441
 21
159.1530514645
 31
0.0
  0
LINE
  5
27F
330
1F
100
AcDbEntity
  8
0
  6
Continuous
 62
     7
100
AcDbLine
 10
27.0701469441
 20
159.1530514645
 30
0.0
 11
27.2882925782
 21
159.764799568
 31
0.0
  0
LINE
  5
280
330
1F
100
AcDbEntity
  8
0
  6
Continuous
 62
     7
100
AcDbLine
 10
27.2882925782
 20
159.764799568
 30
0.0
 11
27.4274950688
 21
160.3991858276
 31
0.0
  0
LINE
  5
281
330
1F
100
AcDbEntity
  8
0
  6
Continuous
 62
     7
100
AcDbLine
 10
27.4274950688
 20
160.3991858276
 30
0.0
 11
27.485528716
 21
161.0460670806
 31
0.0
  0
LINE
  5
282
330
1F
100
AcDbEntity
  8
0
  6
Continuous
 62
     7
100
AcDbLine
 10
27.485528716
 20
161.0460670806
 30
0.0
 11
29.485528716
 21
161.0460670806
 31
0.0
  0
LINE
  5
283
330
1F
100
AcDbEntity
  8
0
  6
Continuous
 62
     7
100
AcDbLine
 10
29.485528716
 20
161.0460670806
 30
0.0
 11
29.485528716
 21
169.0460670806
 31
0.0
  0
LINE
  5
284
330
1F
100
AcDbEntity
  8
0
  6
Continuous
 62
     7
100
AcDbLine
 10
29.485528716
 20
169.0460670806
 30
0.0
 11
24.485528716
 21
169.0460670806
 31
0.0
  0
LINE
  5
285
330
1F
100
AcDbEntity
  8
0
  6
Continuous
 62
     7
100
AcDbLine
 10
24.185528716
 20
46.0460670806
 30
0.0
 11
24.185528716
 21
56.0460670806
 31
0.0
  0
LINE
  5
286
330
1F
100
AcDbEntity
  8
0
  6
Continuous
 62
     7
100
AcDbLine
 10
24.185528716
 20
56.0460670806
 30
0.0
 11
29.185528716
 21
56.0460670806
 31
0.0
  0
LINE
  5
287
330
1F
100
AcDbEntity
  8
0
  6
Continuous
 62
     7
100
AcDbLine
 10
29.185528716
 20
56.0460670806
 30
0.0
 11
29.185528716
 21
58.3852413883
 31
0.0
  0
LINE
  5
288
330
1F
100
AcDbEntity
  8
0
  6
Continuous
 62
     7
100
AcDbLine
 10
29.185528716
 20
58.3852413883
 30
0.0
 11
29.2199569071
 21
58.7670558788
 31
0.0
  0
LINE
  5
289
330
1F
100
AcDbEntity
  8
0
  6
Continuous
 62
     7
100
AcDbLine
 10
29.2199569071
 20
58.7670558788
 30
0.0
 11
29.5502738004
 21
60.0911520525
 31
0.0
  0
LINE
  5
28A
330
1F
100
AcDbEntity
  8
0
  6
Continuous
 62
     7
100
AcDbLine
 10
29.5502738004
 20
60.0911520525
 30
0.0
 11
30.08047799
 21
61.3486191274
 31
0.0
  0
LINE
  5
28B
330
1F
100
AcDbEntity
  8
0
  6
Continuous
 62
     7
100
AcDbLine
 10
30.08047799
 20
61.3486191274
 30
0.0
 11
30.7979304944
 21
62.5094816649
 31
0.0
  0
LINE
  5
28C
330
1F
100
AcDbEntity
  8
0
  6
Continuous
 62
     7
100
AcDbLine
 10
30.7979304944
 20
62.5094816649
 30
0.0
 11
31.685528716
 21
63.5460670806
 31
0.0
  0
LINE
  5
28D
330
1F
100
AcDbEntity
  8
0
  6
Continuous
 62
     7
100
AcDbLine
 10
31.685528716
 20
63.5460670806
 30
0.0
 11
32.7221141317
 21
64.4336653022
 31
0.0
  0
LINE
  5
28E
330
1F
100
AcDbEntity
  8
0
  6
Continuous
 62
     7
100
AcDbLine
 10
32.7221141317
 20
64.4336653022
 30
0.0
 11
33.8829766692
 21
65.1511178066
 31
0.0
  0
LINE
  5
28F
330
1F
100
AcDbEntity
  8
0
  6
Continuous
 62
     7
100
AcDbLine
 10
33.8829766692
 20
65.1511178066
 30
0.0
 11
35.1404437441
 21
65.6813219962
 31
0.0
  0
LINE
  5
290
330
1F
100
AcDbEntity
  8
0
  6
Continuous
 62
     7
100
AcDbLine
 10
35.1404437441
 20
65.6813219962
 30
0.0
 11
35.185528716
 21
71.0460670806
 31
0.0
  0
LINE
  5
291
330
1F
100
AcDbEntity
  8
0
  6
Continuous
 62
     7
100
AcDbLine
 10
35.185528716
 20
71.0460670806
 30
0.0
 11
29.185528716
 21
71.0460670806
 31
0.0
  0
LINE
  5
292
330
1F
100
AcDbEntity
  8
0
  6
Continuous
 62
     7
100
AcDbLine
 10
29.185528716
 20
71.0460670806
 30
0.0
 11
29.185528716
 21
101.0460670806
 31
0.0
  0
LINE
  5
293
330
1F
100
AcDbEntity
  8
0
  6
Continuous
 62
     7
100
AcDbLine
 10
29.185528716
 20
101.0460670806
 30
0.0
 11
35.185528716
 21
101.0460670806
 31
0.0
  0
LINE
  5
294
330
1F
100
AcDbEntity
  8
0
  6
Continuous
 62
     7
100
AcDbLine
 10
35.185528716
 20
101.0460670806
 30
0.0
 11
35.185528716
 21
106.3995650002
 31
0.0
  0
LINE
  5
295
330
1F
100
AcDbEntity
  8
0
  6
Continuous
 62
     7
100
AcDbLine
 10
35.185528716
 20
106.3995650002
 30
0.0
 11
35.1404437441
 21
106.410812165
 31
0.0
  0
LINE
  5
296
330
1F
100
AcDbEntity
  8
0
  6
Continuous
 62
     7
100
AcDbLine
 10
35.1404437441
 20
106.410812165
 30
0.0
 11
33.8829766692
 21
106.9410163546
 31
0.0
  0
LINE
  5
297
330
1F
100
AcDbEntity
  8
0
  6
Continuous
 62
     7
100
AcDbLine
 10
33.8829766692
 20
106.9410163546
 30
0.0
 11
32.7221141317
 21
107.658468859
 31
0.0
  0
LINE
  5
298
330
1F
100
AcDbEntity
  8
0
  6
Continuous
 62
     7
100
AcDbLine
 10
32.7221141317
 20
107.658468859
 30
0.0
 11
31.685528716
 21
108.5460670806
 31
0.0
  0
LINE
  5
299
330
1F
100
AcDbEntity
  8
0
  6
Continuous
 62
     7
100
AcDbLine
 10
31.685528716
 20
108.5460670806
 30
0.0
 11
30.7979304944
 21
109.5826524964
 31
0.0
  0
LINE
  5
29A
330
1F
100
AcDbEntity
  8
0
  6
Continuous
 62
     7
100
AcDbLine
 10
30.7979304944
 20
109.5826524964
 30
0.0
 11
30.08047799
 21
110.7435150339
 31
0.0
  0
LINE
  5
29B
330
1F
100
AcDbEntity
  8
0
  6
Continuous
 62
     7
100
AcDbLine
 10
30.08047799
 20
110.7435150339
 30
0.0
 11
29.5502738004
 21
112.0009821088
 31
0.0
  0
LINE
  5
29C
330
1F
100
AcDbEntity
  8
0
  6
Continuous
 62
     7
100
AcDbLine
 10
29.5502738004
 20
112.0009821088
 30
0.0
 11
29.2199569071
 21
113.3250782824
 31
0.0
  0
LINE
  5
29D
330
1F
100
AcDbEntity
  8
0
  6
Continuous
 62
     7
100
AcDbLine
 10
29.2199569071
 20
113.3250782824
 30
0.0
 11
29.185528716
 21
113.7068927729
 31
0.0
  0
LINE
  5
29E
330
1F
100
AcDbEntity
  8
0
  6
Continuous
 62
     7
100
AcDbLine
 10
29.185528716
 20
113.7068927729
 30
0.0
 11
29.185528716
 21
116.0460670806
 31
0.0
  0
LINE
  5
29F
330
1F
100
AcDbEntity
  8
0
  6
Continuous
 62
     7
100
AcDbLine
 10
29.185528716
 20
116.0460670806
 30
0.0
 11
24.185528716
 21
116.0460670806
 31
0.0
  0
LINE
  5
2A0
330
1F
100
AcDbEntity
  8
0
  6
Continuous
 62
     7
100
AcDbLine
 10
24.185528716
 20
116.0460670806
 30
0.0
 11
24.185528716
 21
126.0460670806
 31
0.0
  0
LINE
  5
2A1
330
1F
100
AcDbEntity
  8
0
  6
Continuous
 62
     7
100
AcDbLine
 10
24.185528716
 20
126.0460670806
 30
0.0
 11
29.185528716
 21
126.0460670806
 31
0.0
  0
LINE
  5
2A2
330
1F
100
AcDbEntity
  8
0
  6
Continuous
 62
     7
100
AcDbLine
 10
29.185528716
 20
126.0460670806
 30
0.0
 11
29.185528716
 21
134.0460670806
 31
0.0
  0
LINE
  5
2A3
330
1F
100
AcDbEntity
  8
0
  6
Continuous
 62
     7
100
AcDbLine
 10
29.185528716
 20
134.0460670806
 30
0.0
 11
27.185528716
 21
134.0460670806
 31
0.0
  0
LINE
  5
2A4
330
1F
100
AcDbEntity
  8
0
  6
Continuous
 62
     7
100
AcDbLine
 10
27.185528716
 20
134.0460670806
 30
0.0
 11
27.1274950688
 21
134.6929483337
 31
0.0
  0
LINE
  5
2A5
330
1F
100
AcDbEntity
  8
0
  6
Continuous
 62
     7
100
AcDbLine
 10
27.1274950688
 20
134.6929483337
 30
0.0
 11
26.9882925782
 21
135.3273345933
 31
0.0
  0
LINE
  5
2A6
330
1F
100
AcDbEntity
  8
0
  6
Continuous
 62
     7
100
AcDbLine
 10
26.9882925782
 20
135.3273345933
 30
0.0
 11
26.7701469441
 21
135.9390826967
 31
0.0
  0
LINE
  5
2A7
330
1F
100
AcDbEntity
  8
0
  6
Continuous
 62
     7
100
AcDbLine
 10
26.7701469441
 20
135.9390826967
 30
0.0
 11
26.4765460837
 21
136.5184114415
 31
0.0
  0
LINE
  5
2A8
330
1F
100
AcDbEntity
  8
0
  6
Continuous
 62
     7
100
AcDbLine
 10
26.4765460837
 20
136.5184114415
 30
0.0
 11
26.1121843628
 21
137.056057976
 31
0.0
  0
LINE
  5
2A9
330
1F
100
AcDbEntity
  8
0
  6
Continuous
 62
     7
100
AcDbLine
 10
26.1121843628
 20
137.056057976
 30
0.0
 11
25.6828875386
 21
137.5434259033
 31
0.0
  0
LINE
  5
2AA
330
1F
100
AcDbEntity
  8
0
  6
Continuous
 62
     7
100
AcDbLine
 10
25.6828875386
 20
137.5434259033
 30
0.0
 11
25.1955196114
 21
137.9727227275
 31
0.0
  0
LINE
  5
2AB
330
1F
100
AcDbEntity
  8
0
  6
Continuous
 62
     7
100
AcDbLine
 10
25.1955196114
 20
137.9727227275
 30
0.0
 11
24.6578730768
 21
138.3370844483
 31
0.0
  0
LINE
  5
2AC
330
1F
100
AcDbEntity
  8
0
  6
Continuous
 62
     7
100
AcDbLine
 10
24.6578730768
 20
138.3370844483
 30
0.0
 11
24.0785443321
 21
138.6306853088
 31
0.0
  0
LINE
  5
2AD
330
1F
100
AcDbEntity
  8
0
  6
Continuous
 62
     7
100
AcDbLine
 10
24.0785443321
 20
138.6306853088
 30
0.0
 11
23.4667962286
 21
138.8488309428
 31
0.0
  0
LINE
  5
2AE
330
1F
100
AcDbEntity
  8
0
  6
Continuous
 62
     7
100
AcDbLine
 10
23.4667962286
 20
138.8488309428
 30
0.0
 11
22.832409969
 21
138.9880334334
 31
0.0
  0
LINE
  5
2AF
330
1F
100
AcDbEntity
  8
0
  6
Continuous
 62
     7
100
AcDbLine
 10
22.832409969
 20
138.9880334334
 30
0.0
 11
22.185528716
 21
139.0460670806
 31
0.0
  0
LINE
  5
2B0
330
1F
100
AcDbEntity
  8
0
  6
Continuous
 62
     7
100
AcDbLine
 10
22.185528716
 20
139.0460670806
 30
0.0
 11
22.185528716
 21
141.0460670806
 31
0.0
  0
LINE
  5
2B1
330
1F
100
AcDbEntity
  8
0
  6
Continuous
 62
     7
100
AcDbLine
 10
22.185528716
 20
141.0460670806
 30
0.0
 11
19.185528716
 21
141.0460670806
 31
0.0
  0
LINE
  5
2B2
330
1F
100
AcDbEntity
  8
0
  6
Continuous
 62
     7
100
AcDbLine
 10
19.185528716
 20
141.0460670806
 30
0.0
 11
19.185528716
 21
31.0460670806
 31
0.0
  0
LINE
  5
2B3
330
1F
100
AcDbEntity
  8
0
  6
Continuous
 62
     7
100
AcDbLine
 10
19.185528716
 20
31.0460670806
 30
0.0
 11
22.185528716
 21
31.0460670806
 31
0.0
  0
LINE
  5
2B4
330
1F
100
AcDbEntity
  8
0
  6
Continuous
 62
     7
100
AcDbLine
 10
22.185528716
 20
31.0460670806
 30
0.0
 11
22.185528716
 21
33.0460670806
 31
0.0
  0
LINE
  5
2B5
330
1F
100
AcDbEntity
  8
0
  6
Continuous
 62
     7
100
AcDbLine
 10
22.185528716
 20
33.0460670806
 30
0.0
 11
22.832409969
 21
33.1041007278
 31
0.0
  0
LINE
  5
2B6
330
1F
100
AcDbEntity
  8
0
  6
Continuous
 62
     7
100
AcDbLine
 10
22.832409969
 20
33.1041007278
 30
0.0
 11
23.4667962286
 21
33.2433032184
 31
0.0
  0
LINE
  5
2B7
330
1F
100
AcDbEntity
  8
0
  6
Continuous
 62
     7
100
AcDbLine
 10
23.4667962286
 20
33.2433032184
 30
0.0
 11
24.0785443321
 21
33.4614488525
 31
0.0
  0
LINE
  5
2B8
330
1F
100
AcDbEntity
  8
0
  6
Continuous
 62
     7
100
AcDbLine
 10
24.0785443321
 20
33.4614488525
 30
0.0
 11
24.6578730768
 21
33.7550497129
 31
0.0
  0
LINE
  5
2B9
330
1F
100
AcDbEntity
  8
0
  6
Continuous
 62
     7
100
AcDbLine
 10
24.6578730768
 20
33.7550497129
 30
0.0
 11
25.1955196114
 21
34.1194114338
 31
0.0
  0
LINE
  5
2BA
330
1F
100
AcDbEntity
  8
0
  6
Continuous
 62
     7
100
AcDbLine
 10
25.1955196114
 20
34.1194114338
 30
0.0
 11
25.6828875386
 21
34.548708258
 31
0.0
  0
LINE
  5
2BB
330
1F
100
AcDbEntity
  8
0
  6
Continuous
 62
     7
100
AcDbLine
 10
25.6828875386
 20
34.548708258
 30
0.0
 11
26.1121843628
 21
35.0360761852
 31
0.0
  0
LINE
  5
2BC
330
1F
100
AcDbEntity
  8
0
  6
Continuous
 62
     7
100
AcDbLine
 10
26.1121843628
 20
35.0360761852
 30
0.0
 11
26.4765460837
 21
35.5737227198
 31
0.0
  0
LINE
  5
2BD
330
1F
100
AcDbEntity
  8
0
  6
Continuous
 62
     7
100
AcDbLine
 10
26.4765460837
 20
35.5737227198
 30
0.0
 11
26.7701469441
 21
36.1530514645
 31
0.0
  0
LINE
  5
2BE
330
1F
100
AcDbEntity
  8
0
  6
Continuous
 62
     7
100
AcDbLine
 10
26.7701469441
 20
36.1530514645
 30
0.0
 11
26.9882925782
 21
36.764799568
 31
0.0
  0
LINE
  5
2BF
330
1F
100
AcDbEntity
  8
0
  6
Continuous
 62
     7
100
AcDbLine
 10
26.9882925782
 20
36.764799568
 30
0.0
 11
27.1274950688
 21
37.3991858276
 31
0.0
  0
LINE
  5
2C0
330
1F
100
AcDbEntity
  8
0
  6
Continuous
 62
     7
100
AcDbLine
 10
27.1274950688
 20
37.3991858276
 30
0.0
 11
27.185528716
 21
38.0460670806
 31
0.0
  0
LINE
  5
2C1
330
1F
100
AcDbEntity
  8
0
  6
Continuous
 62
     7
100
AcDbLine
 10
27.185528716
 20
38.0460670806
 30
0.0
 11
29.185528716
 21
38.0460670806
 31
0.0
  0
LINE
  5
2C2
330
1F
100
AcDbEntity
  8
0
  6
Continuous
 62
     7
100
AcDbLine
 10
29.185528716
 20
38.0460670806
 30
0.0
 11
29.185528716
 21
46.0460670806
 31
0.0
  0
LINE
  5
2C3
330
1F
100
AcDbEntity
  8
0
  6
Continuous
 62
     7
100
AcDbLine
 10
29.185528716
 20
46.0460670806
 30
0.0
 11
24.185528716
 21
46.0460670806
 31
0.0
  0
LINE
  5
2C4
330
1F
100
AcDbEntity
  8
0
  6
Continuous
 62
     7
100
AcDbLine
 10
432.9578341028
 20
291.9661577362
 30
0.0
 11
432.9578341028
 21
265.7396001481
 31
0.0
  0
LINE
  5
2C5
330
1F
100
AcDbEntity
  8
0
  6
Continuous
 62
     7
100
AcDbLine
 10
432.9578341028
 20
265.7396001481
 30
0.0
 11
372.9578341028
 21
265.7396001481
 31
0.0
  0
LINE
  5
2C6
330
1F
100
AcDbEntity
  8
0
  6
Continuous
 62
     7
100
AcDbLine
 10
372.9578341028
 20
265.7396001481
 30
0.0
 11
372.9578341028
 21
291.9661577362
 31
0.0
  0
LINE
  5
2C7
330
1F
100
AcDbEntity
  8
0
  6
Continuous
 62
     7
100
AcDbLine
 10
372.9578341028
 20
291.9661577362
 30
0.0
 11
367.9578341028
 21
291.9661577362
 31
0.0
  0
LINE
  5
2C8
330
1F
100
AcDbEntity
  8
0
  6
Continuous
 62
     7
100
AcDbLine
 10
367.9578341028
 20
291.9661577362
 30
0.0
 11
367.9578341028
 21
259.8817357718
 31
0.0
  0
LINE
  5
2C9
330
1F
100
AcDbEntity
  8
0
  6
Continuous
 62
     7
100
AcDbLine
 10
367.9578341028
 20
259.8817357718
 30
0.0
 11
372.9578341028
 21
257.81066796
 31
0.0
  0
LINE
  5
2CA
330
1F
100
AcDbEntity
  8
0
  6
Continuous
 62
     7
100
AcDbLine
 10
372.9578341028
 20
257.81066796
 30
0.0
 11
372.9578341028
 21
259.8817357718
 31
0.0
  0
LINE
  5
2CB
330
1F
100
AcDbEntity
  8
0
  6
Continuous
 62
     7
100
AcDbLine
 10
372.9578341028
 20
259.8817357718
 30
0.0
 11
372.9578341028
 21
260.7396001481
 31
0.0
  0
LINE
  5
2CC
330
1F
100
AcDbEntity
  8
0
  6
Continuous
 62
     7
100
AcDbLine
 10
372.9578341028
 20
260.7396001481
 30
0.0
 11
432.9578341028
 21
260.7396001481
 31
0.0
  0
LINE
  5
2CD
330
1F
100
AcDbEntity
  8
0
  6
Continuous
 62
     7
100
AcDbLine
 10
432.9578341028
 20
260.7396001481
 30
0.0
 11
432.9578341028
 21
259.8817357718
 31
0.0
  0
LINE
  5
2CE
330
1F
100
AcDbEntity
  8
0
  6
Continuous
 62
     7
100
AcDbLine
 10
432.9578341028
 20
259.8817357718
 30
0.0
 11
432.9578341028
 21
257.81066796
 31
0.0
  0
LINE
  5
2CF
330
1F
100
AcDbEntity
  8
0
  6
Continuous
 62
     7
100
AcDbLine
 10
432.9578341028
 20
257.81066796
 30
0.0
 11
437.9578341028
 21
259.8817357718
 31
0.0
  0
LINE
  5
2D0
330
1F
100
AcDbEntity
  8
0
  6
Continuous
 62
     7
100
AcDbLine
 10
437.9578341028
 20
259.8817357718
 30
0.0
 11
437.9578341028
 21
291.9661577362
 31
0.0
  0
LINE
  5
2D1
330
1F
100
AcDbEntity
  8
0
  6
Continuous
 62
     7
100
AcDbLine
 10
437.9578341028
 20
291.9661577362
 30
0.0
 11
432.9578341028
 21
291.9661577362
 31
0.0
  0
LINE
  5
2D2
330
1F
100
AcDbEntity
  8
0
  6
Continuous
 62
     7
100
AcDbLine
 10
432.9578341028
 20
260.7396001481
 30
0.0
 11
372.9578341028
 21
260.7396001481
 31
0.0
  0
LINE
  5
2D3
330
1F
100
AcDbEntity
  8
0
  6
Continuous
 62
     7
100
AcDbLine
 10
372.9578341028
 20
260.7396001481
 30
0.0
 11
372.9578341028
 21
259.8817357718
 31
0.0
  0
LINE
  5
2D4
330
1F
100
AcDbEntity
  8
0
  6
Continuous
 62
     7
100
AcDbLine
 10
372.9578341028
 20
259.8817357718
 30
0.0
 11
372.9578341028
 21
257.81066796
 31
0.0
  0
LINE
  5
2D5
330
1F
100
AcDbEntity
  8
0
  6
Continuous
 62
     7
100
AcDbLine
 10
372.9578341028
 20
257.81066796
 30
0.0
 11
379.6641200436
 21
255.0328333702
 31
0.0
  0
LINE
  5
2D6
330
1F
100
AcDbEntity
  8
0
  6
Continuous
 62
     7
100
AcDbLine
 10
379.6641200436
 20
255.0328333702
 30
0.0
 11
402.9578341028
 21
251.9661577362
 31
0.0
  0
LINE
  5
2D7
330
1F
100
AcDbEntity
  8
0
  6
Continuous
 62
     7
100
AcDbLine
 10
402.9578341028
 20
251.9661577362
 30
0.0
 11
426.251548162
 21
255.0328333701
 31
0.0
  0
LINE
  5
2D8
330
1F
100
AcDbEntity
  8
0
  6
Continuous
 62
     7
100
AcDbLine
 10
426.251548162
 20
255.0328333701
 30
0.0
 11
432.9578341028
 21
257.81066796
 31
0.0
  0
LINE
  5
2D9
330
1F
100
AcDbEntity
  8
0
  6
Continuous
 62
     7
100
AcDbLine
 10
432.9578341028
 20
257.81066796
 30
0.0
 11
432.9578341028
 21
259.8817357718
 31
0.0
  0
LINE
  5
2DA
330
1F
100
AcDbEntity
  8
0
  6
Continuous
 62
     7
100
AcDbLine
 10
432.9578341028
 20
259.8817357718
 30
0.0
 11
432.9578341028
 21
260.7396001481
 31
0.0
  0
LINE
  5
2DB
330
1F
100
AcDbEntity
  8
0
  6
Continuous
 62
     7
100
AcDbLine
 10
397.863578478
 20
291.9661577362
 30
0.0
 11
385.7710750658
 21
291.9661577362
 31
0.0
  0
LINE
  5
2DC
330
1F
100
AcDbEntity
  8
0
  6
Continuous
 62
     7
100
AcDbLine
 10
385.7710750658
 20
291.9661577362
 30
0.0
 11
397.863578478
 21
306.4636175718
 31
0.0
  0
LINE
  5
2DD
330
1F
100
AcDbEntity
  8
0
  6
Continuous
 62
     7
100
AcDbLine
 10
397.863578478
 20
306.4636175718
 30
0.0
 11
397.863578478
 21
291.9661577362
 31
0.0
  0
LINE
  5
2DE
330
1F
100
AcDbEntity
  8
0
  6
Continuous
 62
     7
100
AcDbLine
 10
408.0706693212
 20
306.458455863
 30
0.0
 11
420.1475844269
 21
291.9661577362
 31
0.0
  0
LINE
  5
2DF
330
1F
100
AcDbEntity
  8
0
  6
Continuous
 62
     7
100
AcDbLine
 10
420.1475844269
 20
291.9661577362
 30
0.0
 11
408.0706693212
 21
291.9661577362
 31
0.0
  0
LINE
  5
2E0
330
1F
100
AcDbEntity
  8
0
  6
Continuous
 62
     7
100
AcDbLine
 10
408.0706693212
 20
291.9661577362
 30
0.0
 11
408.0706693212
 21
306.458455863
 31
0.0
  0
LINE
  5
2E1
330
1F
100
AcDbEntity
  8
0
  6
Continuous
 62
     7
100
AcDbLine
 10
316.1219717685
 20
116.0466595053
 30
0.0
 11
252.6394828375
 21
227.0
 31
0.0
  0
LINE
  5
2E2
330
1F
100
AcDbEntity
  8
0
  6
Continuous
 62
     7
100
AcDbLine
 10
252.6394828375
 20
227.0
 30
0.0
 11
284.0
 21
227.0
 31
0.0
  0
LINE
  5
2E3
330
1F
100
AcDbEntity
  8
0
  6
Continuous
 62
     7
100
AcDbLine
 10
284.0
 20
227.0
 30
0.0
 11
284.0
 21
232.0
 31
0.0
  0
LINE
  5
2E4
330
1F
100
AcDbEntity
  8
0
  6
Continuous
 62
     7
100
AcDbLine
 10
284.0
 20
232.0
 30
0.0
 11
298.1930395803
 21
232.0
 31
0.0
  0
LINE
  5
2E5
330
1F
100
AcDbEntity
  8
0
  6
Continuous
 62
     7
100
AcDbLine
 10
298.1930395803
 20
232.0
 30
0.0
 11
298.1930395803
 21
227.0
 31
0.0
  0
LINE
  5
2E6
330
1F
100
AcDbEntity
  8
0
  6
Continuous
 62
     7
100
AcDbLine
 10
298.1930395803
 20
227.0
 30
0.0
 11
316.1219717685
 21
227.0
 31
0.0
  0
LINE
  5
2E7
330
1F
100
AcDbEntity
  8
0
  6
Continuous
 62
     7
100
AcDbLine
 10
316.1219717685
 20
227.0
 30
0.0
 11
316.1219717685
 21
116.0466595053
 31
0.0
  0
LINE
  5
2E8
330
1F
100
AcDbEntity
  8
0
  6
Continuous
 62
     7
100
AcDbLine
 10
326.1219717685
 20
227.0
 30
0.0
 11
389.152842133
 21
227.0
 31
0.0
  0
LINE
  5
2E9
330
1F
100
AcDbEntity
  8
0
  6
Continuous
 62
     7
100
AcDbLine
 10
389.152842133
 20
227.0
 30
0.0
 11
326.1219717685
 21
116.0466595053
 31
0.0
  0
LINE
  5
2EA
330
1F
100
AcDbEntity
  8
0
  6
Continuous
 62
     7
100
AcDbLine
 10
326.1219717685
 20
116.0466595053
 30
0.0
 11
326.1219717685
 21
227.0
 31
0.0
  0
LINE
  5
2EB
330
1F
100
AcDbEntity
  8
0
  6
Continuous
 62
     7
100
AcDbLine
 10
258.7105254626
 20
136.2361420676
 30
0.0
 11
321.7413958272
 21
25.282801573
 31
0.0
  0
LINE
  5
2EC
330
1F
100
AcDbEntity
  8
0
  6
Continuous
 62
     7
100
AcDbLine
 10
321.7413958272
 20
25.282801573
 30
0.0
 11
258.7105254626
 21
25.282801573
 31
0.0
  0
LINE
  5
2ED
330
1F
100
AcDbEntity
  8
0
  6
Continuous
 62
     7
100
AcDbLine
 10
258.7105254626
 20
25.282801573
 30
0.0
 11
258.7105254626
 21
136.2361420676
 31
0.0
  0
LINE
  5
2EE
330
1F
100
AcDbEntity
  8
0
  6
Continuous
 62
     7
100
AcDbLine
 10
248.7105254626
 20
136.2361420676
 30
0.0
 11
248.7105254626
 21
25.282801573
 31
0.0
  0
LINE
  5
2EF
330
1F
100
AcDbEntity
  8
0
  6
Continuous
 62
     7
100
AcDbLine
 10
248.7105254626
 20
25.282801573
 30
0.0
 11
230.7815932745
 21
25.282801573
 31
0.0
  0
LINE
  5
2F0
330
1F
100
AcDbEntity
  8
0
  6
Continuous
 62
     7
100
AcDbLine
 10
230.7815932745
 20
25.282801573
 30
0.0
 11
230.7815932745
 21
20.282801573
 31
0.0
  0
LINE
  5
2F1
330
1F
100
AcDbEntity
  8
0
  6
Continuous
 62
     7
100
AcDbLine
 10
230.7815932745
 20
20.282801573
 30
0.0
 11
216.6394576508
 21
20.282801573
 31
0.0
  0
LINE
  5
2F2
330
1F
100
AcDbEntity
  8
0
  6
Continuous
 62
     7
100
AcDbLine
 10
216.6394576508
 20
20.282801573
 30
0.0
 11
216.6394576508
 21
25.282801573
 31
0.0
  0
LINE
  5
2F3
330
1F
100
AcDbEntity
  8
0
  6
Continuous
 62
     7
100
AcDbLine
 10
216.6394576508
 20
25.282801573
 30
0.0
 11
185.2280365316
 21
25.282801573
 31
0.0
  0
LINE
  5
2F4
330
1F
100
AcDbEntity
  8
0
  6
Continuous
 62
     7
100
AcDbLine
 10
185.2280365316
 20
25.282801573
 30
0.0
 11
248.7105254626
 21
136.2361420676
 31
0.0
  0
LINE
  5
2F5
330
1F
100
AcDbEntity
  8
0
  6
Continuous
 62
     7
100
AcDbLine
 10
78.3577725792
 20
202.7400843144
 30
0.0
 11
73.3577725793
 21
202.7400843144
 31
0.0
  0
LINE
  5
2F6
330
1F
100
AcDbEntity
  8
0
  6
Continuous
 62
     7
100
AcDbLine
 10
73.3577725793
 20
202.7400843144
 30
0.0
 11
73.3577725793
 21
262.7400843144
 31
0.0
  0
LINE
  5
2F7
330
1F
100
AcDbEntity
  8
0
  6
Continuous
 62
     7
100
AcDbLine
 10
73.3577725793
 20
262.7400843144
 30
0.0
 11
78.3577725792
 21
262.7182258936
 31
0.0
  0
LINE
  5
2F8
330
1F
100
AcDbEntity
  8
0
  6
Continuous
 62
     7
100
AcDbLine
 10
78.3577725792
 20
262.7182258936
 30
0.0
 11
78.3577725792
 21
202.7400843144
 31
0.0
  0
LINE
  5
2F9
330
1F
100
AcDbEntity
  8
0
  6
Continuous
 62
     7
100
AcDbLine
 10
276.8137177469
 20
35.4543573378
 30
0.0
 11
276.2701977521
 21
35.382801573
 31
0.0
  0
LINE
  5
2FA
330
1F
100
AcDbEntity
  8
0
  6
Continuous
 62
     7
100
AcDbLine
 10
276.2701977521
 20
35.382801573
 30
0.0
 11
275.7266777574
 21
35.4543573378
 31
0.0
  0
LINE
  5
2FB
330
1F
100
AcDbEntity
  8
0
  6
Continuous
 62
     7
100
AcDbLine
 10
275.7266777574
 20
35.4543573378
 30
0.0
 11
275.2201977521
 21
35.664148225
 31
0.0
  0
LINE
  5
2FC
330
1F
100
AcDbEntity
  8
0
  6
Continuous
 62
     7
100
AcDbLine
 10
275.2201977521
 20
35.664148225
 30
0.0
 11
274.7852735116
 21
35.9978773325
 31
0.0
  0
LINE
  5
2FD
330
1F
100
AcDbEntity
  8
0
  6
Continuous
 62
     7
100
AcDbLine
 10
274.7852735116
 20
35.9978773325
 30
0.0
 11
274.4515444042
 21
36.432801573
 31
0.0
  0
LINE
  5
2FE
330
1F
100
AcDbEntity
  8
0
  6
Continuous
 62
     7
100
AcDbLine
 10
274.4515444042
 20
36.432801573
 30
0.0
 11
274.2417535169
 21
36.9392815782
 31
0.0
  0
LINE
  5
2FF
330
1F
100
AcDbEntity
  8
0
  6
Continuous
 62
     7
100
AcDbLine
 10
274.2417535169
 20
36.9392815782
 30
0.0
 11
274.1701977521
 21
37.482801573
 31
0.0
  0
LINE
  5
300
330
1F
100
AcDbEntity
  8
0
  6
Continuous
 62
     7
100
AcDbLine
 10
274.1701977521
 20
37.482801573
 30
0.0
 11
274.2417535169
 21
38.0263215677
 31
0.0
  0
LINE
  5
301
330
1F
100
AcDbEntity
  8
0
  6
Continuous
 62
     7
100
AcDbLine
 10
274.2417535169
 20
38.0263215677
 30
0.0
 11
274.4515444042
 21
38.532801573
 31
0.0
  0
LINE
  5
302
330
1F
100
AcDbEntity
  8
0
  6
Continuous
 62
     7
100
AcDbLine
 10
274.4515444042
 20
38.532801573
 30
0.0
 11
274.7852735116
 21
38.9677258135
 31
0.0
  0
LINE
  5
303
330
1F
100
AcDbEntity
  8
0
  6
Continuous
 62
     7
100
AcDbLine
 10
274.7852735116
 20
38.9677258135
 30
0.0
 11
275.2201977521
 21
39.3014549209
 31
0.0
  0
LINE
  5
304
330
1F
100
AcDbEntity
  8
0
  6
Continuous
 62
     7
100
AcDbLine
 10
275.2201977521
 20
39.3014549209
 30
0.0
 11
275.7266777574
 21
39.5112458082
 31
0.0
  0
LINE
  5
305
330
1F
100
AcDbEntity
  8
0
  6
Continuous
 62
     7
100
AcDbLine
 10
275.7266777574
 20
39.5112458082
 30
0.0
 11
276.2701977521
 21
39.582801573
 31
0.0
  0
LINE
  5
306
330
1F
100
AcDbEntity
  8
0
  6
Continuous
 62
     7
100
AcDbLine
 10
276.2701977521
 20
39.582801573
 30
0.0
 11
276.8137177469
 21
39.5112458082
 31
0.0
  0
LINE
  5
307
330
1F
100
AcDbEntity
  8
0
  6
Continuous
 62
     7
100
AcDbLine
 10
276.8137177469
 20
39.5112458082
 30
0.0
 11
277.3201977521
 21
39.3014549209
 31
0.0
  0
LINE
  5
308
330
1F
100
AcDbEntity
  8
0
  6
Continuous
 62
     7
100
AcDbLine
 10
277.3201977521
 20
39.3014549209
 30
0.0
 11
277.7551219926
 21
38.9677258135
 31
0.0
  0
LINE
  5
309
330
1F
100
AcDbEntity
  8
0
  6
Continuous
 62
     7
100
AcDbLine
 10
277.7551219926
 20
38.9677258135
 30
0.0
 11
278.0888511001
 21
38.532801573
 31
0.0
  0
LINE
  5
30A
330
1F
100
AcDbEntity
  8
0
  6
Continuous
 62
     7
100
AcDbLine
 10
278.0888511001
 20
38.532801573
 30
0.0
 11
278.2986419874
 21
38.0263215677
 31
0.0
  0
LINE
  5
30B
330
1F
100
AcDbEntity
  8
0
  6
Continuous
 62
     7
100
AcDbLine
 10
278.2986419874
 20
38.0263215677
 30
0.0
 11
278.3701977521
 21
37.482801573
 31
0.0
  0
LINE
  5
30C
330
1F
100
AcDbEntity
  8
0
  6
Continuous
 62
     7
100
AcDbLine
 10
278.3701977521
 20
37.482801573
 30
0.0
 11
278.2986419874
 21
36.9392815782
 31
0.0
  0
LINE
  5
30D
330
1F
100
AcDbEntity
  8
0
  6
Continuous
 62
     7
100
AcDbLine
 10
278.2986419874
 20
36.9392815782
 30
0.0
 11
278.0888511001
 21
36.432801573
 31
0.0
  0
LINE
  5
30E
330
1F
100
AcDbEntity
  8
0
  6
Continuous
 62
     7
100
AcDbLine
 10
278.0888511001
 20
36.432801573
 30
0.0
 11
277.7551219926
 21
35.9978773325
 31
0.0
  0
LINE
  5
30F
330
1F
100
AcDbEntity
  8
0
  6
Continuous
 62
     7
100
AcDbLine
 10
277.7551219926
 20
35.9978773325
 30
0.0
 11
277.3201977521
 21
35.664148225
 31
0.0
  0
LINE
  5
310
330
1F
100
AcDbEntity
  8
0
  6
Continuous
 62
     7
100
AcDbLine
 10
277.3201977521
 20
35.664148225
 30
0.0
 11
276.8137177469
 21
35.4543573378
 31
0.0
  0
LINE
  5
311
330
1F
100
AcDbEntity
  8
0
  6
Continuous
 62
     7
100
AcDbLine
 10
275.4526553596
 20
42.3751700751
 30
0.0
 11
271.2701977521
 21
47.482801573
 31
0.0
  0
LINE
  5
312
330
1F
100
AcDbEntity
  8
0
  6
Continuous
 62
     7
100
AcDbLine
 10
271.2701977521
 20
47.482801573
 30
0.0
 11
271.2701977521
 21
59.482801573
 31
0.0
  0
LINE
  5
313
330
1F
100
AcDbEntity
  8
0
  6
Continuous
 62
     7
100
AcDbLine
 10
271.2701977521
 20
59.482801573
 30
0.0
 11
281.2701977521
 21
59.482801573
 31
0.0
  0
LINE
  5
314
330
1F
100
AcDbEntity
  8
0
  6
Continuous
 62
     7
100
AcDbLine
 10
281.2701977521
 20
59.482801573
 30
0.0
 11
281.6223309593
 21
59.1876486249
 31
0.0
  0
LINE
  5
315
330
1F
100
AcDbEntity
  8
0
  6
Continuous
 62
     7
100
AcDbLine
 10
281.6223309593
 20
59.1876486249
 30
0.0
 11
282.0089711042
 21
58.9394099156
 31
0.0
  0
LINE
  5
316
330
1F
100
AcDbEntity
  8
0
  6
Continuous
 62
     7
100
AcDbLine
 10
282.0089711042
 20
58.9394099156
 30
0.0
 11
282.4239065504
 21
58.7420735685
 31
0.0
  0
LINE
  5
317
330
1F
100
AcDbEntity
  8
0
  6
Continuous
 62
     7
100
AcDbLine
 10
282.4239065504
 20
58.7420735685
 30
0.0
 11
282.8604710783
 21
58.5988099259
 31
0.0
  0
LINE
  5
318
330
1F
100
AcDbEntity
  8
0
  6
Continuous
 62
     7
100
AcDbLine
 10
282.8604710783
 20
58.5988099259
 30
0.0
 11
283.3116509827
 21
58.5119206155
 31
0.0
  0
LINE
  5
319
330
1F
100
AcDbEntity
  8
0
  6
Continuous
 62
     7
100
AcDbLine
 10
283.3116509827
 20
58.5119206155
 30
0.0
 11
283.7701977521
 21
58.482801573
 31
0.0
  0
LINE
  5
31A
330
1F
100
AcDbEntity
  8
0
  6
Continuous
 62
     7
100
AcDbLine
 10
283.7701977521
 20
58.482801573
 30
0.0
 11
284.2287445216
 21
58.5119206155
 31
0.0
  0
LINE
  5
31B
330
1F
100
AcDbEntity
  8
0
  6
Continuous
 62
     7
100
AcDbLine
 10
284.2287445216
 20
58.5119206155
 30
0.0
 11
284.6799244259
 21
58.5988099259
 31
0.0
  0
LINE
  5
31C
330
1F
100
AcDbEntity
  8
0
  6
Continuous
 62
     7
100
AcDbLine
 10
284.6799244259
 20
58.5988099259
 30
0.0
 11
285.1164889539
 21
58.7420735685
 31
0.0
  0
LINE
  5
31D
330
1F
100
AcDbEntity
  8
0
  6
Continuous
 62
     7
100
AcDbLine
 10
285.1164889539
 20
58.7420735685
 30
0.0
 11
285.5314244001
 21
58.9394099156
 31
0.0
  0
LINE
  5
31E
330
1F
100
AcDbEntity
  8
0
  6
Continuous
 62
     7
100
AcDbLine
 10
285.5314244001
 20
58.9394099156
 30
0.0
 11
285.918064545
 21
59.1876486249
 31
0.0
  0
LINE
  5
31F
330
1F
100
AcDbEntity
  8
0
  6
Continuous
 62
     7
100
AcDbLine
 10
285.918064545
 20
59.1876486249
 30
0.0
 11
286.2701977521
 21
59.482801573
 31
0.0
  0
LINE
  5
320
330
1F
100
AcDbEntity
  8
0
  6
Continuous
 62
     7
100
AcDbLine
 10
286.2701977521
 20
59.482801573
 30
0.0
 11
286.0998268836
 21
60.7768967985
 31
0.0
  0
LINE
  5
321
330
1F
100
AcDbEntity
  8
0
  6
Continuous
 62
     7
100
AcDbLine
 10
286.0998268836
 20
60.7768967985
 30
0.0
 11
285.6003247711
 21
61.982801573
 31
0.0
  0
LINE
  5
322
330
1F
100
AcDbEntity
  8
0
  6
Continuous
 62
     7
100
AcDbLine
 10
285.6003247711
 20
61.982801573
 30
0.0
 11
284.8057316581
 21
63.0183354789
 31
0.0
  0
LINE
  5
323
330
1F
100
AcDbEntity
  8
0
  6
Continuous
 62
     7
100
AcDbLine
 10
284.8057316581
 20
63.0183354789
 30
0.0
 11
283.7701977521
 21
63.8129285919
 31
0.0
  0
LINE
  5
324
330
1F
100
AcDbEntity
  8
0
  6
Continuous
 62
     7
100
AcDbLine
 10
283.7701977521
 20
63.8129285919
 30
0.0
 11
282.5642929777
 21
64.3124307044
 31
0.0
  0
LINE
  5
325
330
1F
100
AcDbEntity
  8
0
  6
Continuous
 62
     7
100
AcDbLine
 10
282.5642929777
 20
64.3124307044
 30
0.0
 11
281.2701977521
 21
64.482801573
 31
0.0
  0
LINE
  5
326
330
1F
100
AcDbEntity
  8
0
  6
Continuous
 62
     7
100
AcDbLine
 10
281.2701977521
 20
64.482801573
 30
0.0
 11
278.7701977521
 21
64.482801573
 31
0.0
  0
LINE
  5
327
330
1F
100
AcDbEntity
  8
0
  6
Continuous
 62
     7
100
AcDbLine
 10
278.7701977521
 20
64.482801573
 30
0.0
 11
278.7701977521
 21
74.482801573
 31
0.0
  0
LINE
  5
328
330
1F
100
AcDbEntity
  8
0
  6
Continuous
 62
     7
100
AcDbLine
 10
278.7701977521
 20
74.482801573
 30
0.0
 11
280.5348194472
 21
76.0023908974
 31
0.0
  0
LINE
  5
329
330
1F
100
AcDbEntity
  8
0
  6
Continuous
 62
     7
100
AcDbLine
 10
280.5348194472
 20
76.0023908974
 30
0.0
 11
281.4799853128
 21
78.1307007733
 31
0.0
  0
LINE
  5
32A
330
1F
100
AcDbEntity
  8
0
  6
Continuous
 62
     7
100
AcDbLine
 10
281.4799853128
 20
78.1307007733
 30
0.0
 11
281.4240797842
 21
80.458772081
 31
0.0
  0
LINE
  5
32B
330
1F
100
AcDbEntity
  8
0
  6
Continuous
 62
     7
100
AcDbLine
 10
281.4240797842
 20
80.458772081
 30
0.0
 11
280.3778452235
 21
82.5392611306
 31
0.0
  0
LINE
  5
32C
330
1F
100
AcDbEntity
  8
0
  6
Continuous
 62
     7
100
AcDbLine
 10
280.3778452235
 20
82.5392611306
 30
0.0
 11
278.5423177534
 21
83.9723976726
 31
0.0
  0
LINE
  5
32D
330
1F
100
AcDbEntity
  8
0
  6
Continuous
 62
     7
100
AcDbLine
 10
278.5423177534
 20
83.9723976726
 30
0.0
 11
276.2701977521
 21
84.482801573
 31
0.0
  0
LINE
  5
32E
330
1F
100
AcDbEntity
  8
0
  6
Continuous
 62
     7
100
AcDbLine
 10
276.2701977521
 20
84.482801573
 30
0.0
 11
273.9980777509
 21
83.9723976726
 31
0.0
  0
LINE
  5
32F
330
1F
100
AcDbEntity
  8
0
  6
Continuous
 62
     7
100
AcDbLine
 10
273.9980777509
 20
83.9723976726
 30
0.0
 11
272.1625502808
 21
82.5392611306
 31
0.0
  0
LINE
  5
330
330
1F
100
AcDbEntity
  8
0
  6
Continuous
 62
     7
100
AcDbLine
 10
272.1625502808
 20
82.5392611306
 30
0.0
 11
271.1163157201
 21
80.458772081
 31
0.0
  0
LINE
  5
331
330
1F
100
AcDbEntity
  8
0
  6
Continuous
 62
     7
100
AcDbLine
 10
271.1163157201
 20
80.458772081
 30
0.0
 11
271.0604101915
 21
78.1307007733
 31
0.0
  0
LINE
  5
332
330
1F
100
AcDbEntity
  8
0
  6
Continuous
 62
     7
100
AcDbLine
 10
271.0604101915
 20
78.1307007733
 30
0.0
 11
272.0055760571
 21
76.0023908974
 31
0.0
  0
LINE
  5
333
330
1F
100
AcDbEntity
  8
0
  6
Continuous
 62
     7
100
AcDbLine
 10
272.0055760571
 20
76.0023908974
 30
0.0
 11
273.7701977521
 21
74.482801573
 31
0.0
  0
LINE
  5
334
330
1F
100
AcDbEntity
  8
0
  6
Continuous
 62
     7
100
AcDbLine
 10
273.7701977521
 20
74.482801573
 30
0.0
 11
273.7701977521
 21
64.482801573
 31
0.0
  0
LINE
  5
335
330
1F
100
AcDbEntity
  8
0
  6
Continuous
 62
     7
100
AcDbLine
 10
273.7701977521
 20
64.482801573
 30
0.0
 11
271.2701977521
 21
64.482801573
 31
0.0
  0
LINE
  5
336
330
1F
100
AcDbEntity
  8
0
  6
Continuous
 62
     7
100
AcDbLine
 10
271.2701977521
 20
64.482801573
 30
0.0
 11
269.9761025266
 21
64.3124307044
 31
0.0
  0
LINE
  5
337
330
1F
100
AcDbEntity
  8
0
  6
Continuous
 62
     7
100
AcDbLine
 10
269.9761025266
 20
64.3124307044
 30
0.0
 11
268.7701977521
 21
63.8129285919
 31
0.0
  0
LINE
  5
338
330
1F
100
AcDbEntity
  8
0
  6
Continuous
 62
     7
100
AcDbLine
 10
268.7701977521
 20
63.8129285919
 30
0.0
 11
267.7346638462
 21
63.0183354789
 31
0.0
  0
LINE
  5
339
330
1F
100
AcDbEntity
  8
0
  6
Continuous
 62
     7
100
AcDbLine
 10
267.7346638462
 20
63.0183354789
 30
0.0
 11
266.9400707332
 21
61.982801573
 31
0.0
  0
LINE
  5
33A
330
1F
100
AcDbEntity
  8
0
  6
Continuous
 62
     7
100
AcDbLine
 10
266.9400707332
 20
61.982801573
 30
0.0
 11
266.4405686207
 21
60.7768967985
 31
0.0
  0
LINE
  5
33B
330
1F
100
AcDbEntity
  8
0
  6
Continuous
 62
     7
100
AcDbLine
 10
266.4405686207
 20
60.7768967985
 30
0.0
 11
266.2701977521
 21
59.482801573
 31
0.0
  0
LINE
  5
33C
330
1F
100
AcDbEntity
  8
0
  6
Continuous
 62
     7
100
AcDbLine
 10
266.2701977521
 20
59.482801573
 30
0.0
 11
266.2701977521
 21
47.482801573
 31
0.0
  0
LINE
  5
33D
330
1F
100
AcDbEntity
  8
0
  6
Continuous
 62
     7
100
AcDbLine
 10
266.2701977521
 20
47.482801573
 30
0.0
 11
266.4405686207
 21
46.1887063474
 31
0.0
  0
LINE
  5
33E
330
1F
100
AcDbEntity
  8
0
  6
Continuous
 62
     7
100
AcDbLine
 10
266.4405686207
 20
46.1887063474
 30
0.0
 11
266.9400707332
 21
44.982801573
 31
0.0
  0
LINE
  5
33F
330
1F
100
AcDbEntity
  8
0
  6
Continuous
 62
     7
100
AcDbLine
 10
266.9400707332
 20
44.982801573
 30
0.0
 11
267.4387331276
 21
44.3329320881
 31
0.0
  0
LINE
  5
340
330
1F
100
AcDbEntity
  8
0
  6
Continuous
 62
     7
100
AcDbLine
 10
267.4387331276
 20
44.3329320881
 30
0.0
 11
267.7346638462
 21
43.947267667
 31
0.0
  0
LINE
  5
341
330
1F
100
AcDbEntity
  8
0
  6
Continuous
 62
     7
100
AcDbLine
 10
267.7346638462
 20
43.947267667
 30
0.0
 11
271.6230594013
 21
39.217468516
 31
0.0
  0
LINE
  5
342
330
1F
100
AcDbEntity
  8
0
  6
Continuous
 62
     7
100
AcDbLine
 10
271.6230594013
 20
39.217468516
 30
0.0
 11
271.4405686207
 21
38.7768967985
 31
0.0
  0
LINE
  5
343
330
1F
100
AcDbEntity
  8
0
  6
Continuous
 62
     7
100
AcDbLine
 10
271.4405686207
 20
38.7768967985
 30
0.0
 11
271.2701977521
 21
37.482801573
 31
0.0
  0
LINE
  5
344
330
1F
100
AcDbEntity
  8
0
  6
Continuous
 62
     7
100
AcDbLine
 10
271.2701977521
 20
37.482801573
 30
0.0
 11
271.4405686207
 21
36.1887063474
 31
0.0
  0
LINE
  5
345
330
1F
100
AcDbEntity
  8
0
  6
Continuous
 62
     7
100
AcDbLine
 10
271.4405686207
 20
36.1887063474
 30
0.0
 11
271.9400707332
 21
34.982801573
 31
0.0
  0
LINE
  5
346
330
1F
100
AcDbEntity
  8
0
  6
Continuous
 62
     7
100
AcDbLine
 10
271.9400707332
 20
34.982801573
 30
0.0
 11
272.7346638462
 21
33.947267667
 31
0.0
  0
LINE
  5
347
330
1F
100
AcDbEntity
  8
0
  6
Continuous
 62
     7
100
AcDbLine
 10
272.7346638462
 20
33.947267667
 30
0.0
 11
273.7701977521
 21
33.152674554
 31
0.0
  0
LINE
  5
348
330
1F
100
AcDbEntity
  8
0
  6
Continuous
 62
     7
100
AcDbLine
 10
273.7701977521
 20
33.152674554
 30
0.0
 11
274.9761025266
 21
32.6531724415
 31
0.0
  0
LINE
  5
349
330
1F
100
AcDbEntity
  8
0
  6
Continuous
 62
     7
100
AcDbLine
 10
274.9761025266
 20
32.6531724415
 30
0.0
 11
276.2701977521
 21
32.482801573
 31
0.0
  0
LINE
  5
34A
330
1F
100
AcDbEntity
  8
0
  6
Continuous
 62
     7
100
AcDbLine
 10
276.2701977521
 20
32.482801573
 30
0.0
 11
277.5642929777
 21
32.6531724415
 31
0.0
  0
LINE
  5
34B
330
1F
100
AcDbEntity
  8
0
  6
Continuous
 62
     7
100
AcDbLine
 10
277.5642929777
 20
32.6531724415
 30
0.0
 11
278.7701977521
 21
33.152674554
 31
0.0
  0
LINE
  5
34C
330
1F
100
AcDbEntity
  8
0
  6
Continuous
 62
     7
100
AcDbLine
 10
278.7701977521
 20
33.152674554
 30
0.0
 11
279.8057316581
 21
33.947267667
 31
0.0
  0
LINE
  5
34D
330
1F
100
AcDbEntity
  8
0
  6
Continuous
 62
     7
100
AcDbLine
 10
279.8057316581
 20
33.947267667
 30
0.0
 11
280.6003247711
 21
34.982801573
 31
0.0
  0
LINE
  5
34E
330
1F
100
AcDbEntity
  8
0
  6
Continuous
 62
     7
100
AcDbLine
 10
280.6003247711
 20
34.982801573
 30
0.0
 11
281.0998268836
 21
36.1887063474
 31
0.0
  0
LINE
  5
34F
330
1F
100
AcDbEntity
  8
0
  6
Continuous
 62
     7
100
AcDbLine
 10
281.0998268836
 20
36.1887063474
 30
0.0
 11
281.2701977521
 21
37.482801573
 31
0.0
  0
LINE
  5
350
330
1F
100
AcDbEntity
  8
0
  6
Continuous
 62
     7
100
AcDbLine
 10
281.2701977521
 20
37.482801573
 30
0.0
 11
281.0998268836
 21
38.7768967985
 31
0.0
  0
LINE
  5
351
330
1F
100
AcDbEntity
  8
0
  6
Continuous
 62
     7
100
AcDbLine
 10
281.0998268836
 20
38.7768967985
 30
0.0
 11
280.6003247711
 21
39.982801573
 31
0.0
  0
LINE
  5
352
330
1F
100
AcDbEntity
  8
0
  6
Continuous
 62
     7
100
AcDbLine
 10
280.6003247711
 20
39.982801573
 30
0.0
 11
279.8057316581
 21
41.0183354789
 31
0.0
  0
LINE
  5
353
330
1F
100
AcDbEntity
  8
0
  6
Continuous
 62
     7
100
AcDbLine
 10
279.8057316581
 20
41.0183354789
 30
0.0
 11
278.7701977521
 21
41.8129285919
 31
0.0
  0
LINE
  5
354
330
1F
100
AcDbEntity
  8
0
  6
Continuous
 62
     7
100
AcDbLine
 10
278.7701977521
 20
41.8129285919
 30
0.0
 11
277.5642929777
 21
42.3124307044
 31
0.0
  0
LINE
  5
355
330
1F
100
AcDbEntity
  8
0
  6
Continuous
 62
     7
100
AcDbLine
 10
277.5642929777
 20
42.3124307044
 30
0.0
 11
276.2701977521
 21
42.482801573
 31
0.0
  0
LINE
  5
356
330
1F
100
AcDbEntity
  8
0
  6
Continuous
 62
     7
100
AcDbLine
 10
276.2701977521
 20
42.482801573
 30
0.0
 11
275.4526553596
 21
42.3751700751
 31
0.0
  0
LINE
  5
357
330
1F
100
AcDbEntity
  8
0
  6
Continuous
 62
     7
100
AcDbLine
 10
14.1302384408
 20
304.1325147903
 30
0.0
 11
264.1302384408
 21
304.1325147903
 31
0.0
  0
LINE
  5
358
330
1F
100
AcDbEntity
  8
0
  6
Continuous
 62
     7
100
AcDbLine
 10
264.1302384408
 20
304.1325147903
 30
0.0
 11
264.1302384408
 21
326.1325147903
 31
0.0
  0
LINE
  5
359
330
1F
100
AcDbEntity
  8
0
  6
Continuous
 62
     7
100
AcDbLine
 10
264.1302384408
 20
326.1325147903
 30
0.0
 11
14.1302384408
 21
326.1325147903
 31
0.0
  0
LINE
  5
35A
330
1F
100
AcDbEntity
  8
0
  6
Continuous
 62
     7
100
AcDbLine
 10
14.1302384408
 20
326.1325147903
 30
0.0
 11
14.1302384408
 21
304.1325147903
 31
0.0
  0
LINE
  5
35B
330
1F
100
AcDbEntity
  8
0
  6
Continuous
 62
     7
100
AcDbLine
 10
14.1302384408
 20
307.1325147903
 30
0.0
 11
264.1302384408
 21
307.1325147903
 31
0.0
  0
LINE
  5
35C
330
1F
100
AcDbEntity
  8
0
  6
Continuous
 62
     7
100
AcDbLine
 10
264.1302384408
 20
307.1325147903
 30
0.0
 11
264.1302384408
 21
323.1325147903
 31
0.0
  0
LINE
  5
35D
330
1F
100
AcDbEntity
  8
0
  6
Continuous
 62
     7
100
AcDbLine
 10
264.1302384408
 20
323.1325147903
 30
0.0
 11
14.1302384408
 21
323.1325147903
 31
0.0
  0
LINE
  5
35E
330
1F
100
AcDbEntity
  8
0
  6
Continuous
 62
     7
100
AcDbLine
 10
14.1302384408
 20
323.1325147903
 30
0.0
 11
14.1302384408
 21
307.1325147903
 31
0.0
  0
LINE
  5
35F
330
1F
100
AcDbEntity
  8
0
  6
Continuous
 62
     7
100
AcDbLine
 10
14.1302384408
 20
310.1325147903
 30
0.0
 11
264.1302384408
 21
310.1325147903
 31
0.0
  0
LINE
  5
360
330
1F
100
AcDbEntity
  8
0
  6
Continuous
 62
     7
100
AcDbLine
 10
264.1302384408
 20
310.1325147903
 30
0.0
 11
264.1302384408
 21
320.1325147903
 31
0.0
  0
LINE
  5
361
330
1F
100
AcDbEntity
  8
0
  6
Continuous
 62
     7
100
AcDbLine
 10
264.1302384408
 20
320.1325147903
 30
0.0
 11
14.1302384408
 21
320.1325147903
 31
0.0
  0
LINE
  5
362
330
1F
100
AcDbEntity
  8
0
  6
Continuous
 62
     7
100
AcDbLine
 10
14.1302384408
 20
320.1325147903
 30
0.0
 11
14.1302384408
 21
310.1325147903
 31
0.0
  0
LINE
  5
363
330
1F
100
AcDbEntity
  8
0
  6
Continuous
 62
     7
100
AcDbLine
 10
154.7794850639
 20
121.0821178667
 30
0.0
 11
154.1292403054
 21
120.9078853087
 31
0.0
  0
LINE
  5
364
330
1F
100
AcDbEntity
  8
0
  6
Continuous
 62
     7
100
AcDbLine
 10
153.6468783956
 20
120.7080844637
 30
0.0
 11
152.9829236445
 21
120.3247500095
 31
0.0
  0
LINE
  5
365
330
1F
100
AcDbEntity
  8
0
  6
Continuous
 62
     7
100
AcDbLine
 10
152.5687100822
 20
120.0069127643
 30
0.0
 11
152.026593298
 21
119.4647959802
 31
0.0
  0
LINE
  5
366
330
1F
100
AcDbEntity
  8
0
  6
Continuous
 62
     7
100
AcDbLine
 10
151.9812806276
 20
119.4179825698
 30
0.0
 11
149.8168368251
 21
119.479423466
 31
0.0
  0
LINE
  5
367
330
1F
100
AcDbEntity
  8
0
  6
Continuous
 62
     7
100
AcDbLine
 10
149.5346392907
 20
119.6234780879
 30
0.0
 11
149.1132892757
 21
119.7980069786
 31
0.0
  0
LINE
  5
368
330
1F
100
AcDbEntity
  8
0
  6
Continuous
 62
     7
100
AcDbLine
 10
148.6089747954
 20
119.9331376363
 30
0.0
 11
148.4194978524
 21
119.9580827491
 31
0.0
  0
LINE
  5
369
330
1F
100
AcDbEntity
  8
0
  6
Continuous
 62
     7
100
AcDbLine
 10
148.1247663933
 20
120.2359399806
 30
0.0
 11
147.4257810068
 21
120.7722903319
 31
0.0
  0
LINE
  5
36A
330
1F
100
AcDbEntity
  8
0
  6
Continuous
 62
     7
100
AcDbLine
 10
146.9736250135
 20
121.0333427163
 30
0.0
 11
146.1596392907
 21
121.3705066423
 31
0.0
  0
LINE
  5
36B
330
1F
100
AcDbEntity
  8
0
  6
Continuous
 62
     7
100
AcDbLine
 10
145.6553248104
 20
121.5056373
 30
0.0
 11
144.7818105332
 21
121.6206376363
 31
0.0
  0
LINE
  5
36C
330
1F
100
AcDbEntity
  8
0
  6
Continuous
 62
     7
100
AcDbLine
 10
144.2597057643
 20
121.6206376363
 30
0.0
 11
143.3861914871
 21
121.5056373
 31
0.0
  0
LINE
  5
36D
330
1F
100
AcDbEntity
  8
0
  6
Continuous
 62
     7
100
AcDbLine
 10
142.8818770068
 20
121.3705066423
 30
0.0
 11
142.067891284
 21
121.0333427164
 31
0.0
  0
LINE
  5
36E
330
1F
100
AcDbEntity
  8
0
  6
Continuous
 62
     7
100
AcDbLine
 10
141.6157352907
 20
120.7722903319
 30
0.0
 11
140.9167499042
 21
120.2359399806
 31
0.0
  0
LINE
  5
36F
330
1F
100
AcDbEntity
  8
0
  6
Continuous
 62
     7
100
AcDbLine
 10
140.5475660817
 20
119.8667561581
 30
0.0
 11
140.0112157304
 21
119.1677707716
 31
0.0
  0
LINE
  5
370
330
1F
100
AcDbEntity
  8
0
  6
Continuous
 62
     7
100
AcDbLine
 10
139.750163346
 20
118.7156147783
 30
0.0
 11
139.41299942
 21
117.9016290555
 31
0.0
  0
LINE
  5
371
330
1F
100
AcDbEntity
  8
0
  6
Continuous
 62
     7
100
AcDbLine
 10
139.2778687623
 20
117.3973145752
 30
0.0
 11
139.162868426
 21
116.523800298
 31
0.0
  0
LINE
  5
372
330
1F
100
AcDbEntity
  8
0
  6
Continuous
 62
     7
100
AcDbLine
 10
139.162868426
 20
116.0016955291
 30
0.0
 11
139.2778687623
 21
115.1281812519
 31
0.0
  0
LINE
  5
373
330
1F
100
AcDbEntity
  8
0
  6
Continuous
 62
     7
100
AcDbLine
 10
139.41299942
 20
114.6238667716
 30
0.0
 11
139.750163346
 21
113.8098810488
 31
0.0
  0
LINE
  5
374
330
1F
100
AcDbEntity
  8
0
  6
Continuous
 62
     7
100
AcDbLine
 10
140.0112157304
 20
113.3577250555
 30
0.0
 11
140.5475660817
 21
112.658739669
 31
0.0
  0
LINE
  5
375
330
1F
100
AcDbEntity
  8
0
  6
Continuous
 62
     7
100
AcDbLine
 10
140.9167499042
 20
112.2895558465
 30
0.0
 11
141.6157352907
 21
111.7532054952
 31
0.0
  0
LINE
  5
376
330
1F
100
AcDbEntity
  8
0
  6
Continuous
 62
     7
100
AcDbLine
 10
142.067891284
 20
111.4921531108
 30
0.0
 11
142.8818770068
 21
111.1549891848
 31
0.0
  0
LINE
  5
377
330
1F
100
AcDbEntity
  8
0
  6
Continuous
 62
     7
100
AcDbLine
 10
143.3861914871
 20
111.0198585271
 30
0.0
 11
144.2597057643
 21
110.9048581908
 31
0.0
  0
LINE
  5
378
330
1F
100
AcDbEntity
  8
0
  6
Continuous
 62
     7
100
AcDbLine
 10
144.7818105332
 20
110.9048581908
 30
0.0
 11
145.6553248104
 21
111.0198585271
 31
0.0
  0
LINE
  5
379
330
1F
100
AcDbEntity
  8
0
  6
Continuous
 62
     7
100
AcDbLine
 10
146.1596392907
 20
111.1549891848
 30
0.0
 11
146.9736250135
 21
111.4921531108
 31
0.0
  0
LINE
  5
37A
330
1F
100
AcDbEntity
  8
0
  6
Continuous
 62
     7
100
AcDbLine
 10
147.4257810068
 20
111.7532054952
 30
0.0
 11
148.1247663933
 21
112.2895558465
 31
0.0
  0
LINE
  5
37B
330
1F
100
AcDbEntity
  8
0
  6
Continuous
 62
     7
100
AcDbLine
 10
148.4194978524
 20
112.567413078
 30
0.0
 11
148.6089747954
 21
112.5923581908
 31
0.0
  0
LINE
  5
37C
330
1F
100
AcDbEntity
  8
0
  6
Continuous
 62
     7
100
AcDbLine
 10
149.1132892757
 20
112.7274888485
 30
0.0
 11
149.5346392907
 21
112.9020177392
 31
0.0
  0
LINE
  5
37D
330
1F
100
AcDbEntity
  8
0
  6
Continuous
 62
     7
100
AcDbLine
 10
149.8168368251
 20
113.0460723611
 30
0.0
 11
151.9812806276
 21
113.1075132573
 31
0.0
  0
LINE
  5
37E
330
1F
100
AcDbEntity
  8
0
  6
Continuous
 62
     7
100
AcDbLine
 10
152.026593298
 20
113.060699847
 30
0.0
 11
152.5687100822
 21
112.5185830628
 31
0.0
  0
LINE
  5
37F
330
1F
100
AcDbEntity
  8
0
  6
Continuous
 62
     7
100
AcDbLine
 10
152.9829236445
 20
112.2007458176
 30
0.0
 11
153.6468783956
 21
111.8174113634
 31
0.0
  0
LINE
  5
380
330
1F
100
AcDbEntity
  8
0
  6
Continuous
 62
     7
100
AcDbLine
 10
154.1292403054
 20
111.6176105184
 30
0.0
 11
154.7794850639
 21
111.4433779604
 31
0.0
  0
LINE
  5
381
330
1F
100
AcDbEntity
  8
0
  6
Continuous
 62
     7
100
AcDbLine
 10
154.7794850639
 20
111.4433779604
 30
0.0
 11
155.4302132912
 21
109.8723810488
 31
0.0
  0
LINE
  5
382
330
1F
100
AcDbEntity
  8
0
  6
Continuous
 62
     7
100
AcDbLine
 10
155.6912656756
 20
109.4202250555
 30
0.0
 11
157.4791001798
 21
107.0902737672
 31
0.0
  0
LINE
  5
383
330
1F
100
AcDbEntity
  8
0
  6
Continuous
 62
     7
100
AcDbLine
 10
157.8482840024
 20
106.7210899446
 30
0.0
 11
160.1782352907
 21
104.9332554404
 31
0.0
  0
LINE
  5
384
330
1F
100
AcDbEntity
  8
0
  6
Continuous
 62
     7
100
AcDbLine
 10
160.630391284
 20
104.672203056
 30
0.0
 11
162.2013881957
 21
104.0214748287
 31
0.0
  0
LINE
  5
385
330
1F
100
AcDbEntity
  8
0
  6
Continuous
 62
     7
100
AcDbLine
 10
162.2013881957
 20
104.0214748287
 30
0.0
 11
162.3756207536
 21
103.3712300702
 31
0.0
  0
LINE
  5
386
330
1F
100
AcDbEntity
  8
0
  6
Continuous
 62
     7
100
AcDbLine
 10
162.5754215986
 20
102.8888681604
 30
0.0
 11
162.9587560528
 21
102.2249134093
 31
0.0
  0
LINE
  5
387
330
1F
100
AcDbEntity
  8
0
  6
Continuous
 62
     7
100
AcDbLine
 10
163.276593298
 20
101.810699847
 30
0.0
 11
163.8187100822
 21
101.2685830628
 31
0.0
  0
LINE
  5
388
330
1F
100
AcDbEntity
  8
0
  6
Continuous
 62
     7
100
AcDbLine
 10
163.8655234925
 20
101.2232703924
 30
0.0
 11
163.8040825963
 21
99.0588265899
 31
0.0
  0
LINE
  5
389
330
1F
100
AcDbEntity
  8
0
  6
Continuous
 62
     7
100
AcDbLine
 10
163.6600279745
 20
98.7766290555
 30
0.0
 11
163.4854990837
 21
98.3552790405
 31
0.0
  0
LINE
  5
38A
330
1F
100
AcDbEntity
  8
0
  6
Continuous
 62
     7
100
AcDbLine
 10
163.350368426
 20
97.8509645602
 30
0.0
 11
163.3254233132
 21
97.6614876172
 31
0.0
  0
LINE
  5
38B
330
1F
100
AcDbEntity
  8
0
  6
Continuous
 62
     7
100
AcDbLine
 10
163.0475660817
 20
97.3667561581
 30
0.0
 11
162.5112157304
 21
96.6677707716
 31
0.0
  0
LINE
  5
38C
330
1F
100
AcDbEntity
  8
0
  6
Continuous
 62
     7
100
AcDbLine
 10
162.250163346
 20
96.2156147783
 30
0.0
 11
161.91299942
 21
95.4016290555
 31
0.0
  0
LINE
  5
38D
330
1F
100
AcDbEntity
  8
0
  6
Continuous
 62
     7
100
AcDbLine
 10
161.7778687623
 20
94.8973145752
 30
0.0
 11
161.662868426
 21
94.023800298
 31
0.0
  0
LINE
  5
38E
330
1F
100
AcDbEntity
  8
0
  6
Continuous
 62
     7
100
AcDbLine
 10
161.662868426
 20
93.5016955291
 30
0.0
 11
161.7778687623
 21
92.6281812519
 31
0.0
  0
LINE
  5
38F
330
1F
100
AcDbEntity
  8
0
  6
Continuous
 62
     7
100
AcDbLine
 10
161.91299942
 20
92.1238667716
 30
0.0
 11
162.250163346
 21
91.3098810488
 31
0.0
  0
LINE
  5
390
330
1F
100
AcDbEntity
  8
0
  6
Continuous
 62
     7
100
AcDbLine
 10
162.5112157304
 20
90.8577250555
 30
0.0
 11
163.0475660817
 21
90.158739669
 31
0.0
  0
LINE
  5
391
330
1F
100
AcDbEntity
  8
0
  6
Continuous
 62
     7
100
AcDbLine
 10
163.4167499042
 20
89.7895558465
 30
0.0
 11
164.1157352907
 21
89.2532054952
 31
0.0
  0
LINE
  5
392
330
1F
100
AcDbEntity
  8
0
  6
Continuous
 62
     7
100
AcDbLine
 10
164.567891284
 20
88.9921531108
 30
0.0
 11
165.3818770068
 21
88.6549891848
 31
0.0
  0
LINE
  5
393
330
1F
100
AcDbEntity
  8
0
  6
Continuous
 62
     7
100
AcDbLine
 10
165.8861914871
 20
88.5198585271
 30
0.0
 11
166.7597057643
 21
88.4048581908
 31
0.0
  0
LINE
  5
394
330
1F
100
AcDbEntity
  8
0
  6
Continuous
 62
     7
100
AcDbLine
 10
167.2818105332
 20
88.4048581908
 30
0.0
 11
168.1553248104
 21
88.5198585271
 31
0.0
  0
LINE
  5
395
330
1F
100
AcDbEntity
  8
0
  6
Continuous
 62
     7
100
AcDbLine
 10
168.6596392907
 20
88.6549891848
 30
0.0
 11
169.4736250135
 21
88.9921531108
 31
0.0
  0
LINE
  5
396
330
1F
100
AcDbEntity
  8
0
  6
Continuous
 62
     7
100
AcDbLine
 10
169.9257810068
 20
89.2532054952
 30
0.0
 11
170.6247663933
 21
89.7895558465
 31
0.0
  0
LINE
  5
397
330
1F
100
AcDbEntity
  8
0
  6
Continuous
 62
     7
100
AcDbLine
 10
170.9939502159
 20
90.158739669
 30
0.0
 11
171.5303005671
 21
90.8577250555
 31
0.0
  0
LINE
  5
398
330
1F
100
AcDbEntity
  8
0
  6
Continuous
 62
     7
100
AcDbLine
 10
171.7913529516
 20
91.3098810488
 30
0.0
 11
172.1285168775
 21
92.1238667716
 31
0.0
  0
LINE
  5
399
330
1F
100
AcDbEntity
  8
0
  6
Continuous
 62
     7
100
AcDbLine
 10
172.2636475352
 20
92.6281812519
 30
0.0
 11
172.3786478715
 21
93.5016955291
 31
0.0
  0
LINE
  5
39A
330
1F
100
AcDbEntity
  8
0
  6
Continuous
 62
     7
100
AcDbLine
 10
172.3786478715
 20
94.023800298
 30
0.0
 11
172.2636475352
 21
94.8973145752
 31
0.0
  0
LINE
  5
39B
330
1F
100
AcDbEntity
  8
0
  6
Continuous
 62
     7
100
AcDbLine
 10
172.1285168775
 20
95.4016290555
 30
0.0
 11
171.7913529516
 21
96.2156147783
 31
0.0
  0
LINE
  5
39C
330
1F
100
AcDbEntity
  8
0
  6
Continuous
 62
     7
100
AcDbLine
 10
171.5303005671
 20
96.6677707716
 30
0.0
 11
170.9939502159
 21
97.3667561581
 31
0.0
  0
LINE
  5
39D
330
1F
100
AcDbEntity
  8
0
  6
Continuous
 62
     7
100
AcDbLine
 10
170.7160929843
 20
97.6614876172
 30
0.0
 11
170.6911478715
 21
97.8509645602
 31
0.0
  0
LINE
  5
39E
330
1F
100
AcDbEntity
  8
0
  6
Continuous
 62
     7
100
AcDbLine
 10
170.5560172138
 20
98.3552790405
 30
0.0
 11
170.3814883231
 21
98.7766290555
 31
0.0
  0
LINE
  5
39F
330
1F
100
AcDbEntity
  8
0
  6
Continuous
 62
     7
100
AcDbLine
 10
170.2374337013
 20
99.0588265899
 30
0.0
 11
170.175992805
 21
101.2232703924
 31
0.0
  0
LINE
  5
3A0
330
1F
100
AcDbEntity
  8
0
  6
Continuous
 62
     7
100
AcDbLine
 10
170.2228062154
 20
101.2685830628
 30
0.0
 11
170.7649229995
 21
101.810699847
 31
0.0
  0
LINE
  5
3A1
330
1F
100
AcDbEntity
  8
0
  6
Continuous
 62
     7
100
AcDbLine
 10
171.0827602447
 20
102.2249134093
 30
0.0
 11
171.4660946989
 21
102.8888681604
 31
0.0
  0
LINE
  5
3A2
330
1F
100
AcDbEntity
  8
0
  6
Continuous
 62
     7
100
AcDbLine
 10
171.6658955439
 20
103.3712300702
 30
0.0
 11
171.8401281019
 21
104.0214748287
 31
0.0
  0
LINE
  5
3A3
330
1F
100
AcDbEntity
  8
0
  6
Continuous
 62
     7
100
AcDbLine
 10
171.8401281019
 20
104.0214748287
 30
0.0
 11
173.4111250135
 21
104.672203056
 31
0.0
  0
LINE
  5
3A4
330
1F
100
AcDbEntity
  8
0
  6
Continuous
 62
     7
100
AcDbLine
 10
173.8632810068
 20
104.9332554404
 30
0.0
 11
176.1932322951
 21
106.7210899446
 31
0.0
  0
LINE
  5
3A5
330
1F
100
AcDbEntity
  8
0
  6
Continuous
 62
     7
100
AcDbLine
 10
176.5624161177
 20
107.0902737672
 30
0.0
 11
178.3502506219
 21
109.4202250555
 31
0.0
  0
LINE
  5
3A6
330
1F
100
AcDbEntity
  8
0
  6
Continuous
 62
     7
100
AcDbLine
 10
178.6113030064
 20
109.8723810488
 30
0.0
 11
179.2620312336
 21
111.4433779604
 31
0.0
  0
LINE
  5
3A7
330
1F
100
AcDbEntity
  8
0
  6
Continuous
 62
     7
100
AcDbLine
 10
179.2620312336
 20
111.4433779604
 30
0.0
 11
179.9122759922
 21
111.6176105184
 31
0.0
  0
LINE
  5
3A8
330
1F
100
AcDbEntity
  8
0
  6
Continuous
 62
     7
100
AcDbLine
 10
180.3946379019
 20
111.8174113634
 30
0.0
 11
181.058592653
 21
112.2007458176
 31
0.0
  0
LINE
  5
3A9
330
1F
100
AcDbEntity
  8
0
  6
Continuous
 62
     7
100
AcDbLine
 10
181.4728062154
 20
112.5185830628
 30
0.0
 11
182.0149229995
 21
113.060699847
 31
0.0
  0
LINE
  5
3AA
330
1F
100
AcDbEntity
  8
0
  6
Continuous
 62
     7
100
AcDbLine
 10
182.0602356699
 20
113.1075132573
 30
0.0
 11
184.2246794725
 21
113.0460723611
 31
0.0
  0
LINE
  5
3AB
330
1F
100
AcDbEntity
  8
0
  6
Continuous
 62
     7
100
AcDbLine
 10
184.5068770068
 20
112.9020177392
 30
0.0
 11
184.9282270218
 21
112.7274888485
 31
0.0
  0
LINE
  5
3AC
330
1F
100
AcDbEntity
  8
0
  6
Continuous
 62
     7
100
AcDbLine
 10
185.4325415021
 20
112.5923581908
 30
0.0
 11
185.6220184451
 21
112.567413078
 31
0.0
  0
LINE
  5
3AD
330
1F
100
AcDbEntity
  8
0
  6
Continuous
 62
     7
100
AcDbLine
 10
185.9167499043
 20
112.2895558465
 30
0.0
 11
186.6157352908
 21
111.7532054952
 31
0.0
  0
LINE
  5
3AE
330
1F
100
AcDbEntity
  8
0
  6
Continuous
 62
     7
100
AcDbLine
 10
187.067891284
 20
111.4921531108
 30
0.0
 11
187.8818770068
 21
111.1549891848
 31
0.0
  0
LINE
  5
3AF
330
1F
100
AcDbEntity
  8
0
  6
Continuous
 62
     7
100
AcDbLine
 10
188.3861914871
 20
111.0198585271
 30
0.0
 11
189.2597057643
 21
110.9048581908
 31
0.0
  0
LINE
  5
3B0
330
1F
100
AcDbEntity
  8
0
  6
Continuous
 62
     7
100
AcDbLine
 10
189.7818105332
 20
110.9048581908
 30
0.0
 11
190.6553248104
 21
111.0198585271
 31
0.0
  0
LINE
  5
3B1
330
1F
100
AcDbEntity
  8
0
  6
Continuous
 62
     7
100
AcDbLine
 10
191.1596392907
 20
111.1549891848
 30
0.0
 11
191.9736250135
 21
111.4921531108
 31
0.0
  0
LINE
  5
3B2
330
1F
100
AcDbEntity
  8
0
  6
Continuous
 62
     7
100
AcDbLine
 10
192.4257810068
 20
111.7532054952
 30
0.0
 11
193.1247663933
 21
112.2895558465
 31
0.0
  0
LINE
  5
3B3
330
1F
100
AcDbEntity
  8
0
  6
Continuous
 62
     7
100
AcDbLine
 10
193.4939502159
 20
112.658739669
 30
0.0
 11
194.0303005671
 21
113.3577250555
 31
0.0
  0
LINE
  5
3B4
330
1F
100
AcDbEntity
  8
0
  6
Continuous
 62
     7
100
AcDbLine
 10
194.2913529516
 20
113.8098810488
 30
0.0
 11
194.6285168775
 21
114.6238667716
 31
0.0
  0
LINE
  5
3B5
330
1F
100
AcDbEntity
  8
0
  6
Continuous
 62
     7
100
AcDbLine
 10
194.7636475352
 20
115.1281812519
 30
0.0
 11
194.8786478715
 21
116.0016955291
 31
0.0
  0
LINE
  5
3B6
330
1F
100
AcDbEntity
  8
0
  6
Continuous
 62
     7
100
AcDbLine
 10
194.8786478715
 20
116.523800298
 30
0.0
 11
194.7636475352
 21
117.3973145752
 31
0.0
  0
LINE
  5
3B7
330
1F
100
AcDbEntity
  8
0
  6
Continuous
 62
     7
100
AcDbLine
 10
194.6285168775
 20
117.9016290555
 30
0.0
 11
194.2913529516
 21
118.7156147783
 31
0.0
  0
LINE
  5
3B8
330
1F
100
AcDbEntity
  8
0
  6
Continuous
 62
     7
100
AcDbLine
 10
194.0303005671
 20
119.1677707716
 30
0.0
 11
193.4939502159
 21
119.8667561581
 31
0.0
  0
LINE
  5
3B9
330
1F
100
AcDbEntity
  8
0
  6
Continuous
 62
     7
100
AcDbLine
 10
193.1247663933
 20
120.2359399806
 30
0.0
 11
192.4257810068
 21
120.7722903319
 31
0.0
  0
LINE
  5
3BA
330
1F
100
AcDbEntity
  8
0
  6
Continuous
 62
     7
100
AcDbLine
 10
191.9736250135
 20
121.0333427164
 30
0.0
 11
191.1596392907
 21
121.3705066423
 31
0.0
  0
LINE
  5
3BB
330
1F
100
AcDbEntity
  8
0
  6
Continuous
 62
     7
100
AcDbLine
 10
190.6553248104
 20
121.5056373
 30
0.0
 11
189.7818105332
 21
121.6206376363
 31
0.0
  0
LINE
  5
3BC
330
1F
100
AcDbEntity
  8
0
  6
Continuous
 62
     7
100
AcDbLine
 10
189.2597057643
 20
121.6206376363
 30
0.0
 11
188.3861914871
 21
121.5056373
 31
0.0
  0
LINE
  5
3BD
330
1F
100
AcDbEntity
  8
0
  6
Continuous
 62
     7
100
AcDbLine
 10
187.8818770068
 20
121.3705066423
 30
0.0
 11
187.067891284
 21
121.0333427164
 31
0.0
  0
LINE
  5
3BE
330
1F
100
AcDbEntity
  8
0
  6
Continuous
 62
     7
100
AcDbLine
 10
186.6157352908
 20
120.7722903319
 30
0.0
 11
185.9167499042
 21
120.2359399806
 31
0.0
  0
LINE
  5
3BF
330
1F
100
AcDbEntity
  8
0
  6
Continuous
 62
     7
100
AcDbLine
 10
185.6220184451
 20
119.9580827491
 30
0.0
 11
185.4325415021
 21
119.9331376363
 31
0.0
  0
LINE
  5
3C0
330
1F
100
AcDbEntity
  8
0
  6
Continuous
 62
     7
100
AcDbLine
 10
184.9282270218
 20
119.7980069786
 30
0.0
 11
184.5068770068
 21
119.6234780879
 31
0.0
  0
LINE
  5
3C1
330
1F
100
AcDbEntity
  8
0
  6
Continuous
 62
     7
100
AcDbLine
 10
184.2246794725
 20
119.479423466
 30
0.0
 11
182.0602356699
 21
119.4179825698
 31
0.0
  0
LINE
  5
3C2
330
1F
100
AcDbEntity
  8
0
  6
Continuous
 62
     7
100
AcDbLine
 10
182.0149229995
 20
119.4647959802
 30
0.0
 11
181.4728062154
 21
120.0069127643
 31
0.0
  0
LINE
  5
3C3
330
1F
100
AcDbEntity
  8
0
  6
Continuous
 62
     7
100
AcDbLine
 10
181.058592653
 20
120.3247500095
 30
0.0
 11
180.3946379019
 21
120.7080844637
 31
0.0
  0
LINE
  5
3C4
330
1F
100
AcDbEntity
  8
0
  6
Continuous
 62
     7
100
AcDbLine
 10
179.9122759921
 20
120.9078853087
 30
0.0
 11
179.2620312336
 21
121.0821178667
 31
0.0
  0
LINE
  5
3C5
330
1F
100
AcDbEntity
  8
0
  6
Continuous
 62
     7
100
AcDbLine
 10
179.2620312336
 20
121.0821178667
 30
0.0
 11
178.6113030064
 21
122.6531147783
 31
0.0
  0
LINE
  5
3C6
330
1F
100
AcDbEntity
  8
0
  6
Continuous
 62
     7
100
AcDbLine
 10
178.3502506219
 20
123.1052707716
 30
0.0
 11
176.5624161177
 21
125.4352220599
 31
0.0
  0
LINE
  5
3C7
330
1F
100
AcDbEntity
  8
0
  6
Continuous
 62
     7
100
AcDbLine
 10
176.1932322951
 20
125.8044058825
 30
0.0
 11
173.8632810068
 21
127.5922403867
 31
0.0
  0
LINE
  5
3C8
330
1F
100
AcDbEntity
  8
0
  6
Continuous
 62
     7
100
AcDbLine
 10
173.4111250135
 20
127.8532927712
 30
0.0
 11
171.8401281019
 21
128.5040209984
 31
0.0
  0
LINE
  5
3C9
330
1F
100
AcDbEntity
  8
0
  6
Continuous
 62
     7
100
AcDbLine
 10
171.8401281019
 20
128.5040209984
 30
0.0
 11
171.6658955439
 21
129.1542657569
 31
0.0
  0
LINE
  5
3CA
330
1F
100
AcDbEntity
  8
0
  6
Continuous
 62
     7
100
AcDbLine
 10
171.4660946989
 20
129.6366276667
 30
0.0
 11
171.0827602447
 21
130.3005824178
 31
0.0
  0
LINE
  5
3CB
330
1F
100
AcDbEntity
  8
0
  6
Continuous
 62
     7
100
AcDbLine
 10
170.7649229995
 20
130.7147959801
 30
0.0
 11
170.2228062154
 21
131.2569127643
 31
0.0
  0
LINE
  5
3CC
330
1F
100
AcDbEntity
  8
0
  6
Continuous
 62
     7
100
AcDbLine
 10
170.175992805
 20
131.3022254347
 30
0.0
 11
170.2374337012
 21
133.4666692373
 31
0.0
  0
LINE
  5
3CD
330
1F
100
AcDbEntity
  8
0
  6
Continuous
 62
     7
100
AcDbLine
 10
170.3814883231
 20
133.7488667716
 30
0.0
 11
170.5560172138
 21
134.1702167866
 31
0.0
  0
LINE
  5
3CE
330
1F
100
AcDbEntity
  8
0
  6
Continuous
 62
     7
100
AcDbLine
 10
170.6911478715
 20
134.6745312669
 30
0.0
 11
170.7160929843
 21
134.8640082099
 31
0.0
  0
LINE
  5
3CF
330
1F
100
AcDbEntity
  8
0
  6
Continuous
 62
     7
100
AcDbLine
 10
170.9939502158
 20
135.158739669
 30
0.0
 11
171.5303005671
 21
135.8577250555
 31
0.0
  0
LINE
  5
3D0
330
1F
100
AcDbEntity
  8
0
  6
Continuous
 62
     7
100
AcDbLine
 10
171.7913529516
 20
136.3098810488
 30
0.0
 11
172.1285168775
 21
137.1238667716
 31
0.0
  0
LINE
  5
3D1
330
1F
100
AcDbEntity
  8
0
  6
Continuous
 62
     7
100
AcDbLine
 10
172.2636475352
 20
137.6281812519
 30
0.0
 11
172.3786478715
 21
138.5016955291
 31
0.0
  0
LINE
  5
3D2
330
1F
100
AcDbEntity
  8
0
  6
Continuous
 62
     7
100
AcDbLine
 10
172.3786478715
 20
139.023800298
 30
0.0
 11
172.2636475352
 21
139.8973145752
 31
0.0
  0
LINE
  5
3D3
330
1F
100
AcDbEntity
  8
0
  6
Continuous
 62
     7
100
AcDbLine
 10
172.1285168775
 20
140.4016290555
 30
0.0
 11
171.7913529516
 21
141.2156147783
 31
0.0
  0
LINE
  5
3D4
330
1F
100
AcDbEntity
  8
0
  6
Continuous
 62
     7
100
AcDbLine
 10
171.5303005671
 20
141.6677707716
 30
0.0
 11
170.9939502158
 21
142.3667561581
 31
0.0
  0
LINE
  5
3D5
330
1F
100
AcDbEntity
  8
0
  6
Continuous
 62
     7
100
AcDbLine
 10
170.6247663933
 20
142.7359399806
 30
0.0
 11
169.9257810068
 21
143.2722903319
 31
0.0
  0
LINE
  5
3D6
330
1F
100
AcDbEntity
  8
0
  6
Continuous
 62
     7
100
AcDbLine
 10
169.4736250135
 20
143.5333427163
 30
0.0
 11
168.6596392907
 21
143.8705066423
 31
0.0
  0
LINE
  5
3D7
330
1F
100
AcDbEntity
  8
0
  6
Continuous
 62
     7
100
AcDbLine
 10
168.1553248104
 20
144.0056373
 30
0.0
 11
167.2818105332
 21
144.1206376363
 31
0.0
  0
LINE
  5
3D8
330
1F
100
AcDbEntity
  8
0
  6
Continuous
 62
     7
100
AcDbLine
 10
166.7597057643
 20
144.1206376363
 30
0.0
 11
165.8861914871
 21
144.0056373
 31
0.0
  0
LINE
  5
3D9
330
1F
100
AcDbEntity
  8
0
  6
Continuous
 62
     7
100
AcDbLine
 10
165.3818770068
 20
143.8705066423
 30
0.0
 11
164.567891284
 21
143.5333427163
 31
0.0
  0
LINE
  5
3DA
330
1F
100
AcDbEntity
  8
0
  6
Continuous
 62
     7
100
AcDbLine
 10
164.1157352907
 20
143.2722903319
 30
0.0
 11
163.4167499042
 21
142.7359399806
 31
0.0
  0
LINE
  5
3DB
330
1F
100
AcDbEntity
  8
0
  6
Continuous
 62
     7
100
AcDbLine
 10
163.0475660817
 20
142.3667561581
 30
0.0
 11
162.5112157304
 21
141.6677707716
 31
0.0
  0
LINE
  5
3DC
330
1F
100
AcDbEntity
  8
0
  6
Continuous
 62
     7
100
AcDbLine
 10
162.250163346
 20
141.2156147783
 30
0.0
 11
161.91299942
 21
140.4016290555
 31
0.0
  0
LINE
  5
3DD
330
1F
100
AcDbEntity
  8
0
  6
Continuous
 62
     7
100
AcDbLine
 10
161.7778687623
 20
139.8973145752
 30
0.0
 11
161.662868426
 21
139.023800298
 31
0.0
  0
LINE
  5
3DE
330
1F
100
AcDbEntity
  8
0
  6
Continuous
 62
     7
100
AcDbLine
 10
161.662868426
 20
138.5016955291
 30
0.0
 11
161.7778687623
 21
137.6281812519
 31
0.0
  0
LINE
  5
3DF
330
1F
100
AcDbEntity
  8
0
  6
Continuous
 62
     7
100
AcDbLine
 10
161.91299942
 20
137.1238667716
 30
0.0
 11
162.250163346
 21
136.3098810488
 31
0.0
  0
LINE
  5
3E0
330
1F
100
AcDbEntity
  8
0
  6
Continuous
 62
     7
100
AcDbLine
 10
162.5112157304
 20
135.8577250555
 30
0.0
 11
163.0475660817
 21
135.158739669
 31
0.0
  0
LINE
  5
3E1
330
1F
100
AcDbEntity
  8
0
  6
Continuous
 62
     7
100
AcDbLine
 10
163.3254233132
 20
134.8640082099
 30
0.0
 11
163.350368426
 21
134.6745312669
 31
0.0
  0
LINE
  5
3E2
330
1F
100
AcDbEntity
  8
0
  6
Continuous
 62
     7
100
AcDbLine
 10
163.4854990837
 20
134.1702167866
 30
0.0
 11
163.6600279745
 21
133.7488667716
 31
0.0
  0
LINE
  5
3E3
330
1F
100
AcDbEntity
  8
0
  6
Continuous
 62
     7
100
AcDbLine
 10
163.8040825963
 20
133.4666692372
 30
0.0
 11
163.8655234925
 21
131.3022254347
 31
0.0
  0
LINE
  5
3E4
330
1F
100
AcDbEntity
  8
0
  6
Continuous
 62
     7
100
AcDbLine
 10
163.8187100822
 20
131.2569127643
 30
0.0
 11
163.276593298
 21
130.7147959801
 31
0.0
  0
LINE
  5
3E5
330
1F
100
AcDbEntity
  8
0
  6
Continuous
 62
     7
100
AcDbLine
 10
162.9587560528
 20
130.3005824178
 30
0.0
 11
162.5754215986
 21
129.6366276667
 31
0.0
  0
LINE
  5
3E6
330
1F
100
AcDbEntity
  8
0
  6
Continuous
 62
     7
100
AcDbLine
 10
162.3756207536
 20
129.1542657569
 30
0.0
 11
162.2013881956
 21
128.5040209984
 31
0.0
  0
LINE
  5
3E7
330
1F
100
AcDbEntity
  8
0
  6
Continuous
 62
     7
100
AcDbLine
 10
162.2013881956
 20
128.5040209984
 30
0.0
 11
160.630391284
 21
127.8532927711
 31
0.0
  0
LINE
  5
3E8
330
1F
100
AcDbEntity
  8
0
  6
Continuous
 62
     7
100
AcDbLine
 10
160.1782352907
 20
127.5922403867
 30
0.0
 11
157.8482840024
 21
125.8044058825
 31
0.0
  0
LINE
  5
3E9
330
1F
100
AcDbEntity
  8
0
  6
Continuous
 62
     7
100
AcDbLine
 10
157.4791001798
 20
125.4352220599
 30
0.0
 11
155.6912656756
 21
123.1052707716
 31
0.0
  0
LINE
  5
3EA
330
1F
100
AcDbEntity
  8
0
  6
Continuous
 62
     7
100
AcDbLine
 10
155.4302132912
 20
122.6531147783
 30
0.0
 11
154.7794850639
 21
121.0821178667
 31
0.0
  0
LINE
  5
3EB
330
1F
100
AcDbEntity
  8
0
  6
Continuous
 62
     7
100
AcDbLine
 10
18.2130811533
 20
300.3325147903
 30
0.0
 11
260.0473957283
 21
300.3325147903
 31
0.0
  0
LINE
  5
3EC
330
1F
100
AcDbEntity
  8
0
  6
Continuous
 62
     7
100
AcDbLine
 10
260.0473957283
 20
300.3325147903
 30
0.0
 11
264.1302384408
 21
304.1325147903
 31
0.0
  0
LINE
  5
3ED
330
1F
100
AcDbEntity
  8
0
  6
Continuous
 62
     7
100
AcDbLine
 10
264.1302384408
 20
304.1325147903
 30
0.0
 11
264.1302384408
 21
307.1325147903
 31
0.0
  0
LINE
  5
3EE
330
1F
100
AcDbEntity
  8
0
  6
Continuous
 62
     7
100
AcDbLine
 10
264.1302384408
 20
307.1325147903
 30
0.0
 11
264.1302384408
 21
310.1325147903
 31
0.0
  0
LINE
  5
3EF
330
1F
100
AcDbEntity
  8
0
  6
Continuous
 62
     7
100
AcDbLine
 10
264.1302384408
 20
310.1325147903
 30
0.0
 11
264.1302384408
 21
320.1325147903
 31
0.0
  0
LINE
  5
3F0
330
1F
100
AcDbEntity
  8
0
  6
Continuous
 62
     7
100
AcDbLine
 10
264.1302384408
 20
320.1325147903
 30
0.0
 11
264.1302384408
 21
323.1325147903
 31
0.0
  0
LINE
  5
3F1
330
1F
100
AcDbEntity
  8
0
  6
Continuous
 62
     7
100
AcDbLine
 10
264.1302384408
 20
323.1325147903
 30
0.0
 11
264.1302384408
 21
326.1325147903
 31
0.0
  0
LINE
  5
3F2
330
1F
100
AcDbEntity
  8
0
  6
Continuous
 62
     7
100
AcDbLine
 10
264.1302384408
 20
326.1325147903
 30
0.0
 11
260.0473957283
 21
329.9325147903
 31
0.0
  0
LINE
  5
3F3
330
1F
100
AcDbEntity
  8
0
  6
Continuous
 62
     7
100
AcDbLine
 10
260.0473957283
 20
329.9325147903
 30
0.0
 11
18.2130811533
 21
329.9325147903
 31
0.0
  0
LINE
  5
3F4
330
1F
100
AcDbEntity
  8
0
  6
Continuous
 62
     7
100
AcDbLine
 10
18.2130811533
 20
329.9325147903
 30
0.0
 11
14.1302384408
 21
326.1325147903
 31
0.0
  0
LINE
  5
3F5
330
1F
100
AcDbEntity
  8
0
  6
Continuous
 62
     7
100
AcDbLine
 10
14.1302384408
 20
326.1325147903
 30
0.0
 11
14.1302384408
 21
323.1325147903
 31
0.0
  0
LINE
  5
3F6
330
1F
100
AcDbEntity
  8
0
  6
Continuous
 62
     7
100
AcDbLine
 10
14.1302384408
 20
323.1325147903
 30
0.0
 11
14.1302384408
 21
320.1325147903
 31
0.0
  0
LINE
  5
3F7
330
1F
100
AcDbEntity
  8
0
  6
Continuous
 62
     7
100
AcDbLine
 10
14.1302384408
 20
320.1325147903
 30
0.0
 11
14.1302384408
 21
310.1325147903
 31
0.0
  0
LINE
  5
3F8
330
1F
100
AcDbEntity
  8
0
  6
Continuous
 62
     7
100
AcDbLine
 10
14.1302384408
 20
310.1325147903
 30
0.0
 11
14.1302384408
 21
307.1325147903
 31
0.0
  0
LINE
  5
3F9
330
1F
100
AcDbEntity
  8
0
  6
Continuous
 62
     7
100
AcDbLine
 10
14.1302384408
 20
307.1325147903
 30
0.0
 11
14.1302384408
 21
304.1325147903
 31
0.0
  0
LINE
  5
3FA
330
1F
100
AcDbEntity
  8
0
  6
Continuous
 62
     7
100
AcDbLine
 10
14.1302384408
 20
304.1325147903
 30
0.0
 11
18.2130811533
 21
300.3325147903
 31
0.0
  0
LINE
  5
3FB
330
1F
100
AcDbEntity
  8
0
  6
Continuous
 62
     7
100
AcDbLine
 10
170.7815932745
 20
25.282801573
 30
0.0
 11
170.7815932745
 21
20.282801573
 31
0.0
  0
LINE
  5
3FC
330
1F
100
AcDbEntity
  8
0
  6
Continuous
 62
     7
100
AcDbLine
 10
170.7815932745
 20
20.282801573
 30
0.0
 11
156.6394576508
 21
20.282801573
 31
0.0
  0
LINE
  5
3FD
330
1F
100
AcDbEntity
  8
0
  6
Continuous
 62
     7
100
AcDbLine
 10
156.6394576508
 20
20.282801573
 30
0.0
 11
156.6394576508
 21
25.282801573
 31
0.0
  0
LINE
  5
3FE
330
1F
100
AcDbEntity
  8
0
  6
Continuous
 62
     7
100
AcDbLine
 10
156.6394576508
 20
25.282801573
 30
0.0
 11
156.6394576508
 21
51.4854035978
 31
0.0
  0
LINE
  5
3FF
330
1F
100
AcDbEntity
  8
0
  6
Continuous
 62
     7
100
AcDbLine
 10
156.6394576508
 20
51.4854035978
 30
0.0
 11
188.6717511349
 21
51.482849294
 31
0.0
  0
LINE
  5
400
330
1F
100
AcDbEntity
  8
0
  6
Continuous
 62
     7
100
AcDbLine
 10
188.6717511349
 20
51.482849294
 30
0.0
 11
173.7105254626
 21
25.282801573
 31
0.0
  0
LINE
  5
401
330
1F
100
AcDbEntity
  8
0
  6
Continuous
 62
     7
100
AcDbLine
 10
173.7105254626
 20
25.282801573
 30
0.0
 11
170.7815932745
 21
25.282801573
 31
0.0
  0
LINE
  5
402
330
1F
100
AcDbEntity
  8
0
  6
Continuous
 62
     7
100
AcDbLine
 10
238.1930395803
 20
227.0
 30
0.0
 11
238.1930395803
 21
232.0
 31
0.0
  0
LINE
  5
403
330
1F
100
AcDbEntity
  8
0
  6
Continuous
 62
     7
100
AcDbLine
 10
238.1930395803
 20
232.0
 30
0.0
 11
224.0509039566
 21
232.0
 31
0.0
  0
LINE
  5
404
330
1F
100
AcDbEntity
  8
0
  6
Continuous
 62
     7
100
AcDbLine
 10
224.0509039566
 20
232.0
 30
0.0
 11
224.0509039566
 21
227.0
 31
0.0
  0
LINE
  5
405
330
1F
100
AcDbEntity
  8
0
  6
Continuous
 62
     7
100
AcDbLine
 10
224.0509039566
 20
227.0
 30
0.0
 11
224.0509039566
 21
200.7973979751
 31
0.0
  0
LINE
  5
406
330
1F
100
AcDbEntity
  8
0
  6
Continuous
 62
     7
100
AcDbLine
 10
224.0509039566
 20
200.7973979751
 30
0.0
 11
256.0831974407
 21
200.799952279
 31
0.0
  0
LINE
  5
407
330
1F
100
AcDbEntity
  8
0
  6
Continuous
 62
     7
100
AcDbLine
 10
256.0831974407
 20
200.799952279
 30
0.0
 11
241.1219717685
 21
227.0
 31
0.0
  0
LINE
  5
408
330
1F
100
AcDbEntity
  8
0
  6
Continuous
 62
     7
100
AcDbLine
 10
241.1219717685
 20
227.0
 30
0.0
 11
238.1930395803
 21
227.0
 31
0.0
  0
LINE
  5
409
330
1F
100
AcDbEntity
  8
0
  6
Continuous
 62
     7
100
AcDbLine
 10
214.9191412666
 20
36.3709060627
 30
0.0
 11
214.4199372008
 21
36.1443458881
 31
0.0
  0
LINE
  5
40A
330
1F
100
AcDbEntity
  8
0
  6
Continuous
 62
     7
100
AcDbLine
 10
214.369984311
 20
36.1291589628
 30
0.0
 11
213.8291521231
 21
36.0395221585
 31
0.0
  0
LINE
  5
40B
330
1F
100
AcDbEntity
  8
0
  6
Continuous
 62
     7
100
AcDbLine
 10
213.7769706713
 20
36.0377814745
 30
0.0
 11
213.2313671812
 21
36.0911766407
 31
0.0
  0
LINE
  5
40C
330
1F
100
AcDbEntity
  8
0
  6
Continuous
 62
     7
100
AcDbLine
 10
213.180513247
 20
36.1030008225
 30
0.0
 11
212.667320431
 21
36.2957891668
 31
0.0
  0
LINE
  5
40D
330
1F
100
AcDbEntity
  8
0
  6
Continuous
 62
     7
100
AcDbLine
 10
212.6212596261
 20
36.3203724161
 30
0.0
 11
212.1754507264
 21
36.6394157315
 31
0.0
  0
LINE
  5
40E
330
1F
100
AcDbEntity
  8
0
  6
Continuous
 62
     7
100
AcDbLine
 10
212.1373220184
 20
36.6750827404
 30
0.0
 11
211.7892781749
 21
37.0986387522
 31
0.0
  0
LINE
  5
40F
330
1F
100
AcDbEntity
  8
0
  6
Continuous
 62
     7
100
AcDbLine
 10
211.7616799723
 20
37.142958873
 30
0.0
 11
211.5351197977
 21
37.6421629389
 31
0.0
  0
LINE
  5
410
330
1F
100
AcDbEntity
  8
0
  6
Continuous
 62
     7
100
AcDbLine
 10
211.5199328724
 20
37.6921158287
 30
0.0
 11
211.4302960681
 21
38.2329480166
 31
0.0
  0
LINE
  5
411
330
1F
100
AcDbEntity
  8
0
  6
Continuous
 62
     7
100
AcDbLine
 10
211.4285553841
 20
38.2851294684
 30
0.0
 11
211.4819505503
 21
38.8307329585
 31
0.0
  0
LINE
  5
412
330
1F
100
AcDbEntity
  8
0
  6
Continuous
 62
     7
100
AcDbLine
 10
211.4937747321
 20
38.8815868926
 30
0.0
 11
211.6865630764
 21
39.3947797087
 31
0.0
  0
LINE
  5
413
330
1F
100
AcDbEntity
  8
0
  6
Continuous
 62
     7
100
AcDbLine
 10
211.7111463257
 20
39.4408405136
 30
0.0
 11
212.0301896411
 21
39.8866494133
 31
0.0
  0
LINE
  5
414
330
1F
100
AcDbEntity
  8
0
  6
Continuous
 62
     7
100
AcDbLine
 10
212.06585665
 20
39.9247781212
 30
0.0
 11
212.4894126618
 21
40.2728219648
 31
0.0
  0
LINE
  5
415
330
1F
100
AcDbEntity
  8
0
  6
Continuous
 62
     7
100
AcDbLine
 10
212.5337327826
 20
40.3004201674
 30
0.0
 11
213.0329368485
 21
40.526980342
 31
0.0
  0
LINE
  5
416
330
1F
100
AcDbEntity
  8
0
  6
Continuous
 62
     7
100
AcDbLine
 10
213.0828897383
 20
40.5421672673
 30
0.0
 11
213.6237219262
 21
40.6318040715
 31
0.0
  0
LINE
  5
417
330
1F
100
AcDbEntity
  8
0
  6
Continuous
 62
     7
100
AcDbLine
 10
213.675903378
 20
40.6335447556
 30
0.0
 11
214.2215068681
 21
40.5801495894
 31
0.0
  0
LINE
  5
418
330
1F
100
AcDbEntity
  8
0
  6
Continuous
 62
     7
100
AcDbLine
 10
214.2723608022
 20
40.5683254076
 30
0.0
 11
214.7855536183
 21
40.3755370633
 31
0.0
  0
LINE
  5
419
330
1F
100
AcDbEntity
  8
0
  6
Continuous
 62
     7
100
AcDbLine
 10
214.8316144232
 20
40.350953814
 30
0.0
 11
215.2774233229
 21
40.0319104986
 31
0.0
  0
LINE
  5
41A
330
1F
100
AcDbEntity
  8
0
  6
Continuous
 62
     7
100
AcDbLine
 10
215.3155520309
 20
39.9962434897
 30
0.0
 11
215.6635958744
 21
39.5726874779
 31
0.0
  0
LINE
  5
41B
330
1F
100
AcDbEntity
  8
0
  6
Continuous
 62
     7
100
AcDbLine
 10
215.691194077
 20
39.528367357
 30
0.0
 11
215.9177542516
 21
39.0291632912
 31
0.0
  0
LINE
  5
41C
330
1F
100
AcDbEntity
  8
0
  6
Continuous
 62
     7
100
AcDbLine
 10
215.9329411769
 20
38.9792104014
 30
0.0
 11
216.0225779811
 21
38.4383782135
 31
0.0
  0
LINE
  5
41D
330
1F
100
AcDbEntity
  8
0
  6
Continuous
 62
     7
100
AcDbLine
 10
216.0243186652
 20
38.3861967617
 30
0.0
 11
215.970923499
 21
37.8405932716
 31
0.0
  0
LINE
  5
41E
330
1F
100
AcDbEntity
  8
0
  6
Continuous
 62
     7
100
AcDbLine
 10
215.9590993172
 20
37.7897393374
 30
0.0
 11
215.7663109729
 21
37.2765465214
 31
0.0
  0
LINE
  5
41F
330
1F
100
AcDbEntity
  8
0
  6
Continuous
 62
     7
100
AcDbLine
 10
215.7417277236
 20
37.2304857165
 30
0.0
 11
215.4226844082
 21
36.7846768168
 31
0.0
  0
LINE
  5
420
330
1F
100
AcDbEntity
  8
0
  6
Continuous
 62
     7
100
AcDbLine
 10
215.3870173993
 20
36.7465481088
 30
0.0
 11
214.9634613875
 21
36.3985042653
 31
0.0
  0
LINE
  5
421
330
1F
100
AcDbEntity
  8
0
  6
Continuous
 62
     7
100
AcDbLine
 10
248.7105254626
 20
159.09211941
 30
0.0
 11
248.7105254626
 21
156.6225475351
 31
0.0
  0
LINE
  5
422
330
1F
100
AcDbEntity
  8
0
  6
Continuous
 62
     7
100
AcDbLine
 10
248.7105254626
 20
156.6225475351
 30
0.0
 11
194.3821049614
 21
61.482801573
 31
0.0
  0
LINE
  5
423
330
1F
100
AcDbEntity
  8
0
  6
Continuous
 62
     7
100
AcDbLine
 10
194.3821049614
 20
61.482801573
 30
0.0
 11
171.6033344446
 21
61.3917578897
 31
0.0
  0
LINE
  5
424
330
1F
100
AcDbEntity
  8
0
  6
Continuous
 62
     7
100
AcDbLine
 10
146.8090751311
 20
70.4552056219
 30
0.0
 11
146.8090751311
 21
25.282801573
 31
0.0
  0
LINE
  5
425
330
1F
100
AcDbEntity
  8
0
  6
Continuous
 62
     7
100
AcDbLine
 10
146.8090751311
 20
25.282801573
 30
0.0
 11
105.7105254626
 21
25.282801573
 31
0.0
  0
LINE
  5
426
330
1F
100
AcDbEntity
  8
0
  6
Continuous
 62
     7
100
AcDbLine
 10
105.7105254626
 20
25.282801573
 30
0.0
 11
105.7105254626
 21
23.282801573
 31
0.0
  0
LINE
  5
427
330
1F
100
AcDbEntity
  8
0
  6
Continuous
 62
     7
100
AcDbLine
 10
105.7105254626
 20
23.282801573
 30
0.0
 11
104.4164302371
 21
23.1124307044
 31
0.0
  0
LINE
  5
428
330
1F
100
AcDbEntity
  8
0
  6
Continuous
 62
     7
100
AcDbLine
 10
104.4164302371
 20
23.1124307044
 30
0.0
 11
103.2105254626
 21
22.6129285919
 31
0.0
  0
LINE
  5
429
330
1F
100
AcDbEntity
  8
0
  6
Continuous
 62
     7
100
AcDbLine
 10
103.2105254626
 20
22.6129285919
 30
0.0
 11
102.1749915567
 21
21.8183354789
 31
0.0
  0
LINE
  5
42A
330
1F
100
AcDbEntity
  8
0
  6
Continuous
 62
     7
100
AcDbLine
 10
102.1749915567
 20
21.8183354789
 30
0.0
 11
101.3803984437
 21
20.782801573
 31
0.0
  0
LINE
  5
42B
330
1F
100
AcDbEntity
  8
0
  6
Continuous
 62
     7
100
AcDbLine
 10
101.3803984437
 20
20.782801573
 30
0.0
 11
100.8808963312
 21
19.5768967985
 31
0.0
  0
LINE
  5
42C
330
1F
100
AcDbEntity
  8
0
  6
Continuous
 62
     7
100
AcDbLine
 10
100.8808963312
 20
19.5768967985
 30
0.0
 11
100.7105254626
 21
18.282801573
 31
0.0
  0
LINE
  5
42D
330
1F
100
AcDbEntity
  8
0
  6
Continuous
 62
     7
100
AcDbLine
 10
100.7105254626
 20
18.282801573
 30
0.0
 11
98.7105254626
 21
18.282801573
 31
0.0
  0
LINE
  5
42E
330
1F
100
AcDbEntity
  8
0
  6
Continuous
 62
     7
100
AcDbLine
 10
98.7105254626
 20
18.282801573
 30
0.0
 11
98.7105254626
 21
15.282801573
 31
0.0
  0
LINE
  5
42F
330
1F
100
AcDbEntity
  8
0
  6
Continuous
 62
     7
100
AcDbLine
 10
98.7105254626
 20
15.282801573
 30
0.0
 11
113.7105254626
 21
15.282801573
 31
0.0
  0
LINE
  5
430
330
1F
100
AcDbEntity
  8
0
  6
Continuous
 62
     7
100
AcDbLine
 10
113.7105254626
 20
15.282801573
 30
0.0
 11
113.7105254626
 21
20.282801573
 31
0.0
  0
LINE
  5
431
330
1F
100
AcDbEntity
  8
0
  6
Continuous
 62
     7
100
AcDbLine
 10
113.7105254626
 20
20.282801573
 30
0.0
 11
123.7105254626
 21
20.282801573
 31
0.0
  0
LINE
  5
432
330
1F
100
AcDbEntity
  8
0
  6
Continuous
 62
     7
100
AcDbLine
 10
123.7105254626
 20
20.282801573
 30
0.0
 11
123.7105254626
 21
15.282801573
 31
0.0
  0
LINE
  5
433
330
1F
100
AcDbEntity
  8
0
  6
Continuous
 62
     7
100
AcDbLine
 10
123.7105254626
 20
15.282801573
 30
0.0
 11
248.6903616074
 21
15.282801573
 31
0.0
  0
LINE
  5
434
330
1F
100
AcDbEntity
  8
0
  6
Continuous
 62
     7
100
AcDbLine
 10
248.6903616074
 20
15.282801573
 30
0.0
 11
248.6903616074
 21
20.282801573
 31
0.0
  0
LINE
  5
435
330
1F
100
AcDbEntity
  8
0
  6
Continuous
 62
     7
100
AcDbLine
 10
248.6903616074
 20
20.282801573
 30
0.0
 11
258.6903616074
 21
20.282801573
 31
0.0
  0
LINE
  5
436
330
1F
100
AcDbEntity
  8
0
  6
Continuous
 62
     7
100
AcDbLine
 10
258.6903616074
 20
20.282801573
 30
0.0
 11
258.6903616074
 21
15.282801573
 31
0.0
  0
LINE
  5
437
330
1F
100
AcDbEntity
  8
0
  6
Continuous
 62
     7
100
AcDbLine
 10
258.6903616074
 20
15.282801573
 30
0.0
 11
333.7105254626
 21
15.282801573
 31
0.0
  0
LINE
  5
438
330
1F
100
AcDbEntity
  8
0
  6
Continuous
 62
     7
100
AcDbLine
 10
333.7105254626
 20
15.282801573
 30
0.0
 11
333.7105254626
 21
20.282801573
 31
0.0
  0
LINE
  5
439
330
1F
100
AcDbEntity
  8
0
  6
Continuous
 62
     7
100
AcDbLine
 10
333.7105254626
 20
20.282801573
 30
0.0
 11
343.7105254626
 21
20.282801573
 31
0.0
  0
LINE
  5
43A
330
1F
100
AcDbEntity
  8
0
  6
Continuous
 62
     7
100
AcDbLine
 10
343.7105254626
 20
20.282801573
 30
0.0
 11
343.7105254626
 21
15.282801573
 31
0.0
  0
LINE
  5
43B
330
1F
100
AcDbEntity
  8
0
  6
Continuous
 62
     7
100
AcDbLine
 10
343.7105254626
 20
15.282801573
 30
0.0
 11
358.7105254626
 21
15.282801573
 31
0.0
  0
LINE
  5
43C
330
1F
100
AcDbEntity
  8
0
  6
Continuous
 62
     7
100
AcDbLine
 10
358.7105254626
 20
15.282801573
 30
0.0
 11
358.7105254626
 21
18.282801573
 31
0.0
  0
LINE
  5
43D
330
1F
100
AcDbEntity
  8
0
  6
Continuous
 62
     7
100
AcDbLine
 10
358.7105254626
 20
18.282801573
 30
0.0
 11
356.7105254626
 21
18.282801573
 31
0.0
  0
LINE
  5
43E
330
1F
100
AcDbEntity
  8
0
  6
Continuous
 62
     7
100
AcDbLine
 10
356.7105254626
 20
18.282801573
 30
0.0
 11
356.5401545941
 21
19.5768967985
 31
0.0
  0
LINE
  5
43F
330
1F
100
AcDbEntity
  8
0
  6
Continuous
 62
     7
100
AcDbLine
 10
356.5401545941
 20
19.5768967985
 30
0.0
 11
356.0406524816
 21
20.782801573
 31
0.0
  0
LINE
  5
440
330
1F
100
AcDbEntity
  8
0
  6
Continuous
 62
     7
100
AcDbLine
 10
356.0406524816
 20
20.782801573
 30
0.0
 11
355.2460593686
 21
21.8183354789
 31
0.0
  0
LINE
  5
441
330
1F
100
AcDbEntity
  8
0
  6
Continuous
 62
     7
100
AcDbLine
 10
355.2460593686
 20
21.8183354789
 30
0.0
 11
354.2105254626
 21
22.6129285919
 31
0.0
  0
LINE
  5
442
330
1F
100
AcDbEntity
  8
0
  6
Continuous
 62
     7
100
AcDbLine
 10
354.2105254626
 20
22.6129285919
 30
0.0
 11
353.0046206882
 21
23.1124307044
 31
0.0
  0
LINE
  5
443
330
1F
100
AcDbEntity
  8
0
  6
Continuous
 62
     7
100
AcDbLine
 10
353.0046206882
 20
23.1124307044
 30
0.0
 11
351.7105254626
 21
23.282801573
 31
0.0
  0
LINE
  5
444
330
1F
100
AcDbEntity
  8
0
  6
Continuous
 62
     7
100
AcDbLine
 10
351.7105254626
 20
23.282801573
 30
0.0
 11
351.7105254626
 21
25.282801573
 31
0.0
  0
LINE
  5
445
330
1F
100
AcDbEntity
  8
0
  6
Continuous
 62
     7
100
AcDbLine
 10
351.7105254626
 20
25.282801573
 30
0.0
 11
333.24235219
 21
25.282801573
 31
0.0
  0
LINE
  5
446
330
1F
100
AcDbEntity
  8
0
  6
Continuous
 62
     7
100
AcDbLine
 10
333.24235219
 20
25.282801573
 30
0.0
 11
258.7105254626
 21
156.6225475351
 31
0.0
  0
LINE
  5
447
330
1F
100
AcDbEntity
  8
0
  6
Continuous
 62
     7
100
AcDbLine
 10
258.7105254626
 20
156.6225475351
 30
0.0
 11
258.7105254626
 21
159.4295449591
 31
0.0
  0
LINE
  5
448
330
1F
100
AcDbEntity
  8
0
  6
Continuous
 62
     7
100
AcDbLine
 10
97.6860040425
 20
185.3237321884
 30
0.0
 11
89.6860040425
 21
182.3237321884
 31
0.0
  0
LINE
  5
449
330
1F
100
AcDbEntity
  8
0
  6
Continuous
 62
     7
100
AcDbLine
 10
89.6860040425
 20
182.3237321884
 30
0.0
 11
93.6860040425
 21
174.3237321884
 31
0.0
  0
LINE
  5
44A
330
1F
100
AcDbEntity
  8
0
  6
Continuous
 62
     7
100
AcDbLine
 10
93.6860040425
 20
174.3237321884
 30
0.0
 11
93.6860040425
 21
170.3237321884
 31
0.0
  0
LINE
  5
44B
330
1F
100
AcDbEntity
  8
0
  6
Continuous
 62
     7
100
AcDbLine
 10
93.6860040425
 20
170.3237321884
 30
0.0
 11
101.6860040425
 21
166.3237321884
 31
0.0
  0
LINE
  5
44C
330
1F
100
AcDbEntity
  8
0
  6
Continuous
 62
     7
100
AcDbLine
 10
101.6860040425
 20
166.3237321884
 30
0.0
 11
107.6860040425
 21
171.3237321884
 31
0.0
  0
LINE
  5
44D
330
1F
100
AcDbEntity
  8
0
  6
Continuous
 62
     7
100
AcDbLine
 10
107.6860040425
 20
171.3237321884
 30
0.0
 11
111.6860040425
 21
175.3237321884
 31
0.0
  0
LINE
  5
44E
330
1F
100
AcDbEntity
  8
0
  6
Continuous
 62
     7
100
AcDbLine
 10
111.6860040425
 20
175.3237321884
 30
0.0
 11
111.6860040425
 21
181.3237321884
 31
0.0
  0
LINE
  5
44F
330
1F
100
AcDbEntity
  8
0
  6
Continuous
 62
     7
100
AcDbLine
 10
111.6860040425
 20
181.3237321884
 30
0.0
 11
107.6860040425
 21
185.3237321884
 31
0.0
  0
LINE
  5
450
330
1F
100
AcDbEntity
  8
0
  6
Continuous
 62
     7
100
AcDbLine
 10
107.6860040425
 20
185.3237321884
 30
0.0
 11
108.6860040425
 21
189.3237321884
 31
0.0
  0
LINE
  5
451
330
1F
100
AcDbEntity
  8
0
  6
Continuous
 62
     7
100
AcDbLine
 10
108.6860040425
 20
189.3237321884
 30
0.0
 11
101.6860040425
 21
191.3237321884
 31
0.0
  0
LINE
  5
452
330
1F
100
AcDbEntity
  8
0
  6
Continuous
 62
     7
100
AcDbLine
 10
101.6860040425
 20
191.3237321884
 30
0.0
 11
97.6860040425
 21
185.3237321884
 31
0.0
  0
LINE
  5
453
330
1F
100
AcDbEntity
  8
0
  6
Continuous
 62
     7
100
AcDbLine
 10
73.8795007773
 20
274.9319965511
 30
0.0
 11
86.6970538943
 21
275.0393893689
 31
0.0
  0
LINE
  5
454
330
1F
100
AcDbEntity
  8
0
  6
Continuous
 62
     7
100
AcDbLine
 10
86.6970538943
 20
275.0393893689
 30
0.0
 11
103.3687515058
 21
275.2294473599
 31
0.0
  0
LINE
  5
455
330
1F
100
AcDbEntity
  8
0
  6
Continuous
 62
     7
100
AcDbLine
 10
103.3687515058
 20
275.2294473599
 30
0.0
 11
117.2045127057
 21
276.6511389425
 31
0.0
  0
LINE
  5
456
330
1F
100
AcDbEntity
  8
0
  6
Continuous
 62
     7
100
AcDbLine
 10
117.2045127057
 20
276.6511389425
 30
0.0
 11
131.058234468
 21
277.8855976374
 31
0.0
  0
LINE
  5
457
330
1F
100
AcDbEntity
  8
0
  6
Continuous
 62
     7
100
AcDbLine
 10
131.058234468
 20
277.8855976374
 30
0.0
 11
144.9273831744
 21
278.9325976823
 31
0.0
  0
LINE
  5
458
330
1F
100
AcDbEntity
  8
0
  6
Continuous
 62
     7
100
AcDbLine
 10
144.9273831744
 20
278.9325976823
 30
0.0
 11
158.8094223855
 21
279.7919475982
 31
0.0
  0
LINE
  5
459
330
1F
100
AcDbEntity
  8
0
  6
Continuous
 62
     7
100
AcDbLine
 10
158.8094223855
 20
279.7919475982
 30
0.0
 11
172.7018133042
 21
280.463490224
 31
0.0
  0
LINE
  5
45A
330
1F
100
AcDbEntity
  8
0
  6
Continuous
 62
     7
100
AcDbLine
 10
172.7018133042
 20
280.463490224
 30
0.0
 11
186.6020152403
 21
280.9471027456
 31
0.0
  0
LINE
  5
45B
330
1F
100
AcDbEntity
  8
0
  6
Continuous
 62
     7
100
AcDbLine
 10
186.6020152403
 20
280.9471027456
 30
0.0
 11
200.5074860751
 21
281.2426967183
 31
0.0
  0
LINE
  5
45C
330
1F
100
AcDbEntity
  8
0
  6
Continuous
 62
     7
100
AcDbLine
 10
200.5074860751
 20
281.2426967183
 30
0.0
 11
214.4156827264
 21
281.3502180828
 31
0.0
  0
LINE
  5
45D
330
1F
100
AcDbEntity
  8
0
  6
Continuous
 62
     7
100
AcDbLine
 10
214.4156827264
 20
281.3502180828
 30
0.0
 11
228.3240616134
 21
281.2696471751
 31
0.0
  0
LINE
  5
45E
330
1F
100
AcDbEntity
  8
0
  6
Continuous
 62
     7
100
AcDbLine
 10
228.3240616134
 20
281.2696471751
 30
0.0
 11
242.230079122
 21
281.0009987304
 31
0.0
  0
LINE
  5
45F
330
1F
100
AcDbEntity
  8
0
  6
Continuous
 62
     7
100
AcDbLine
 10
242.230079122
 20
281.0009987304
 30
0.0
 11
256.1311920699
 21
280.54432188
 31
0.0
  0
LINE
  5
460
330
1F
100
AcDbEntity
  8
0
  6
Continuous
 62
     7
100
AcDbLine
 10
256.1311920699
 20
280.54432188
 30
0.0
 11
267.5089493444
 21
280.0164302776
 31
0.0
  0
LINE
  5
461
330
1F
100
AcDbEntity
  8
0
  6
Continuous
 62
     7
100
AcDbLine
 10
267.5089493444
 20
284.4671915507
 30
0.0
 11
264.9582036217
 21
284.5699396326
 31
0.0
  0
LINE
  5
462
330
1F
100
AcDbEntity
  8
0
  6
Continuous
 62
     7
100
AcDbLine
 10
257.3381502472
 20
288.8713508533
 30
0.0
 11
256.5790498133
 21
289.8997001427
 31
0.0
  0
LINE
  5
463
330
1F
100
AcDbEntity
  8
0
  6
Continuous
 62
     7
100
AcDbLine
 10
256.5790498133
 20
289.8997001427
 30
0.0
 11
154.2055820976
 21
289.8997001427
 31
0.0
  0
LINE
  5
464
330
1F
100
AcDbEntity
  8
0
  6
Continuous
 62
     7
100
AcDbLine
 10
154.2055820976
 20
289.8997001427
 30
0.0
 11
154.2055820976
 21
285.7552690713
 31
0.0
  0
LINE
  5
465
330
1F
100
AcDbEntity
  8
0
  6
Continuous
 62
     7
100
AcDbLine
 10
154.2055820976
 20
285.7552690713
 30
0.0
 11
144.2055820976
 21
285.7552690713
 31
0.0
  0
LINE
  5
466
330
1F
100
AcDbEntity
  8
0
  6
Continuous
 62
     7
100
AcDbLine
 10
144.2055820976
 20
285.7552690713
 30
0.0
 11
144.2055820976
 21
289.8997001427
 31
0.0
  0
LINE
  5
467
330
1F
100
AcDbEntity
  8
0
  6
Continuous
 62
     7
100
AcDbLine
 10
144.2055820976
 20
289.8997001427
 30
0.0
 11
26.323997036
 21
289.8997001427
 31
0.0
  0
LINE
  5
468
330
1F
100
AcDbEntity
  8
0
  6
Continuous
 62
     7
100
AcDbLine
 10
25.3462245144
 20
279.0487074143
 30
0.0
 11
28.3047490043
 21
278.6018801495
 31
0.0
  0
LINE
  5
469
330
1F
100
AcDbEntity
  8
0
  6
Continuous
 62
     7
100
AcDbLine
 10
28.3047490043
 20
278.6018801495
 30
0.0
 11
32.4550429733
 21
278.0223638237
 31
0.0
  0
LINE
  5
46A
330
1F
100
AcDbEntity
  8
0
  6
Continuous
 62
     7
100
AcDbLine
 10
32.4550429733
 20
278.0223638237
 30
0.0
 11
36.6115468182
 21
277.4892081355
 31
0.0
  0
LINE
  5
46B
330
1F
100
AcDbEntity
  8
0
  6
Continuous
 62
     7
100
AcDbLine
 10
36.6115468182
 20
277.4892081355
 30
0.0
 11
40.7737426865
 21
277.0024795101
 31
0.0
  0
LINE
  5
46C
330
1F
100
AcDbEntity
  8
0
  6
Continuous
 62
     7
100
AcDbLine
 10
40.7737426865
 20
277.0024795101
 30
0.0
 11
44.9411120164
 21
276.5622385881
 31
0.0
  0
LINE
  5
46D
330
1F
100
AcDbEntity
  8
0
  6
Continuous
 62
     7
100
AcDbLine
 10
44.9411120164
 20
276.5622385881
 30
0.0
 11
49.1131356015
 21
276.1685402186
 31
0.0
  0
LINE
  5
46E
330
1F
100
AcDbEntity
  8
0
  6
Continuous
 62
     7
100
AcDbLine
 10
49.1131356015
 20
276.1685402186
 30
0.0
 11
53.2892936556
 21
275.8214334518
 31
0.0
  0
LINE
  5
46F
330
1F
100
AcDbEntity
  8
0
  6
Continuous
 62
     7
100
AcDbLine
 10
53.2892936556
 20
275.8214334518
 30
0.0
 11
57.4690658775
 21
275.5209615333
 31
0.0
  0
LINE
  5
470
330
1F
100
AcDbEntity
  8
0
  6
Continuous
 62
     7
100
AcDbLine
 10
57.4690658775
 20
275.5209615333
 30
0.0
 11
61.6519315156
 21
275.2671618984
 31
0.0
  0
LINE
  5
471
330
1F
100
AcDbEntity
  8
0
  6
Continuous
 62
     7
100
AcDbLine
 10
61.6519315156
 20
275.2671618984
 30
0.0
 11
65.8373694329
 21
275.0600661676
 31
0.0
  0
LINE
  5
472
330
1F
100
AcDbEntity
  8
0
  6
Continuous
 62
     7
100
AcDbLine
 10
315.7
 20
99.0
 30
0.0
 11
326.7
 21
99.0
 31
0.0
  0
LINE
  5
473
330
1F
100
AcDbEntity
  8
0
  6
Continuous
 62
     7
100
AcDbLine
 10
326.7
 20
99.0
 30
0.0
 11
326.7
 21
110.0
 31
0.0
  0
LINE
  5
474
330
1F
100
AcDbEntity
  8
0
  6
Continuous
 62
     7
100
AcDbLine
 10
326.7
 20
110.0
 30
0.0
 11
315.7
 21
110.0
 31
0.0
  0
LINE
  5
475
330
1F
100
AcDbEntity
  8
0
  6
Continuous
 62
     7
100
AcDbLine
 10
315.7
 20
110.0
 30
0.0
 11
315.7
 21
99.0
 31
0.0
  0
LINE
  5
476
330
1F
100
AcDbEntity
  8
0
  6
Continuous
 62
     7
100
AcDbLine
 10
248.2504468515
 20
142.0798427778
 30
0.0
 11
259.2504468515
 21
142.0798427778
 31
0.0
  0
LINE
  5
477
330
1F
100
AcDbEntity
  8
0
  6
Continuous
 62
     7
100
AcDbLine
 10
259.2504468515
 20
142.0798427778
 30
0.0
 11
259.2504468515
 21
153.0798427778
 31
0.0
  0
LINE
  5
478
330
1F
100
AcDbEntity
  8
0
  6
Continuous
 62
     7
100
AcDbLine
 10
259.2504468515
 20
153.0798427778
 30
0.0
 11
248.2504468515
 21
153.0798427778
 31
0.0
  0
LINE
  5
479
330
1F
100
AcDbEntity
  8
0
  6
Continuous
 62
     7
100
AcDbLine
 10
248.2504468515
 20
153.0798427778
 30
0.0
 11
248.2504468515
 21
142.0798427778
 31
0.0
  0
LINE
  5
47A
330
1F
100
AcDbEntity
  8
0
  6
Continuous
 62
     7
100
AcDbLine
 10
379.0444609157
 20
152.8333599577
 30
0.0
 11
376.6592586774
 21
146.8629541238
 31
0.0
  0
LINE
  5
47B
330
1F
100
AcDbEntity
  8
0
  6
Continuous
 62
     7
100
AcDbLine
 10
376.6592586774
 20
146.8629541238
 30
0.0
 11
374.9595826004
 21
27.9101442857
 31
0.0
  0
LINE
  5
47C
330
1F
100
AcDbEntity
  8
0
  6
Continuous
 62
     7
100
AcDbLine
 10
374.9595826004
 20
27.9101442857
 30
0.0
 11
373.1046139246
 21
23.2669674409
 31
0.0
  0
LINE
  5
47D
330
1F
100
AcDbEntity
  8
0
  6
Continuous
 62
     7
100
AcDbLine
 10
373.1046139246
 20
23.2669674409
 30
0.0
 11
383.0488691222
 21
19.2941956703
 31
0.0
  0
LINE
  5
47E
330
1F
100
AcDbEntity
  8
0
  6
Continuous
 62
     7
100
AcDbLine
 10
383.0488691222
 20
19.2941956703
 30
0.0
 11
384.903837798
 21
23.9373725151
 31
0.0
  0
LINE
  5
47F
330
1F
100
AcDbEntity
  8
0
  6
Continuous
 62
     7
100
AcDbLine
 10
384.903837798
 20
23.9373725151
 30
0.0
 11
384.9809044696
 21
29.3309279443
 31
0.0
  0
LINE
  5
480
330
1F
100
AcDbEntity
  8
0
  6
Continuous
 62
     7
100
AcDbLine
 10
384.9809044696
 20
29.3309279443
 30
0.0
 11
382.0822625434
 21
30.4889475836
 31
0.0
  0
LINE
  5
481
330
1F
100
AcDbEntity
  8
0
  6
Continuous
 62
     7
100
AcDbLine
 10
382.0822625434
 20
30.4889475836
 30
0.0
 11
382.9355481342
 21
32.6248089322
 31
0.0
  0
LINE
  5
482
330
1F
100
AcDbEntity
  8
0
  6
Continuous
 62
     7
100
AcDbLine
 10
382.9355481342
 20
32.6248089322
 30
0.0
 11
385.044342361
 21
33.7706653407
 31
0.0
  0
LINE
  5
483
330
1F
100
AcDbEntity
  8
0
  6
Continuous
 62
     7
100
AcDbLine
 10
385.044342361
 20
33.7706653407
 30
0.0
 11
385.1237764705
 21
39.3299072718
 31
0.0
  0
LINE
  5
484
330
1F
100
AcDbEntity
  8
0
  6
Continuous
 62
     7
100
AcDbLine
 10
385.1237764705
 20
39.3299072718
 30
0.0
 11
382.2251345443
 21
40.4879269111
 31
0.0
  0
LINE
  5
485
330
1F
100
AcDbEntity
  8
0
  6
Continuous
 62
     7
100
AcDbLine
 10
382.2251345443
 20
40.4879269111
 30
0.0
 11
383.0784201352
 21
42.6237882597
 31
0.0
  0
LINE
  5
486
330
1F
100
AcDbEntity
  8
0
  6
Continuous
 62
     7
100
AcDbLine
 10
383.0784201352
 20
42.6237882597
 30
0.0
 11
385.187214362
 21
43.7696446682
 31
0.0
  0
LINE
  5
487
330
1F
100
AcDbEntity
  8
0
  6
Continuous
 62
     7
100
AcDbLine
 10
385.187214362
 20
43.7696446682
 30
0.0
 11
385.2666484714
 21
49.3288865992
 31
0.0
  0
LINE
  5
488
330
1F
100
AcDbEntity
  8
0
  6
Continuous
 62
     7
100
AcDbLine
 10
385.2666484714
 20
49.3288865992
 30
0.0
 11
382.3680065453
 21
50.4869062386
 31
0.0
  0
LINE
  5
489
330
1F
100
AcDbEntity
  8
0
  6
Continuous
 62
     7
100
AcDbLine
 10
382.3680065453
 20
50.4869062386
 30
0.0
 11
383.2212921361
 21
52.6227675872
 31
0.0
  0
LINE
  5
48A
330
1F
100
AcDbEntity
  8
0
  6
Continuous
 62
     7
100
AcDbLine
 10
383.2212921361
 20
52.6227675872
 30
0.0
 11
385.3300863629
 21
53.7686239957
 31
0.0
  0
LINE
  5
48B
330
1F
100
AcDbEntity
  8
0
  6
Continuous
 62
     7
100
AcDbLine
 10
385.3300863629
 20
53.7686239957
 30
0.0
 11
385.4095204724
 21
59.3278659267
 31
0.0
  0
LINE
  5
48C
330
1F
100
AcDbEntity
  8
0
  6
Continuous
 62
     7
100
AcDbLine
 10
385.4095204724
 20
59.3278659267
 30
0.0
 11
382.5108785462
 21
60.485885566
 31
0.0
  0
LINE
  5
48D
330
1F
100
AcDbEntity
  8
0
  6
Continuous
 62
     7
100
AcDbLine
 10
382.5108785462
 20
60.485885566
 30
0.0
 11
383.364164137
 21
62.6217469146
 31
0.0
  0
LINE
  5
48E
330
1F
100
AcDbEntity
  8
0
  6
Continuous
 62
     7
100
AcDbLine
 10
383.364164137
 20
62.6217469146
 30
0.0
 11
385.4729583638
 21
63.7676033232
 31
0.0
  0
LINE
  5
48F
330
1F
100
AcDbEntity
  8
0
  6
Continuous
 62
     7
100
AcDbLine
 10
385.4729583638
 20
63.7676033232
 30
0.0
 11
385.5523924733
 21
69.3268452542
 31
0.0
  0
LINE
  5
490
330
1F
100
AcDbEntity
  8
0
  6
Continuous
 62
     7
100
AcDbLine
 10
385.5523924733
 20
69.3268452542
 30
0.0
 11
382.6537505471
 21
70.4848648935
 31
0.0
  0
LINE
  5
491
330
1F
100
AcDbEntity
  8
0
  6
Continuous
 62
     7
100
AcDbLine
 10
382.6537505471
 20
70.4848648935
 30
0.0
 11
383.507036138
 21
72.6207262421
 31
0.0
  0
LINE
  5
492
330
1F
100
AcDbEntity
  8
0
  6
Continuous
 62
     7
100
AcDbLine
 10
383.507036138
 20
72.6207262421
 30
0.0
 11
385.6158303648
 21
73.7665826507
 31
0.0
  0
LINE
  5
493
330
1F
100
AcDbEntity
  8
0
  6
Continuous
 62
     7
100
AcDbLine
 10
385.6158303648
 20
73.7665826507
 30
0.0
 11
385.6952644742
 21
79.3258245817
 31
0.0
  0
LINE
  5
494
330
1F
100
AcDbEntity
  8
0
  6
Continuous
 62
     7
100
AcDbLine
 10
385.6952644742
 20
79.3258245817
 30
0.0
 11
382.7966225481
 21
80.483844221
 31
0.0
  0
LINE
  5
495
330
1F
100
AcDbEntity
  8
0
  6
Continuous
 62
     7
100
AcDbLine
 10
382.7966225481
 20
80.483844221
 30
0.0
 11
383.6499081389
 21
82.6197055696
 31
0.0
  0
LINE
  5
496
330
1F
100
AcDbEntity
  8
0
  6
Continuous
 62
     7
100
AcDbLine
 10
383.6499081389
 20
82.6197055696
 30
0.0
 11
385.7587023657
 21
83.7655619781
 31
0.0
  0
LINE
  5
497
330
1F
100
AcDbEntity
  8
0
  6
Continuous
 62
     7
100
AcDbLine
 10
385.7587023657
 20
83.7655619781
 30
0.0
 11
385.8381364752
 21
89.3248039091
 31
0.0
  0
LINE
  5
498
330
1F
100
AcDbEntity
  8
0
  6
Continuous
 62
     7
100
AcDbLine
 10
385.8381364752
 20
89.3248039091
 30
0.0
 11
382.939494549
 21
90.4828235485
 31
0.0
  0
LINE
  5
499
330
1F
100
AcDbEntity
  8
0
  6
Continuous
 62
     7
100
AcDbLine
 10
382.939494549
 20
90.4828235485
 30
0.0
 11
383.7927801398
 21
92.6186848971
 31
0.0
  0
LINE
  5
49A
330
1F
100
AcDbEntity
  8
0
  6
Continuous
 62
     7
100
AcDbLine
 10
383.7927801398
 20
92.6186848971
 30
0.0
 11
385.9015743666
 21
93.7645413056
 31
0.0
  0
LINE
  5
49B
330
1F
100
AcDbEntity
  8
0
  6
Continuous
 62
     7
100
AcDbLine
 10
385.9015743666
 20
93.7645413056
 30
0.0
 11
385.9810084761
 21
99.3237832366
 31
0.0
  0
LINE
  5
49C
330
1F
100
AcDbEntity
  8
0
  6
Continuous
 62
     7
100
AcDbLine
 10
385.9810084761
 20
99.3237832366
 30
0.0
 11
383.0823665499
 21
100.4818028759
 31
0.0
  0
LINE
  5
49D
330
1F
100
AcDbEntity
  8
0
  6
Continuous
 62
     7
100
AcDbLine
 10
383.0823665499
 20
100.4818028759
 30
0.0
 11
383.9356521408
 21
102.6176642246
 31
0.0
  0
LINE
  5
49E
330
1F
100
AcDbEntity
  8
0
  6
Continuous
 62
     7
100
AcDbLine
 10
383.9356521408
 20
102.6176642246
 30
0.0
 11
386.0444463676
 21
103.7635206331
 31
0.0
  0
LINE
  5
49F
330
1F
100
AcDbEntity
  8
0
  6
Continuous
 62
     7
100
AcDbLine
 10
386.0444463676
 20
103.7635206331
 30
0.0
 11
386.123880477
 21
109.3227625641
 31
0.0
  0
LINE
  5
4A0
330
1F
100
AcDbEntity
  8
0
  6
Continuous
 62
     7
100
AcDbLine
 10
386.123880477
 20
109.3227625641
 30
0.0
 11
383.2252385509
 21
110.4807822034
 31
0.0
  0
LINE
  5
4A1
330
1F
100
AcDbEntity
  8
0
  6
Continuous
 62
     7
100
AcDbLine
 10
383.2252385509
 20
110.4807822034
 30
0.0
 11
384.0785241417
 21
112.616643552
 31
0.0
  0
LINE
  5
4A2
330
1F
100
AcDbEntity
  8
0
  6
Continuous
 62
     7
100
AcDbLine
 10
384.0785241417
 20
112.616643552
 30
0.0
 11
386.1873183685
 21
113.7624999606
 31
0.0
  0
LINE
  5
4A3
330
1F
100
AcDbEntity
  8
0
  6
Continuous
 62
     7
100
AcDbLine
 10
386.1873183685
 20
113.7624999606
 30
0.0
 11
386.266752478
 21
119.3217418916
 31
0.0
  0
LINE
  5
4A4
330
1F
100
AcDbEntity
  8
0
  6
Continuous
 62
     7
100
AcDbLine
 10
386.266752478
 20
119.3217418916
 30
0.0
 11
383.3681105518
 21
120.4797615309
 31
0.0
  0
LINE
  5
4A5
330
1F
100
AcDbEntity
  8
0
  6
Continuous
 62
     7
100
AcDbLine
 10
383.3681105518
 20
120.4797615309
 30
0.0
 11
384.2213961426
 21
122.6156228795
 31
0.0
  0
LINE
  5
4A6
330
1F
100
AcDbEntity
  8
0
  6
Continuous
 62
     7
100
AcDbLine
 10
384.2213961426
 20
122.6156228795
 30
0.0
 11
386.3301903694
 21
123.7614792881
 31
0.0
  0
LINE
  5
4A7
330
1F
100
AcDbEntity
  8
0
  6
Continuous
 62
     7
100
AcDbLine
 10
386.3301903694
 20
123.7614792881
 30
0.0
 11
386.4096244789
 21
129.3207212191
 31
0.0
  0
LINE
  5
4A8
330
1F
100
AcDbEntity
  8
0
  6
Continuous
 62
     7
100
AcDbLine
 10
386.4096244789
 20
129.3207212191
 30
0.0
 11
383.5109825527
 21
130.4787408584
 31
0.0
  0
LINE
  5
4A9
330
1F
100
AcDbEntity
  8
0
  6
Continuous
 62
     7
100
AcDbLine
 10
383.5109825527
 20
130.4787408584
 30
0.0
 11
384.3642681436
 21
132.614602207
 31
0.0
  0
LINE
  5
4AA
330
1F
100
AcDbEntity
  8
0
  6
Continuous
 62
     7
100
AcDbLine
 10
384.3642681436
 20
132.614602207
 30
0.0
 11
386.4730623704
 21
133.7604586155
 31
0.0
  0
LINE
  5
4AB
330
1F
100
AcDbEntity
  8
0
  6
Continuous
 62
     7
100
AcDbLine
 10
386.4730623704
 20
133.7604586155
 30
0.0
 11
386.5524964798
 21
139.3197005465
 31
0.0
  0
LINE
  5
4AC
330
1F
100
AcDbEntity
  8
0
  6
Continuous
 62
     7
100
AcDbLine
 10
386.5524964798
 20
139.3197005465
 30
0.0
 11
383.6538545537
 21
140.4777201859
 31
0.0
  0
LINE
  5
4AD
330
1F
100
AcDbEntity
  8
0
  6
Continuous
 62
     7
100
AcDbLine
 10
383.6538545537
 20
140.4777201859
 30
0.0
 11
384.5071401445
 21
142.6135815345
 31
0.0
  0
LINE
  5
4AE
330
1F
100
AcDbEntity
  8
0
  6
Continuous
 62
     7
100
AcDbLine
 10
384.5071401445
 20
142.6135815345
 30
0.0
 11
386.6159343713
 21
143.759437943
 31
0.0
  0
LINE
  5
4AF
330
1F
100
AcDbEntity
  8
0
  6
Continuous
 62
     7
100
AcDbLine
 10
386.6159343713
 20
143.759437943
 30
0.0
 11
386.7419531818
 21
152.5789370261
 31
0.0
  0
LINE
  5
4B0
330
1F
100
AcDbEntity
  8
0
  6
Continuous
 62
     7
100
AcDbLine
 10
386.7419531818
 20
152.5789370261
 30
0.0
 11
386.5621206457
 21
153.4322759349
 31
0.0
  0
LINE
  5
4B1
330
1F
100
AcDbEntity
  8
0
  6
Continuous
 62
     7
100
AcDbLine
 10
386.5621206457
 20
153.4322759349
 30
0.0
 11
386.3540076837
 21
154.2791620131
 31
0.0
  0
LINE
  5
4B2
330
1F
100
AcDbEntity
  8
0
  6
Continuous
 62
     7
100
AcDbLine
 10
386.3540076837
 20
154.2791620131
 30
0.0
 11
386.1178445449
 21
155.1186582944
 31
0.0
  0
LINE
  5
4B3
330
1F
100
AcDbEntity
  8
0
  6
Continuous
 62
     7
100
AcDbLine
 10
386.1178445449
 20
155.1186582944
 30
0.0
 11
385.5624436135
 21
156.7717755078
 31
0.0
  0
LINE
  5
4B4
330
1F
100
AcDbEntity
  8
0
  6
Continuous
 62
     7
100
AcDbLine
 10
385.5624436135
 20
156.7717755078
 30
0.0
 11
385.2438202979
 21
157.5835674868
 31
0.0
  0
LINE
  5
4B5
330
1F
100
AcDbEntity
  8
0
  6
Continuous
 62
     7
100
AcDbLine
 10
385.2438202979
 20
157.5835674868
 30
0.0
 11
384.8983750794
 21
158.3843137858
 31
0.0
  0
LINE
  5
4B6
330
1F
100
AcDbEntity
  8
0
  6
Continuous
 62
     7
100
AcDbLine
 10
384.8983750794
 20
158.3843137858
 30
0.0
 11
384.5264901471
 21
159.1731284862
 31
0.0
  0
LINE
  5
4B7
330
1F
100
AcDbEntity
  8
0
  6
Continuous
 62
     7
100
AcDbLine
 10
384.5264901471
 20
159.1731284862
 30
0.0
 11
384.128576942
 21
159.9491388699
 31
0.0
  0
LINE
  5
4B8
330
1F
100
AcDbEntity
  8
0
  6
Continuous
 62
     7
100
AcDbLine
 10
384.128576942
 20
159.9491388699
 30
0.0
 11
383.7050757018
 21
160.711486385
 31
0.0
  0
LINE
  5
4B9
330
1F
100
AcDbEntity
  8
0
  6
Continuous
 62
     7
100
AcDbLine
 10
383.7050757018
 20
160.711486385
 30
0.0
 11
382.7832110975
 21
162.1918351167
 31
0.0
  0
LINE
  5
4BA
330
1F
100
AcDbEntity
  8
0
  6
Continuous
 62
     7
100
AcDbLine
 10
382.7832110975
 20
162.1918351167
 30
0.0
 11
378.1400342527
 21
164.0468037925
 31
0.0
  0
LINE
  5
4BB
330
1F
100
AcDbEntity
  8
0
  6
Continuous
 62
     7
100
AcDbLine
 10
378.1400342527
 20
164.0468037925
 30
0.0
 11
374.4473206556
 21
154.8035629263
 31
0.0
  0
LINE
  5
4BC
330
1F
100
AcDbEntity
  8
0
  6
Continuous
 62
     7
100
AcDbLine
 10
374.4473206556
 20
154.8035629263
 30
0.0
 11
379.0444609157
 21
152.8333599577
 31
0.0
  0
LINE
  5
4BD
330
1F
100
AcDbEntity
  8
0
  6
Continuous
 62
     7
100
AcDbLine
 10
407.0964263773
 20
34.6532515589
 30
0.0
 11
404.7913091497
 21
28.7283941912
 31
0.0
  0
LINE
  5
4BE
330
1F
100
AcDbEntity
  8
0
  6
Continuous
 62
     7
100
AcDbLine
 10
404.7913091497
 20
28.7283941912
 30
0.0
 11
409.3795941617
 21
26.8556247985
 31
0.0
  0
LINE
  5
4BF
330
1F
100
AcDbEntity
  8
0
  6
Continuous
 62
     7
100
AcDbLine
 10
409.3795941617
 20
26.8556247985
 30
0.0
 11
409.4156667518
 21
26.8244908186
 31
0.0
  0
LINE
  5
4C0
330
1F
100
AcDbEntity
  8
0
  6
Continuous
 62
     7
100
AcDbLine
 10
409.4156667518
 20
26.8244908186
 30
0.0
 11
405.7710532976
 21
17.4567178402
 31
0.0
  0
LINE
  5
4C1
330
1F
100
AcDbEntity
  8
0
  6
Continuous
 62
     7
100
AcDbLine
 10
405.7710532976
 20
17.4567178402
 30
0.0
 11
401.1112972651
 21
19.2696364036
 31
0.0
  0
LINE
  5
4C2
330
1F
100
AcDbEntity
  8
0
  6
Continuous
 62
     7
100
AcDbLine
 10
401.1112972651
 20
19.2696364036
 30
0.0
 11
400.1760879782
 21
20.7415909904
 31
0.0
  0
LINE
  5
4C3
330
1F
100
AcDbEntity
  8
0
  6
Continuous
 62
     7
100
AcDbLine
 10
400.1760879782
 20
20.7415909904
 30
0.0
 11
399.745712422
 21
21.5000789039
 31
0.0
  0
LINE
  5
4C4
330
1F
100
AcDbEntity
  8
0
  6
Continuous
 62
     7
100
AcDbLine
 10
399.745712422
 20
21.5000789039
 30
0.0
 11
399.3408003429
 21
22.2724604435
 31
0.0
  0
LINE
  5
4C5
330
1F
100
AcDbEntity
  8
0
  6
Continuous
 62
     7
100
AcDbLine
 10
399.3408003429
 20
22.2724604435
 30
0.0
 11
398.9617997221
 21
23.0578810721
 31
0.0
  0
LINE
  5
4C6
330
1F
100
AcDbEntity
  8
0
  6
Continuous
 62
     7
100
AcDbLine
 10
398.9617997221
 20
23.0578810721
 30
0.0
 11
398.6091298731
 21
23.8554718268
 31
0.0
  0
LINE
  5
4C7
330
1F
100
AcDbEntity
  8
0
  6
Continuous
 62
     7
100
AcDbLine
 10
398.6091298731
 20
23.8554718268
 30
0.0
 11
398.283180978
 21
24.66435028
 31
0.0
  0
LINE
  5
4C8
330
1F
100
AcDbEntity
  8
0
  6
Continuous
 62
     7
100
AcDbLine
 10
398.283180978
 20
24.66435028
 30
0.0
 11
397.7128585629
 21
26.3123791204
 31
0.0
  0
LINE
  5
4C9
330
1F
100
AcDbEntity
  8
0
  6
Continuous
 62
     7
100
AcDbLine
 10
397.7128585629
 20
26.3123791204
 30
0.0
 11
397.4691160283
 21
27.1497061839
 31
0.0
  0
LINE
  5
4CA
330
1F
100
AcDbEntity
  8
0
  6
Continuous
 62
     7
100
AcDbLine
 10
397.4691160283
 20
27.1497061839
 30
0.0
 11
397.2533557205
 21
27.9946763159
 31
0.0
  0
LINE
  5
4CB
330
1F
100
AcDbEntity
  8
0
  6
Continuous
 62
     7
100
AcDbLine
 10
397.2533557205
 20
27.9946763159
 30
0.0
 11
397.0658163496
 21
28.8463546699
 31
0.0
  0
LINE
  5
4CC
330
1F
100
AcDbEntity
  8
0
  6
Continuous
 62
     7
100
AcDbLine
 10
397.0658163496
 20
28.8463546699
 30
0.0
 11
397.1121017453
 21
37.6666325839
 31
0.0
  0
LINE
  5
4CD
330
1F
100
AcDbEntity
  8
0
  6
Continuous
 62
     7
100
AcDbLine
 10
397.1121017453
 20
37.6666325839
 30
0.0
 11
399.2104512622
 21
38.8315056691
 31
0.0
  0
LINE
  5
4CE
330
1F
100
AcDbEntity
  8
0
  6
Continuous
 62
     7
100
AcDbLine
 10
399.2104512622
 20
38.8315056691
 30
0.0
 11
400.0443938014
 21
40.9749934441
 31
0.0
  0
LINE
  5
4CF
330
1F
100
AcDbEntity
  8
0
  6
Continuous
 62
     7
100
AcDbLine
 10
400.0443938014
 20
40.9749934441
 30
0.0
 11
397.1354018217
 21
42.1067620439
 31
0.0
  0
LINE
  5
4D0
330
1F
100
AcDbEntity
  8
0
  6
Continuous
 62
     7
100
AcDbLine
 10
397.1354018217
 20
42.1067620439
 30
0.0
 11
397.1645771423
 21
47.6664948995
 31
0.0
  0
LINE
  5
4D1
330
1F
100
AcDbEntity
  8
0
  6
Continuous
 62
     7
100
AcDbLine
 10
397.1645771423
 20
47.6664948995
 30
0.0
 11
399.2629266592
 21
48.8313679848
 31
0.0
  0
LINE
  5
4D2
330
1F
100
AcDbEntity
  8
0
  6
Continuous
 62
     7
100
AcDbLine
 10
399.2629266592
 20
48.8313679848
 30
0.0
 11
400.0968691983
 21
50.9748557598
 31
0.0
  0
LINE
  5
4D3
330
1F
100
AcDbEntity
  8
0
  6
Continuous
 62
     7
100
AcDbLine
 10
400.0968691983
 20
50.9748557598
 30
0.0
 11
397.1878772187
 21
52.1066243596
 31
0.0
  0
LINE
  5
4D4
330
1F
100
AcDbEntity
  8
0
  6
Continuous
 62
     7
100
AcDbLine
 10
397.1878772187
 20
52.1066243596
 30
0.0
 11
397.2170525393
 21
57.6663572152
 31
0.0
  0
LINE
  5
4D5
330
1F
100
AcDbEntity
  8
0
  6
Continuous
 62
     7
100
AcDbLine
 10
397.2170525393
 20
57.6663572152
 30
0.0
 11
399.3154020562
 21
58.8312303005
 31
0.0
  0
LINE
  5
4D6
330
1F
100
AcDbEntity
  8
0
  6
Continuous
 62
     7
100
AcDbLine
 10
399.3154020562
 20
58.8312303005
 30
0.0
 11
400.1493445953
 21
60.9747180755
 31
0.0
  0
LINE
  5
4D7
330
1F
100
AcDbEntity
  8
0
  6
Continuous
 62
     7
100
AcDbLine
 10
400.1493445953
 20
60.9747180755
 30
0.0
 11
397.2403526157
 21
62.1064866753
 31
0.0
  0
LINE
  5
4D8
330
1F
100
AcDbEntity
  8
0
  6
Continuous
 62
     7
100
AcDbLine
 10
397.2403526157
 20
62.1064866753
 30
0.0
 11
397.2695279362
 21
67.6662195309
 31
0.0
  0
LINE
  5
4D9
330
1F
100
AcDbEntity
  8
0
  6
Continuous
 62
     7
100
AcDbLine
 10
397.2695279362
 20
67.6662195309
 30
0.0
 11
399.3678774531
 21
68.8310926162
 31
0.0
  0
LINE
  5
4DA
330
1F
100
AcDbEntity
  8
0
  6
Continuous
 62
     7
100
AcDbLine
 10
399.3678774531
 20
68.8310926162
 30
0.0
 11
400.2018199923
 21
70.9745803912
 31
0.0
  0
LINE
  5
4DB
330
1F
100
AcDbEntity
  8
0
  6
Continuous
 62
     7
100
AcDbLine
 10
400.2018199923
 20
70.9745803912
 30
0.0
 11
397.2928280126
 21
72.106348991
 31
0.0
  0
LINE
  5
4DC
330
1F
100
AcDbEntity
  8
0
  6
Continuous
 62
     7
100
AcDbLine
 10
397.2928280126
 20
72.106348991
 30
0.0
 11
397.3220033332
 21
77.6660818466
 31
0.0
  0
LINE
  5
4DD
330
1F
100
AcDbEntity
  8
0
  6
Continuous
 62
     7
100
AcDbLine
 10
397.3220033332
 20
77.6660818466
 30
0.0
 11
399.4203528501
 21
78.8309549319
 31
0.0
  0
LINE
  5
4DE
330
1F
100
AcDbEntity
  8
0
  6
Continuous
 62
     7
100
AcDbLine
 10
399.4203528501
 20
78.8309549319
 30
0.0
 11
400.2542953892
 21
80.9744427069
 31
0.0
  0
LINE
  5
4DF
330
1F
100
AcDbEntity
  8
0
  6
Continuous
 62
     7
100
AcDbLine
 10
400.2542953892
 20
80.9744427069
 30
0.0
 11
397.3453034096
 21
82.1062113067
 31
0.0
  0
LINE
  5
4E0
330
1F
100
AcDbEntity
  8
0
  6
Continuous
 62
     7
100
AcDbLine
 10
397.3453034096
 20
82.1062113067
 30
0.0
 11
397.3744787302
 21
87.6659441623
 31
0.0
  0
LINE
  5
4E1
330
1F
100
AcDbEntity
  8
0
  6
Continuous
 62
     7
100
AcDbLine
 10
397.3744787302
 20
87.6659441623
 30
0.0
 11
399.4728282471
 21
88.8308172476
 31
0.0
  0
LINE
  5
4E2
330
1F
100
AcDbEntity
  8
0
  6
Continuous
 62
     7
100
AcDbLine
 10
399.4728282471
 20
88.8308172476
 30
0.0
 11
400.3067707862
 21
90.9743050225
 31
0.0
  0
LINE
  5
4E3
330
1F
100
AcDbEntity
  8
0
  6
Continuous
 62
     7
100
AcDbLine
 10
400.3067707862
 20
90.9743050225
 30
0.0
 11
397.3977788066
 21
92.1060736224
 31
0.0
  0
LINE
  5
4E4
330
1F
100
AcDbEntity
  8
0
  6
Continuous
 62
     7
100
AcDbLine
 10
397.3977788066
 20
92.1060736224
 30
0.0
 11
397.4269541271
 21
97.665806478
 31
0.0
  0
LINE
  5
4E5
330
1F
100
AcDbEntity
  8
0
  6
Continuous
 62
     7
100
AcDbLine
 10
397.4269541271
 20
97.665806478
 30
0.0
 11
399.5253036441
 21
98.8306795633
 31
0.0
  0
LINE
  5
4E6
330
1F
100
AcDbEntity
  8
0
  6
Continuous
 62
     7
100
AcDbLine
 10
399.5253036441
 20
98.8306795633
 30
0.0
 11
400.3592461832
 21
100.9741673382
 31
0.0
  0
LINE
  5
4E7
330
1F
100
AcDbEntity
  8
0
  6
Continuous
 62
     7
100
AcDbLine
 10
400.3592461832
 20
100.9741673382
 30
0.0
 11
397.4502542035
 21
102.1059359381
 31
0.0
  0
LINE
  5
4E8
330
1F
100
AcDbEntity
  8
0
  6
Continuous
 62
     7
100
AcDbLine
 10
397.4502542035
 20
102.1059359381
 30
0.0
 11
397.4794295241
 21
107.6656687937
 31
0.0
  0
LINE
  5
4E9
330
1F
100
AcDbEntity
  8
0
  6
Continuous
 62
     7
100
AcDbLine
 10
397.4794295241
 20
107.6656687937
 30
0.0
 11
399.577779041
 21
108.830541879
 31
0.0
  0
LINE
  5
4EA
330
1F
100
AcDbEntity
  8
0
  6
Continuous
 62
     7
100
AcDbLine
 10
399.577779041
 20
108.830541879
 30
0.0
 11
400.4117215801
 21
110.9740296539
 31
0.0
  0
LINE
  5
4EB
330
1F
100
AcDbEntity
  8
0
  6
Continuous
 62
     7
100
AcDbLine
 10
400.4117215801
 20
110.9740296539
 30
0.0
 11
397.5027296005
 21
112.1057982537
 31
0.0
  0
LINE
  5
4EC
330
1F
100
AcDbEntity
  8
0
  6
Continuous
 62
     7
100
AcDbLine
 10
397.5027296005
 20
112.1057982537
 30
0.0
 11
397.5319049211
 21
117.6655311094
 31
0.0
  0
LINE
  5
4ED
330
1F
100
AcDbEntity
  8
0
  6
Continuous
 62
     7
100
AcDbLine
 10
397.5319049211
 20
117.6655311094
 30
0.0
 11
399.630254438
 21
118.8304041946
 31
0.0
  0
LINE
  5
4EE
330
1F
100
AcDbEntity
  8
0
  6
Continuous
 62
     7
100
AcDbLine
 10
399.630254438
 20
118.8304041946
 30
0.0
 11
400.4641969771
 21
120.9738919696
 31
0.0
  0
LINE
  5
4EF
330
1F
100
AcDbEntity
  8
0
  6
Continuous
 62
     7
100
AcDbLine
 10
400.4641969771
 20
120.9738919696
 30
0.0
 11
397.5552049975
 21
122.1056605694
 31
0.0
  0
LINE
  5
4F0
330
1F
100
AcDbEntity
  8
0
  6
Continuous
 62
     7
100
AcDbLine
 10
397.5552049975
 20
122.1056605694
 30
0.0
 11
397.584380318
 21
127.665393425
 31
0.0
  0
LINE
  5
4F1
330
1F
100
AcDbEntity
  8
0
  6
Continuous
 62
     7
100
AcDbLine
 10
397.584380318
 20
127.665393425
 30
0.0
 11
399.682729835
 21
128.8302665103
 31
0.0
  0
LINE
  5
4F2
330
1F
100
AcDbEntity
  8
0
  6
Continuous
 62
     7
100
AcDbLine
 10
399.682729835
 20
128.8302665103
 30
0.0
 11
400.5166723741
 21
130.9737542853
 31
0.0
  0
LINE
  5
4F3
330
1F
100
AcDbEntity
  8
0
  6
Continuous
 62
     7
100
AcDbLine
 10
400.5166723741
 20
130.9737542853
 30
0.0
 11
397.6076803944
 21
132.1055228851
 31
0.0
  0
LINE
  5
4F4
330
1F
100
AcDbEntity
  8
0
  6
Continuous
 62
     7
100
AcDbLine
 10
397.6076803944
 20
132.1055228851
 30
0.0
 11
397.636855715
 21
137.6652557407
 31
0.0
  0
LINE
  5
4F5
330
1F
100
AcDbEntity
  8
0
  6
Continuous
 62
     7
100
AcDbLine
 10
397.636855715
 20
137.6652557407
 30
0.0
 11
399.7352052319
 21
138.830128826
 31
0.0
  0
LINE
  5
4F6
330
1F
100
AcDbEntity
  8
0
  6
Continuous
 62
     7
100
AcDbLine
 10
399.7352052319
 20
138.830128826
 30
0.0
 11
400.569147771
 21
140.973616601
 31
0.0
  0
LINE
  5
4F7
330
1F
100
AcDbEntity
  8
0
  6
Continuous
 62
     7
100
AcDbLine
 10
400.569147771
 20
140.973616601
 30
0.0
 11
397.6601557914
 21
142.1053852008
 31
0.0
  0
LINE
  5
4F8
330
1F
100
AcDbEntity
  8
0
  6
Continuous
 62
     7
100
AcDbLine
 10
397.6601557914
 20
142.1053852008
 30
0.0
 11
397.689331112
 21
147.6651180564
 31
0.0
  0
LINE
  5
4F9
330
1F
100
AcDbEntity
  8
0
  6
Continuous
 62
     7
100
AcDbLine
 10
397.689331112
 20
147.6651180564
 30
0.0
 11
399.7876806289
 21
148.8299911417
 31
0.0
  0
LINE
  5
4FA
330
1F
100
AcDbEntity
  8
0
  6
Continuous
 62
     7
100
AcDbLine
 10
399.7876806289
 20
148.8299911417
 30
0.0
 11
400.621623168
 21
150.9734789167
 31
0.0
  0
LINE
  5
4FB
330
1F
100
AcDbEntity
  8
0
  6
Continuous
 62
     7
100
AcDbLine
 10
400.621623168
 20
150.9734789167
 30
0.0
 11
397.7126311884
 21
152.1052475165
 31
0.0
  0
LINE
  5
4FC
330
1F
100
AcDbEntity
  8
0
  6
Continuous
 62
     7
100
AcDbLine
 10
397.7126311884
 20
152.1052475165
 30
0.0
 11
397.7409369737
 21
157.4992792388
 31
0.0
  0
LINE
  5
4FD
330
1F
100
AcDbEntity
  8
0
  6
Continuous
 62
     7
100
AcDbLine
 10
397.7409369737
 20
157.4992792388
 30
0.0
 11
399.553855537
 21
162.1590352714
 31
0.0
  0
LINE
  5
4FE
330
1F
100
AcDbEntity
  8
0
  6
Continuous
 62
     7
100
AcDbLine
 10
399.553855537
 20
162.1590352714
 30
0.0
 11
409.5336182501
 21
158.2763218946
 31
0.0
  0
LINE
  5
4FF
330
1F
100
AcDbEntity
  8
0
  6
Continuous
 62
     7
100
AcDbLine
 10
409.5336182501
 20
158.2763218946
 30
0.0
 11
407.7206996868
 21
153.6165658621
 31
0.0
  0
LINE
  5
500
330
1F
100
AcDbEntity
  8
0
  6
Continuous
 62
     7
100
AcDbLine
 10
407.7206996868
 20
153.6165658621
 30
0.0
 11
407.0964263773
 21
34.6532515589
 31
0.0
  0
LINE
  5
501
330
1F
100
AcDbEntity
  8
0
  6
Continuous
 62
     7
100
AcDbLine
 10
73.3577725793
 20
202.7400843144
 30
0.0
 11
117.3577725793
 21
202.7400843144
 31
0.0
  0
LINE
  5
502
330
1F
100
AcDbEntity
  8
0
  6
Continuous
 62
     7
100
AcDbLine
 10
117.3577725793
 20
202.7400843144
 30
0.0
 11
117.3577725793
 21
262.7400843144
 31
0.0
  0
LINE
  5
503
330
1F
100
AcDbEntity
  8
0
  6
Continuous
 62
     7
100
AcDbLine
 10
117.3577725793
 20
262.7400843144
 30
0.0
 11
73.3577725793
 21
262.7400843144
 31
0.0
  0
LINE
  5
504
330
1F
100
AcDbEntity
  8
0
  6
Continuous
 62
     7
100
AcDbLine
 10
73.3577725793
 20
262.7400843144
 30
0.0
 11
73.3577725793
 21
202.7400843144
 31
0.0
  0
LINE
  5
505
330
1F
100
AcDbEntity
  8
0
  6
Continuous
 62
     7
100
AcDbLine
 10
83.8901616871
 20
122.9158377396
 30
0.0
 11
78.8901616871
 21
122.9158377396
 31
0.0
  0
LINE
  5
506
330
1F
100
AcDbEntity
  8
0
  6
Continuous
 62
     7
100
AcDbLine
 10
78.8901616871
 20
122.9158377396
 30
0.0
 11
78.8901616871
 21
90.9158377396
 31
0.0
  0
LINE
  5
507
330
1F
100
AcDbEntity
  8
0
  6
Continuous
 62
     7
100
AcDbLine
 10
78.8901616871
 20
90.9158377396
 30
0.0
 11
83.8901616871
 21
90.9158377396
 31
0.0
  0
LINE
  5
508
330
1F
100
AcDbEntity
  8
0
  6
Continuous
 62
     7
100
AcDbLine
 10
83.8901616871
 20
90.9158377396
 30
0.0
 11
117.8901616871
 21
90.9158377396
 31
0.0
  0
LINE
  5
509
330
1F
100
AcDbEntity
  8
0
  6
Continuous
 62
     7
100
AcDbLine
 10
117.8901616871
 20
90.9158377396
 30
0.0
 11
122.8901616871
 21
90.9158377396
 31
0.0
  0
LINE
  5
50A
330
1F
100
AcDbEntity
  8
0
  6
Continuous
 62
     7
100
AcDbLine
 10
122.8901616871
 20
90.9158377396
 30
0.0
 11
122.8901616871
 21
122.9158377396
 31
0.0
  0
LINE
  5
50B
330
1F
100
AcDbEntity
  8
0
  6
Continuous
 62
     7
100
AcDbLine
 10
122.8901616871
 20
122.9158377396
 30
0.0
 11
117.8901616871
 21
122.9158377396
 31
0.0
  0
LINE
  5
50C
330
1F
100
AcDbEntity
  8
0
  6
Continuous
 62
     7
100
AcDbLine
 10
117.8901616871
 20
122.9158377396
 30
0.0
 11
115.1457663081
 21
122.0056664001
 31
0.0
  0
LINE
  5
50D
330
1F
100
AcDbEntity
  8
0
  6
Continuous
 62
     7
100
AcDbLine
 10
115.1457663081
 20
122.0056664001
 30
0.0
 11
112.3530574831
 21
121.2567369758
 31
0.0
  0
LINE
  5
50E
330
1F
100
AcDbEntity
  8
0
  6
Continuous
 62
     7
100
AcDbLine
 10
112.3530574831
 20
121.2567369758
 30
0.0
 11
109.5214999379
 21
120.6715876517
 31
0.0
  0
LINE
  5
50F
330
1F
100
AcDbEntity
  8
0
  6
Continuous
 62
     7
100
AcDbLine
 10
109.5214999379
 20
120.6715876517
 30
0.0
 11
106.6606900596
 21
120.2522015481
 31
0.0
  0
LINE
  5
510
330
1F
100
AcDbEntity
  8
0
  6
Continuous
 62
     7
100
AcDbLine
 10
106.6606900596
 20
120.2522015481
 30
0.0
 11
103.7803233742
 21
120.0
 31
0.0
  0
LINE
  5
511
330
1F
100
AcDbEntity
  8
0
  6
Continuous
 62
     7
100
AcDbLine
 10
103.7803233742
 20
120.0
 30
0.0
 11
100.8901616871
 21
119.9158377396
 31
0.0
  0
LINE
  5
512
330
1F
100
AcDbEntity
  8
0
  6
Continuous
 62
     7
100
AcDbLine
 10
100.8901616871
 20
119.9158377396
 30
0.0
 11
98.0
 21
120.0
 31
0.0
  0
LINE
  5
513
330
1F
100
AcDbEntity
  8
0
  6
Continuous
 62
     7
100
AcDbLine
 10
98.0
 20
120.0
 30
0.0
 11
95.1196333145
 21
120.2522015481
 31
0.0
  0
LINE
  5
514
330
1F
100
AcDbEntity
  8
0
  6
Continuous
 62
     7
100
AcDbLine
 10
95.1196333145
 20
120.2522015481
 30
0.0
 11
92.2588234363
 21
120.6715876517
 31
0.0
  0
LINE
  5
515
330
1F
100
AcDbEntity
  8
0
  6
Continuous
 62
     7
100
AcDbLine
 10
92.2588234363
 20
120.6715876517
 30
0.0
 11
89.427265891
 21
121.2567369758
 31
0.0
  0
LINE
  5
516
330
1F
100
AcDbEntity
  8
0
  6
Continuous
 62
     7
100
AcDbLine
 10
89.427265891
 20
121.2567369758
 30
0.0
 11
86.6345570661
 21
122.0056664001
 31
0.0
  0
LINE
  5
517
330
1F
100
AcDbEntity
  8
0
  6
Continuous
 62
     7
100
AcDbLine
 10
86.6345570661
 20
122.0056664001
 30
0.0
 11
83.8901616871
 21
122.9158377396
 31
0.0
  0
LINE
  5
518
330
1F
100
AcDbEntity
  8
0
  6
Continuous
 62
     7
100
AcDbLine
 10
118.0
 20
96.0
 30
0.0
 11
84.0
 21
96.0
 31
0.0
  0
LINE
  5
519
330
1F
100
AcDbEntity
  8
0
  6
Continuous
 62
     7
100
AcDbLine
 10
84.0
 20
96.0
 30
0.0
 11
84.0
 21
125.0
 31
0.0
  0
LINE
  5
51A
330
1F
100
AcDbEntity
  8
0
  6
Continuous
 62
     7
100
AcDbLine
 10
84.0
 20
125.0
 30
0.0
 11
77.0
 21
125.0
 31
0.0
  0
LINE
  5
51B
330
1F
100
AcDbEntity
  8
0
  6
Continuous
 62
     7
100
AcDbLine
 10
77.0
 20
125.0
 30
0.0
 11
77.0
 21
89.0
 31
0.0
  0
LINE
  5
51C
330
1F
100
AcDbEntity
  8
0
  6
Continuous
 62
     7
100
AcDbLine
 10
77.0
 20
89.0
 30
0.0
 11
125.0
 21
89.0
 31
0.0
  0
LINE
  5
51D
330
1F
100
AcDbEntity
  8
0
  6
Continuous
 62
     7
100
AcDbLine
 10
125.0
 20
89.0
 30
0.0
 11
125.0
 21
125.0
 31
0.0
  0
LINE
  5
51E
330
1F
100
AcDbEntity
  8
0
  6
Continuous
 62
     7
100
AcDbLine
 10
125.0
 20
125.0
 30
0.0
 11
118.0
 21
125.0
 31
0.0
  0
LINE
  5
51F
330
1F
100
AcDbEntity
  8
0
  6
Continuous
 62
     7
100
AcDbLine
 10
118.0
 20
125.0
 30
0.0
 11
118.0
 21
96.0
 31
0.0
  0
LINE
  5
520
330
1F
100
AcDbEntity
  8
0
  6
Continuous
 62
     7
100
AcDbLine
 10
83.8901616871
 20
74.9158377396
 30
0.0
 11
78.8901616871
 21
74.9158377396
 31
0.0
  0
LINE
  5
521
330
1F
100
AcDbEntity
  8
0
  6
Continuous
 62
     7
100
AcDbLine
 10
78.8901616871
 20
74.9158377396
 30
0.0
 11
78.8901616871
 21
42.9158377396
 31
0.0
  0
LINE
  5
522
330
1F
100
AcDbEntity
  8
0
  6
Continuous
 62
     7
100
AcDbLine
 10
78.8901616871
 20
42.9158377396
 30
0.0
 11
83.8901616871
 21
42.9158377396
 31
0.0
  0
LINE
  5
523
330
1F
100
AcDbEntity
  8
0
  6
Continuous
 62
     7
100
AcDbLine
 10
83.8901616871
 20
42.9158377396
 30
0.0
 11
117.8901616871
 21
42.9158377396
 31
0.0
  0
LINE
  5
524
330
1F
100
AcDbEntity
  8
0
  6
Continuous
 62
     7
100
AcDbLine
 10
117.8901616871
 20
42.9158377396
 30
0.0
 11
122.8901616871
 21
42.9158377396
 31
0.0
  0
LINE
  5
525
330
1F
100
AcDbEntity
  8
0
  6
Continuous
 62
     7
100
AcDbLine
 10
122.8901616871
 20
42.9158377396
 30
0.0
 11
122.8901616871
 21
74.9158377396
 31
0.0
  0
LINE
  5
526
330
1F
100
AcDbEntity
  8
0
  6
Continuous
 62
     7
100
AcDbLine
 10
122.8901616871
 20
74.9158377396
 30
0.0
 11
117.8901616871
 21
74.9158377396
 31
0.0
  0
LINE
  5
527
330
1F
100
AcDbEntity
  8
0
  6
Continuous
 62
     7
100
AcDbLine
 10
117.8901616871
 20
74.9158377396
 30
0.0
 11
115.1457663081
 21
74.0056664001
 31
0.0
  0
LINE
  5
528
330
1F
100
AcDbEntity
  8
0
  6
Continuous
 62
     7
100
AcDbLine
 10
115.1457663081
 20
74.0056664001
 30
0.0
 11
112.3530574831
 21
73.2567369758
 31
0.0
  0
LINE
  5
529
330
1F
100
AcDbEntity
  8
0
  6
Continuous
 62
     7
100
AcDbLine
 10
112.3530574831
 20
73.2567369758
 30
0.0
 11
109.5214999379
 21
72.6715876517
 31
0.0
  0
LINE
  5
52A
330
1F
100
AcDbEntity
  8
0
  6
Continuous
 62
     7
100
AcDbLine
 10
109.5214999379
 20
72.6715876517
 30
0.0
 11
106.6606900596
 21
72.2522015481
 31
0.0
  0
LINE
  5
52B
330
1F
100
AcDbEntity
  8
0
  6
Continuous
 62
     7
100
AcDbLine
 10
106.6606900596
 20
72.2522015481
 30
0.0
 11
103.7803233742
 21
72.0
 31
0.0
  0
LINE
  5
52C
330
1F
100
AcDbEntity
  8
0
  6
Continuous
 62
     7
100
AcDbLine
 10
103.7803233742
 20
72.0
 30
0.0
 11
100.8901616871
 21
71.9158377396
 31
0.0
  0
LINE
  5
52D
330
1F
100
AcDbEntity
  8
0
  6
Continuous
 62
     7
100
AcDbLine
 10
100.8901616871
 20
71.9158377396
 30
0.0
 11
98.0
 21
72.0
 31
0.0
  0
LINE
  5
52E
330
1F
100
AcDbEntity
  8
0
  6
Continuous
 62
     7
100
AcDbLine
 10
98.0
 20
72.0
 30
0.0
 11
95.1196333145
 21
72.2522015481
 31
0.0
  0
LINE
  5
52F
330
1F
100
AcDbEntity
  8
0
  6
Continuous
 62
     7
100
AcDbLine
 10
95.1196333145
 20
72.2522015481
 30
0.0
 11
92.2588234363
 21
72.6715876517
 31
0.0
  0
LINE
  5
530
330
1F
100
AcDbEntity
  8
0
  6
Continuous
 62
     7
100
AcDbLine
 10
92.2588234363
 20
72.6715876517
 30
0.0
 11
89.427265891
 21
73.2567369758
 31
0.0
  0
LINE
  5
531
330
1F
100
AcDbEntity
  8
0
  6
Continuous
 62
     7
100
AcDbLine
 10
89.427265891
 20
73.2567369758
 30
0.0
 11
86.6345570661
 21
74.0056664001
 31
0.0
  0
LINE
  5
532
330
1F
100
AcDbEntity
  8
0
  6
Continuous
 62
     7
100
AcDbLine
 10
86.6345570661
 20
74.0056664001
 30
0.0
 11
83.8901616871
 21
74.9158377396
 31
0.0
  0
LINE
  5
533
330
1F
100
AcDbEntity
  8
0
  6
Continuous
 62
     7
100
AcDbLine
 10
118.0
 20
48.0
 30
0.0
 11
84.0
 21
48.0
 31
0.0
  0
LINE
  5
534
330
1F
100
AcDbEntity
  8
0
  6
Continuous
 62
     7
100
AcDbLine
 10
84.0
 20
48.0
 30
0.0
 11
84.0
 21
77.0
 31
0.0
  0
LINE
  5
535
330
1F
100
AcDbEntity
  8
0
  6
Continuous
 62
     7
100
AcDbLine
 10
84.0
 20
77.0
 30
0.0
 11
77.0
 21
77.0
 31
0.0
  0
LINE
  5
536
330
1F
100
AcDbEntity
  8
0
  6
Continuous
 62
     7
100
AcDbLine
 10
77.0
 20
77.0
 30
0.0
 11
77.0
 21
41.0
 31
0.0
  0
LINE
  5
537
330
1F
100
AcDbEntity
  8
0
  6
Continuous
 62
     7
100
AcDbLine
 10
77.0
 20
41.0
 30
0.0
 11
125.0
 21
41.0
 31
0.0
  0
LINE
  5
538
330
1F
100
AcDbEntity
  8
0
  6
Continuous
 62
     7
100
AcDbLine
 10
125.0
 20
41.0
 30
0.0
 11
125.0
 21
77.0
 31
0.0
  0
LINE
  5
539
330
1F
100
AcDbEntity
  8
0
  6
Continuous
 62
     7
100
AcDbLine
 10
125.0
 20
77.0
 30
0.0
 11
118.0
 21
77.0
 31
0.0
  0
LINE
  5
53A
330
1F
100
AcDbEntity
  8
0
  6
Continuous
 62
     7
100
AcDbLine
 10
118.0
 20
77.0
 30
0.0
 11
118.0
 21
48.0
 31
0.0
  0
LINE
  5
53B
330
1F
100
AcDbEntity
  8
0
  6
Continuous
 62
     7
100
AcDbLine
 10
141.0059386889
 20
208.8834398053
 30
0.0
 11
141.0059386889
 21
218.8834398053
 31
0.0
  0
LINE
  5
53C
330
1F
100
AcDbEntity
  8
0
  6
Continuous
 62
     7
100
AcDbLine
 10
141.0059386889
 20
218.8834398053
 30
0.0
 11
126.8638030651
 21
218.8834398053
 31
0.0
  0
LINE
  5
53D
330
1F
100
AcDbEntity
  8
0
  6
Continuous
 62
     7
100
AcDbLine
 10
126.8638030651
 20
218.8834398053
 30
0.0
 11
126.8638030651
 21
208.8834398053
 31
0.0
  0
LINE
  5
53E
330
1F
100
AcDbEntity
  8
0
  6
Continuous
 62
     7
100
AcDbLine
 10
126.8638030651
 20
208.8834398053
 30
0.0
 11
156.8638030651
 21
178.8834398053
 31
0.0
  0
LINE
  5
53F
330
1F
100
AcDbEntity
  8
0
  6
Continuous
 62
     7
100
AcDbLine
 10
156.8638030651
 20
178.8834398053
 30
0.0
 11
126.8638030651
 21
148.8834398053
 31
0.0
  0
LINE
  5
540
330
1F
100
AcDbEntity
  8
0
  6
Continuous
 62
     7
100
AcDbLine
 10
126.8638030651
 20
148.8834398053
 30
0.0
 11
126.8638030651
 21
138.8834398053
 31
0.0
  0
LINE
  5
541
330
1F
100
AcDbEntity
  8
0
  6
Continuous
 62
     7
100
AcDbLine
 10
126.8638030651
 20
138.8834398053
 30
0.0
 11
141.0059386889
 21
138.8834398053
 31
0.0
  0
LINE
  5
542
330
1F
100
AcDbEntity
  8
0
  6
Continuous
 62
     7
100
AcDbLine
 10
141.0059386889
 20
138.8834398053
 30
0.0
 11
141.0059386889
 21
148.8834398053
 31
0.0
  0
LINE
  5
543
330
1F
100
AcDbEntity
  8
0
  6
Continuous
 62
     7
100
AcDbLine
 10
141.0059386889
 20
148.8834398053
 30
0.0
 11
163.934870877
 21
171.8123719934
 31
0.0
  0
LINE
  5
544
330
1F
100
AcDbEntity
  8
0
  6
Continuous
 62
     7
100
AcDbLine
 10
163.934870877
 20
171.8123719934
 30
0.0
 11
186.8638030651
 21
148.8834398053
 31
0.0
  0
LINE
  5
545
330
1F
100
AcDbEntity
  8
0
  6
Continuous
 62
     7
100
AcDbLine
 10
186.8638030651
 20
148.8834398053
 30
0.0
 11
186.8638030651
 21
138.8834398053
 31
0.0
  0
LINE
  5
546
330
1F
100
AcDbEntity
  8
0
  6
Continuous
 62
     7
100
AcDbLine
 10
186.8638030651
 20
138.8834398053
 30
0.0
 11
201.0059386889
 21
138.8834398053
 31
0.0
  0
LINE
  5
547
330
1F
100
AcDbEntity
  8
0
  6
Continuous
 62
     7
100
AcDbLine
 10
201.0059386889
 20
138.8834398053
 30
0.0
 11
201.0059386889
 21
148.8834398053
 31
0.0
  0
LINE
  5
548
330
1F
100
AcDbEntity
  8
0
  6
Continuous
 62
     7
100
AcDbLine
 10
201.0059386889
 20
148.8834398053
 30
0.0
 11
171.0059386889
 21
178.8834398053
 31
0.0
  0
LINE
  5
549
330
1F
100
AcDbEntity
  8
0
  6
Continuous
 62
     7
100
AcDbLine
 10
171.0059386889
 20
178.8834398053
 30
0.0
 11
201.0059386889
 21
208.8834398053
 31
0.0
  0
LINE
  5
54A
330
1F
100
AcDbEntity
  8
0
  6
Continuous
 62
     7
100
AcDbLine
 10
201.0059386889
 20
208.8834398053
 30
0.0
 11
201.0059386889
 21
218.8834398053
 31
0.0
  0
LINE
  5
54B
330
1F
100
AcDbEntity
  8
0
  6
Continuous
 62
     7
100
AcDbLine
 10
201.0059386889
 20
218.8834398053
 30
0.0
 11
186.8638030651
 21
218.8834398053
 31
0.0
  0
LINE
  5
54C
330
1F
100
AcDbEntity
  8
0
  6
Continuous
 62
     7
100
AcDbLine
 10
186.8638030651
 20
218.8834398053
 30
0.0
 11
186.8638030651
 21
208.8834398053
 31
0.0
  0
LINE
  5
54D
330
1F
100
AcDbEntity
  8
0
  6
Continuous
 62
     7
100
AcDbLine
 10
186.8638030651
 20
208.8834398053
 30
0.0
 11
163.934870877
 21
185.9545076171
 31
0.0
  0
LINE
  5
54E
330
1F
100
AcDbEntity
  8
0
  6
Continuous
 62
     7
100
AcDbLine
 10
163.934870877
 20
185.9545076171
 30
0.0
 11
141.0059386889
 21
208.8834398053
 31
0.0
  0
LINE
  5
54F
330
1F
100
AcDbEntity
  8
0
  6
Continuous
 62
     7
100
AcDbLine
 10
125.8638030651
 20
208.8834398053
 30
0.0
 11
141.8638030651
 21
208.8834398053
 31
0.0
  0
LINE
  5
550
330
1F
100
AcDbEntity
  8
0
  6
Continuous
 62
     7
100
AcDbLine
 10
141.8638030651
 20
208.8834398053
 30
0.0
 11
141.8638030651
 21
219.8834398053
 31
0.0
  0
LINE
  5
551
330
1F
100
AcDbEntity
  8
0
  6
Continuous
 62
     7
100
AcDbLine
 10
141.8638030651
 20
219.8834398053
 30
0.0
 11
125.8638030651
 21
219.8834398053
 31
0.0
  0
LINE
  5
552
330
1F
100
AcDbEntity
  8
0
  6
Continuous
 62
     7
100
AcDbLine
 10
125.8638030651
 20
219.8834398053
 30
0.0
 11
125.8638030651
 21
208.8834398053
 31
0.0
  0
LINE
  5
553
330
1F
100
AcDbEntity
  8
0
  6
Continuous
 62
     7
100
AcDbLine
 10
185.8638030651
 20
208.8834398053
 30
0.0
 11
201.8638030651
 21
208.8834398053
 31
0.0
  0
LINE
  5
554
330
1F
100
AcDbEntity
  8
0
  6
Continuous
 62
     7
100
AcDbLine
 10
201.8638030651
 20
208.8834398053
 30
0.0
 11
201.8638030651
 21
219.8834398053
 31
0.0
  0
LINE
  5
555
330
1F
100
AcDbEntity
  8
0
  6
Continuous
 62
     7
100
AcDbLine
 10
201.8638030651
 20
219.8834398053
 30
0.0
 11
185.8638030651
 21
219.8834398053
 31
0.0
  0
LINE
  5
556
330
1F
100
AcDbEntity
  8
0
  6
Continuous
 62
     7
100
AcDbLine
 10
185.8638030651
 20
219.8834398053
 30
0.0
 11
185.8638030651
 21
208.8834398053
 31
0.0
  0
LINE
  5
557
330
1F
100
AcDbEntity
  8
0
  6
Continuous
 62
     7
100
AcDbLine
 10
125.8638030651
 20
137.8834398053
 30
0.0
 11
141.8638030651
 21
137.8834398053
 31
0.0
  0
LINE
  5
558
330
1F
100
AcDbEntity
  8
0
  6
Continuous
 62
     7
100
AcDbLine
 10
141.8638030651
 20
137.8834398053
 30
0.0
 11
141.8638030651
 21
148.8834398053
 31
0.0
  0
LINE
  5
559
330
1F
100
AcDbEntity
  8
0
  6
Continuous
 62
     7
100
AcDbLine
 10
141.8638030651
 20
148.8834398053
 30
0.0
 11
125.8638030651
 21
148.8834398053
 31
0.0
  0
LINE
  5
55A
330
1F
100
AcDbEntity
  8
0
  6
Continuous
 62
     7
100
AcDbLine
 10
125.8638030651
 20
148.8834398053
 30
0.0
 11
125.8638030651
 21
137.8834398053
 31
0.0
  0
LINE
  5
55B
330
1F
100
AcDbEntity
  8
0
  6
Continuous
 62
     7
100
AcDbLine
 10
185.8638030651
 20
137.8834398053
 30
0.0
 11
201.8638030651
 21
137.8834398053
 31
0.0
  0
LINE
  5
55C
330
1F
100
AcDbEntity
  8
0
  6
Continuous
 62
     7
100
AcDbLine
 10
201.8638030651
 20
137.8834398053
 30
0.0
 11
201.8638030651
 21
148.8834398053
 31
0.0
  0
LINE
  5
55D
330
1F
100
AcDbEntity
  8
0
  6
Continuous
 62
     7
100
AcDbLine
 10
201.8638030651
 20
148.8834398053
 30
0.0
 11
185.8638030651
 21
148.8834398053
 31
0.0
  0
LINE
  5
55E
330
1F
100
AcDbEntity
  8
0
  6
Continuous
 62
     7
100
AcDbLine
 10
185.8638030651
 20
148.8834398053
 30
0.0
 11
185.8638030651
 21
137.8834398053
 31
0.0
  0
LINE
  5
55F
330
1F
100
AcDbEntity
  8
0
  6
Continuous
 62
     7
100
AcDbLine
 10
346.1148067282
 20
291.5079974896
 30
0.0
 11
341.1148067282
 21
291.5079974896
 31
0.0
  0
LINE
  5
560
330
1F
100
AcDbEntity
  8
0
  6
Continuous
 62
     7
100
AcDbLine
 10
341.1148067282
 20
291.5079974896
 30
0.0
 11
321.2276419466
 21
315.3725952275
 31
0.0
  0
LINE
  5
561
330
1F
100
AcDbEntity
  8
0
  6
Continuous
 62
     7
100
AcDbLine
 10
321.2276419466
 20
315.3725952275
 30
0.0
 11
322.5627921066
 21
316.762304977
 31
0.0
  0
LINE
  5
562
330
1F
100
AcDbEntity
  8
0
  6
Continuous
 62
     7
100
AcDbLine
 10
322.5627921066
 20
316.762304977
 30
0.0
 11
323.5713579372
 21
318.5928719465
 31
0.0
  0
LINE
  5
563
330
1F
100
AcDbEntity
  8
0
  6
Continuous
 62
     7
100
AcDbLine
 10
323.5713579372
 20
318.5928719465
 30
0.0
 11
324.0717721254
 21
320.6220999043
 31
0.0
  0
LINE
  5
564
330
1F
100
AcDbEntity
  8
0
  6
Continuous
 62
     7
100
AcDbLine
 10
324.0717721254
 20
320.6220999043
 30
0.0
 11
324.0299322713
 21
322.7117003185
 31
0.0
  0
LINE
  5
565
330
1F
100
AcDbEntity
  8
0
  6
Continuous
 62
     7
100
AcDbLine
 10
324.0299322713
 20
322.7117003185
 30
0.0
 11
323.4486896919
 21
324.7192703742
 31
0.0
  0
LINE
  5
566
330
1F
100
AcDbEntity
  8
0
  6
Continuous
 62
     7
100
AcDbLine
 10
323.4486896919
 20
324.7192703742
 30
0.0
 11
322.3676551082
 21
326.5079974896
 31
0.0
  0
LINE
  5
567
330
1F
100
AcDbEntity
  8
0
  6
Continuous
 62
     7
100
AcDbLine
 10
322.3676551082
 20
326.5079974896
 30
0.0
 11
320.8604992408
 21
327.9559828679
 31
0.0
  0
LINE
  5
568
330
1F
100
AcDbEntity
  8
0
  6
Continuous
 62
     7
100
AcDbLine
 10
320.8604992408
 20
327.9559828679
 30
0.0
 11
319.0299322713
 21
328.9645486985
 31
0.0
  0
LINE
  5
569
330
1F
100
AcDbEntity
  8
0
  6
Continuous
 62
     7
100
AcDbLine
 10
319.0299322713
 20
328.9645486985
 30
0.0
 11
317.0007043135
 21
329.4649628867
 31
0.0
  0
LINE
  5
56A
330
1F
100
AcDbEntity
  8
0
  6
Continuous
 62
     7
100
AcDbLine
 10
317.0007043135
 20
329.4649628867
 30
0.0
 11
314.9111038993
 21
329.4231230327
 31
0.0
  0
LINE
  5
56B
330
1F
100
AcDbEntity
  8
0
  6
Continuous
 62
     7
100
AcDbLine
 10
314.9111038993
 20
329.4231230327
 30
0.0
 11
312.9035338437
 21
328.8418804532
 31
0.0
  0
LINE
  5
56C
330
1F
100
AcDbEntity
  8
0
  6
Continuous
 62
     7
100
AcDbLine
 10
312.9035338437
 20
328.8418804532
 30
0.0
 11
311.1148067282
 21
327.7608458696
 31
0.0
  0
LINE
  5
56D
330
1F
100
AcDbEntity
  8
0
  6
Continuous
 62
     7
100
AcDbLine
 10
311.1148067282
 20
327.7608458696
 30
0.0
 11
309.6668213499
 21
326.2536900022
 31
0.0
  0
LINE
  5
56E
330
1F
100
AcDbEntity
  8
0
  6
Continuous
 62
     7
100
AcDbLine
 10
309.6668213499
 20
326.2536900022
 30
0.0
 11
308.6582555193
 21
324.4231230327
 31
0.0
  0
LINE
  5
56F
330
1F
100
AcDbEntity
  8
0
  6
Continuous
 62
     7
100
AcDbLine
 10
308.6582555193
 20
324.4231230327
 30
0.0
 11
308.1578413311
 21
322.3938950749
 31
0.0
  0
LINE
  5
570
330
1F
100
AcDbEntity
  8
0
  6
Continuous
 62
     7
100
AcDbLine
 10
308.1578413311
 20
322.3938950749
 30
0.0
 11
308.1996811852
 21
320.3042946607
 31
0.0
  0
LINE
  5
571
330
1F
100
AcDbEntity
  8
0
  6
Continuous
 62
     7
100
AcDbLine
 10
308.1996811852
 20
320.3042946607
 30
0.0
 11
308.7809237646
 21
318.296724605
 31
0.0
  0
LINE
  5
572
330
1F
100
AcDbEntity
  8
0
  6
Continuous
 62
     7
100
AcDbLine
 10
308.7809237646
 20
318.296724605
 30
0.0
 11
309.8619583483
 21
316.5079974896
 31
0.0
  0
LINE
  5
573
330
1F
100
AcDbEntity
  8
0
  6
Continuous
 62
     7
100
AcDbLine
 10
309.8619583483
 20
316.5079974896
 30
0.0
 11
311.0205511034
 21
315.3948907398
 31
0.0
  0
LINE
  5
574
330
1F
100
AcDbEntity
  8
0
  6
Continuous
 62
     7
100
AcDbLine
 10
311.0205511034
 20
315.3948907398
 30
0.0
 11
311.0205511034
 21
315.3725952275
 31
0.0
  0
LINE
  5
575
330
1F
100
AcDbEntity
  8
0
  6
Continuous
 62
     7
100
AcDbLine
 10
311.0205511034
 20
315.3725952275
 30
0.0
 11
291.1148067282
 21
291.5079974896
 31
0.0
  0
LINE
  5
576
330
1F
100
AcDbEntity
  8
0
  6
Continuous
 62
     7
100
AcDbLine
 10
291.1148067282
 20
291.5079974896
 30
0.0
 11
286.1148067282
 21
291.5079974896
 31
0.0
  0
LINE
  5
577
330
1F
100
AcDbEntity
  8
0
  6
Continuous
 62
     7
100
AcDbLine
 10
286.1148067282
 20
291.5079974896
 30
0.0
 11
281.1148067282
 21
291.5079974896
 31
0.0
  0
LINE
  5
578
330
1F
100
AcDbEntity
  8
0
  6
Continuous
 62
     7
100
AcDbLine
 10
281.1148067282
 20
291.5079974896
 30
0.0
 11
281.1148067282
 21
259.4235755253
 31
0.0
  0
LINE
  5
579
330
1F
100
AcDbEntity
  8
0
  6
Continuous
 62
     7
100
AcDbLine
 10
281.1148067282
 20
259.4235755253
 30
0.0
 11
286.1148067282
 21
257.3525077134
 31
0.0
  0
LINE
  5
57A
330
1F
100
AcDbEntity
  8
0
  6
Continuous
 62
     7
100
AcDbLine
 10
286.1148067282
 20
257.3525077134
 30
0.0
 11
292.821092669
 21
254.5746731236
 31
0.0
  0
LINE
  5
57B
330
1F
100
AcDbEntity
  8
0
  6
Continuous
 62
     7
100
AcDbLine
 10
292.821092669
 20
254.5746731236
 30
0.0
 11
316.1148067282
 21
251.5079974896
 31
0.0
  0
LINE
  5
57C
330
1F
100
AcDbEntity
  8
0
  6
Continuous
 62
     7
100
AcDbLine
 10
316.1148067282
 20
251.5079974896
 30
0.0
 11
339.4085207874
 21
254.5746731236
 31
0.0
  0
LINE
  5
57D
330
1F
100
AcDbEntity
  8
0
  6
Continuous
 62
     7
100
AcDbLine
 10
339.4085207874
 20
254.5746731236
 30
0.0
 11
346.1148067282
 21
257.3525077134
 31
0.0
  0
LINE
  5
57E
330
1F
100
AcDbEntity
  8
0
  6
Continuous
 62
     7
100
AcDbLine
 10
346.1148067282
 20
257.3525077134
 30
0.0
 11
351.1148067282
 21
259.4235755253
 31
0.0
  0
LINE
  5
57F
330
1F
100
AcDbEntity
  8
0
  6
Continuous
 62
     7
100
AcDbLine
 10
351.1148067282
 20
259.4235755253
 30
0.0
 11
351.1148067282
 21
291.5079974896
 31
0.0
  0
LINE
  5
580
330
1F
100
AcDbEntity
  8
0
  6
Continuous
 62
     7
100
AcDbLine
 10
351.1148067282
 20
291.5079974896
 30
0.0
 11
346.1148067282
 21
291.5079974896
 31
0.0
  0
LINE
  5
581
330
1F
100
AcDbEntity
  8
0
  6
Continuous
 62
     7
100
AcDbLine
 10
432.9578341028
 20
291.9661577362
 30
0.0
 11
427.9578341028
 21
291.9661577362
 31
0.0
  0
LINE
  5
582
330
1F
100
AcDbEntity
  8
0
  6
Continuous
 62
     7
100
AcDbLine
 10
427.9578341028
 20
291.9661577362
 30
0.0
 11
408.0706693212
 21
315.8307554741
 31
0.0
  0
LINE
  5
583
330
1F
100
AcDbEntity
  8
0
  6
Continuous
 62
     7
100
AcDbLine
 10
408.0706693212
 20
315.8307554741
 30
0.0
 11
409.4058194812
 21
317.2204652236
 31
0.0
  0
LINE
  5
584
330
1F
100
AcDbEntity
  8
0
  6
Continuous
 62
     7
100
AcDbLine
 10
409.4058194812
 20
317.2204652236
 30
0.0
 11
410.4143853118
 21
319.0510321931
 31
0.0
  0
LINE
  5
585
330
1F
100
AcDbEntity
  8
0
  6
Continuous
 62
     7
100
AcDbLine
 10
410.4143853118
 20
319.0510321931
 30
0.0
 11
410.9147995
 21
321.0802601509
 31
0.0
  0
LINE
  5
586
330
1F
100
AcDbEntity
  8
0
  6
Continuous
 62
     7
100
AcDbLine
 10
410.9147995
 20
321.0802601509
 30
0.0
 11
410.8729596459
 21
323.1698605651
 31
0.0
  0
LINE
  5
587
330
1F
100
AcDbEntity
  8
0
  6
Continuous
 62
     7
100
AcDbLine
 10
410.8729596459
 20
323.1698605651
 30
0.0
 11
410.2917170664
 21
325.1774306207
 31
0.0
  0
LINE
  5
588
330
1F
100
AcDbEntity
  8
0
  6
Continuous
 62
     7
100
AcDbLine
 10
410.2917170664
 20
325.1774306207
 30
0.0
 11
409.2106824828
 21
326.9661577362
 31
0.0
  0
LINE
  5
589
330
1F
100
AcDbEntity
  8
0
  6
Continuous
 62
     7
100
AcDbLine
 10
409.2106824828
 20
326.9661577362
 30
0.0
 11
407.7035266154
 21
328.4141431145
 31
0.0
  0
LINE
  5
58A
330
1F
100
AcDbEntity
  8
0
  6
Continuous
 62
     7
100
AcDbLine
 10
407.7035266154
 20
328.4141431145
 30
0.0
 11
405.8729596459
 21
329.4227089451
 31
0.0
  0
LINE
  5
58B
330
1F
100
AcDbEntity
  8
0
  6
Continuous
 62
     7
100
AcDbLine
 10
405.8729596459
 20
329.4227089451
 30
0.0
 11
403.8437316881
 21
329.9231231333
 31
0.0
  0
LINE
  5
58C
330
1F
100
AcDbEntity
  8
0
  6
Continuous
 62
     7
100
AcDbLine
 10
403.8437316881
 20
329.9231231333
 30
0.0
 11
401.7541312739
 21
329.8812832792
 31
0.0
  0
LINE
  5
58D
330
1F
100
AcDbEntity
  8
0
  6
Continuous
 62
     7
100
AcDbLine
 10
401.7541312739
 20
329.8812832792
 30
0.0
 11
399.7465612183
 21
329.3000406998
 31
0.0
  0
LINE
  5
58E
330
1F
100
AcDbEntity
  8
0
  6
Continuous
 62
     7
100
AcDbLine
 10
399.7465612183
 20
329.3000406998
 30
0.0
 11
397.9578341028
 21
328.2190061161
 31
0.0
  0
LINE
  5
58F
330
1F
100
AcDbEntity
  8
0
  6
Continuous
 62
     7
100
AcDbLine
 10
397.9578341028
 20
328.2190061161
 30
0.0
 11
396.5098487245
 21
326.7118502487
 31
0.0
  0
LINE
  5
590
330
1F
100
AcDbEntity
  8
0
  6
Continuous
 62
     7
100
AcDbLine
 10
396.5098487245
 20
326.7118502487
 30
0.0
 11
395.5012828939
 21
324.8812832792
 31
0.0
  0
LINE
  5
591
330
1F
100
AcDbEntity
  8
0
  6
Continuous
 62
     7
100
AcDbLine
 10
395.5012828939
 20
324.8812832792
 30
0.0
 11
395.0008687057
 21
322.8520553214
 31
0.0
  0
LINE
  5
592
330
1F
100
AcDbEntity
  8
0
  6
Continuous
 62
     7
100
AcDbLine
 10
395.0008687057
 20
322.8520553214
 30
0.0
 11
395.0427085598
 21
320.7624549072
 31
0.0
  0
LINE
  5
593
330
1F
100
AcDbEntity
  8
0
  6
Continuous
 62
     7
100
AcDbLine
 10
395.0427085598
 20
320.7624549072
 30
0.0
 11
395.6239511392
 21
318.7548848516
 31
0.0
  0
LINE
  5
594
330
1F
100
AcDbEntity
  8
0
  6
Continuous
 62
     7
100
AcDbLine
 10
395.6239511392
 20
318.7548848516
 30
0.0
 11
396.7049857229
 21
316.9661577362
 31
0.0
  0
LINE
  5
595
330
1F
100
AcDbEntity
  8
0
  6
Continuous
 62
     7
100
AcDbLine
 10
396.7049857229
 20
316.9661577362
 30
0.0
 11
397.863578478
 21
315.8530509864
 31
0.0
  0
LINE
  5
596
330
1F
100
AcDbEntity
  8
0
  6
Continuous
 62
     7
100
AcDbLine
 10
397.863578478
 20
315.8530509864
 30
0.0
 11
397.863578478
 21
315.8307554741
 31
0.0
  0
LINE
  5
597
330
1F
100
AcDbEntity
  8
0
  6
Continuous
 62
     7
100
AcDbLine
 10
397.863578478
 20
315.8307554741
 30
0.0
 11
377.9578341028
 21
291.9661577362
 31
0.0
  0
LINE
  5
598
330
1F
100
AcDbEntity
  8
0
  6
Continuous
 62
     7
100
AcDbLine
 10
377.9578341028
 20
291.9661577362
 30
0.0
 11
372.9578341028
 21
291.9661577362
 31
0.0
  0
LINE
  5
599
330
1F
100
AcDbEntity
  8
0
  6
Continuous
 62
     7
100
AcDbLine
 10
372.9578341028
 20
291.9661577362
 30
0.0
 11
367.9578341028
 21
291.9661577362
 31
0.0
  0
LINE
  5
59A
330
1F
100
AcDbEntity
  8
0
  6
Continuous
 62
     7
100
AcDbLine
 10
367.9578341028
 20
291.9661577362
 30
0.0
 11
367.9578341028
 21
259.8817357718
 31
0.0
  0
LINE
  5
59B
330
1F
100
AcDbEntity
  8
0
  6
Continuous
 62
     7
100
AcDbLine
 10
367.9578341028
 20
259.8817357718
 30
0.0
 11
372.9578341028
 21
257.81066796
 31
0.0
  0
LINE
  5
59C
330
1F
100
AcDbEntity
  8
0
  6
Continuous
 62
     7
100
AcDbLine
 10
372.9578341028
 20
257.81066796
 30
0.0
 11
379.6641200436
 21
255.0328333702
 31
0.0
  0
LINE
  5
59D
330
1F
100
AcDbEntity
  8
0
  6
Continuous
 62
     7
100
AcDbLine
 10
379.6641200436
 20
255.0328333702
 30
0.0
 11
402.9578341028
 21
251.9661577362
 31
0.0
  0
LINE
  5
59E
330
1F
100
AcDbEntity
  8
0
  6
Continuous
 62
     7
100
AcDbLine
 10
402.9578341028
 20
251.9661577362
 30
0.0
 11
426.251548162
 21
255.0328333701
 31
0.0
  0
LINE
  5
59F
330
1F
100
AcDbEntity
  8
0
  6
Continuous
 62
     7
100
AcDbLine
 10
426.251548162
 20
255.0328333701
 30
0.0
 11
432.9578341028
 21
257.81066796
 31
0.0
  0
LINE
  5
5A0
330
1F
100
AcDbEntity
  8
0
  6
Continuous
 62
     7
100
AcDbLine
 10
432.9578341028
 20
257.81066796
 30
0.0
 11
437.9578341028
 21
259.8817357718
 31
0.0
  0
LINE
  5
5A1
330
1F
100
AcDbEntity
  8
0
  6
Continuous
 62
     7
100
AcDbLine
 10
437.9578341028
 20
259.8817357718
 30
0.0
 11
437.9578341028
 21
291.9661577362
 31
0.0
  0
LINE
  5
5A2
330
1F
100
AcDbEntity
  8
0
  6
Continuous
 62
     7
100
AcDbLine
 10
437.9578341028
 20
291.9661577362
 30
0.0
 11
432.9578341028
 21
291.9661577362
 31
0.0
  0
LINE
  5
5A3
330
1F
100
AcDbEntity
  8
0
  6
Continuous
 62
     7
100
AcDbLine
 10
73.3577725793
 20
202.7400843144
 30
0.0
 11
117.3577725793
 21
202.7400843144
 31
0.0
  0
LINE
  5
5A4
330
1F
100
AcDbEntity
  8
0
  6
Continuous
 62
     7
100
AcDbLine
 10
117.3577725793
 20
202.7400843144
 30
0.0
 11
117.3577725793
 21
262.7400843144
 31
0.0
  0
LINE
  5
5A5
330
1F
100
AcDbEntity
  8
0
  6
Continuous
 62
     7
100
AcDbLine
 10
117.3577725793
 20
262.7400843144
 30
0.0
 11
73.3577725793
 21
262.7400843144
 31
0.0
  0
LINE
  5
5A6
330
1F
100
AcDbEntity
  8
0
  6
Continuous
 62
     7
100
AcDbLine
 10
73.3577725793
 20
262.7400843144
 30
0.0
 11
73.3577725793
 21
202.7400843144
 31
0.0
  0
LINE
  5
5A7
330
1F
100
AcDbEntity
  8
0
  6
Continuous
 62
     7
100
AcDbLine
 10
210.8283282626
 20
42.3603105367
 30
0.0
 11
210.1909031187
 21
41.871197021
 31
0.0
  0
LINE
  5
5A8
330
1F
100
AcDbEntity
  8
0
  6
Continuous
 62
     7
100
AcDbLine
 10
210.1909031187
 20
41.871197021
 30
0.0
 11
209.3963100057
 21
40.835663115
 31
0.0
  0
LINE
  5
5A9
330
1F
100
AcDbEntity
  8
0
  6
Continuous
 62
     7
100
AcDbLine
 10
209.3963100057
 20
40.835663115
 30
0.0
 11
208.8968078932
 21
39.6297583405
 31
0.0
  0
LINE
  5
5AA
330
1F
100
AcDbEntity
  8
0
  6
Continuous
 62
     7
100
AcDbLine
 10
208.8968078932
 20
39.6297583405
 30
0.0
 11
208.7264370246
 21
38.335663115
 31
0.0
  0
LINE
  5
5AB
330
1F
100
AcDbEntity
  8
0
  6
Continuous
 62
     7
100
AcDbLine
 10
208.7264370246
 20
38.335663115
 30
0.0
 11
208.8968078932
 21
37.0415678895
 31
0.0
  0
LINE
  5
5AC
330
1F
100
AcDbEntity
  8
0
  6
Continuous
 62
     7
100
AcDbLine
 10
208.8968078932
 20
37.0415678895
 30
0.0
 11
209.3963100057
 21
35.835663115
 31
0.0
  0
LINE
  5
5AD
330
1F
100
AcDbEntity
  8
0
  6
Continuous
 62
     7
100
AcDbLine
 10
209.3963100057
 20
35.835663115
 30
0.0
 11
210.1909031187
 21
34.8001292091
 31
0.0
  0
LINE
  5
5AE
330
1F
100
AcDbEntity
  8
0
  6
Continuous
 62
     7
100
AcDbLine
 10
210.1909031187
 20
34.8001292091
 30
0.0
 11
211.2264370246
 21
34.0055360961
 31
0.0
  0
LINE
  5
5AF
330
1F
100
AcDbEntity
  8
0
  6
Continuous
 62
     7
100
AcDbLine
 10
211.2264370246
 20
34.0055360961
 30
0.0
 11
212.4323417991
 21
33.5060339836
 31
0.0
  0
LINE
  5
5B0
330
1F
100
AcDbEntity
  8
0
  6
Continuous
 62
     7
100
AcDbLine
 10
212.4323417991
 20
33.5060339836
 30
0.0
 11
213.7264370246
 21
33.335663115
 31
0.0
  0
LINE
  5
5B1
330
1F
100
AcDbEntity
  8
0
  6
Continuous
 62
     7
100
AcDbLine
 10
213.7264370246
 20
33.335663115
 30
0.0
 11
215.0205322501
 21
33.5060339836
 31
0.0
  0
LINE
  5
5B2
330
1F
100
AcDbEntity
  8
0
  6
Continuous
 62
     7
100
AcDbLine
 10
215.0205322501
 20
33.5060339836
 30
0.0
 11
216.2264370246
 21
34.0055360961
 31
0.0
  0
LINE
  5
5B3
330
1F
100
AcDbEntity
  8
0
  6
Continuous
 62
     7
100
AcDbLine
 10
216.2264370246
 20
34.0055360961
 30
0.0
 11
225.3407417371
 21
39.2676823753
 31
0.0
  0
LINE
  5
5B4
330
1F
100
AcDbEntity
  8
0
  6
Continuous
 62
     7
100
AcDbLine
 10
225.3407417371
 20
39.2676823753
 30
0.0
 11
223.8407417371
 21
41.8657585867
 31
0.0
  0
LINE
  5
5B5
330
1F
100
AcDbEntity
  8
0
  6
Continuous
 62
     7
100
AcDbLine
 10
223.8407417371
 20
41.8657585867
 30
0.0
 11
223.5907417371
 21
42.2987712886
 31
0.0
  0
LINE
  5
5B6
330
1F
100
AcDbEntity
  8
0
  6
Continuous
 62
     7
100
AcDbLine
 10
223.5907417371
 20
42.2987712886
 30
0.0
 11
222.8407417371
 21
43.5978093943
 31
0.0
  0
LINE
  5
5B7
330
1F
100
AcDbEntity
  8
0
  6
Continuous
 62
     7
100
AcDbLine
 10
222.8407417371
 20
43.5978093943
 30
0.0
 11
225.9473434549
 21
45.9815887332
 31
0.0
  0
LINE
  5
5B8
330
1F
100
AcDbEntity
  8
0
  6
Continuous
 62
     7
100
AcDbLine
 10
225.9473434549
 20
45.9815887332
 30
0.0
 11
228.3311227939
 21
49.088190451
 31
0.0
  0
LINE
  5
5B9
330
1F
100
AcDbEntity
  8
0
  6
Continuous
 62
     7
100
AcDbLine
 10
228.3311227939
 20
49.088190451
 30
0.0
 11
229.8296291314
 21
52.7059047745
 31
0.0
  0
LINE
  5
5BA
330
1F
100
AcDbEntity
  8
0
  6
Continuous
 62
     7
100
AcDbLine
 10
229.8296291314
 20
52.7059047745
 30
0.0
 11
230.3407417371
 21
56.588190451
 31
0.0
  0
LINE
  5
5BB
330
1F
100
AcDbEntity
  8
0
  6
Continuous
 62
     7
100
AcDbLine
 10
230.3407417371
 20
56.588190451
 30
0.0
 11
229.8296291314
 21
60.4704761276
 31
0.0
  0
LINE
  5
5BC
330
1F
100
AcDbEntity
  8
0
  6
Continuous
 62
     7
100
AcDbLine
 10
229.8296291314
 20
60.4704761276
 30
0.0
 11
228.3311227939
 21
64.088190451
 31
0.0
  0
LINE
  5
5BD
330
1F
100
AcDbEntity
  8
0
  6
Continuous
 62
     7
100
AcDbLine
 10
228.3311227939
 20
64.088190451
 30
0.0
 11
232.6612498128
 21
66.588190451
 31
0.0
  0
LINE
  5
5BE
330
1F
100
AcDbEntity
  8
0
  6
Continuous
 62
     7
100
AcDbLine
 10
232.6612498128
 20
66.588190451
 30
0.0
 11
234.8595636186
 21
65.8197778973
 31
0.0
  0
LINE
  5
5BF
330
1F
100
AcDbEntity
  8
0
  6
Continuous
 62
     7
100
AcDbLine
 10
234.8595636186
 20
65.8197778973
 30
0.0
 11
237.1753169711
 21
66.0653951848
 31
0.0
  0
LINE
  5
5C0
330
1F
100
AcDbEntity
  8
0
  6
Continuous
 62
     7
100
AcDbLine
 10
237.1753169711
 20
66.0653951848
 30
0.0
 11
239.163533101
 21
67.2778464466
 31
0.0
  0
LINE
  5
5C1
330
1F
100
AcDbEntity
  8
0
  6
Continuous
 62
     7
100
AcDbLine
 10
239.163533101
 20
67.2778464466
 30
0.0
 11
240.44217219
 21
69.2241566793
 31
0.0
  0
LINE
  5
5C2
330
1F
100
AcDbEntity
  8
0
  6
Continuous
 62
     7
100
AcDbLine
 10
240.44217219
 20
69.2241566793
 30
0.0
 11
240.7655411073
 21
71.5303383688
 31
0.0
  0
LINE
  5
5C3
330
1F
100
AcDbEntity
  8
0
  6
Continuous
 62
     7
100
AcDbLine
 10
240.7655411073
 20
71.5303383688
 30
0.0
 11
240.0715038506
 21
73.7532539605
 31
0.0
  0
LINE
  5
5C4
330
1F
100
AcDbEntity
  8
0
  6
Continuous
 62
     7
100
AcDbLine
 10
240.0715038506
 20
73.7532539605
 30
0.0
 11
238.4934211061
 21
75.4657656518
 31
0.0
  0
LINE
  5
5C5
330
1F
100
AcDbEntity
  8
0
  6
Continuous
 62
     7
100
AcDbLine
 10
238.4934211061
 20
75.4657656518
 30
0.0
 11
236.3345247186
 21
76.3388107993
 31
0.0
  0
LINE
  5
5C6
330
1F
100
AcDbEntity
  8
0
  6
Continuous
 62
     7
100
AcDbLine
 10
236.3345247186
 20
76.3388107993
 30
0.0
 11
234.009651069
 21
76.2046319823
 31
0.0
  0
LINE
  5
5C7
330
1F
100
AcDbEntity
  8
0
  6
Continuous
 62
     7
100
AcDbLine
 10
234.009651069
 20
76.2046319823
 30
0.0
 11
231.9655294104
 21
75.0890119365
 31
0.0
  0
LINE
  5
5C8
330
1F
100
AcDbEntity
  8
0
  6
Continuous
 62
     7
100
AcDbLine
 10
231.9655294104
 20
75.0890119365
 30
0.0
 11
230.5949419236
 21
73.2063193481
 31
0.0
  0
LINE
  5
5C9
330
1F
100
AcDbEntity
  8
0
  6
Continuous
 62
     7
100
AcDbLine
 10
230.5949419236
 20
73.2063193481
 30
0.0
 11
230.1612498128
 21
70.9183174699
 31
0.0
  0
LINE
  5
5CA
330
1F
100
AcDbEntity
  8
0
  6
Continuous
 62
     7
100
AcDbLine
 10
230.1612498128
 20
70.9183174699
 30
0.0
 11
225.8311227939
 21
68.4183174699
 31
0.0
  0
LINE
  5
5CB
330
1F
100
AcDbEntity
  8
0
  6
Continuous
 62
     7
100
AcDbLine
 10
225.8311227939
 20
68.4183174699
 30
0.0
 11
225.2873156488
 21
68.0549571525
 31
0.0
  0
LINE
  5
5CC
330
1F
100
AcDbEntity
  8
0
  6
Continuous
 62
     7
100
AcDbLine
 10
225.2873156488
 20
68.0549571525
 30
0.0
 11
224.7955888879
 21
67.623724357
 31
0.0
  0
LINE
  5
5CD
330
1F
100
AcDbEntity
  8
0
  6
Continuous
 62
     7
100
AcDbLine
 10
224.7955888879
 20
67.623724357
 30
0.0
 11
224.3643560924
 21
67.1319975961
 31
0.0
  0
LINE
  5
5CE
330
1F
100
AcDbEntity
  8
0
  6
Continuous
 62
     7
100
AcDbLine
 10
224.3643560924
 20
67.1319975961
 30
0.0
 11
224.000995775
 21
66.588190451
 31
0.0
  0
LINE
  5
5CF
330
1F
100
AcDbEntity
  8
0
  6
Continuous
 62
     7
100
AcDbLine
 10
224.000995775
 20
66.588190451
 30
0.0
 11
223.7117251313
 21
66.0016076128
 31
0.0
  0
LINE
  5
5D0
330
1F
100
AcDbEntity
  8
0
  6
Continuous
 62
     7
100
AcDbLine
 10
223.7117251313
 20
66.0016076128
 30
0.0
 11
223.5014936624
 21
65.3822856765
 31
0.0
  0
LINE
  5
5D1
330
1F
100
AcDbEntity
  8
0
  6
Continuous
 62
     7
100
AcDbLine
 10
223.5014936624
 20
65.3822856765
 30
0.0
 11
223.373898487
 21
64.7408214121
 31
0.0
  0
LINE
  5
5D2
330
1F
100
AcDbEntity
  8
0
  6
Continuous
 62
     7
100
AcDbLine
 10
223.373898487
 20
64.7408214121
 30
0.0
 11
223.3311227939
 21
64.088190451
 31
0.0
  0
LINE
  5
5D3
330
1F
100
AcDbEntity
  8
0
  6
Continuous
 62
     7
100
AcDbLine
 10
223.3311227939
 20
64.088190451
 30
0.0
 11
223.373898487
 21
63.4355594899
 31
0.0
  0
LINE
  5
5D4
330
1F
100
AcDbEntity
  8
0
  6
Continuous
 62
     7
100
AcDbLine
 10
223.373898487
 20
63.4355594899
 30
0.0
 11
223.5014936624
 21
62.7940952255
 31
0.0
  0
LINE
  5
5D5
330
1F
100
AcDbEntity
  8
0
  6
Continuous
 62
     7
100
AcDbLine
 10
223.5014936624
 20
62.7940952255
 30
0.0
 11
223.7117251313
 21
62.1747732892
 31
0.0
  0
LINE
  5
5D6
330
1F
100
AcDbEntity
  8
0
  6
Continuous
 62
     7
100
AcDbLine
 10
223.7117251313
 20
62.1747732892
 30
0.0
 11
224.000995775
 21
61.588190451
 31
0.0
  0
LINE
  5
5D7
330
1F
100
AcDbEntity
  8
0
  6
Continuous
 62
     7
100
AcDbLine
 10
224.000995775
 20
61.588190451
 30
0.0
 11
225.0
 21
59.176380902
 31
0.0
  0
LINE
  5
5D8
330
1F
100
AcDbEntity
  8
0
  6
Continuous
 62
     7
100
AcDbLine
 10
225.0
 20
59.176380902
 30
0.0
 11
225.3407417371
 21
56.588190451
 31
0.0
  0
LINE
  5
5D9
330
1F
100
AcDbEntity
  8
0
  6
Continuous
 62
     7
100
AcDbLine
 10
225.3407417371
 20
56.588190451
 30
0.0
 11
225.0
 21
54.0
 31
0.0
  0
LINE
  5
5DA
330
1F
100
AcDbEntity
  8
0
  6
Continuous
 62
     7
100
AcDbLine
 10
225.0
 20
54.0
 30
0.0
 11
224.000995775
 21
51.588190451
 31
0.0
  0
LINE
  5
5DB
330
1F
100
AcDbEntity
  8
0
  6
Continuous
 62
     7
100
AcDbLine
 10
224.000995775
 20
51.588190451
 30
0.0
 11
222.411809549
 21
49.5171226392
 31
0.0
  0
LINE
  5
5DC
330
1F
100
AcDbEntity
  8
0
  6
Continuous
 62
     7
100
AcDbLine
 10
222.411809549
 20
49.5171226392
 30
0.0
 11
220.3407417371
 21
47.9279364132
 31
0.0
  0
LINE
  5
5DD
330
1F
100
AcDbEntity
  8
0
  6
Continuous
 62
     7
100
AcDbLine
 10
220.3407417371
 20
47.9279364132
 30
0.0
 11
211.2264370246
 21
42.665790134
 31
0.0
  0
LINE
  5
5DE
330
1F
100
AcDbEntity
  8
0
  6
Continuous
 62
     7
100
AcDbLine
 10
211.2264370246
 20
42.665790134
 30
0.0
 11
210.8283282626
 21
42.3603105367
 31
0.0
  0
LINE
  5
5DF
330
1F
100
AcDbEntity
  8
0
  6
Continuous
 62
     7
100
AcDbLine
 10
225.216594651
 20
165.4470986765
 30
0.0
 11
225.0351960011
 21
165.6779393963
 31
0.0
  0
LINE
  5
5E0
330
1F
100
AcDbEntity
  8
0
  6
Continuous
 62
     7
100
AcDbLine
 10
215.8800126664
 20
177.3284622173
 30
0.0
 11
225.0351960011
 21
165.6779393963
 31
0.0
  0
LINE
  5
5E1
330
1F
100
AcDbEntity
  8
0
  6
Continuous
 62
     7
100
AcDbLine
 10
245.9492609257
 20
190.8122874565
 30
0.0
 11
261.7935512672
 21
190.8
 31
0.0
  0
LINE
  5
5E2
330
1F
100
AcDbEntity
  8
0
  6
Continuous
 62
     7
100
AcDbLine
 10
261.7935512672
 20
190.8
 30
0.0
 11
316.1219717685
 21
95.6602540378
 31
0.0
  0
LINE
  5
5E3
330
1F
100
AcDbEntity
  8
0
  6
Continuous
 62
     7
100
AcDbLine
 10
316.1219717685
 20
95.6602540378
 30
0.0
 11
316.1219717685
 21
93.2409409622
 31
0.0
  0
LINE
  5
5E4
330
1F
100
AcDbEntity
  8
0
  6
Continuous
 62
     7
100
AcDbLine
 10
326.1219717685
 20
93.2279468109
 30
0.0
 11
326.1219717685
 21
95.6602540378
 31
0.0
  0
LINE
  5
5E5
330
1F
100
AcDbEntity
  8
0
  6
Continuous
 62
     7
100
AcDbLine
 10
326.1219717685
 20
95.6602540378
 30
0.0
 11
400.6537984958
 21
227.0
 31
0.0
  0
LINE
  5
5E6
330
1F
100
AcDbEntity
  8
0
  6
Continuous
 62
     7
100
AcDbLine
 10
400.6537984958
 20
227.0
 30
0.0
 11
419.1219717685
 21
227.0
 31
0.0
  0
LINE
  5
5E7
330
1F
100
AcDbEntity
  8
0
  6
Continuous
 62
     7
100
AcDbLine
 10
419.1219717685
 20
227.0
 30
0.0
 11
419.1219717685
 21
229.0
 31
0.0
  0
LINE
  5
5E8
330
1F
100
AcDbEntity
  8
0
  6
Continuous
 62
     7
100
AcDbLine
 10
419.1219717685
 20
229.0
 30
0.0
 11
420.416066994
 21
229.1703708686
 31
0.0
  0
LINE
  5
5E9
330
1F
100
AcDbEntity
  8
0
  6
Continuous
 62
     7
100
AcDbLine
 10
420.416066994
 20
229.1703708686
 30
0.0
 11
421.6219717685
 21
229.6698729811
 31
0.0
  0
LINE
  5
5EA
330
1F
100
AcDbEntity
  8
0
  6
Continuous
 62
     7
100
AcDbLine
 10
421.6219717685
 20
229.6698729811
 30
0.0
 11
422.6575056744
 21
230.4644660941
 31
0.0
  0
LINE
  5
5EB
330
1F
100
AcDbEntity
  8
0
  6
Continuous
 62
     7
100
AcDbLine
 10
422.6575056744
 20
230.4644660941
 30
0.0
 11
423.4520987874
 21
231.5
 31
0.0
  0
LINE
  5
5EC
330
1F
100
AcDbEntity
  8
0
  6
Continuous
 62
     7
100
AcDbLine
 10
423.4520987874
 20
231.5
 30
0.0
 11
423.9516008999
 21
232.7059047745
 31
0.0
  0
LINE
  5
5ED
330
1F
100
AcDbEntity
  8
0
  6
Continuous
 62
     7
100
AcDbLine
 10
423.9516008999
 20
232.7059047745
 30
0.0
 11
424.1219717685
 21
234.0
 31
0.0
  0
LINE
  5
5EE
330
1F
100
AcDbEntity
  8
0
  6
Continuous
 62
     7
100
AcDbLine
 10
424.1219717685
 20
234.0
 30
0.0
 11
426.1219717685
 21
234.0
 31
0.0
  0
LINE
  5
5EF
330
1F
100
AcDbEntity
  8
0
  6
Continuous
 62
     7
100
AcDbLine
 10
426.1219717685
 20
234.0
 30
0.0
 11
426.1219717685
 21
237.0
 31
0.0
  0
LINE
  5
5F0
330
1F
100
AcDbEntity
  8
0
  6
Continuous
 62
     7
100
AcDbLine
 10
426.1219717685
 20
237.0
 30
0.0
 11
411.1219717685
 21
237.0
 31
0.0
  0
LINE
  5
5F1
330
1F
100
AcDbEntity
  8
0
  6
Continuous
 62
     7
100
AcDbLine
 10
411.1219717685
 20
237.0
 30
0.0
 11
411.1219717685
 21
232.0
 31
0.0
  0
LINE
  5
5F2
330
1F
100
AcDbEntity
  8
0
  6
Continuous
 62
     7
100
AcDbLine
 10
411.1219717685
 20
232.0
 30
0.0
 11
401.0
 21
232.0
 31
0.0
  0
LINE
  5
5F3
330
1F
100
AcDbEntity
  8
0
  6
Continuous
 62
     7
100
AcDbLine
 10
401.0
 20
232.0
 30
0.0
 11
401.0
 21
237.0
 31
0.0
  0
LINE
  5
5F4
330
1F
100
AcDbEntity
  8
0
  6
Continuous
 62
     7
100
AcDbLine
 10
401.0
 20
237.0
 30
0.0
 11
326.1018079132
 21
237.0
 31
0.0
  0
LINE
  5
5F5
330
1F
100
AcDbEntity
  8
0
  6
Continuous
 62
     7
100
AcDbLine
 10
326.1018079132
 20
237.0
 30
0.0
 11
326.1018079132
 21
232.0
 31
0.0
  0
LINE
  5
5F6
330
1F
100
AcDbEntity
  8
0
  6
Continuous
 62
     7
100
AcDbLine
 10
326.1018079132
 20
232.0
 30
0.0
 11
316.0
 21
232.0
 31
0.0
  0
LINE
  5
5F7
330
1F
100
AcDbEntity
  8
0
  6
Continuous
 62
     7
100
AcDbLine
 10
316.0
 20
232.0
 30
0.0
 11
316.0
 21
237.0
 31
0.0
  0
LINE
  5
5F8
330
1F
100
AcDbEntity
  8
0
  6
Continuous
 62
     7
100
AcDbLine
 10
316.0
 20
237.0
 30
0.0
 11
191.1219717685
 21
237.0
 31
0.0
  0
LINE
  5
5F9
330
1F
100
AcDbEntity
  8
0
  6
Continuous
 62
     7
100
AcDbLine
 10
191.1219717685
 20
237.0
 30
0.0
 11
191.1219717685
 21
232.0
 31
0.0
  0
LINE
  5
5FA
330
1F
100
AcDbEntity
  8
0
  6
Continuous
 62
     7
100
AcDbLine
 10
191.1219717685
 20
232.0
 30
0.0
 11
181.0
 21
232.0
 31
0.0
  0
LINE
  5
5FB
330
1F
100
AcDbEntity
  8
0
  6
Continuous
 62
     7
100
AcDbLine
 10
181.0
 20
232.0
 30
0.0
 11
181.0
 21
237.0
 31
0.0
  0
LINE
  5
5FC
330
1F
100
AcDbEntity
  8
0
  6
Continuous
 62
     7
100
AcDbLine
 10
181.0
 20
237.0
 30
0.0
 11
166.1219717685
 21
237.0
 31
0.0
  0
LINE
  5
5FD
330
1F
100
AcDbEntity
  8
0
  6
Continuous
 62
     7
100
AcDbLine
 10
166.1219717685
 20
237.0
 30
0.0
 11
166.1219717685
 21
234.0
 31
0.0
  0
LINE
  5
5FE
330
1F
100
AcDbEntity
  8
0
  6
Continuous
 62
     7
100
AcDbLine
 10
166.1219717685
 20
234.0
 30
0.0
 11
168.1219717685
 21
234.0
 31
0.0
  0
LINE
  5
5FF
330
1F
100
AcDbEntity
  8
0
  6
Continuous
 62
     7
100
AcDbLine
 10
168.1219717685
 20
234.0
 30
0.0
 11
168.292342637
 21
232.7059047745
 31
0.0
  0
LINE
  5
600
330
1F
100
AcDbEntity
  8
0
  6
Continuous
 62
     7
100
AcDbLine
 10
168.292342637
 20
232.7059047745
 30
0.0
 11
168.7918447496
 21
231.5
 31
0.0
  0
LINE
  5
601
330
1F
100
AcDbEntity
  8
0
  6
Continuous
 62
     7
100
AcDbLine
 10
168.7918447496
 20
231.5
 30
0.0
 11
169.5864378625
 21
230.4644660941
 31
0.0
  0
LINE
  5
602
330
1F
100
AcDbEntity
  8
0
  6
Continuous
 62
     7
100
AcDbLine
 10
169.5864378625
 20
230.4644660941
 30
0.0
 11
170.6219717685
 21
229.6698729811
 31
0.0
  0
LINE
  5
603
330
1F
100
AcDbEntity
  8
0
  6
Continuous
 62
     7
100
AcDbLine
 10
170.6219717685
 20
229.6698729811
 30
0.0
 11
171.827876543
 21
229.1703708686
 31
0.0
  0
LINE
  5
604
330
1F
100
AcDbEntity
  8
0
  6
Continuous
 62
     7
100
AcDbLine
 10
171.827876543
 20
229.1703708686
 30
0.0
 11
173.1219717685
 21
229.0
 31
0.0
  0
LINE
  5
605
330
1F
100
AcDbEntity
  8
0
  6
Continuous
 62
     7
100
AcDbLine
 10
173.1219717685
 20
229.0
 30
0.0
 11
173.1219717685
 21
227.0
 31
0.0
  0
LINE
  5
606
330
1F
100
AcDbEntity
  8
0
  6
Continuous
 62
     7
100
AcDbLine
 10
173.1219717685
 20
227.0
 30
0.0
 11
214.2281728417
 21
227.0
 31
0.0
  0
LINE
  5
607
330
1F
100
AcDbEntity
  8
0
  6
Continuous
 62
     7
100
AcDbLine
 10
214.2281728417
 20
227.0
 30
0.0
 11
214.2281728417
 21
182.4401994348
 31
0.0
  0
MTEXT
  5
609
330
1F
100
AcDbEntity
  8
0
  6
Continuous
 62
     7
100
AcDbMText
 10
12.0
 20
12.6620178058
 30
0.0
 40
4.83362
 41
0.0
 71
     1
 72
     1
  1
Produit d'éducation SOLIDWORKS – A titre éducatif uniquement.
  7
SLDTEXTSTYLE0
 73
     1
 44
1.0
  0
ENDSEC
  0
SECTION
  2
OBJECTS
  0
DICTIONARY
  5
C
330
0
100
AcDbDictionary
281
     1
  3
ACAD_GROUP
350
D
  3
ACAD_LAYOUT
350
1A
  3
ACAD_MLINESTYLE
350
17
  3
ACAD_PLOTSETTINGS
350
19
  3
ACAD_PLOTSTYLENAME
350
E
  3
ACAD_SCALELIST
350
47
  0
DICTIONARY
  5
D
102
{ACAD_REACTORS
330
C
102
}
330
C
100
AcDbDictionary
281
     1
  0
DICTIONARY
  5
1A
102
{ACAD_REACTORS
330
C
102
}
330
C
100
AcDbDictionary
281
     1
  3
Layout1
350
1E
  3
Layout2
350
26
  3
Model
350
22
  0
DICTIONARY
  5
17
102
{ACAD_REACTORS
330
C
102
}
330
C
100
AcDbDictionary
281
     1
  3
Standard
350
18
  0
DICTIONARY
  5
19
102
{ACAD_REACTORS
330
C
102
}
330
C
100
AcDbDictionary
281
     1
  0
ACDBDICTIONARYWDFLT
  5
E
102
{ACAD_REACTORS
330
C
102
}
330
C
100
AcDbDictionary
281
     1
  3
Normal
350
F
100
AcDbDictionaryWithDefault
340
F
  0
DICTIONARY
  5
47
102
{ACAD_REACTORS
330
C
102
}
330
C
100
AcDbDictionary
281
     1
  3
A0
350
48
  3
A1
350
49
  3
A2
350
4A
  3
A3
350
4B
  3
A4
350
4C
  3
A5
350
4D
  3
A6
350
4E
  3
A7
350
4F
  3
A8
350
50
  3
A9
350
51
  3
B0
350
52
  3
B1
350
53
  3
B2
350
54
  3
B3
350
55
  3
B4
350
56
  3
B5
350
57
  3
B6
350
58
  3
B7
350
59
  3
B8
350
5A
  3
B9
350
5B
  3
C0
350
5C
  3
C1
350
5D
  3
C2
350
5E
  3
C3
350
5F
  3
C4
350
60
  3
C5
350
61
  3
C6
350
62
  3
C7
350
63
  3
C8
350
64
  3
C9
350
65
  3
D0
350
66
  3
D1
350
67
  3
D2
350
68
  0
LAYOUT
  5
1E
102
{ACAD_REACTORS
330
1A
102
}
330
1A
100
AcDbPlotSettings
  1

  2
none_device
  4

  6

 40
0.0
 41
0.0
 42
0.0
 43
0.0
 44
0.0
 45
0.0
 46
0.0
 47
0.0
 48
0.0
 49
0.0
140
0.0
141
0.0
142
1.0
143
1.0
 70
   688
 72
     1
 73
     0
 74
     5
  7

 75
    16
147
1.0
148
0.0
149
0.0
100
AcDbLayout
  1
Layout1
 70
     1
 71
     1
 10
0.0
 20
0.0
 11
420.0
 21
297.0
 12
0.0
 22
0.0
 32
0.0
 14
1.0000000000E+20
 24
1.0000000000E+20
 34
1.0000000000E+20
 15
-1.0000000000E+20
 25
-1.0000000000E+20
 35
-1.0000000000E+20
146
0.0
 13
0.0
 23
0.0
 33
0.0
 16
1.0
 26
0.0
 36
0.0
 17
0.0
 27
1.0
 37
0.0
 76
     0
330
1B
  0
LAYOUT
  5
26
102
{ACAD_REACTORS
330
1A
102
}
330
1A
100
AcDbPlotSettings
  1

  2
none_device
  4

  6

 40
0.0
 41
0.0
 42
0.0
 43
0.0
 44
0.0
 45
0.0
 46
0.0
 47
0.0
 48
0.0
 49
0.0
140
0.0
141
0.0
142
1.0
143
1.0
 70
   688
 72
     1
 73
     0
 74
     5
  7

 75
    16
147
1.0
148
0.0
149
0.0
100
AcDbLayout
  1
Layout2
 70
     1
 71
     2
 10
0.0
 20
0.0
 11
0.0
 21
0.0
 12
0.0
 22
0.0
 32
0.0
 14
0.0
 24
0.0
 34
0.0
 15
0.0
 25
0.0
 35
0.0
146
0.0
 13
0.0
 23
0.0
 33
0.0
 16
1.0
 26
0.0
 36
0.0
 17
0.0
 27
1.0
 37
0.0
 76
     0
330
23
  0
LAYOUT
  5
22
102
{ACAD_REACTORS
330
1A
102
}
330
1A
100
AcDbPlotSettings
  1

  2
none_device
  4
ANSI_A_(11.00_x_8.50_Inches)
  6

 40
6.35
 41
19.05
 42
6.35000508
 43
19.05000254
 44
279.4
 45
215.9
 46
-12.7454921581
 47
-22.667055395
 48
0.0
 49
0.0
140
0.0
141
0.0
142
0.0255659108
143
1.0
 70
  1696
 72
     0
 73
     0
 74
     0
  7

 75
     0
147
0.0179189148
148
-1300.4909072572
149
0.0
100
AcDbLayout
  1
Model
 70
     1
 71
     0
 10
0.0
 20
0.0
 11
420.0
 21
297.0
 12
0.0
 22
0.0
 32
0.0
 14
12.0
 24
13.6815841975
 34
0.0
 15
437.9578341028
 25
329.9325147903
 35
0.0
146
0.0
 13
0.0
 23
0.0
 33
0.0
 16
1.0
 26
0.0
 36
0.0
 17
0.0
 27
1.0
 37
0.0
 76
     0
330
1F
331
29
  0
MLINESTYLE
  5
18
102
{ACAD_REACTORS
330
17
102
}
330
17
100
AcDbMlineStyle
  2
Standard
 70
     0
  3

 62
   256
 51
90.0
 52
90.0
 71
     2
 49
0.5
 62
   256
  6
BYLAYER
 49
-0.5
 62
   256
  6
BYLAYER
  0
ACDBPLACEHOLDER
  5
F
102
{ACAD_REACTORS
330
E
102
}
330
E
  0
SCALE
  5
48
102
{ACAD_REACTORS
330
47
102
}
330
47
100
AcDbScale
 70
     0
300
1:1
140
1.0
141
1.0
290
     1
  0
SCALE
  5
49
102
{ACAD_REACTORS
330
47
102
}
330
47
100
AcDbScale
 70
     0
300
1:2
140
1.0
141
2.0
290
     0
  0
SCALE
  5
4A
102
{ACAD_REACTORS
330
47
102
}
330
47
100
AcDbScale
 70
     0
300
1:4
140
1.0
141
4.0
290
     0
  0
SCALE
  5
4B
102
{ACAD_REACTORS
330
47
102
}
330
47
100
AcDbScale
 70
     0
300
1:5
140
1.0
141
5.0
290
     0
  0
SCALE
  5
4C
102
{ACAD_REACTORS
330
47
102
}
330
47
100
AcDbScale
 70
     0
300
1:8
140
1.0
141
8.0
290
     0
  0
SCALE
  5
4D
102
{ACAD_REACTORS
330
47
102
}
330
47
100
AcDbScale
 70
     0
300
1:10
140
1.0
141
10.0
290
     0
  0
SCALE
  5
4E
102
{ACAD_REACTORS
330
47
102
}
330
47
100
AcDbScale
 70
     0
300
1:16
140
1.0
141
16.0
290
     0
  0
SCALE
  5
4F
102
{ACAD_REACTORS
330
47
102
}
330
47
100
AcDbScale
 70
     0
300
1:20
140
1.0
141
20.0
290
     0
  0
SCALE
  5
50
102
{ACAD_REACTORS
330
47
102
}
330
47
100
AcDbScale
 70
     0
300
1:30
140
1.0
141
30.0
290
     0
  0
SCALE
  5
51
102
{ACAD_REACTORS
330
47
102
}
330
47
100
AcDbScale
 70
     0
300
1:40
140
1.0
141
40.0
290
     0
  0
SCALE
  5
52
102
{ACAD_REACTORS
330
47
102
}
330
47
100
AcDbScale
 70
     0
300
1:50
140
1.0
141
50.0
290
     0
  0
SCALE
  5
53
102
{ACAD_REACTORS
330
47
102
}
330
47
100
AcDbScale
 70
     0
300
1:100
140
1.0
141
100.0
290
     0
  0
SCALE
  5
54
102
{ACAD_REACTORS
330
47
102
}
330
47
100
AcDbScale
 70
     0
300
2:1
140
2.0
141
1.0
290
     0
  0
SCALE
  5
55
102
{ACAD_REACTORS
330
47
102
}
330
47
100
AcDbScale
 70
     0
300
4:1
140
4.0
141
1.0
290
     0
  0
SCALE
  5
56
102
{ACAD_REACTORS
330
47
102
}
330
47
100
AcDbScale
 70
     0
300
8:1
140
8.0
141
1.0
290
     0
  0
SCALE
  5
57
102
{ACAD_REACTORS
330
47
102
}
330
47
100
AcDbScale
 70
     0
300
10:1
140
10.0
141
1.0
290
     0
  0
SCALE
  5
58
102
{ACAD_REACTORS
330
47
102
}
330
47
100
AcDbScale
 70
     0
300
100:1
140
100.0
141
1.0
290
     0
  0
SCALE
  5
59
102
{ACAD_REACTORS
330
47
102
}
330
47
100
AcDbScale
 70
     0
300
1/128" = 1'-0"
140
0.0078125
141
12.0
290
     0
  0
SCALE
  5
5A
102
{ACAD_REACTORS
330
47
102
}
330
47
100
AcDbScale
 70
     0
300
1/64" = 1'-0"
140
0.015625
141
12.0
290
     0
  0
SCALE
  5
5B
102
{ACAD_REACTORS
330
47
102
}
330
47
100
AcDbScale
 70
     0
300
1/32" = 1'-0"
140
0.03125
141
12.0
290
     0
  0
SCALE
  5
5C
102
{ACAD_REACTORS
330
47
102
}
330
47
100
AcDbScale
 70
     0
300
1/16" = 1'-0"
140
0.0625
141
12.0
290
     0
  0
SCALE
  5
5D
102
{ACAD_REACTORS
330
47
102
}
330
47
100
AcDbScale
 70
     0
300
3/32" = 1'-0"
140
0.09375
141
12.0
290
     0
  0
SCALE
  5
5E
102
{ACAD_REACTORS
330
47
102
}
330
47
100
AcDbScale
 70
     0
300
1/8" = 1'-0"
140
0.125
141
12.0
290
     0
  0
SCALE
  5
5F
102
{ACAD_REACTORS
330
47
102
}
330
47
100
AcDbScale
 70
     0
300
3/16" = 1'-0"
140
0.1875
141
12.0
290
     0
  0
SCALE
  5
60
102
{ACAD_REACTORS
330
47
102
}
330
47
100
AcDbScale
 70
     0
300
1/4" = 1'-0"
140
0.25
141
12.0
290
     0
  0
SCALE
  5
61
102
{ACAD_REACTORS
330
47
102
}
330
47
100
AcDbScale
 70
     0
300
3/8" = 1'-0"
140
0.375
141
12.0
290
     0
  0
SCALE
  5
62
102
{ACAD_REACTORS
330
47
102
}
330
47
100
AcDbScale
 70
     0
300
1/2" = 1'-0"
140
0.5
141
12.0
290
     0
  0
SCALE
  5
63
102
{ACAD_REACTORS
330
47
102
}
330
47
100
AcDbScale
 70
     0
300
3/4" = 1'-0"
140
0.75
141
12.0
290
     0
  0
SCALE
  5
64
102
{ACAD_REACTORS
330
47
102
}
330
47
100
AcDbScale
 70
     0
300
1" = 1'-0"
140
1.0
141
12.0
290
     0
  0
SCALE
  5
65
102
{ACAD_REACTORS
330
47
102
}
330
47
100
AcDbScale
 70
     0
300
1-1/2" = 1'-0"
140
1.5
141
12.0
290
     0
  0
SCALE
  5
66
102
{ACAD_REACTORS
330
47
102
}
330
47
100
AcDbScale
 70
     0
300
3" = 1'-0"
140
3.0
141
12.0
290
     0
  0
SCALE
  5
67
102
{ACAD_REACTORS
330
47
102
}
330
47
100
AcDbScale
 70
     0
300
6" = 1'-0"
140
6.0
141
12.0
290
     0
  0
SCALE
  5
68
102
{ACAD_REACTORS
330
47
102
}
330
47
100
AcDbScale
 70
     0
300
1'-0" = 1'-0"
140
12.0
141
12.0
290
     0
  0
ENDSEC
  0
EOF
