0
SECTION
2
HEADER
9
$INSUNITS
70
1
9
$ACADVER
1
AC1014
9
$HANDSEED
5
FFFF
0
ENDSEC
0
SECTION
2
TABLES
0
TABLE
2
VPORT
5
8
100
AcDbSymbolTable
0
ENDTAB
0
TABLE
2
LTYPE
5
5
100
AcDbSymbolTable
0
LTYPE
5
14
100
AcDbSymbolTableRecord
100
AcDbLinetypeTableRecord
2
BYBLOCK
70
0
0
LTYPE
5
15
100
AcDbSymbolTableRecord
100
AcDbLinetypeTableRecord
2
BYLAYER
70
0
0
ENDTAB
0
TABLE
2
LAYER
5
2
100
AcDbSymbolTable
70
2
0
LAYER
5
50
100
AcDbSymbolTableRecord
100
AcDbLayerTableRecord
2
0
70
0
6
CONTINUOUS
0
ENDTAB
0
TABLE
2
STYLE
5
3
100
AcDbSymbolTable
70
1
0
STYLE
5
11
100
AcDbSymbolTableRecord
100
AcDbTextStyleTableRecord
2
STANDARD
70
0
0
ENDTAB
0
TABLE
2
VIEW
5
6
100
AcDbSymbolTable
70
0
0
ENDTAB
0
TABLE
2
UCS
5
7
100
AcDbSymbolTable
70
0
0
ENDTAB
0
TABLE
2
APPID
5
9
100
AcDbSymbolTable
70
2
0
APPID
5
12
100
AcDbSymbolTableRecord
100
AcDbRegAppTableRecord
2
ACAD
70
0
0
ENDTAB
0
TABLE
2
DIMSTYLE
5
A
100
AcDbSymbolTable
70
1
0
ENDTAB
0
TABLE
2
BLOCK_RECORD
5
1
100
AcDbSymbolTable
70
1
0
BLOCK_RECORD
5
1F
100
AcDbSymbolTableRecord
100
AcDbBlockTableRecord
2
*MODEL_SPACE
0
BLOCK_RECORD
5
1B
100
AcDbSymbolTableRecord
100
AcDbBlockTableRecord
2
*PAPER_SPACE
0
ENDTAB
0
ENDSEC
0
SECTION
2
BLOCKS
0
BLOCK
5
20
100
AcDbEntity
100
AcDbBlockBegin
2
*MODEL_SPACE
0
ENDBLK
5
21
100
AcDbEntity
100
AcDbBlockEnd
0
BLOCK
5
1C
100
AcDbEntity
100
AcDbBlockBegin
2
*PAPER_SPACE
0
ENDBLK
5
1D
100
AcDbEntity
100
AcDbBlockEnd
0
ENDSEC
0
SECTION
2
ENTITIES
0
LWPOLYLINE
5
100
100
AcDbEntity
8
0
100
AcDbPolyline
90
8
70
1
43
0.0
10
5.499999917398287
20
0
10
0.49999999249075339
20
0
10
0
20
-0.49999999249075339
10
0
20
-3.9999999399260271
10
0.49999999249075339
20
-4.4999999999999991
10
5.499999917398287
20
-4.4999999999999991
10
5.9999999098890404
20
-3.9999999399260271
10
5.9999999098890404
20
-0.49999999249075339
0
LWPOLYLINE
5
101
100
AcDbEntity
8
0
100
AcDbPolyline
90
5
70
1
43
0.0
10
4.6181099849815066
20
-0.49999999249075339
10
1.3818899849815069
20
-0.49999999249075339
10
1.3818899849815069
20
-0.61811022871122578
10
2.9999999849815064
20
-0.61811022871122578
10
4.6181099849815066
20
-0.61811022871122578
0
LWPOLYLINE
5
102
100
AcDbEntity
8
0
100
AcDbPolyline
90
5
70
1
43
0.0
10
1.3818899849815069
20
-2.1999999924907532
10
4.6181099849815066
20
-2.1999999924907532
10
4.6181099849815066
20
-2.0818897562702805
10
2.9999999849815064
20
-2.0818897562702805
10
1.3818899849815069
20
-2.0818897562702805
0
LWPOLYLINE
5
103
100
AcDbEntity
8
0
100
AcDbPolyline
90
5
70
1
43
0.0
10
0.99999998498150677
20
-0.94999999249075329
10
0.99999998498150677
20
-1.7499999924907532
10
1.1181102212019791
20
-1.7499999924907532
10
1.1181102212019791
20
-1.3499999924907533
10
1.1181102212019791
20
-0.94999999249075329
0
LINE
5
104
100
AcDbEntity
8
0
100
AcDbLine
10
4.6181099849815066
20
-0.49999999249075339
30
0
11
1.3818899849815069
21
-0.49999999249075339
31
0
0
LWPOLYLINE
5
105
100
AcDbEntity
8
0
100
AcDbPolyline
90
5
70
1
43
0.0
10
4.9999999849815069
20
-1.7499999924907543
10
4.8818897487610338
20
-1.7499999924907543
10
4.8818897487610338
20
-1.3499999924907542
10
4.8818897487610355
20
-0.94999999249075417
10
4.9999999849815069
20
-0.94999999249075417
0
LWPOLYLINE
5
106
100
AcDbEntity
8
0
100
AcDbPolyline
90
8
70
1
43
0.0
10
2.0460629620889983
20
-3.8618110198674227
10
3.9539369778370292
20
-3.8618110198674227
42
0.41421356237309914
10
4.0039369778370286
20
-3.8118110198674233
10
4.0039369778370286
20
-2.8881889726233285
42
0.41421356237309503
10
3.9539369778370292
20
-2.8381889726233291
10
2.0460629620889983
20
-2.8381889726233291
42
0.41421356237309914
10
1.9960629620889985
20
-2.8881889726233285
10
1.9960629620889985
20
-3.8118110198674233
42
0.41421356237310325
0
LWPOLYLINE
5
107
100
AcDbEntity
8
0
100
AcDbPolyline
90
12
70
1
43
0.0
10
2.0110941649871577
20
-4.1458474821349078
10
2.0110941649871577
20
-4.3605935837696164
10
2.1744242484507628
20
-4.3605935837696164
10
2.1744242484507628
20
-4.3244119452096594
10
2.0544535388959702
20
-4.3244119452096594
10
2.0544535388959702
20
-4.2659646747975151
10
2.1622660507699667
20
-4.2659646747975151
10
2.1622660507699667
20
-4.2297830362375581
10
2.0544535388959702
20
-4.2297830362375581
10
2.0544535388959702
20
-4.1821756096692786
10
2.1703226862323595
20
-4.1821756096692786
10
2.1703226862323595
20
-4.1458474821349078
0
LWPOLYLINE
5
108
100
AcDbEntity
8
0
100
AcDbPolyline
90
4
70
1
43
0.0
10
2.2108988766927449
20
-4.1458474821349078
10
2.2108988766927449
20
-4.3605935837696164
10
2.2520609761179933
20
-4.3605935837696164
10
2.2520609761179933
20
-4.1458474821349078
0
LINE
5
109
100
AcDbEntity
8
0
100
AcDbLine
10
2.3843364016609896
20
-4.3110818591999509
30
0
11
2.4253520003786266
21
-4.3179666180666292
31
0
0
LINE
5
110
100
AcDbEntity
8
0
100
AcDbLine
10
2.4275492997952361
20
-4.2946756103263377
30
0
11
2.3244242767043031
21
-4.2946756103263377
31
0
0
LINE
5
111
100
AcDbEntity
8
0
100
AcDbLine
10
2.3251566863767774
20
-4.2694803045846594
30
0
11
2.386680131386024
21
-4.2694803045846594
31
0
0
LINE
5
112
100
AcDbEntity
8
0
100
AcDbLine
10
2.5967387266378732
20
-4.2510232687352465
30
0
11
2.5561625596438833
21
-4.2583474945251645
31
0
0
LINE
5
113
100
AcDbEntity
8
0
100
AcDbLine
10
2.5583598121277018
20
-4.3009744367617575
30
0
11
2.5987895018804759
21
-4.3078591956284349
31
0
0
LINE
5
114
100
AcDbEntity
8
0
100
AcDbLine
10
2.6992778172975478
20
-4.205027185685922
30
0
11
2.6992778172975478
21
-4.2378396834331484
31
0
0
LINE
5
115
100
AcDbEntity
8
0
100
AcDbLine
10
2.6992778172975478
20
-4.2378396834331484
30
0
11
2.6711528259331816
21
-4.2378396834331484
31
0
0
LINE
5
116
100
AcDbEntity
8
0
100
AcDbLine
10
2.6711528259331816
20
-4.2378396834331484
30
0
11
2.6711528259331816
21
-4.3005350050381104
31
0
0
LINE
5
117
100
AcDbEntity
8
0
100
AcDbLine
10
2.6991313400563319
20
-4.3260232652622195
30
0
11
2.7026469346438833
21
-4.3579568760957557
31
0
0
LINE
5
118
100
AcDbEntity
8
0
100
AcDbLine
10
2.6298442258003218
20
-4.3056619431446164
30
0
11
2.6298442258003218
21
-4.2378396834331484
31
0
0
LINE
5
119
100
AcDbEntity
8
0
100
AcDbLine
10
2.6298442258003218
20
-4.2378396834331484
30
0
11
2.6109477230276679
21
-4.2378396834331484
31
0
0
LINE
5
120
100
AcDbEntity
8
0
100
AcDbLine
10
2.6109477230276679
20
-4.2378396834331484
30
0
11
2.6109477230276679
21
-4.205027185685922
31
0
0
LINE
5
121
100
AcDbEntity
8
0
100
AcDbLine
10
2.6109477230276679
20
-4.205027185685922
30
0
11
2.6298442258003218
21
-4.205027185685922
31
0
0
LINE
5
122
100
AcDbEntity
8
0
100
AcDbLine
10
2.6298442258003218
20
-4.205027185685922
30
0
11
2.6298442258003218
21
-4.1741189859400833
31
0
0
LINE
5
123
100
AcDbEntity
8
0
100
AcDbLine
10
2.6298442258003218
20
-4.1741189859400833
30
0
11
2.6711528259331816
21
-4.1500955333277245
31
0
0
LINE
5
124
100
AcDbEntity
8
0
100
AcDbLine
10
2.6711528259331816
20
-4.1500955333277245
30
0
11
2.6711528259331816
21
-4.205027185685922
31
0
0
LINE
5
125
100
AcDbEntity
8
0
100
AcDbLine
10
2.6711528259331816
20
-4.205027185685922
30
0
11
2.6992778172975478
21
-4.205027185685922
31
0
0
LINE
5
126
100
AcDbEntity
8
0
100
AcDbLine
10
2.7672465894498255
20
-4.3605935837696164
30
0
11
2.7260844665581816
21
-4.3605935837696164
31
0
0
LINE
5
127
100
AcDbEntity
8
0
100
AcDbLine
10
2.7260844665581816
20
-4.3605935837696164
30
0
11
2.7260844665581816
21
-4.2050271739527245
31
0
0
LINE
5
128
100
AcDbEntity
8
0
100
AcDbLine
10
2.7260844665581816
20
-4.2050271739527245
30
0
11
2.7643169038271371
21
-4.2050271739527245
31
0
0
LINE
5
129
100
AcDbEntity
8
0
100
AcDbLine
10
2.7643169038271371
20
-4.2050271739527245
30
0
11
2.7643169038271371
21
-4.227146316830499
31
0
0
LINE
5
130
100
AcDbEntity
8
0
100
AcDbLine
10
2.8268656895248938
20
-4.2092752251455412
30
0
11
2.8141215594128388
21
-4.2451638974898698
31
0
0
LINE
5
131
100
AcDbEntity
8
0
100
AcDbLine
10
2.7672465894498255
20
-4.3125467020112946
30
0
11
2.7672465894498255
21
-4.3605935837696164
31
0
0
LWPOLYLINE
5
132
100
AcDbEntity
8
0
100
AcDbPolyline
90
4
70
1
43
0.0
10
2.8445903274350308
20
-4.1458474821349078
10
2.8445903274350308
20
-4.1839334186962525
10
2.8857524503266747
20
-4.1839334186962525
10
2.8857524503266747
20
-4.1458474821349078
0
LWPOLYLINE
5
133
100
AcDbEntity
8
0
100
AcDbPolyline
90
4
70
1
43
0.0
10
2.8445903274350308
20
-4.2050271739527245
10
2.8445903274350308
20
-4.3605935837696164
10
2.8857524503266747
20
-4.3605935837696164
10
2.8857524503266747
20
-4.2050271739527245
0
LINE
5
134
100
AcDbEntity
8
0
100
AcDbLine
10
3.063584456796161
20
-4.2510232687352465
30
0
11
3.0230083367349625
21
-4.2583474945251645
31
0
0
LINE
5
135
100
AcDbEntity
8
0
100
AcDbLine
10
3.0252055422859896
20
-4.3009744367617575
30
0
11
3.0656352320387636
21
-4.3078591956284349
31
0
0
LWPOLYLINE
5
136
100
AcDbEntity
8
0
100
AcDbPolyline
90
13
70
1
43
0.0
10
3.17784233687938
20
-4.1458474821349078
10
3.17784233687938
20
-4.3605935837696164
10
3.2181255024581472
20
-4.3605935837696164
10
3.2181255024581472
20
-4.1915506107017997
10
3.2606059674535239
20
-4.3605935837696164
10
3.3023540931756132
20
-4.3605935837696164
10
3.3449809884794144
20
-4.1915506107017997
10
3.3449809884794144
20
-4.3605935837696164
10
3.3852642479237636
20
-4.3605935837696164
10
3.3852642479237636
20
-4.1458474821349078
10
3.3202251613941747
20
-4.1458474821349078
10
3.2816997227099964
20
-4.2923318571349078
10
3.2427348992349625
20
-4.1458474821349078
0
LINE
5
137
100
AcDbEntity
8
0
100
AcDbLine
10
3.6826275028914006
20
-4.205027185685922
30
0
11
3.6826275028914006
21
-4.2378396834331484
31
0
0
LINE
5
138
100
AcDbEntity
8
0
100
AcDbLine
10
3.6826275028914006
20
-4.2378396834331484
30
0
11
3.6545023707286606
21
-4.2378396834331484
31
0
0
LINE
5
139
100
AcDbEntity
8
0
100
AcDbLine
10
3.6545023707286606
20
-4.2378396834331484
30
0
11
3.6545023707286606
21
-4.3005350050381104
31
0
0
LINE
5
140
100
AcDbEntity
8
0
100
AcDbLine
10
3.6824808848518114
20
-4.3260232652622195
30
0
11
3.6859965263721537
21
-4.3579568760957557
31
0
0
LINE
5
141
100
AcDbEntity
8
0
100
AcDbLine
10
3.6131938175285923
20
-4.3056619431446164
30
0
11
3.6131938175285923
21
-4.2378396834331484
31
0
0
LINE
5
142
100
AcDbEntity
8
0
100
AcDbLine
10
3.6131938175285923
20
-4.2378396834331484
30
0
11
3.5942973616887293
21
-4.2378396834331484
31
0
0
LINE
5
143
100
AcDbEntity
8
0
100
AcDbLine
10
3.5942973616887293
20
-4.2378396834331484
30
0
11
3.5942973616887293
21
-4.205027185685922
31
0
0
LINE
5
144
100
AcDbEntity
8
0
100
AcDbLine
10
3.5942973616887293
20
-4.205027185685922
30
0
11
3.6131938175285923
21
-4.205027185685922
31
0
0
LINE
5
145
100
AcDbEntity
8
0
100
AcDbLine
10
3.6131938175285923
20
-4.205027185685922
30
0
11
3.6131938175285923
21
-4.1741189859400833
31
0
0
LINE
5
146
100
AcDbEntity
8
0
100
AcDbLine
10
3.6131938175285923
20
-4.1741189859400833
30
0
11
3.6545023707286606
21
-4.1500955333277245
31
0
0
LINE
5
147
100
AcDbEntity
8
0
100
AcDbLine
10
3.6545023707286606
20
-4.1500955333277245
30
0
11
3.6545023707286606
21
-4.205027185685922
31
0
0
LINE
5
148
100
AcDbEntity
8
0
100
AcDbLine
10
3.6545023707286606
20
-4.205027185685922
30
0
11
3.6826275028914006
21
-4.205027185685922
31
0
0
LINE
5
149
100
AcDbEntity
8
0
100
AcDbLine
10
3.9338482210348937
20
-4.3605935837696164
30
0
11
3.8926860981432498
21
-4.3605935837696164
31
0
0
LINE
5
150
100
AcDbEntity
8
0
100
AcDbLine
10
3.8926860981432498
20
-4.3605935837696164
30
0
11
3.8926860981432498
21
-4.2050271739527245
31
0
0
LINE
5
151
100
AcDbEntity
8
0
100
AcDbLine
10
3.8926860981432498
20
-4.2050271739527245
30
0
11
3.9309184884794144
21
-4.2050271739527245
31
0
0
LINE
5
152
100
AcDbEntity
8
0
100
AcDbLine
10
3.9309184884794144
20
-4.2050271739527245
30
0
11
3.9309184884794144
21
-4.227146316830499
31
0
0
LINE
5
153
100
AcDbEntity
8
0
100
AcDbLine
10
3.9934673211099621
20
-4.2092752251455412
30
0
11
3.9807231909979075
21
-4.2451638974898698
31
0
0
LINE
5
154
100
AcDbEntity
8
0
100
AcDbLine
10
3.9338482210348937
20
-4.3125467020112946
30
0
11
3.9338482210348937
21
-4.3605935837696164
31
0
0
SPLINE
5
155
100
AcDbEntity
8
0
100
AcDbSpline
70
1064
71
3
72
9
73
5
74
0
42
0.000000001
43
0.0000000001
44
0.0000000001
40
0
40
0
40
0
40
0
40
0.056723085692630577
40
0.10927862500596019
40
0.10927862500596019
40
0.10927862500596019
40
0.10927862500596019
10
2.4253520003786266
20
-4.3179666180666292
30
0
10
2.422449733325287
20
-4.3249552937961395
30
0
10
2.4168584339607282
20
-4.3384191747717233
30
0
10
2.4057289527140515
20
-4.3478038393574332
30
0
10
2.4003764339651679
20
-4.3523172207122025
30
0
0
SPLINE
5
156
100
AcDbEntity
8
0
100
AcDbSpline
70
1064
71
3
72
9
73
5
74
0
42
0.000000001
43
0.0000000001
44
0.0000000001
40
0
40
0
40
0
40
0
40
0.053710897506195822
40
0.11384968385586518
40
0.11384968385586518
40
0.11384968385586518
40
0.11384968385586518
10
2.4003764339651679
20
-4.3523172207122025
30
0
10
2.3941133109067123
20
-4.355753586357884
30
0
10
2.3808375212017787
20
-4.3630375670869137
30
0
10
2.365681886355929
20
-4.3637387932993885
30
0
10
2.3576762296415716
20
-4.3641092018235641
30
0
0
SPLINE
5
157
100
AcDbEntity
8
0
100
AcDbSpline
70
1064
71
3
72
9
73
5
74
0
42
0.000000001
43
0.0000000001
44
0.0000000001
40
0
40
0
40
0
40
0
40
0.091235823210678593
40
0.17188935894140378
40
0.17188935894140378
40
0.17188935894140378
40
0.17188935894140378
10
2.3576762296415716
20
-4.3641092018235641
30
0
10
2.3452629820237272
20
-4.3633032777396377
30
0
10
2.3218762782014237
20
-4.3617849073313195
30
0
10
2.3053650081736237
20
-4.345320787522664
30
0
10
2.2976176274436693
20
-4.3375955305117575
30
0
0
SPLINE
5
158
100
AcDbEntity
8
0
100
AcDbSpline
70
1064
71
3
72
9
73
5
74
0
42
0.000000001
43
0.0000000001
44
0.0000000001
40
0
40
0
40
0
40
0
40
0.067689790015631829
40
0.14347991178362068
40
0.14347991178362068
40
0.14347991178362068
40
0.14347991178362068
10
2.2976176274436693
20
-4.3375955305117575
30
0
10
2.2931354042287455
20
-4.3297767305097397
30
0
10
2.2836345771272986
20
-4.3132034668863151
30
0
10
2.2827199159374842
20
-4.2940824918483909
30
0
10
2.2822367661913576
20
-4.2839822554568858
30
0
0
SPLINE
5
159
100
AcDbEntity
8
0
100
AcDbSpline
70
1064
71
3
72
9
73
5
74
0
42
0.000000001
43
0.0000000001
44
0.0000000001
40
0
40
0
40
0
40
0
40
0.08851181365174475
40
0.1651625671530407
40
0.1651625671530407
40
0.1651625671530407
40
0.1651625671530407
10
2.2822367661913576
20
-4.2839822554568858
30
0
10
2.2828090243963994
20
-4.272100922179086
30
0
10
2.2838768551222617
20
-4.2499304183287938
30
0
10
2.2965637260022271
20
-4.2318171896676544
30
0
10
2.3024516110677449
20
-4.2234109711815302
30
0
0
SPLINE
5
160
100
AcDbEntity
8
0
100
AcDbSpline
70
1064
71
3
72
9
73
5
74
0
42
0.000000001
43
0.0000000001
44
0.0000000001
40
0
40
0
40
0
40
0
40
0.071555693469656512
40
0.14460802624350877
40
0.14460802624350877
40
0.14460802624350877
40
0.14460802624350877
10
2.3024516110677449
20
-4.2234109711815302
30
0
10
2.3096877660782713
20
-4.2170238337443102
30
0
10
2.3243114255374322
20
-4.2041159672510027
30
0
10
2.3437531740164497
20
-4.2023856623536311
30
0
10
2.3535746556899708
20
-4.2015115558987777
30
0
0
SPLINE
5
161
100
AcDbEntity
8
0
100
AcDbSpline
70
1064
71
3
72
9
73
5
74
0
42
0.000000001
43
0.0000000001
44
0.0000000001
40
0
40
0
40
0
40
0
40
0.080210973986173509
40
0.15464440804375651
40
0.15464440804375651
40
0.15464440804375651
40
0.15464440804375651
10
2.3535746556899708
20
-4.2015115558987777
30
0
10
2.3644001490493141
20
-4.2023156988290626
30
0
10
2.3852713831104517
20
-4.2038660628410733
30
0
10
2.4008577613061868
20
-4.2177525269927818
30
0
10
2.4083597956073595
20
-4.2244363588028317
30
0
0
SPLINE
5
162
100
AcDbEntity
8
0
100
AcDbSpline
70
1064
71
3
72
9
73
5
74
0
42
0.000000001
43
0.0000000001
44
0.0000000001
40
0
40
0
40
0
40
0
40
0.082784685296100571
40
0.18805950708823527
40
0.18805950708823527
40
0.18805950708823527
40
0.18805950708823527
10
2.4083597956073595
20
-4.2244363588028317
30
0
10
2.4141403764534899
20
-4.2338617512229311
30
0
10
2.4272719500134881
20
-4.2552731348175792
30
0
10
2.4274497616710793
20
-4.2805344472269278
30
0
10
2.4275492997952361
20
-4.2946756103263377
30
0
0
SPLINE
5
163
100
AcDbEntity
8
0
100
AcDbSpline
70
1064
71
3
72
9
73
5
74
0
42
0.000000001
43
0.0000000001
44
0.0000000001
40
0
40
0
40
0
40
0
40
0.041915352771982363
40
0.07799204948410568
40
0.07799204948410568
40
0.07799204948410568
40
0.07799204948410568
10
2.3244242767043031
20
-4.2946756103263377
30
0
10
2.324815731319728
20
-4.3002886944842222
30
0
10
2.3255441123476315
20
-4.310732980609683
30
0
10
2.3315890146245808
20
-4.3192343494214649
30
0
10
2.3343851984348851
20
-4.3231668182601393
30
0
0
SPLINE
5
164
100
AcDbEntity
8
0
100
AcDbSpline
70
1064
71
3
72
9
73
5
74
0
42
0.000000001
43
0.0000000001
44
0.0000000001
40
0
40
0
40
0
40
0
40
0.03337458864862243
40
0.067113920349515382
40
0.067113920349515382
40
0.067113920349515382
40
0.067113920349515382
10
2.3343851984348851
20
-4.3231668182601393
30
0
10
2.3377670915501922
20
-4.3261361528132323
30
0
10
2.3445678376975359
20
-4.3321072730803731
30
0
10
2.3535833879158639
20
-4.3329325821410132
30
0
10
2.3581156613652192
20
-4.3333474793189408
30
0
0
SPLINE
5
165
100
AcDbEntity
8
0
100
AcDbSpline
70
1064
71
3
72
9
73
5
74
0
42
0.000000001
43
0.0000000001
44
0.0000000001
40
0
40
0
40
0
40
0
40
0.022849976260816321
40
0.044074506394375289
40
0.044074506394375289
40
0.044074506394375289
40
0.044074506394375289
10
2.3581156613652192
20
-4.3333474793189408
30
0
10
2.3611661616351687
20
-4.3331620250913279
30
0
10
2.3670501630940439
20
-4.3328043090286306
30
0
10
2.3719944574109655
20
-4.3296115475211847
30
0
10
2.3743754329976166
20
-4.3280740405048226
30
0
0
SPLINE
5
166
100
AcDbEntity
8
0
100
AcDbSpline
70
1064
71
3
72
9
73
5
74
0
42
0.000000001
43
0.0000000001
44
0.0000000001
40
0
40
0
40
0
40
0
40
0.022842990765801659
40
0.050619612309486986
40
0.050619612309486986
40
0.050619612309486986
40
0.050619612309486986
10
2.3743754329976166
20
-4.3280740405048226
30
0
10
2.3764811137103674
20
-4.3258864776234383
30
0
10
2.3811472602066752
20
-4.3210388818732337
30
0
10
2.3832064548399261
20
-4.314609738498536
30
0
10
2.3843364016609896
20
-4.3110818591999509
30
0
0
SPLINE
5
167
100
AcDbEntity
8
0
100
AcDbSpline
70
1064
71
3
72
9
73
5
74
0
42
0.000000001
43
0.0000000001
44
0.0000000001
40
0
40
0
40
0
40
0
40
0.040463294059689243
40
0.074148676585919893
40
0.074148676585919893
40
0.074148676585919893
40
0.074148676585919893
10
2.386680131386024
20
-4.2694803045846594
30
0
10
2.3863401876886878
20
-4.2640571274723538
30
0
10
2.3857172434658565
20
-4.2541191969327548
30
0
10
2.3800336487275047
20
-4.2459972234646894
30
0
10
2.3774516193279158
20
-4.2423074504877887
30
0
0
SPLINE
5
168
100
AcDbEntity
8
0
100
AcDbSpline
70
1064
71
3
72
9
73
5
74
0
42
0.000000001
43
0.0000000001
44
0.0000000001
40
0
40
0
40
0
40
0
40
0.030433401414587797
40
0.060597013312136669
40
0.060597013312136669
40
0.060597013312136669
40
0.060597013312136669
10
2.3774516193279158
20
-4.2423074504877887
30
0
10
2.374372669337629
20
-4.2395944562977315
30
0
10
2.3682420639870414
20
-4.234192518380536
30
0
10
2.3601118796978735
20
-4.2334001222108908
30
0
10
2.3560648861226166
20
-4.2330056880758757
30
0
0
SPLINE
5
169
100
AcDbEntity
8
0
100
AcDbSpline
70
1064
71
3
72
9
73
5
74
0
42
0.000000001
43
0.0000000001
44
0.0000000001
40
0
40
0
40
0
40
0
40
0.031869185764777645
40
0.063328528730016986
40
0.063328528730016986
40
0.063328528730016986
40
0.063328528730016986
10
2.3560648861226166
20
-4.2330056880758757
30
0
10
2.35177763701319
20
-4.2334039387125317
30
0
10
2.3432582735000147
20
-4.2341953184192942
30
0
10
2.3369386355834854
20
-4.2399576329824367
30
0
10
2.3337992660036266
20
-4.2428201442984399
30
0
0
SPLINE
5
170
100
AcDbEntity
8
0
100
AcDbSpline
70
1064
71
3
72
9
73
5
74
0
42
0.000000001
43
0.0000000001
44
0.0000000001
40
0
40
0
40
0
40
0
40
0.033781798717994228
40
0.072470050129623473
40
0.072470050129623473
40
0.072470050129623473
40
0.072470050129623473
10
2.3337992660036266
20
-4.2428201442984399
30
0
10
2.3312465342556492
20
-4.2465530960904427
30
0
10
2.3257703131909349
20
-4.2545611718520782
30
0
10
2.3253702570064996
20
-4.2642877535111134
30
0
10
2.3251566863767774
20
-4.2694803045846594
30
0
0
SPLINE
5
171
100
AcDbEntity
8
0
100
AcDbSpline
70
1064
71
3
72
9
73
5
74
0
42
0.000000001
43
0.0000000001
44
0.0000000001
40
0
40
0
40
0
40
0
40
0.028374713787517908
40
0.053000107721852131
40
0.053000107721852131
40
0.053000107721852131
40
0.053000107721852131
10
2.5561625596438833
20
-4.2583474945251645
30
0
10
2.5553584481315017
20
-4.254631276988448
30
0
10
2.5538564771479084
20
-4.247689887861541
30
0
10
2.5490800678576502
20
-4.2424647151162711
30
0
10
2.5468608089651679
20
-4.2400369476501645
30
0
0
SPLINE
5
172
100
AcDbEntity
8
0
100
AcDbSpline
70
1064
71
3
72
9
73
5
74
0
42
0.000000001
43
0.0000000001
44
0.0000000001
40
0
40
0
40
0
40
0
40
0.024190400803688401
40
0.051124710476683044
40
0.051124710476683044
40
0.051124710476683044
40
0.051124710476683044
10
2.5468608089651679
20
-4.2400369476501645
30
0
10
2.54416979752911
20
-4.2382439112616277
30
0
10
2.5384825341524353
20
-4.2344544549817584
30
0
10
2.5316416097446237
20
-4.2340812277770254
30
0
10
2.5280375682795171
20
-4.233884598455961
30
0
0
SPLINE
5
173
100
AcDbEntity
8
0
100
AcDbSpline
70
1064
71
3
72
9
73
5
74
0
42
0.000000001
43
0.0000000001
44
0.0000000001
40
0
40
0
40
0
40
0
40
0.035755882835863548
40
0.069661062018456996
40
0.069661062018456996
40
0.069661062018456996
40
0.069661062018456996
10
2.5280375682795171
20
-4.233884598455961
30
0
10
2.5232131354211607
20
-4.2342781506293017
30
0
10
2.5138139795370065
20
-4.2350448849448963
30
0
10
2.5068775213391219
20
-4.2414077864072537
30
0
10
2.5035014335897054
20
-4.2445047147048047
30
0
0
SPLINE
5
174
100
AcDbEntity
8
0
100
AcDbSpline
70
1064
71
3
72
9
73
5
74
0
42
0.000000001
43
0.0000000001
44
0.0000000001
40
0
40
0
40
0
40
0
40
0.040042138996391689
40
0.094535902519436804
40
0.094535902519436804
40
0.094535902519436804
40
0.094535902519436804
10
2.5035014335897054
20
-4.2445047147048047
30
0
10
2.500846610500747
20
-4.2491301770401515
30
0
10
2.494578811051603
20
-4.2600504791868747
30
0
10
2.4944312306179177
20
-4.2727225578412638
30
0
10
2.4943461601522054
20
-4.2800271822128959
30
0
0
SPLINE
5
175
100
AcDbEntity
8
0
100
AcDbSpline
70
1064
71
3
72
9
73
5
74
0
42
0.000000001
43
0.0000000001
44
0.0000000001
40
0
40
0
40
0
40
0
40
0.060286366277348236
40
0.10343880568337749
40
0.10343880568337749
40
0.10343880568337749
40
0.10343880568337749
10
2.4943461601522054
20
-4.2800271822128959
30
0
10
2.4944004863415565
20
-4.2880929645322157
30
0
10
2.4944936987292121
20
-4.3019321613777235
30
0
10
2.5009531620225047
20
-4.3140734306447506
30
0
10
2.5036479108309213
20
-4.3191385063955412
30
0
0
SPLINE
5
176
100
AcDbEntity
8
0
100
AcDbSpline
70
1064
71
3
72
9
73
5
74
0
42
0.000000001
43
0.0000000001
44
0.0000000001
40
0
40
0
40
0
40
0
40
0.035207191263198906
40
0.071700861019616868
40
0.071700861019616868
40
0.071700861019616868
40
0.071700861019616868
10
2.5036479108309213
20
-4.3191385063955412
30
0
10
2.5070593950588242
20
-4.322470726779029
30
0
10
2.5140070198967974
20
-4.3292569276099062
30
0
10
2.5236933928526319
20
-4.3301233237587953
30
0
10
2.5286234772443801
20
-4.3305642944038638
30
0
0
SPLINE
5
177
100
AcDbEntity
8
0
100
AcDbSpline
70
1064
71
3
72
9
73
5
74
0
42
0.000000001
43
0.0000000001
44
0.0000000001
40
0
40
0
40
0
40
0
40
0.027397013671506158
40
0.052515523402011849
40
0.052515523402011849
40
0.052515523402011849
40
0.052515523402011849
10
2.5286234772443801
20
-4.3305642944038638
30
0
10
2.532293105901593
20
-4.3303380625320287
30
0
10
2.5393271743564694
20
-4.3299044136204339
30
0
10
2.5450673965514539
20
-4.3258422230521063
30
0
10
2.5478129814322568
20
-4.3238992513990091
30
0
0
SPLINE
5
178
100
AcDbEntity
8
0
100
AcDbSpline
70
1064
71
3
72
9
73
5
74
0
42
0.000000001
43
0.0000000001
44
0.0000000001
40
0
40
0
40
0
40
0
40
0.028141759764456216
40
0.064911161464076272
40
0.064911161464076272
40
0.064911161464076272
40
0.064911161464076272
10
2.5478129814322568
20
-4.3238992513990091
30
0
10
2.5501665332613817
20
-4.3209896422000682
30
0
10
2.5555951839240647
20
-4.3142784018906264
30
0
10
2.5573600760738606
20
-4.3057853742979075
30
0
10
2.5583598121277018
20
-4.3009744367617575
30
0
0
SPLINE
5
179
100
AcDbEntity
8
0
100
AcDbSpline
70
1064
71
3
72
9
73
5
74
0
42
0.000000001
43
0.0000000001
44
0.0000000001
40
0
40
0
40
0
40
0
40
0.066290258002033836
40
0.12501985084264883
40
0.12501985084264883
40
0.12501985084264883
40
0.12501985084264883
10
2.5987895018804759
20
-4.3078591956284349
30
0
10
2.5964072844422534
20
-4.3164028354239585
30
0
10
2.5919145508524672
20
-4.3325156792275967
30
0
10
2.5801473630837606
20
-4.3443438173893512
30
0
10
2.5746195837600991
20
-4.3499002289001645
30
0
0
SPLINE
5
180
100
AcDbEntity
8
0
100
AcDbSpline
70
1064
71
3
72
9
73
5
74
0
42
0.000000001
43
0.0000000001
44
0.0000000001
40
0
40
0
40
0
40
0
40
0.059612692770266637
40
0.12875782160569488
40
0.12875782160569488
40
0.12875782160569488
40
0.12875782160569488
10
2.5746195837600991
20
-4.3499002289001645
30
0
10
2.5678313492058265
20
-4.3540384784623525
30
0
10
2.5531693996588571
20
-4.3629767091331511
30
0
10
2.5359606278281088
20
-4.3637135212497817
30
0
10
2.5267192261757843
20
-4.3641092018235641
30
0
0
SPLINE
5
181
100
AcDbEntity
8
0
100
AcDbSpline
70
1064
71
3
72
9
73
5
74
0
42
0.000000001
43
0.0000000001
44
0.0000000001
40
0
40
0
40
0
40
0
40
0.079093226226611774
40
0.15204127367249543
40
0.15204127367249543
40
0.15204127367249543
40
0.15204127367249543
10
2.5267192261757843
20
-4.3641092018235641
30
0
10
2.5160691795735106
20
-4.3633661983655143
30
0
10
2.4955965458559048
20
-4.3619379193902548
30
0
10
2.4798536029818763
20
-4.348853704488902
30
0
10
2.472300279361435
20
-4.342576014843444
30
0
0
SPLINE
5
182
100
AcDbEntity
8
0
100
AcDbSpline
70
1064
71
3
72
9
73
5
74
0
42
0.000000001
43
0.0000000001
44
0.0000000001
40
0
40
0
40
0
40
0
40
0.075798871477915322
40
0.16298325786730936
40
0.16298325786730936
40
0.16298325786730936
40
0.16298325786730936
10
2.472300279361435
20
-4.342576014843444
30
0
10
2.4663906265979358
20
-4.3343167690430136
30
0
10
2.4536836503398489
20
-4.3165576815812257
30
0
10
2.4525946888907453
20
-4.2946668806843764
30
0
10
2.4520121723980446
20
-4.2829568678355843
30
0
0
SPLINE
5
183
100
AcDbEntity
8
0
100
AcDbSpline
70
1064
71
3
72
9
73
5
74
0
42
0.000000001
43
0.0000000001
44
0.0000000001
40
0
40
0
40
0
40
0
40
0.087973260824756677
40
0.16396327210742934
40
0.16396327210742934
40
0.16396327210742934
40
0.16396327210742934
10
2.4520121723980446
20
-4.2829568678355843
30
0
10
2.4525832096967655
20
-4.2711369453151642
30
0
10
2.4536475006314862
20
-4.2491071472340742
30
0
10
2.4664432214790279
20
-4.2312483225637703
30
0
10
2.4723734945156473
20
-4.2229715159914871
30
0
0
SPLINE
5
184
100
AcDbEntity
8
0
100
AcDbSpline
70
1064
71
3
72
9
73
5
74
0
42
0.000000001
43
0.0000000001
44
0.0000000001
40
0
40
0
40
0
40
0
40
0.073293812878633638
40
0.15352451832550254
40
0.15352451832550254
40
0.15352451832550254
40
0.15352451832550254
10
2.4723734945156473
20
-4.2229715159914871
30
0
10
2.479999915093702
20
-4.2167158556354769
30
0
10
2.4959745587888302
20
-4.2036124679790756
30
0
10
2.5166478914022745
20
-4.2022326420655975
30
0
10
2.5274516123818631
20
-4.2015115558987777
30
0
0
SPLINE
5
185
100
AcDbEntity
8
0
100
AcDbSpline
70
1064
71
3
72
9
73
5
74
0
42
0.000000001
43
0.0000000001
44
0.0000000001
40
0
40
0
40
0
40
0
40
0.065250701846283066
40
0.12041072825257326
40
0.12041072825257326
40
0.12041072825257326
40
0.12041072825257326
10
2.5274516123818631
20
-4.2015115558987777
30
0
10
2.5361544917152132
20
-4.2018269233853927
30
0
10
2.552214396187837
20
-4.2024088884471613
30
0
10
2.5662241961559245
20
-4.2101820946946553
30
0
10
2.5726420706045001
20
-4.2137429922001814
30
0
0
SPLINE
5
186
100
AcDbEntity
8
0
100
AcDbSpline
70
1064
71
3
72
9
73
5
74
0
42
0.000000001
43
0.0000000001
44
0.0000000001
40
0
40
0
40
0
40
0
40
0.053636897787683123
40
0.11433201268634413
40
0.11433201268634413
40
0.11433201268634413
40
0.11433201268634413
10
2.5726420706045001
20
-4.2137429922001814
30
0
10
2.5779029780054117
20
-4.2185857923063468
30
0
10
2.5891170891213022
20
-4.2289086690201954
30
0
10
2.5940957296855318
20
-4.2433544679661139
30
0
10
2.5967387266378732
20
-4.2510232687352465
30
0
0
SPLINE
5
187
100
AcDbEntity
8
0
100
AcDbSpline
70
1064
71
3
72
9
73
5
74
0
42
0.000000001
43
0.0000000001
44
0.0000000001
40
0
40
0
40
0
40
0
40
0.038280091811702242
40
0.056436984921673421
40
0.056436984921673421
40
0.056436984921673421
40
0.056436984921673421
10
2.6711528259331816
20
-4.3005350050381104
30
0
10
2.6710987371849142
20
-4.3055641350998872
30
0
10
2.6710189932311796
20
-4.3129786663622935
30
0
10
2.6717297951917809
20
-4.3203544331627652
30
0
10
2.6719584742262636
20
-4.3227273630700962
30
0
0
SPLINE
5
188
100
AcDbEntity
8
0
100
AcDbSpline
70
1064
71
3
72
9
73
5
74
0
42
0.000000001
43
0.0000000001
44
0.0000000001
40
0
40
0
40
0
40
0
40
0.0080331301602744945
40
0.016419321962408064
40
0.016419321962408064
40
0.016419321962408064
40
0.016419321962408064
10
2.6719584742262636
20
-4.3227273630700962
30
0
10
2.6723223521972455
20
-4.3237383988130524
30
0
10
2.6730661008283985
20
-4.3258049060210624
30
0
10
2.6747569760754968
20
-4.3272099401200128
30
0
10
2.6756205929878218
20
-4.3279275632636063
30
0
0
SPLINE
5
189
100
AcDbEntity
8
0
100
AcDbSpline
70
1064
71
3
72
9
73
5
74
0
42
0.000000001
43
0.0000000001
44
0.0000000001
40
0
40
0
40
0
40
0
40
0.0089442278087928147
40
0.0186592447029468
40
0.0186592447029468
40
0.0186592447029468
40
0.0186592447029468
10
2.6756205929878218
20
-4.3279275632636063
30
0
10
2.6766507709270067
20
-4.3285254259896426
30
0
10
2.6787999047220921
20
-4.3297726736159738
30
0
10
2.681284797025441
20
-4.329907921241734
30
0
10
2.6825785670087123
20
-4.3299783385062094
30
0
0
SPLINE
5
190
100
AcDbEntity
8
0
100
AcDbSpline
70
1064
71
3
72
9
73
5
74
0
42
0.000000001
43
0.0000000001
44
0.0000000001
40
0
40
0
40
0
40
0
40
0.017942994761093789
40
0.043362928726865931
40
0.043362928726865931
40
0.043362928726865931
40
0.043362928726865931
10
2.6825785670087123
20
-4.3299783385062094
30
0
10
2.6849272052001925
20
-4.3297249520140468
30
0
10
2.6906031713283869
20
-4.3291125915610529
30
0
10
2.6959796031639316
20
-4.3271649809082522
30
0
10
2.6991313400563319
20
-4.3260232652622195
30
0
0
SPLINE
5
191
100
AcDbEntity
8
0
100
AcDbSpline
70
1064
71
3
72
9
73
5
74
0
42
0.000000001
43
0.0000000001
44
0.0000000001
40
0
40
0
40
0
40
0
40
0.040609337191046688
40
0.084501764441343899
40
0.084501764441343899
40
0.084501764441343899
40
0.084501764441343899
10
2.7026469346438833
20
-4.3579568760957557
30
0
10
2.6975938104257282
20
-4.3597505594638699
30
0
10
2.6870790386537444
20
-4.3634829377773041
30
0
10
2.6759224581253021
20
-4.3638951092020228
30
0
10
2.67012743831188
20
-4.3641092018235641
30
0
0
SPLINE
5
192
100
AcDbEntity
8
0
100
AcDbSpline
70
1064
71
3
72
9
73
5
74
0
42
0.000000001
43
0.0000000001
44
0.0000000001
40
0
40
0
40
0
40
0
40
0.026986614798368495
40
0.052107002064433236
40
0.052107002064433236
40
0.052107002064433236
40
0.052107002064433236
10
2.67012743831188
20
-4.3641092018235641
30
0
10
2.6665655802160195
20
-4.363977096267897
30
0
10
2.6596881801219014
20
-4.3637220207605276
30
0
10
2.6531912101985484
20
-4.361462949087616
30
0
10
2.6500590706767087
20
-4.3603738679077928
30
0
0
SPLINE
5
193
100
AcDbEntity
8
0
100
AcDbSpline
70
1064
71
3
72
9
73
5
74
0
42
0.000000001
43
0.0000000001
44
0.0000000001
40
0
40
0
40
0
40
0
40
0.022482933781853499
40
0.04178744072208241
40
0.04178744072208241
40
0.04178744072208241
40
0.04178744072208241
10
2.6500590706767087
20
-4.3603738679077928
30
0
10
2.6473430185369833
20
-4.3591236364637274
30
0
10
2.6422948842993379
20
-4.3567999196007641
30
0
10
2.6386380305477566
20
-4.3526315398779634
30
0
10
2.6369486770624282
20
-4.3507058771932465
30
0
0
SPLINE
5
194
100
AcDbEntity
8
0
100
AcDbSpline
70
1064
71
3
72
9
73
5
74
0
42
0.000000001
43
0.0000000001
44
0.0000000001
40
0
40
0
40
0
40
0
40
0.019863689362612548
40
0.043585581025099893
40
0.043585581025099893
40
0.043585581025099893
40
0.043585581025099893
10
2.6369486770624282
20
-4.3507058771932465
30
0
10
2.635645512620354
20
-4.3484270147551252
30
0
10
2.6327860649949821
20
-4.3434266574887275
30
0
10
2.6317347543280509
20
-4.3377535116676018
30
0
10
2.6311625679040547
20
-4.3346658448890691
30
0
0
SPLINE
5
195
100
AcDbEntity
8
0
100
AcDbSpline
70
1064
71
3
72
9
73
5
74
0
42
0.000000001
43
0.0000000001
44
0.0000000001
40
0
40
0
40
0
40
0
40
0.027647471609761096
40
0.073791803919244961
40
0.073791803919244961
40
0.073791803919244961
40
0.073791803919244961
10
2.6311625679040547
20
-4.3346658448890691
30
0
10
2.6307835809535733
20
-4.3310552656053884
30
0
10
2.629772055157197
20
-4.3214185377954504
30
0
10
2.6298164588049517
20
-4.3117241489359328
30
0
10
2.6298442258003218
20
-4.3056619431446164
30
0
0
SPLINE
5
196
100
AcDbEntity
8
0
100
AcDbSpline
70
1064
71
3
72
9
73
5
74
0
42
0.000000001
43
0.0000000001
44
0.0000000001
40
0
40
0
40
0
40
0
40
0.040630166075459821
40
0.069366058794953001
40
0.069366058794953001
40
0.069366058794953001
40
0.069366058794953001
10
2.7643169038271371
20
-4.227146316830499
30
0
10
2.7671834622543559
20
-4.2226001365760641
30
0
10
2.772077408787391
20
-4.2148386470897572
30
0
10
2.7790710589565899
20
-4.2089369005804009
30
0
10
2.7819682796502705
20
-4.2064920167640691
30
0
0
SPLINE
5
197
100
AcDbEntity
8
0
100
AcDbSpline
70
1064
71
3
72
9
73
5
74
0
42
0.000000001
43
0.0000000001
44
0.0000000001
40
0
40
0
40
0
40
0
40
0.023276037996949894
40
0.047435935464942833
40
0.047435935464942833
40
0.047435935464942833
40
0.047435935464942833
10
2.7819682796502705
20
-4.2064920167640691
30
0
10
2.7846989515121918
20
-4.205039518930672
30
0
10
2.7902639868603472
20
-4.2020793676584933
30
0
10
2.7965596490386746
20
-4.2017031552804553
30
0
10
2.7997661327146197
20
-4.2015115441655801
30
0
0
SPLINE
5
198
100
AcDbEntity
8
0
100
AcDbSpline
70
1064
71
3
72
9
73
5
74
0
42
0.000000001
43
0.0000000001
44
0.0000000001
40
0
40
0
40
0
40
0
40
0.035412396894990976
40
0.072274780601097877
40
0.072274780601097877
40
0.072274780601097877
40
0.072274780601097877
10
2.7997661327146197
20
-4.2015115441655801
30
0
10
2.8044527425277943
20
-4.2018602229332176
30
0
10
2.8140178588630302
20
-4.2025718573788069
30
0
10
2.8225261809197817
20
-4.2070110824375178
30
0
10
2.8268656895248938
20
-4.2092752251455412
30
0
0
SPLINE
5
199
100
AcDbEntity
8
0
100
AcDbSpline
70
1064
71
3
72
9
73
5
74
0
42
0.000000001
43
0.0000000001
44
0.0000000001
40
0
40
0
40
0
40
0
40
0.028536963170739678
40
0.052547618239930885
40
0.052547618239930885
40
0.052547618239930885
40
0.052547618239930885
10
2.8141215594128388
20
-4.2451638974898698
30
0
10
2.810869224408183
20
-4.2432031243439106
30
0
10
2.8048804141346273
20
-4.2395925804289023
30
0
10
2.7979516119671213
20
-4.2387916061411586
30
0
10
2.7947856249165377
20
-4.2384256158644069
30
0
0
SPLINE
5
200
100
AcDbEntity
8
0
100
AcDbSpline
70
1064
71
3
72
9
73
5
74
0
42
0.000000001
43
0.0000000001
44
0.0000000001
40
0
40
0
40
0
40
0
40
0.020501842900000962
40
0.039707221685745225
40
0.039707221685745225
40
0.039707221685745225
40
0.039707221685745225
10
2.7947856249165377
20
-4.2384256158644069
30
0
10
2.7920497733205689
20
-4.238596759827896
30
0
10
2.7867510757181
20
-4.2389282252152549
30
0
10
2.7822933384834809
20
-4.2417982100585769
30
0
10
2.7801372437358869
20
-4.2431863491346764
30
0
0
SPLINE
5
201
100
AcDbEntity
8
0
100
AcDbSpline
70
1064
71
3
72
9
73
5
74
0
42
0.000000001
43
0.0000000001
44
0.0000000001
40
0
40
0
40
0
40
0
40
0.021768652302450793
40
0.050451963808288564
40
0.050451963808288564
40
0.050451963808288564
40
0.050451963808288564
10
2.7801372437358869
20
-4.2431863491346764
30
0
10
2.7781859390499233
20
-4.2453201340655724
30
0
10
2.7736635114771282
20
-4.2502654856938005
30
0
10
2.7717671193220346
20
-4.2567255485841828
30
0
10
2.7706889688831642
20
-4.2603982697677676
30
0
0
SPLINE
5
202
100
AcDbEntity
8
0
100
AcDbSpline
70
1064
71
3
72
9
73
5
74
0
42
0.000000001
43
0.0000000001
44
0.0000000001
40
0
40
0
40
0
40
0
40
0.049364754827458716
40
0.13292312290458583
40
0.13292312290458583
40
0.13292312290458583
40
0.13292312290458583
10
2.7706889688831642
20
-4.2603982697677676
30
0
10
2.7697000455736531
20
-4.2668089186387252
30
0
10
2.767037198871126
20
-4.2840706972244966
30
0
10
2.7671657680596571
20
-4.3015554229021618
30
0
10
2.7672465894498255
20
-4.3125467020112946
30
0
0
SPLINE
5
203
100
AcDbEntity
8
0
100
AcDbSpline
70
1064
71
3
72
9
73
5
74
0
42
0.000000001
43
0.0000000001
44
0.0000000001
40
0
40
0
40
0
40
0
40
0.028374678030120119
40
0.053000218308378505
40
0.053000218308378505
40
0.053000218308378505
40
0.053000218308378505
10
3.0230083367349625
20
-4.2583474945251645
30
0
10
3.0222042492511685
20
-4.2546312718691013
30
0
10
3.0207023181231798
20
-4.2476898499490057
30
0
10
3.0159258390140096
20
-4.2424647094812498
30
0
10
3.0137065391234552
20
-4.2400369476501645
30
0
0
SPLINE
5
204
100
AcDbEntity
8
0
100
AcDbSpline
70
1064
71
3
72
9
73
5
74
0
42
0.000000001
43
0.0000000001
44
0.0000000001
40
0
40
0
40
0
40
0
40
0.024190400803688401
40
0.051124710476683044
40
0.051124710476683044
40
0.051124710476683044
40
0.051124710476683044
10
3.0137065391234552
20
-4.2400369476501645
30
0
10
3.0110155276873978
20
-4.2382439112616277
30
0
10
3.0053282643107231
20
-4.2344544549817584
30
0
10
2.9984873399029115
20
-4.2340812277770254
30
0
10
2.9948832984378049
20
-4.233884598455961
30
0
0
SPLINE
5
205
100
AcDbEntity
8
0
100
AcDbSpline
70
1064
71
3
72
9
73
5
74
0
42
0.000000001
43
0.0000000001
44
0.0000000001
40
0
40
0
40
0
40
0
40
0.035755765766039803
40
0.069661136270747048
40
0.069661136270747048
40
0.069661136270747048
40
0.069661136270747048
10
2.9948832984378049
20
-4.233884598455961
30
0
10
2.9900588860283976
20
-4.2342781591698051
30
0
10
2.9806597291909522
20
-4.2350449134521
30
0
10
2.973723236705287
20
-4.2414077862058148
30
0
10
2.9703471168152018
20
-4.2445047147048047
30
0
0
SPLINE
5
206
100
AcDbEntity
8
0
100
AcDbSpline
70
1064
71
3
72
9
73
5
74
0
42
0.000000001
43
0.0000000001
44
0.0000000001
40
0
40
0
40
0
40
0
40
0.040042138996391689
40
0.094535902519436804
40
0.094535902519436804
40
0.094535902519436804
40
0.094535902519436804
10
2.9703471168152018
20
-4.2445047147048047
30
0
10
2.9676922937262433
20
-4.2491301770401515
30
0
10
2.9614244942770998
20
-4.2600504791868747
30
0
10
2.9612769138434141
20
-4.2727225578412638
30
0
10
2.9611918433777018
20
-4.2800271822128959
30
0
0
SPLINE
5
207
100
AcDbEntity
8
0
100
AcDbSpline
70
1064
71
3
72
9
73
5
74
0
42
0.000000001
43
0.0000000001
44
0.0000000001
40
0
40
0
40
0
40
0
40
0.060286354597649389
40
0.10343889190637579
40
0.10343889190637579
40
0.10343889190637579
40
0.10343889190637579
10
2.9611918433777018
20
-4.2800271822128959
30
0
10
2.9612461396976402
20
-4.2880929695113208
30
0
10
2.9613393009313298
20
-4.3019321891169815
30
0
10
2.9677988517849592
20
-4.314073433680961
30
0
10
2.9704936409892087
20
-4.3191385063955412
30
0
0
SPLINE
5
208
100
AcDbEntity
8
0
100
AcDbSpline
70
1064
71
3
72
9
73
5
74
0
42
0.000000001
43
0.0000000001
44
0.0000000001
40
0
40
0
40
0
40
0
40
0.035207191263198906
40
0.071700861019616868
40
0.071700861019616868
40
0.071700861019616868
40
0.071700861019616868
10
2.9704936409892087
20
-4.3191385063955412
30
0
10
2.973905125217112
20
-4.322470726779029
30
0
10
2.9808527500550852
20
-4.3292569276099062
30
0
10
2.9905391230109197
20
-4.3301233237587953
30
0
10
2.9954692074026679
20
-4.3305642944038638
30
0
0
SPLINE
5
209
100
AcDbEntity
8
0
100
AcDbSpline
70
1064
71
3
72
9
73
5
74
0
42
0.000000001
43
0.0000000001
44
0.0000000001
40
0
40
0
40
0
40
0
40
0.027397013671506158
40
0.052515523402011849
40
0.052515523402011849
40
0.052515523402011849
40
0.052515523402011849
10
2.9954692074026679
20
-4.3305642944038638
30
0
10
2.9991388360598807
20
-4.3303380625320287
30
0
10
3.0061729045147567
20
-4.3299044136204339
30
0
10
3.0119131267097417
20
-4.3258422230521063
30
0
10
3.0146587115905445
20
-4.3238992513990091
30
0
0
SPLINE
5
210
100
AcDbEntity
8
0
100
AcDbSpline
70
1064
71
3
72
9
73
5
74
0
42
0.000000001
43
0.0000000001
44
0.0000000001
40
0
40
0
40
0
40
0
40
0.028141828324429196
40
0.064911195645147593
40
0.064911195645147593
40
0.064911195645147593
40
0.064911195645147593
10
3.0146587115905445
20
-4.3238992513990091
30
0
10
3.0170122847106948
20
-4.3209896449974812
30
0
10
3.0224409741158764
20
-4.3142784239565941
30
0
10
3.0242058288740545
20
-4.3057853777885224
30
0
10
3.0252055422859896
20
-4.3009744367617575
30
0
0
SPLINE
5
211
100
AcDbEntity
8
0
100
AcDbSpline
70
1064
71
3
72
9
73
5
74
0
42
0.000000001
43
0.0000000001
44
0.0000000001
40
0
40
0
40
0
40
0
40
0.066290341973249206
40
0.12501978036990211
40
0.12501978036990211
40
0.12501978036990211
40
0.12501978036990211
10
3.0656352320387636
20
-4.3078591956284349
30
0
10
3.0632529727231277
20
-4.3164028293125671
30
0
10
3.0587601683784906
20
-4.332515632097353
30
0
10
3.0469930494723769
20
-4.3443438101364009
30
0
10
3.0414653139183869
20
-4.3499002289001645
30
0
0
SPLINE
5
212
100
AcDbEntity
8
0
100
AcDbSpline
70
1064
71
3
72
9
73
5
74
0
42
0.000000001
43
0.0000000001
44
0.0000000001
40
0
40
0
40
0
40
0
40
0.059612692770266637
40
0.12875782160569488
40
0.12875782160569488
40
0.12875782160569488
40
0.12875782160569488
10
3.0414653139183869
20
-4.3499002289001645
30
0
10
3.0346770793641142
20
-4.3540384784623525
30
0
10
3.0200151298171449
20
-4.3629767091331511
30
0
10
3.0028063579863966
20
-4.3637135212497817
30
0
10
2.993564956334072
20
-4.3641092018235641
30
0
0
SPLINE
5
213
100
AcDbEntity
8
0
100
AcDbSpline
70
1064
71
3
72
9
73
5
74
0
42
0.000000001
43
0.0000000001
44
0.0000000001
40
0
40
0
40
0
40
0
40
0.079093226226611774
40
0.15204127367249543
40
0.15204127367249543
40
0.15204127367249543
40
0.15204127367249543
10
2.993564956334072
20
-4.3641092018235641
30
0
10
2.9829149097317984
20
-4.3633661983655143
30
0
10
2.9624422760141926
20
-4.3619379193902548
30
0
10
2.9466993331401641
20
-4.348853704488902
30
0
10
2.9391460095197224
20
-4.342576014843444
30
0
0
SPLINE
5
214
100
AcDbEntity
8
0
100
AcDbSpline
70
1064
71
3
72
9
73
5
74
0
42
0.000000001
43
0.0000000001
44
0.0000000001
40
0
40
0
40
0
40
0
40
0.075798871477915322
40
0.16298325786730936
40
0.16298325786730936
40
0.16298325786730936
40
0.16298325786730936
10
2.9391460095197224
20
-4.342576014843444
30
0
10
2.9332363567562232
20
-4.3343167690430136
30
0
10
2.9205293804981367
20
-4.3165576815812257
30
0
10
2.9194404190490331
20
-4.2946668806843764
30
0
10
2.9188579025563319
20
-4.2829568678355843
30
0
0
SPLINE
5
215
100
AcDbEntity
8
0
100
AcDbSpline
70
1064
71
3
72
9
73
5
74
0
42
0.000000001
43
0.0000000001
44
0.0000000001
40
0
40
0
40
0
40
0
40
0.087973260824756677
40
0.16396327210742934
40
0.16396327210742934
40
0.16396327210742934
40
0.16396327210742934
10
2.9188579025563319
20
-4.2829568678355843
30
0
10
2.9194289398550528
20
-4.2711369453151642
30
0
10
2.9204932307897735
20
-4.2491071472340742
30
0
10
2.9332889516373153
20
-4.2312483225637703
30
0
10
2.939219224673935
20
-4.2229715159914871
30
0
0
SPLINE
5
216
100
AcDbEntity
8
0
100
AcDbSpline
70
1064
71
3
72
9
73
5
74
0
42
0.000000001
43
0.0000000001
44
0.0000000001
40
0
40
0
40
0
40
0
40
0.073293812878633638
40
0.15352463580270143
40
0.15352463580270143
40
0.15352463580270143
40
0.15352463580270143
10
2.939219224673935
20
-4.2229715159914871
30
0
10
2.9468456454267296
20
-4.2167158557460063
30
0
10
2.9628203017116981
20
-4.2036124582943923
30
0
10
2.983493651805837
20
-4.2022326390726272
30
0
10
2.9942973894729419
20
-4.2015115558987777
30
0
0
SPLINE
5
217
100
AcDbEntity
8
0
100
AcDbSpline
70
1064
71
3
72
9
73
5
74
0
42
0.000000001
43
0.0000000001
44
0.0000000001
40
0
40
0
40
0
40
0
40
0.065250583484532096
40
0.12041050183970914
40
0.12041050183970914
40
0.12041050183970914
40
0.12041050183970914
10
2.9942973894729419
20
-4.2015115558987777
30
0
10
3.0030002536460256
20
-4.2018269231966343
30
0
10
3.0190601290764465
20
-4.202408887871445
30
0
10
3.0330698953299984
20
-4.2101820947055568
30
0
10
3.0394877538299965
20
-4.2137429922001814
30
0
0
SPLINE
5
218
100
AcDbEntity
8
0
100
AcDbSpline
70
1064
71
3
72
9
73
5
74
0
42
0.000000001
43
0.0000000001
44
0.0000000001
40
0
40
0
40
0
40
0
40
0.053636979137415136
40
0.11433209403607615
40
0.11433209403607615
40
0.11433209403607615
40
0.11433209403607615
10
3.0394877538299965
20
-4.2137429922001814
30
0
10
3.0447486798980186
20
-4.2185857897735888
30
0
10
3.0559628217754899
20
-4.2289086527771511
30
0
10
3.0609414619377571
20
-4.2433544658977578
30
0
10
3.063584456796161
20
-4.2510232687352465
30
0
0
SPLINE
5
219
100
AcDbEntity
8
0
100
AcDbSpline
70
1064
71
3
72
9
73
5
74
0
42
0.000000001
43
0.0000000001
44
0.0000000001
40
0
40
0
40
0
40
0
40
0.051652997840973061
40
0.10483906286334371
40
0.10483906286334371
40
0.10483906286334371
40
0.10483906286334371
10
3.4185160365962637
20
-4.2806131146441544
30
0
10
3.4189612812545667
20
-4.2737867107204242
30
0
10
3.4198649854861203
20
-4.2599312943843968
30
0
10
3.4256756602275451
20
-4.2473158212373319
30
0
10
3.4286234825008526
20
-4.2409158462970522
30
0
0
SPLINE
5
220
100
AcDbEntity
8
0
100
AcDbSpline
70
1064
71
3
72
9
73
5
74
0
42
0.000000001
43
0.0000000001
44
0.0000000001
40
0
40
0
40
0
40
0
40
0.05300091049015461
40
0.10523962231898387
40
0.10523962231898387
40
0.10523962231898387
40
0.10523962231898387
10
3.4286234825008526
20
-4.2409158462970522
30
0
10
3.4323209221254576
20
-4.2349102050210083
30
0
10
3.4396626290139252
20
-4.2229852887539252
30
0
10
3.4514233491979565
20
-4.2153894107436987
30
0
10
3.4572611207430786
20
-4.2116189783369711
30
0
0
SPLINE
5
221
100
AcDbEntity
8
0
100
AcDbSpline
70
1064
71
3
72
9
73
5
74
0
42
0.000000001
43
0.0000000001
44
0.0000000001
40
0
40
0
40
0
40
0
40
0.053402855542877631
40
0.10907311584206493
40
0.10907311584206493
40
0.10907311584206493
40
0.10907311584206493
10
3.4572611207430786
20
-4.2116189783369711
30
0
10
3.4636940256234445
20
-4.2086713395905466
30
0
10
3.4768329668295705
20
-4.2026509097992752
30
0
10
3.4912729186622498
20
-4.2018965676042512
30
0
10
3.4986429829629415
20
-4.2015115558987777
30
0
0
SPLINE
5
222
100
AcDbEntity
8
0
100
AcDbSpline
70
1064
71
3
72
9
73
5
74
0
42
0.000000001
43
0.0000000001
44
0.0000000001
40
0
40
0
40
0
40
0
40
0.082865268067728676
40
0.16149887888043879
40
0.16149887888043879
40
0.16149887888043879
40
0.16149887888043879
10
3.4986429829629415
20
-4.2015115558987777
30
0
10
3.5097750199996436
20
-4.2023625996861664
30
0
10
3.5314706174798021
20
-4.2040212272480684
30
0
10
3.5483068262474142
20
-4.2177512346390049
30
0
10
3.5565043561434209
20
-4.2244363588028317
30
0
0
SPLINE
5
223
100
AcDbEntity
8
0
100
AcDbSpline
70
1064
71
3
72
9
73
5
74
0
42
0.000000001
43
0.0000000001
44
0.0000000001
40
0
40
0
40
0
40
0
40
0.078676447307746769
40
0.16118036277719486
40
0.16118036277719486
40
0.16118036277719486
40
0.16118036277719486
10
3.5565043561434209
20
-4.2244363588028317
30
0
10
3.5630829301719893
20
-4.2327141863067128
30
0
10
3.5765601140658392
20
-4.2496725427874482
30
0
10
3.5782155859240707
20
-4.2713002691675808
30
0
10
3.5790629776776335
20
-4.2823709236711283
30
0
0
SPLINE
5
224
100
AcDbEntity
8
0
100
AcDbSpline
70
1064
71
3
72
9
73
5
74
0
42
0.000000001
43
0.0000000001
44
0.0000000001
40
0
40
0
40
0
40
0
40
0.083261064460487103
40
0.16278937659414228
40
0.16278937659414228
40
0.16278937659414228
40
0.16278937659414228
10
3.5790629776776335
20
-4.2823709236711283
30
0
10
3.5782039709715927
20
-4.2935415336639853
30
0
10
3.5765244684685591
20
-4.3153819538975835
30
0
10
3.5629273066174934
20
-4.3325192589532753
30
0
10
3.5562846168152018
20
-4.3408914327038808
30
0
0
SPLINE
5
225
100
AcDbEntity
8
0
100
AcDbSpline
70
1064
71
3
72
9
73
5
74
0
42
0.000000001
43
0.0000000001
44
0.0000000001
40
0
40
0
40
0
40
0
40
0.078906433336633081
40
0.16056915750805401
40
0.16056915750805401
40
0.16056915750805401
40
0.16056915750805401
10
3.5562846168152018
20
-4.3408914327038808
30
0
10
3.548104670786338
20
-4.3476627244336958
30
0
10
3.531459043975246
20
-4.3614418367610668
30
0
10
3.5099003301559129
20
-4.3632099630617089
30
0
10
3.4989359374453732
20
-4.3641092018235641
30
0
0
SPLINE
5
226
100
AcDbEntity
8
0
100
AcDbSpline
70
1064
71
3
72
9
73
5
74
0
42
0.000000001
43
0.0000000001
44
0.0000000001
40
0
40
0
40
0
40
0
40
0.053420425470641304
40
0.10722572793264253
40
0.10722572793264253
40
0.10722572793264253
40
0.10722572793264253
10
3.4989359374453732
20
-4.3641092018235641
30
0
10
3.491877906479127
20
-4.3637006171689396
30
0
10
3.4777109937026136
20
-4.3628805041386114
30
0
10
3.4646793086206866
20
-4.357261047938672
30
0
10
3.4581400780559552
20
-4.3544412345754129
30
0
0
SPLINE
5
227
100
AcDbEntity
8
0
100
AcDbSpline
70
1064
71
3
72
9
73
5
74
0
42
0.000000001
43
0.0000000001
44
0.0000000001
40
0
40
0
40
0
40
0
40
0.052911575191053752
40
0.10523447979649579
40
0.10523447979649579
40
0.10523447979649579
40
0.10523447979649579
10
3.4581400780559552
20
-4.3544412345754129
30
0
10
3.4520674862375582
20
-4.3508607913511996
30
0
10
3.4399898635487975
20
-4.3437397393171127
30
0
10
3.432398120379859
20
-4.3319556093006
30
0
10
3.4286234825008526
20
-4.3260965038828276
30
0
0
SPLINE
5
228
100
AcDbEntity
8
0
100
AcDbSpline
70
1064
71
3
72
9
73
5
74
0
42
0.000000001
43
0.0000000001
44
0.0000000001
40
0
40
0
40
0
40
0
40
0.056014728808579758
40
0.11926760963661347
40
0.11926760963661347
40
0.11926760963661347
40
0.11926760963661347
10
3.4286234825008526
20
-4.3260965038828276
30
0
10
3.4256784021550035
20
-4.3192897135015036
30
0
10
3.4194076819264443
20
-4.304796567942371
30
0
10
3.4188250382632392
20
-4.288993944027137
30
0
10
3.4185160365962637
20
-4.2806131146441544
30
0
0
SPLINE
5
229
100
AcDbEntity
8
0
100
AcDbSpline
70
1064
71
3
72
9
73
5
74
0
42
0.000000001
43
0.0000000001
44
0.0000000001
40
0
40
0
40
0
40
0
40
0.052370560422303508
40
0.095873008646798902
40
0.095873008646798902
40
0.095873008646798902
40
0.095873008646798902
10
3.4607035471092087
20
-4.2828103788611704
30
0
10
3.4609660580609209
20
-4.2898366832031032
30
0
10
3.4614466279563056
20
-4.30269950024186
30
0
10
3.4684926973077936
20
-4.3134029141006183
30
0
10
3.4716898564610923
20
-4.3182595960154559
30
0
0
SPLINE
5
230
100
AcDbEntity
8
0
100
AcDbSpline
70
1064
71
3
72
9
73
5
74
0
42
0.000000001
43
0.0000000001
44
0.0000000001
40
0
40
0
40
0
40
0
40
0.038992993348312389
40
0.077467021393858346
40
0.077467021393858346
40
0.077467021393858346
40
0.077467021393858346
10
3.4716898564610923
20
-4.3182595960154559
30
0
10
3.4755473597313333
20
-4.3218484259428314
30
0
10
3.4832110260134588
20
-4.328978321364799
30
0
10
3.4936199237792835
20
-4.3300380030559804
30
0
10
3.4987895071369484
20
-4.3305642944038638
30
0
0
SPLINE
5
231
100
AcDbEntity
8
0
100
AcDbSpline
70
1064
71
3
72
9
73
5
74
0
42
0.000000001
43
0.0000000001
44
0.0000000001
40
0
40
0
40
0
40
0
40
0.038428506405139611
40
0.077309940093555796
40
0.077309940093555796
40
0.077309940093555796
40
0.077309940093555796
10
3.4987895071369484
20
-4.3305642944038638
30
0
10
3.5039544802958997
20
-4.3300396947520738
30
0
10
3.5143453021845676
20
-4.3289843123954084
30
0
10
3.5219774287553669
20
-4.3218484368663841
30
0
10
3.5258158487930102
20
-4.3182595960154559
30
0
0
SPLINE
5
232
100
AcDbEntity
8
0
100
AcDbSpline
70
1064
71
3
72
9
73
5
74
0
42
0.000000001
43
0.0000000001
44
0.0000000001
40
0
40
0
40
0
40
0
40
0.043598997201627986
40
0.096516576352345146
40
0.096516576352345146
40
0.096516576352345146
40
0.096516576352345146
10
3.5258158487930102
20
-4.3182595960154559
30
0
10
3.5289910925780799
20
-4.3133755409117365
30
0
10
3.5360202372577558
20
-4.302563542756201
30
0
10
3.5364779763251932
20
-4.2896161423383976
30
0
10
3.5367289429906812
20
-4.2825174126455412
30
0
0
SPLINE
5
233
100
AcDbEntity
8
0
100
AcDbSpline
70
1064
71
3
72
9
73
5
74
0
42
0.000000001
43
0.0000000001
44
0.0000000001
40
0
40
0
40
0
40
0
40
0.051811209002662756
40
0.09508360026783523
40
0.09508360026783523
40
0.09508360026783523
40
0.09508360026783523
10
3.5367289429906812
20
-4.2825174126455412
30
0
10
3.5364617801815781
20
-4.2755679731274316
30
0
10
3.535971484698492
20
-4.2628144060529509
30
0
10
3.528992138056521
20
-4.2521943375473379
30
0
10
3.5258158487930102
20
-4.2473611617068858
30
0
0
SPLINE
5
234
100
AcDbEntity
8
0
100
AcDbSpline
70
1064
71
3
72
9
73
5
74
0
42
0.000000001
43
0.0000000001
44
0.0000000001
40
0
40
0
40
0
40
0
40
0.038881587974591979
40
0.077309867000995305
40
0.077309867000995305
40
0.077309867000995305
40
0.077309867000995305
10
3.5258158487930102
20
-4.2473611617068858
30
0
10
3.5219773951996998
20
-4.2437723317001028
30
0
10
3.5143452394096069
20
-4.2366365127954095
30
0
10
3.5039544423009552
20
-4.2355810914670284
30
0
10
3.4987895071369484
20
-4.2350564750516755
30
0
0
SPLINE
5
235
100
AcDbEntity
8
0
100
AcDbSpline
70
1064
71
3
72
9
73
5
74
0
42
0.000000001
43
0.0000000001
44
0.0000000001
40
0
40
0
40
0
40
0
40
0.038474034097927344
40
0.077466991615177699
40
0.077466991615177699
40
0.077466991615177699
40
0.077466991615177699
10
3.4987895071369484
20
-4.2350564750516755
30
0
10
3.4936199247353565
20
-4.2355827721168797
30
0
10
3.4832110345332326
20
-4.2366424647457706
30
0
10
3.4755473612124024
20
-4.2437723425604013
30
0
10
3.4716898564610923
20
-4.2473611617068858
30
0
0
SPLINE
5
236
100
AcDbEntity
8
0
100
AcDbSpline
70
1064
71
3
72
9
73
5
74
0
42
0.000000001
43
0.0000000001
44
0.0000000001
40
0
40
0
40
0
40
0
40
0.043502562927254462
40
0.095873091589971121
40
0.095873091589971121
40
0.095873091589971121
40
0.095873091589971121
10
3.4716898564610923
20
-4.2473611617068858
30
0
10
3.4684926527853888
20
-4.2522178391960068
30
0
10
3.4614464977957371
20
-4.262921224339455
30
0
10
3.4609660118288206
20
-4.2757840694983713
30
0
10
3.4607035471092087
20
-4.2828103788611704
30
0
0
SPLINE
5
237
100
AcDbEntity
8
0
100
AcDbSpline
70
1064
71
3
72
9
73
5
74
0
42
0.000000001
43
0.0000000001
44
0.0000000001
40
0
40
0
40
0
40
0
40
0.038280091811702242
40
0.056437005075413577
40
0.056437005075413577
40
0.056437005075413577
40
0.056437005075413577
10
3.6545023707286606
20
-4.3005350050381104
30
0
10
3.6544482598120291
20
-4.3055641369820803
30
0
10
3.6543684831466137
20
-4.3129786736671782
30
0
10
3.6550793975163951
20
-4.3203544335891841
30
0
10
3.655308112887325
20
-4.3227273630700962
30
0
0
SPLINE
5
238
100
AcDbEntity
8
0
100
AcDbSpline
70
1064
71
3
72
9
73
5
74
0
42
0.000000001
43
0.0000000001
44
0.0000000001
40
0
40
0
40
0
40
0
40
0.0080332295473483726
40
0.016419167480270856
40
0.016419167480270856
40
0.016419167480270856
40
0.016419167480270856
10
3.655308112887325
20
-4.3227273630700962
30
0
10
3.6556720313459485
20
-4.3237383922164483
30
0
10
3.656415846530872
20
-4.3258048409321921
30
0
10
3.6581066317851878
20
-4.3272099280258782
30
0
10
3.6589701847160923
20
-4.3279275632636063
30
0
0
SPLINE
5
239
100
AcDbEntity
8
0
100
AcDbSpline
70
1064
71
3
72
9
73
5
74
0
42
0.000000001
43
0.0000000001
44
0.0000000001
40
0
40
0
40
0
40
0
40
0.0089444422823415169
40
0.018659459176495502
40
0.018659459176495502
40
0.018659459176495502
40
0.018659459176495502
10
3.6589701847160923
20
-4.3279275632636063
30
0
10
3.6600003944367852
20
-4.3285254261486887
30
0
10
3.6621495677021159
20
-4.3297726585355942
30
0
10
3.6646344846558323
20
-4.3299079166106882
30
0
10
3.6659282526025652
20
-4.3299783385062094
30
0
0
SPLINE
5
240
100
AcDbEntity
8
0
100
AcDbSpline
70
1064
71
3
72
9
73
5
74
0
42
0.000000001
43
0.0000000001
44
0.0000000001
40
0
40
0
40
0
40
0
40
0.017942640653932241
40
0.043362574619704386
40
0.043362574619704386
40
0.043362574619704386
40
0.043362574619704386
10
3.6659282526025652
20
-4.3299783385062094
30
0
10
3.6682768431358626
20
-4.3297249482827338
30
0
10
3.6739527597534605
20
-4.3291125717276184
30
0
10
3.6793291478577679
20
-4.3271649794562128
30
0
10
3.6824808848518114
20
-4.3260232652622195
30
0
0
SPLINE
5
241
100
AcDbEntity
8
0
100
AcDbSpline
70
1064
71
3
72
9
73
5
74
0
42
0.000000001
43
0.0000000001
44
0.0000000001
40
0
40
0
40
0
40
0
40
0.040609337191046688
40
0.084501883177494685
40
0.084501883177494685
40
0.084501883177494685
40
0.084501883177494685
10
3.6859965263721537
20
-4.3579568760957557
30
0
10
3.6809434021121259
20
-4.3597505594130466
30
0
10
3.6704286154783663
20
-4.3634829428652093
30
0
10
3.6592720188284167
20
-4.3638951107581807
30
0
10
3.6534769831073595
20
-4.3641092018235641
30
0
0
SPLINE
5
242
100
AcDbEntity
8
0
100
AcDbSpline
70
1064
71
3
72
9
73
5
74
0
42
0.000000001
43
0.0000000001
44
0.0000000001
40
0
40
0
40
0
40
0
40
0.026986614798368495
40
0.05210677341132354
40
0.05210677341132354
40
0.05210677341132354
40
0.05210677341132354
10
3.6534769831073595
20
-4.3641092018235641
30
0
10
3.6499151241637984
20
-4.3639770994188112
30
0
10
3.6430377526119404
20
-4.363722031114655
30
0
10
3.6365408173731137
20
-4.3614629489914751
30
0
10
3.6334087093377705
20
-4.3603738679077928
30
0
0
SPLINE
5
243
100
AcDbEntity
8
0
100
AcDbSpline
70
1064
71
3
72
9
73
5
74
0
42
0.000000001
43
0.0000000001
44
0.0000000001
40
0
40
0
40
0
40
0
40
0.022482933781853499
40
0.04178744072208241
40
0.04178744072208241
40
0.04178744072208241
40
0.04178744072208241
10
3.6334087093377705
20
-4.3603738679077928
30
0
10
3.6306926571980447
20
-4.3591236364637274
30
0
10
3.6256445229603997
20
-4.3567999196007641
30
0
10
3.6219876692088184
20
-4.3526315398779634
30
0
10
3.6202983157234896
20
-4.3507058771932465
30
0
0
SPLINE
5
244
100
AcDbEntity
8
0
100
AcDbSpline
70
1064
71
3
72
9
73
5
74
0
42
0.000000001
43
0.0000000001
44
0.0000000001
40
0
40
0
40
0
40
0
40
0.019863581624557463
40
0.043585502034456158
40
0.043585502034456158
40
0.043585502034456158
40
0.043585502034456158
10
3.6202983157234896
20
-4.3507058771932465
30
0
10
3.6189951921862429
20
-4.3484270107615766
30
0
10
3.6161358239888384
20
-4.3434266266731898
30
0
10
3.6150844669116298
20
-4.3377535068535904
30
0
10
3.6145122534979075
20
-4.3346658448890691
30
0
0
SPLINE
5
245
100
AcDbEntity
8
0
100
AcDbSpline
70
1064
71
3
72
9
73
5
74
0
42
0.000000001
43
0.0000000001
44
0.0000000001
40
0
40
0
40
0
40
0
40
0.027647482438495359
40
0.073791816910973695
40
0.073791816910973695
40
0.073791816910973695
40
0.073791816910973695
10
3.6145122534979075
20
-4.3346658448890691
30
0
10
3.6141332497219945
20
-4.3310552658402903
30
0
10
3.6131216792362175
20
-4.3214185407351104
30
0
10
3.6131660629820832
20
-4.3117241495851042
30
0
10
3.6131938175285923
20
-4.3056619431446164
30
0
0
SPLINE
5
246
100
AcDbEntity
8
0
100
AcDbSpline
70
1064
71
3
72
9
73
5
74
0
42
0.000000001
43
0.0000000001
44
0.0000000001
40
0
40
0
40
0
40
0
40
0.051652997840973061
40
0.10483906286334371
40
0.10483906286334371
40
0.10483906286334371
40
0.10483906286334371
10
3.701670389039688
20
-4.2806131146441544
30
0
10
3.702115633697991
20
-4.2737867107204242
30
0
10
3.7030193379295451
20
-4.2599312943843968
30
0
10
3.7088300126709699
20
-4.2473158212373319
30
0
10
3.7117778349442774
20
-4.2409158462970522
30
0
0
SPLINE
5
247
100
AcDbEntity
8
0
100
AcDbSpline
70
1064
71
3
72
9
73
5
74
0
42
0.000000001
43
0.0000000001
44
0.0000000001
40
0
40
0
40
0
40
0
40
0.053000770944456155
40
0.10523967317642775
40
0.10523967317642775
40
0.10523967317642775
40
0.10523967317642775
10
3.7117778349442774
20
-4.2409158462970522
30
0
10
3.7154752373530089
20
-4.2349101995440144
30
0
10
3.7228168932225887
20
-4.2229852352417927
30
0
10
3.7345776600378109
20
-4.2153894009589346
30
0
10
3.7404154731865034
20
-4.2116189783369711
30
0
0
SPLINE
5
248
100
AcDbEntity
8
0
100
AcDbSpline
70
1064
71
3
72
9
73
5
74
0
42
0.000000001
43
0.0000000001
44
0.0000000001
40
0
40
0
40
0
40
0
40
0.053402855542877631
40
0.10907335267084425
40
0.10907335267084425
40
0.10907335267084425
40
0.10907335267084425
10
3.7404154731865034
20
-4.2116189783369711
30
0
10
3.7468483781949269
20
-4.2086713396627431
30
0
10
3.7599873481909882
20
-4.202650896946861
30
0
10
3.7744273328606948
20
-4.2018965637920767
30
0
10
3.7817974292719487
20
-4.2015115558987777
30
0
0
SPLINE
5
249
100
AcDbEntity
8
0
100
AcDbSpline
70
1064
71
3
72
9
73
5
74
0
42
0.000000001
43
0.0000000001
44
0.0000000001
40
0
40
0
40
0
40
0
40
0.082864563935412833
40
0.16149837301588579
40
0.16149837301588579
40
0.16149837301588579
40
0.16149837301588579
10
3.7817974292719487
20
-4.2015115558987777
30
0
10
3.7929293631791863
20
-4.2023626224426813
30
0
10
3.8146248760638062
20
-4.2040213032543692
30
0
10
3.8314610536572862
20
-4.2177512341087962
30
0
10
3.8396586147212632
20
-4.2244363588028317
30
0
0
SPLINE
5
250
100
AcDbEntity
8
0
100
AcDbSpline
70
1064
71
3
72
9
73
5
74
0
42
0.000000001
43
0.0000000001
44
0.0000000001
40
0
40
0
40
0
40
0
40
0.078676577535737632
40
0.16118049300518572
40
0.16118049300518572
40
0.16118049300518572
40
0.16118049300518572
10
3.8396586147212632
20
-4.2244363588028317
30
0
10
3.8462372277460539
20
-4.2327141818847336
30
0
10
3.8597144801105765
20
-4.2496725149381094
30
0
10
3.861369943425331
20
-4.2713002656549612
30
0
10
3.8622173301210583
20
-4.2823709236711283
30
0
0
SPLINE
5
251
100
AcDbEntity
8
0
100
AcDbSpline
70
1064
71
3
72
9
73
5
74
0
42
0.000000001
43
0.0000000001
44
0.0000000001
40
0
40
0
40
0
40
0
40
0.083261064460487103
40
0.16278937659414228
40
0.16278937659414228
40
0.16278937659414228
40
0.16278937659414228
10
3.8622173301210583
20
-4.2823709236711283
30
0
10
3.8613583234150171
20
-4.2935415336639853
30
0
10
3.8596788209119839
20
-4.3153819538975835
30
0
10
3.8460816590609177
20
-4.3325192589532753
30
0
10
3.8394389692586266
20
-4.3408914327038808
30
0
0
SPLINE
5
252
100
AcDbEntity
8
0
100
AcDbSpline
70
1064
71
3
72
9
73
5
74
0
42
0.000000001
43
0.0000000001
44
0.0000000001
40
0
40
0
40
0
40
0
40
0.078906433336633081
40
0.16056915750805401
40
0.16056915750805401
40
0.16056915750805401
40
0.16056915750805401
10
3.8394389692586266
20
-4.3408914327038808
30
0
10
3.8312590232297628
20
-4.3476627244336958
30
0
10
3.8146133964186699
20
-4.3614418367610668
30
0
10
3.7930546825993376
20
-4.3632099630617089
30
0
10
3.7820902898887976
20
-4.3641092018235641
30
0
0
SPLINE
5
253
100
AcDbEntity
8
0
100
AcDbSpline
70
1064
71
3
72
9
73
5
74
0
42
0.000000001
43
0.0000000001
44
0.0000000001
40
0
40
0
40
0
40
0
40
0.053420188631695287
40
0.10722571510976638
40
0.10722571510976638
40
0.10722571510976638
40
0.10722571510976638
10
3.7820902898887976
20
-4.3641092018235641
30
0
10
3.7750322920422774
20
-4.3637006103170046
30
0
10
3.7608653846291626
20
-4.3628804799954768
30
0
10
3.7478336925720548
20
-4.3572610479136618
30
0
10
3.74129443049938
20
-4.3544412345754129
30
0
0
SPLINE
5
254
100
AcDbEntity
8
0
100
AcDbSpline
70
1064
71
3
72
9
73
5
74
0
42
0.000000001
43
0.0000000001
44
0.0000000001
40
0
40
0
40
0
40
0
40
0.052911575191053752
40
0.10523447979649579
40
0.10523447979649579
40
0.10523447979649579
40
0.10523447979649579
10
3.74129443049938
20
-4.3544412345754129
30
0
10
3.7352218386809826
20
-4.3508607913511996
30
0
10
3.7231442159922223
20
-4.3437397393171127
30
0
10
3.7155524728232834
20
-4.3319556093006
30
0
10
3.7117778349442774
20
-4.3260965038828276
30
0
0
SPLINE
5
255
100
AcDbEntity
8
0
100
AcDbSpline
70
1064
71
3
72
9
73
5
74
0
42
0.000000001
43
0.0000000001
44
0.0000000001
40
0
40
0
40
0
40
0
40
0.056014728808579758
40
0.11926760963661347
40
0.11926760963661347
40
0.11926760963661347
40
0.11926760963661347
10
3.7117778349442774
20
-4.3260965038828276
30
0
10
3.7088327545984283
20
-4.3192897135015036
30
0
10
3.7025620343698691
20
-4.304796567942371
30
0
10
3.701979390706664
20
-4.288993944027137
30
0
10
3.701670389039688
20
-4.2806131146441544
30
0
0
SPLINE
5
256
100
AcDbEntity
8
0
100
AcDbSpline
70
1064
71
3
72
9
73
5
74
0
42
0.000000001
43
0.0000000001
44
0.0000000001
40
0
40
0
40
0
40
0
40
0.052370528662716666
40
0.095873206293734442
40
0.095873206293734442
40
0.095873206293734442
40
0.095873206293734442
10
3.7438578995526335
20
-4.2828103788611704
30
0
10
3.7441203571470685
20
-4.2898366923059754
30
0
10
3.7446008306449894
20
-4.3026995603269684
30
0
10
3.7516470605131707
20
-4.3134029221245207
30
0
10
3.7548443027700991
20
-4.3182595960154559
30
0
0
SPLINE
5
257
100
AcDbEntity
8
0
100
AcDbSpline
70
1064
71
3
72
9
73
5
74
0
42
0.000000001
43
0.0000000001
44
0.0000000001
40
0
40
0
40
0
40
0
40
0.038992993348312389
40
0.077466787943630877
40
0.077466787943630877
40
0.077466787943630877
40
0.077466787943630877
10
3.7548443027700991
20
-4.3182595960154559
30
0
10
3.7587018056708184
20
-4.3218484259007317
30
0
10
3.7663654481240303
20
-4.3289782997528121
30
0
10
3.776774309890631
20
-4.3300379969582448
30
0
10
3.7819438595803732
20
-4.3305642944038638
30
0
0
SPLINE
5
258
100
AcDbEntity
8
0
100
AcDbSpline
70
1064
71
3
72
9
73
5
74
0
42
0.000000001
43
0.0000000001
44
0.0000000001
40
0
40
0
40
0
40
0
40
0.038428506405139611
40
0.077309940093555796
40
0.077309940093555796
40
0.077309940093555796
40
0.077309940093555796
10
3.7819438595803732
20
-4.3305642944038638
30
0
10
3.7871088327393245
20
-4.3300396947520738
30
0
10
3.797499654627992
20
-4.3289843123954084
30
0
10
3.8051317811987913
20
-4.3218484368663841
30
0
10
3.8089702012364346
20
-4.3182595960154559
30
0
0
SPLINE
5
259
100
AcDbEntity
8
0
100
AcDbSpline
70
1064
71
3
72
9
73
5
74
0
42
0.000000001
43
0.0000000001
44
0.0000000001
40
0
40
0
40
0
40
0
40
0.043598883516590421
40
0.096516462667307582
40
0.096516462667307582
40
0.096516462667307582
40
0.096516462667307582
10
3.8089702012364346
20
-4.3182595960154559
30
0
10
3.8121454064683422
20
-4.3133755373633971
30
0
10
3.8191744758505859
20
-4.30256351589553
30
0
10
3.8196322276350148
20
-4.2896161382270028
30
0
10
3.8198832015685236
20
-4.2825174126455412
30
0
0
SPLINE
5
260
100
AcDbEntity
8
0
100
AcDbSpline
70
1064
71
3
72
9
73
5
74
0
42
0.000000001
43
0.0000000001
44
0.0000000001
40
0
40
0
40
0
40
0
40
0.051811240891165539
40
0.09508340306852614
40
0.09508340306852614
40
0.09508340306852614
40
0.09508340306852614
10
3.8198832015685236
20
-4.2825174126455412
30
0
10
3.8196159855195191
20
-4.2755679821608341
30
0
10
3.8191255936497845
20
-4.2628144659641798
30
0
10
3.8121464073160691
20
-4.2521943455893654
30
0
10
3.8089702012364346
20
-4.2473611617068858
30
0
0
SPLINE
5
261
100
AcDbEntity
8
0
100
AcDbSpline
70
1064
71
3
72
9
73
5
74
0
42
0.000000001
43
0.0000000001
44
0.0000000001
40
0
40
0
40
0
40
0
40
0.038881397754546611
40
0.077309910219237138
40
0.077309910219237138
40
0.077309910219237138
40
0.077309910219237138
10
3.8089702012364346
20
-4.2473611617068858
30
0
10
3.8051317797145425
20
-4.2437723316336085
30
0
10
3.7974996460882156
20
-4.2366364736968993
30
0
10
3.7871088317810675
20
-4.2355810804180196
30
0
10
3.7819438595803732
20
-4.2350564750516755
30
0
0
SPLINE
5
262
100
AcDbEntity
8
0
100
AcDbSpline
70
1064
71
3
72
9
73
5
74
0
42
0.000000001
43
0.0000000001
44
0.0000000001
40
0
40
0
40
0
40
0
40
0.038473800647736603
40
0.077466758164986965
40
0.077466758164986965
40
0.077466758164986965
40
0.077466758164986965
10
3.7819438595803732
20
-4.2350564750516755
30
0
10
3.7767743108466969
20
-4.2355827782146029
30
0
10
3.7663654566437956
20
-4.2366424863577441
30
0
10
3.7587018071518936
20
-4.2437723426025125
30
0
10
3.7548443027700991
20
-4.2473611617068858
30
0
0
SPLINE
5
263
100
AcDbEntity
8
0
100
AcDbSpline
70
1064
71
3
72
9
73
5
74
0
42
0.000000001
43
0.0000000001
44
0.0000000001
40
0
40
0
40
0
40
0
40
0.043502677631017769
40
0.095873206293734442
40
0.095873206293734442
40
0.095873206293734442
40
0.095873206293734442
10
3.7548443027700991
20
-4.2473611617068858
30
0
10
3.7516470605131715
20
-4.2522178355978211
30
0
10
3.7446008306449894
20
-4.2629211973953725
30
0
10
3.7441203571470685
20
-4.2757840654163664
30
0
10
3.7438578995526335
20
-4.2828103788611704
30
0
0
SPLINE
5
264
100
AcDbEntity
8
0
100
AcDbSpline
70
1064
71
3
72
9
73
5
74
0
42
0.000000001
43
0.0000000001
44
0.0000000001
40
0
40
0
40
0
40
0
40
0.040630235532199181
40
0.069366128251692361
40
0.069366128251692361
40
0.069366128251692361
40
0.069366128251692361
10
3.9309184884794144
20
-4.227146316830499
30
0
10
3.9337850649966812
20
-4.2226001382314466
30
0
10
3.9386790389482331
20
-4.2148386570678191
30
0
10
3.9456726921757244
20
-4.2089369017721685
30
0
10
3.9485699112353392
20
-4.2064920167640691
30
0
0
SPLINE
5
265
100
AcDbEntity
8
0
100
AcDbSpline
70
1064
71
3
72
9
73
5
74
0
42
0.000000001
43
0.0000000001
44
0.0000000001
40
0
40
0
40
0
40
0
40
0.023276037996949894
40
0.047435935464942833
40
0.047435935464942833
40
0.047435935464942833
40
0.047435935464942833
10
3.9485699112353392
20
-4.2064920167640691
30
0
10
3.9513005830972605
20
-4.205039518930672
30
0
10
3.9568656184454154
20
-4.2020793676584933
30
0
10
3.9631612806237437
20
-4.2017031552804553
30
0
10
3.9663677642996884
20
-4.2015115441655801
30
0
0
SPLINE
5
266
100
AcDbEntity
8
0
100
AcDbSpline
70
1064
71
3
72
9
73
5
74
0
42
0.000000001
43
0.0000000001
44
0.0000000001
40
0
40
0
40
0
40
0
40
0.035412396894990976
40
0.072274780601097877
40
0.072274780601097877
40
0.072274780601097877
40
0.072274780601097877
10
3.9663677642996884
20
-4.2015115441655801
30
0
10
3.9710543741128626
20
-4.2018602229332176
30
0
10
3.9806194904480985
20
-4.2025718573788069
30
0
10
3.9891278125048495
20
-4.2070110824375178
30
0
10
3.9934673211099621
20
-4.2092752251455412
30
0
0
SPLINE
5
267
100
AcDbEntity
8
0
100
AcDbSpline
70
1064
71
3
72
9
73
5
74
0
42
0.000000001
43
0.0000000001
44
0.0000000001
40
0
40
0
40
0
40
0
40
0.028536963170739678
40
0.052547618239930885
40
0.052547618239930885
40
0.052547618239930885
40
0.052547618239930885
10
3.9807231909979075
20
-4.2451638974898698
30
0
10
3.9774708559932517
20
-4.2432031243439106
30
0
10
3.971482045719696
20
-4.2395925804289023
30
0
10
3.9645532435521891
20
-4.2387916061411586
30
0
10
3.9613872565016059
20
-4.2384256158644069
30
0
0
SPLINE
5
268
100
AcDbEntity
8
0
100
AcDbSpline
70
1064
71
3
72
9
73
5
74
0
42
0.000000001
43
0.0000000001
44
0.0000000001
40
0
40
0
40
0
40
0
40
0.020502078712472019
40
0.039707457498216289
40
0.039707457498216289
40
0.039707457498216289
40
0.039707457498216289
10
3.9613872565016059
20
-4.2384256158644069
30
0
10
3.9586513721661793
20
-4.238596754800219
30
0
10
3.9533526406330242
20
-4.2389282086062128
30
0
10
3.9488948764383092
20
-4.2417982102004403
30
0
10
3.9467387814553732
20
-4.2431863491346764
30
0
0
SPLINE
5
269
100
AcDbEntity
8
0
100
AcDbSpline
70
1064
71
3
72
9
73
5
74
0
42
0.000000001
43
0.0000000001
44
0.0000000001
40
0
40
0
40
0
40
0
40
0.021768577677660453
40
0.050451802975848954
40
0.050451802975848954
40
0.050451802975848954
40
0.050451802975848954
10
3.9467387814553732
20
-4.2431863491346764
30
0
10
3.9447874906108513
20
-4.2453201343309797
30
0
10
3.9402650940310586
20
-4.2502654877624595
30
0
10
3.9383687631822086
20
-4.2567255489070481
30
0
10
3.9372906474010239
20
-4.2603982697677676
30
0
0
SPLINE
5
270
100
AcDbEntity
8
0
100
AcDbSpline
70
1064
71
3
72
9
73
5
74
0
42
0.000000001
43
0.0000000001
44
0.0000000001
40
0
40
0
40
0
40
0
40
0.049364786499978136
40
0.13292315145859843
40
0.13292315145859843
40
0.13292315145859843
40
0.13292315145859843
10
3.9372906474010239
20
-4.2603982697677676
30
0
10
3.9363016852434347
20
-4.2668089178179178
30
0
10
3.9336387350722601
20
-4.2840706868264453
30
0
10
3.9337673628405811
20
-4.3015554205903115
30
0
10
3.9338482210348937
20
-4.3125467020112946
30
0
0
LINE
5
271
100
AcDbEntity
8
0
100
AcDbLine
10
5.9999999098890404
20
-3.1299567513444204
30
0
11
5.9663173150982685
21
-3.1486478600498513
31
0
0
SPLINE
5
272
100
AcDbEntity
8
0
100
AcDbSpline
70
1064
71
3
72
8
73
4
74
0
42
0.000000001
43
0.0000000001
44
0.0000000001
40
0
40
0
40
0
40
0
40
1
40
1
40
1
40
1
10
5.9663173150982685
20
-3.1486478600498513
30
0
10
5.955661794999453
20
-3.1545626607442423
30
0
10
5.9384192506960805
20
-3.1542303799645772
30
0
10
5.927992687716384
20
-3.1479241437230319
30
0
0
LINE
5
273
100
AcDbEntity
8
0
100
AcDbLine
10
5.927992687716384
20
-3.1479241437230323
30
0
11
5.8688221456229526
21
-3.1143181512990417
31
0
0
SPLINE
5
274
100
AcDbEntity
8
0
100
AcDbSpline
70
1064
71
3
72
8
73
4
74
0
42
0.000000001
43
0.0000000001
44
0.0000000001
40
0
40
0
40
0
40
0
40
1
40
1
40
1
40
1
10
5.8688221456229526
20
-3.1143181512990412
30
0
10
5.8580631891878436
20
-3.1086026740021504
30
0
10
5.8488992706357266
20
-3.0939595591958549
30
0
10
5.8484636661955136
20
-3.081782803828724
30
0
0
LINE
5
275
100
AcDbEntity
8
0
100
AcDbLine
10
5.8484636661955145
20
-3.081782803828724
30
0
11
5.8394547894720912
21
-2.8307602803824992
31
0
0
SPLINE
5
276
100
AcDbEntity
8
0
100
AcDbSpline
70
1064
71
3
72
8
73
4
74
0
42
0.000000001
43
0.0000000001
44
0.0000000001
40
0
40
0
40
0
40
0
40
1
40
1
40
1
40
1
10
5.8394547894720912
20
-2.8307602803824992
30
0
10
5.8390191850318782
20
-2.8185835250153684
30
0
10
5.8291167896300058
20
-2.805742208088907
30
0
10
5.8174568779171061
20
-2.8022198515432568
30
0
0
LINE
5
277
100
AcDbEntity
8
0
100
AcDbLine
10
5.8174568779171061
20
-2.8022198515432564
30
0
11
5.5803021474579575
21
-2.7454787112437784
31
0
0
SPLINE
5
278
100
AcDbEntity
8
0
100
AcDbSpline
70
1064
71
3
72
8
73
4
74
0
42
0.000000001
43
0.0000000001
44
0.0000000001
40
0
40
0
40
0
40
0
40
1
40
1
40
1
40
1
10
5.5803021474579575
20
-2.7454787112437784
30
0
10
5.5683100676411392
20
-2.743307674939067
30
0
10
5.5537850370183257
20
-2.7503081064615613
30
0
10
5.5480178415532873
20
-2.7610448657743945
30
0
0
LINE
5
279
100
AcDbEntity
8
0
100
AcDbLine
10
5.5480178415532873
20
-2.7610448657743945
30
0
11
5.4302527557881444
21
-2.9802557580771221
31
0
0
SPLINE
5
280
100
AcDbEntity
8
0
100
AcDbSpline
70
1064
71
3
72
8
73
4
74
0
42
0.000000001
43
0.0000000001
44
0.0000000001
40
0
40
0
40
0
40
0
40
1
40
1
40
1
40
1
10
5.4302527557881444
20
-2.9802557580771216
30
0
10
5.4244855603231059
20
-2.9909925173899543
30
0
10
5.414730995502083
20
-2.9996765499330529
30
0
10
5.4085723644898902
20
-2.999558353073823
30
0
0
LINE
5
281
100
AcDbEntity
8
0
100
AcDbLine
10
5.4085723644898911
20
-2.999558353073823
30
0
11
5.4029529996056995
21
-2.999558353073823
31
0
0
SPLINE
5
282
100
AcDbEntity
8
0
100
AcDbSpline
70
1064
71
2
72
6
73
3
74
0
42
0.000000001
43
0.0000000001
44
0.0000000001
40
0
40
0
40
0
40
1
40
1
40
1
10
5.4029529996056995
20
-2.999558353073823
30
0
10
5.3687784453593324
20
-2.999558353073823
30
0
10
5.3238151882804887
20
-3.0029477522373083
30
0
0
SPLINE
5
283
100
AcDbEntity
8
0
100
AcDbSpline
70
1064
71
3
72
8
73
4
74
0
42
0.000000001
43
0.0000000001
44
0.0000000001
40
0
40
0
40
0
40
0
40
1
40
1
40
1
40
1
10
5.3238151882804887
20
-3.0029477522373083
30
0
10
5.3116680666349767
20
-3.0038633553622867
30
0
10
5.2960354334132784
20
-2.9964274320753272
30
0
10
5.2890867200589309
20
-2.9864142764135666
30
0
0
LINE
5
284
100
AcDbEntity
8
0
100
AcDbLine
10
5.2890867200589318
20
-2.9864142764135666
30
0
11
5.1451294807102279
21
-2.7791512950345987
31
0
0
SPLINE
5
285
100
AcDbEntity
8
0
100
AcDbSpline
70
1064
71
3
72
8
73
4
74
0
42
0.000000001
43
0.0000000001
44
0.0000000001
40
0
40
0
40
0
40
0
40
1
40
1
40
1
40
1
10
5.1451294807102288
20
-2.7791512950345987
30
0
10
5.1381807673558813
20
-2.7691455759721797
30
0
10
5.1228879641889371
20
-2.7636220981491952
30
0
10
5.1111469259377671
20
-2.7668712160069213
30
0
0
LINE
5
286
100
AcDbEntity
8
0
100
AcDbLine
10
5.1111469259377662
20
-2.7668712160069209
30
0
11
4.8846256311309029
21
-2.8432840770522305
31
0
0
SPLINE
5
287
100
AcDbEntity
8
0
100
AcDbSpline
70
1064
71
3
72
8
73
4
74
0
42
0.000000001
43
0.0000000001
44
0.0000000001
40
0
40
0
40
0
40
0
40
1
40
1
40
1
40
1
10
4.8846256311309029
20
-2.8432840770522305
30
0
10
4.8733201973199449
20
-2.8478327969827482
30
0
10
4.8648504740487777
20
-2.8614938299729822
30
0
10
4.8658030348189678
20
-2.8736409516184946
30
0
0
LINE
5
288
100
AcDbEntity
8
0
100
AcDbLine
10
4.8658030348189678
20
-2.8736409516184946
30
0
11
4.8851130664150109
21
-3.1199965582749729
31
0
0
SPLINE
5
289
100
AcDbEntity
8
0
100
AcDbSpline
70
1064
71
3
72
8
73
4
74
0
42
0.000000001
43
0.0000000001
44
0.0000000001
40
0
40
0
40
0
40
0
40
1
40
1
40
1
40
1
10
4.8851130664150109
20
-3.1199965582749729
30
0
10
4.8860656271852019
20
-3.1321437925962328
30
0
10
4.8784672254702066
20
-3.1474884266070715
30
0
10
4.8682325492886687
20
-3.154097309906664
30
0
0
LINE
5
290
100
AcDbEntity
8
0
100
AcDbLine
10
4.8682325492886687
20
-3.154097309906664
30
0
11
4.7962132536694346
21
-3.2039636521422188
31
0
0
SPLINE
5
291
100
AcDbEntity
8
0
100
AcDbSpline
70
1064
71
3
72
8
73
4
74
0
42
0.000000001
43
0.0000000001
44
0.0000000001
40
0
40
0
40
0
40
0
40
1
40
1
40
1
40
1
10
4.7962132536694346
20
-3.2039636521422188
30
0
10
4.786429055126793
20
-3.2112224491539552
30
0
10
4.7692161445450374
20
-3.2133565278134553
30
0
10
4.7579551049786319
20
-3.208697047623049
30
0
0
LINE
5
292
100
AcDbEntity
8
0
100
AcDbLine
10
4.7579551049786328
20
-3.208697047623049
30
0
11
4.5247361383830693
21
-3.1121396783949886
31
0
0
SPLINE
5
293
100
AcDbEntity
8
0
100
AcDbSpline
70
1064
71
3
72
8
73
4
74
0
42
0.000000001
43
0.0000000001
44
0.0000000001
40
0
40
0
40
0
40
0
40
1
40
1
40
1
40
1
10
4.5247361383830693
20
-3.1121396783949886
30
0
10
4.5134750988166656
20
-3.1074801982045828
30
0
10
4.4975987479529138
20
-3.1110763573649094
30
0
10
4.4894464322627279
20
-3.1201295156571378
30
0
0
LINE
5
294
100
AcDbEntity
8
0
100
AcDbLine
10
4.4894464322627288
20
-3.1201295156571378
30
0
11
4.3440934784285332
21
-3.3003733034651788
31
0
0
SPLINE
5
295
100
AcDbEntity
8
0
100
AcDbSpline
70
1064
71
3
72
8
73
4
74
0
42
0.000000001
43
0.0000000001
44
0.0000000001
40
0
40
0
40
0
40
0
40
1
40
1
40
1
40
1
10
4.3440934784285332
20
-3.3003733034651797
30
0
10
4.3369676387989617
20
-3.3102535017447745
30
0
10
4.337159638272869
20
-3.3262774578378793
30
0
10
4.3445291955444931
20
-3.3359804171665033
30
0
0
LINE
5
296
100
AcDbEntity
8
0
100
AcDbLine
10
4.3445291955444922
20
-3.3359804171665033
30
0
11
4.4932493514198963
21
-3.531856838196243
31
0
0
SPLINE
5
297
100
AcDbEntity
8
0
100
AcDbSpline
70
1064
71
3
72
8
73
4
74
0
42
0.000000001
43
0.0000000001
44
0.0000000001
40
0
40
0
40
0
40
0
40
1
40
1
40
1
40
1
10
4.4932493514198963
20
-3.531856838196243
30
0
10
4.5006189086915205
20
-3.5415597975248665
30
0
10
4.5024575515408198
20
-3.5585438636632514
30
0
10
4.4973402697879248
20
-3.5696054671564079
30
0
0
LINE
5
298
100
AcDbEntity
8
0
100
AcDbLine
10
4.4973402697879248
20
-3.5696054671564079
30
0
11
4.4568963242694757
21
-3.6664286384730507
31
0
0
SPLINE
5
299
100
AcDbEntity
8
0
100
AcDbSpline
70
1064
71
3
72
8
73
4
74
0
42
0.000000001
43
0.0000000001
44
0.0000000001
40
0
40
0
40
0
40
0
40
1
40
1
40
1
40
1
10
4.4568963242694757
20
-3.6664286384730516
30
0
10
4.4526208430268825
20
-3.6778375086203039
30
0
10
4.4393068513392491
20
-3.6889435063580143
30
0
10
4.4273147715224308
20
-3.691107106063384
30
0
0
LINE
5
300
100
AcDbEntity
8
0
100
AcDbLine
10
4.4273147715224308
20
-3.6911071060633831
30
0
11
4.1798884072365325
21
-3.7357895751792136
31
0
0
SPLINE
5
301
100
AcDbEntity
8
0
100
AcDbSpline
70
1064
71
3
72
8
73
4
74
0
42
0.000000001
43
0.0000000001
44
0.0000000001
40
0
40
0
40
0
40
0
40
1
40
1
40
1
40
1
10
4.1798884072365325
20
-3.7357895751792145
30
0
10
4.1678963274197143
20
-3.7379531748845838
30
0
10
4.1565244149176737
20
-3.749568692352931
30
0
10
4.154604532854357
20
-3.7616051664143026
30
0
0
SPLINE
5
302
100
AcDbEntity
8
0
100
AcDbSpline
70
1064
71
2
72
6
73
3
74
0
42
0.000000001
43
0.0000000001
44
0.0000000001
40
0
40
0
40
0
40
1
40
1
40
1
10
4.154604532854357
20
-3.7616051664143026
30
0
10
4.1303987400251962
20
-3.913759115697744
30
0
10
4.1303987400251962
20
-4.0045861344302311
30
0
0
LINE
5
303
100
AcDbEntity
8
0
100
AcDbLine
10
4.1303987400251962
20
-4.0045861344302311
30
0
11
4.1303987400251962
21
-4.0050735697143391
31
0
0
SPLINE
5
304
100
AcDbEntity
8
0
100
AcDbSpline
70
1064
71
3
72
8
73
4
74
0
42
0.000000001
43
0.0000000001
44
0.0000000001
40
0
40
0
40
0
40
0
40
1
40
1
40
1
40
1
10
4.1303987400251962
20
-4.0050735697143391
30
0
10
4.130406120286664
20
-4.0056126104908456
30
0
10
4.1397841790970897
20
-4.0094672478161613
30
0
10
4.151222570290213
20
-4.0136468419975486
30
0
0
LINE
5
305
100
AcDbEntity
8
0
100
AcDbLine
10
4.1512225702902121
20
-4.0136468419975477
30
0
11
4.3821227826759639
21
-4.0979830616139248
31
0
0
SPLINE
5
306
100
AcDbEntity
8
0
100
AcDbSpline
70
1064
71
3
72
8
73
4
74
0
42
0.000000001
43
0.0000000001
44
0.0000000001
40
0
40
0
40
0
40
0
40
1
40
1
40
1
40
1
10
4.3821227826759639
20
-4.0979830616139248
30
0
10
4.393568497792681
20
-4.1021626557953121
30
0
10
4.4043347781513846
20
-4.1154543376849215
30
0
10
4.4060553368172011
20
-4.1275128961928225
30
0
0
LINE
5
307
100
AcDbEntity
8
0
100
AcDbLine
10
4.4060553368172011
20
-4.1275128961928216
30
0
11
4.4276987704702435
21
-4.2455290235236136
31
0
0
SPLINE
5
308
100
AcDbEntity
8
0
100
AcDbSpline
70
1064
71
3
72
8
73
4
74
0
42
0.000000001
43
0.0000000001
44
0.0000000001
40
0
40
0
40
0
40
0
40
1
40
1
40
1
40
1
10
4.4276987704702435
20
-4.2455290235236136
30
0
10
4.4304014109521201
20
-4.2574104557562897
30
0
10
4.425313650245096
20
-4.2739217344577547
30
0
10
4.4164007732586272
20
-4.2822290919766344
30
0
0
LINE
5
309
100
AcDbEntity
8
0
100
AcDbLine
10
4.4164007732586272
20
-4.2822290919766344
30
0
11
4.2335207109840436
21
-4.4525483999362745
31
0
0
SPLINE
5
310
100
AcDbEntity
8
0
100
AcDbSpline
70
1064
71
3
72
8
73
4
74
0
42
0.000000001
43
0.0000000001
44
0.0000000001
40
0
40
0
40
0
40
0
40
1
40
1
40
1
40
1
10
4.2335207109840436
20
-4.4525483999362745
30
0
10
4.2246078339975739
20
-4.4608557574551542
30
0
10
4.2214251948309309
20
-4.4767245590438174
30
0
10
4.226453913446214
20
-4.4878233455336805
30
0
0
LINE
5
311
100
AcDbEntity
8
0
100
AcDbLine
10
4.226453913446214
20
-4.4878233455336805
30
0
11
4.2327342781763662
21
-4.4999999999999991
31
0
0
SPLINE
5
312
100
AcDbEntity
8
0
100
AcDbSpline
70
1064
71
3
72
8
73
4
74
0
42
0.000000001
43
0.0000000001
44
0.0000000001
40
0
40
0
40
0
40
0
40
1
40
1
40
1
40
1
10
4.6580748152781695
20
-4.0093345157854907
30
0
10
4.6580748152781695
20
-3.5997559197530733
30
0
10
4.9900958773454329
20
-3.267727533762216
30
0
10
5.3996817973014455
20
-3.267727533762216
30
0
0
SPLINE
5
313
100
AcDbEntity
8
0
100
AcDbSpline
70
1064
71
3
72
8
73
4
74
0
42
0.000000001
43
0.0000000001
44
0.0000000001
40
0.54065276555243702
40
0.54065276555243702
40
0.54065276555243702
40
0.54065276555243702
40
1
40
1
40
1
40
1
10
4.843586623155252
20
-4.4999999634525674
30
0
10
4.7281343345962821
20
-4.3692526031750107
30
0
10
4.6580748152781695
20
-4.1974766236286527
30
0
10
4.6580748152781695
20
-4.0093345157854907
30
0
0
SPLINE
5
314
100
AcDbEntity
8
0
100
AcDbSpline
70
1064
71
3
72
8
73
4
74
0
42
0.000000001
43
0.0000000001
44
0.0000000001
40
0
40
0
40
0
40
0
40
0.6026689736982509
40
0.6026689736982509
40
0.6026689736982509
40
0.6026689736982509
10
5.3996817973014455
20
-3.267727533762216
30
0
10
5.6465264554164118
20
-3.267727533762216
30
0
10
5.865198871735477
20
-3.3883209087353583
30
0
10
5.9999996967786862
20
-3.5738083092016844
30
0
0
SPLINE
5
315
100
AcDbEntity
8
0
100
AcDbSpline
70
1064
71
3
72
8
73
4
74
0
42
0.000000001
43
0.0000000001
44
0.0000000001
40
0
40
0
40
0
40
0
40
1
40
1
40
1
40
1
10
1.212798902170811
20
-4.1112149003284157
30
0
10
1.208540692410432
20
-4.0982320095016131
30
0
10
1.2127337296352592
20
-4.0794849040829124
30
0
10
1.2221268723604986
20
-4.0695530484320939
30
0
0
LINE
5
316
100
AcDbEntity
8
0
100
AcDbLine
10
1.2221268723604986
20
-4.0695530484320939
30
0
11
1.412836581256415
21
-3.867881693241912
31
0
0
SPLINE
5
317
100
AcDbEntity
8
0
100
AcDbSpline
70
1064
71
3
72
8
73
4
74
0
42
0.000000001
43
0.0000000001
44
0.0000000001
40
0
40
0
40
0
40
0
40
1
40
1
40
1
40
1
10
1.4128365812564148
20
-3.867881693241912
30
0
10
1.4222221241780706
20
-3.8579526036933833
30
0
10
1.4244710593036474
20
-3.8400631708531998
30
0
10
1.4178230413108854
20
-3.8281173895355658
30
0
0
LINE
5
318
100
AcDbEntity
8
0
100
AcDbLine
10
1.4178230413108854
20
-3.8281173895355649
30
0
11
1.27386095346227
21
-3.5998785867221814
31
0
0
SPLINE
5
319
100
AcDbEntity
8
0
100
AcDbSpline
70
1064
71
3
72
8
73
4
74
0
42
0.000000001
43
0.0000000001
44
0.0000000001
40
0
40
0
40
0
40
0
40
1
40
1
40
1
40
1
10
1.2738609534622707
20
-3.5998785867221814
30
0
10
1.2659176831274614
20
-3.5887568396289407
30
0
10
1.2486813088481747
20
-3.5828065990887028
30
0
10
1.2355686923869087
20
-3.5866359735251576
30
0
0
LINE
5
320
100
AcDbEntity
8
0
100
AcDbLine
10
1.2355686923869087
20
-3.5866359735251576
30
0
11
0.9641083884036904
21
-3.6660151941670338
31
0
0
SPLINE
5
321
100
AcDbEntity
8
0
100
AcDbSpline
70
1064
71
3
72
8
73
4
74
0
42
0.000000001
43
0.0000000001
44
0.0000000001
40
0
40
0
40
0
40
0
40
1
40
1
40
1
40
1
10
0.96410838840369073
20
-3.6660151941670338
30
0
10
0.95098802108567748
20
-3.6698476586403381
30
0
10
0.93209362767486759
20
-3.6653467533962951
30
0
10
0.92212156220389974
20
-3.6560123545839311
30
0
0
LINE
5
322
100
AcDbEntity
8
0
100
AcDbLine
10
0.92212156220389985
20
-3.6560123545839303
30
0
11
0.86192320621350793
21
-3.6028260288768341
31
0
0
SPLINE
5
323
100
AcDbEntity
8
0
100
AcDbSpline
70
1064
71
3
72
8
73
4
74
0
42
0.000000001
43
0.0000000001
44
0.0000000001
40
0
40
0
40
0
40
0
40
1
40
1
40
1
40
1
10
0.86192320621350771
20
-3.6028260288768346
30
0
10
0.85142497122118754
20
-3.5940795808139594
30
0
10
0.84490075231927142
20
-3.5759371854838187
30
0
10
0.84743412595523793
20
-3.5625092106315224
30
0
0
LINE
5
324
100
AcDbEntity
8
0
100
AcDbLine
10
0.84743412595523793
20
-3.5625092106315224
30
0
11
0.89917059042215641
21
-3.2879565369128905
31
0
0
SPLINE
5
325
100
AcDbEntity
8
0
100
AcDbSpline
70
1064
71
3
72
8
73
4
74
0
42
0.000000001
43
0.0000000001
44
0.0000000001
40
0
40
0
40
0
40
0
40
1
40
1
40
1
40
1
10
0.89917059042215697
20
-3.2879565369128905
30
0
10
0.90170396405812347
20
-3.2745285620605933
30
0
10
0.89397330167908629
20
-3.2581562035394502
30
0
10
0.8819988536636576
20
-3.2515773280673468
30
0
0
LINE
5
326
100
AcDbEntity
8
0
100
AcDbLine
10
0.88199885366365782
20
-3.2515773280673468
30
0
11
0.63457396155685497
21
-3.1332547557017021
31
0
0
SPLINE
5
327
100
AcDbEntity
8
0
100
AcDbSpline
70
1064
71
3
72
8
73
4
74
0
42
0.000000001
43
0.0000000001
44
0.0000000001
40
0
40
0
40
0
40
0
40
1
40
1
40
1
40
1
10
0.63457396155685586
20
-3.1332547557017021
30
0
10
0.62193279587877592
20
-3.1280644313841188
30
0
10
0.60425600750343145
20
-3.1322596034001062
30
0
10
0.59530279972163458
20
-3.142577719336201
30
0
0
LINE
5
328
100
AcDbEntity
8
0
100
AcDbLine
10
0.59530279972163458
20
-3.142577719336201
30
0
11
0.4111459838601304
21
-3.3546255611653168
31
0
0
SPLINE
5
329
100
AcDbEntity
8
0
100
AcDbSpline
70
1064
71
3
72
8
73
4
74
0
42
0.000000001
43
0.0000000001
44
0.0000000001
40
0
40
0
40
0
40
0
40
1
40
1
40
1
40
1
10
0.41114598386013068
20
-3.3546255611653173
30
0
10
0.40218513305440323
20
-3.364946324456771
30
0
10
0.38388607089370891
20
-3.3712100632148614
30
0
10
0.37047874843590928
20
-3.3685634731309348
30
0
0
LINE
5
330
100
AcDbEntity
8
0
100
AcDbLine
10
0.37047874843590928
20
-3.3685634731309348
30
0
11
0.29522934334472239
21
-3.355843459678244
31
0
0
SPLINE
5
331
100
AcDbEntity
8
0
100
AcDbSpline
70
1064
71
3
72
8
73
4
74
0
42
0.000000001
43
0.0000000001
44
0.0000000001
40
0
40
0
40
0
40
0
40
1
40
1
40
1
40
1
10
0.2952293433447219
20
-3.3558434596782436
30
0
10
0.28169832172660336
20
-3.3539469597808758
30
0
10
0.26642380380763869
20
-3.3420299570510421
30
0
10
0.26129394835353792
20
-3.3293641848337283
30
0
0
LINE
5
332
100
AcDbEntity
8
0
100
AcDbLine
10
0.26129394835353792
20
-3.3293641848337283
30
0
11
0.1555120244913635
21
-3.0682717305744611
31
0
0
SPLINE
5
333
100
AcDbEntity
8
0
100
AcDbSpline
70
1064
71
3
72
8
73
4
74
0
42
0.000000001
43
0.0000000001
44
0.0000000001
40
0
40
0
40
0
40
0
40
1
40
1
40
1
40
1
10
0.15551202449136334
20
-3.0682717305744616
30
0
10
0.15038216903726256
20
-3.0556059583571473
30
0
10
0.135020520322117
20
-3.0458711039632402
30
0
10
0.12138123910294707
20
-3.046631484235311
30
0
0
LINE
5
334
100
AcDbEntity
8
0
100
AcDbLine
10
0.12138123910294707
20
-3.046631484235311
30
0
11
0
21
-3.0605565869335938
31
0
0
LINE
5
335
100
AcDbEntity
8
0
100
AcDbLine
10
1.5659211689875983
20
-4.4999999999999991
30
0
11
1.5661568667530199
21
-4.3441626907003981
31
0
0
SPLINE
5
336
100
AcDbEntity
8
0
100
AcDbSpline
70
1064
71
3
72
8
73
4
74
0
42
0.000000001
43
0.0000000001
44
0.0000000001
40
0
40
0
40
0
40
0
40
1
40
1
40
1
40
1
10
1.5661568667530201
20
-4.3441626907003981
30
0
10
1.5654381692703652
20
-4.330517113724782
30
0
10
1.5541322334610999
20
-4.3161863488828356
30
0
10
1.5410246705121009
20
-4.312329012702679
30
0
0
LINE
5
337
100
AcDbEntity
8
0
100
AcDbLine
10
1.5410246705121009
20
-4.312329012702679
30
0
11
1.2693122765085898
21
-4.2322204996224668
31
0
0
SPLINE
5
338
100
AcDbEntity
8
0
100
AcDbSpline
70
1064
71
3
72
8
73
4
74
0
42
0.000000001
43
0.0000000001
44
0.0000000001
40
0
40
0
40
0
40
0
40
1
40
1
40
1
40
1
10
1.2693122765085898
20
-4.2322204996224677
30
0
10
1.2562016235227409
20
-4.2283554125855636
30
0
10
1.2426705589682745
20
-4.2143762278571586
30
0
10
1.2392386706659657
20
-4.2011452959333786
30
0
0
LINE
5
339
100
AcDbEntity
8
0
100
AcDbLine
10
1.2392386706659657
20
-4.2011452959333795
30
0
11
1.212798902170811
21
-4.1112149003284157
31
0
0
SPLINE
5
340
100
AcDbEntity
8
0
100
AcDbSpline
70
1064
71
3
72
8
73
4
74
0
42
0.000000001
43
0.0000000001
44
0.0000000001
40
0
40
0
40
0
40
0
40
0.23369216537537138
40
0.23369216537537138
40
0.23369216537537138
40
0.23369216537537138
10
0.9256888437727343
20
-4.1945718077673728
30
0
10
0.96240412558699351
20
-4.2954462155009638
30
0
10
0.97838521497914499
20
-4.3988116561521258
30
0
10
0.97580889659823844
20
-4.4999999999765157
30
0
0
SPLINE
5
341
100
AcDbEntity
8
0
100
AcDbSpline
70
1064
71
3
72
8
73
4
74
0
42
0.000000001
43
0.0000000001
44
0.0000000001
40
0.10750643340312452
40
0.10750643340312452
40
0.10750643340312452
40
0.10750643340312452
40
1
40
1
40
1
40
1
10
3.5973958938587932e-10
20
-3.6597536857736999
30
0
10
0.39022946876184306
20
-3.5906315222366887
30
0
10
0.78546953961941235
20
-3.8093224358344799
30
0
10
0.9256888437727343
20
-4.1945718077673728
30
0
0
LWPOLYLINE
5
342
100
AcDbEntity
8
0
100
AcDbPolyline
90
13
70
1
43
0.0
10
3.7415636995285095
20
-1.7354423518108277
10
3.3030000206369055
20
-1.5130000094531146
10
3.3399999596354526
20
-1.619999980421986
10
2.9810000186250725
20
-1.4470000090407515
10
3.0324564082569165
20
-1.5733310698137073
10
2.2999999722040543
20
-1.0049999878543803
10
2.7820953806320463
20
-1.1637439162090817
10
2.7385814155419688
20
-1.0527693705313705
10
3.0703242764718817
20
-1.1534625684998199
10
3.0227065455402546
20
-1.0246625345575548
10
3.524634605293691
20
-1.1959325680508421
10
3.7375374983618417
20
-1.7219498400985418
10
3.7433691695582483
20
-1.7363580979197775
0
ARC
5
343
100
AcDbEntity
8
0
100
AcDbCircle
10
2.099999984981507
20
-1.7676927625632306
30
0
40
0.075000000000000039
100
AcDbArc
50
180
51
270
0
LINE
5
344
100
AcDbEntity
8
0
100
AcDbLine
10
2.0249999849815068
20
-0.95050224899840163
30
0
11
2.0249999849815068
21
-1.7676927625632306
31
0
0
LINE
5
345
100
AcDbEntity
8
0
100
AcDbLine
10
2.0249999849815068
20
-0.94861250456259427
30
0
11
2.0249999849815068
21
-0.95050224899840163
31
0
0
LWPOLYLINE
5
346
100
AcDbEntity
8
0
100
AcDbPolyline
90
11
70
1
43
0.0
10
2.9360592987459202
20
-1.4462242922056541
10
2.5145340402251395
20
-1.1191524085325464
10
2.8526584197436926
20
-1.2304896901969666
10
2.8081928283480164
20
-1.1170881926958549
10
3.137941248682063
20
-1.2171760223944552
10
3.0916041034095856
20
-1.0918398132321079
10
3.4934117660556914
20
-1.2289466271082032
10
3.6636662834782361
20
-1.6495922093403024
10
3.2305377059254936
20
-1.4299065856324864
10
3.2684911329049777
20
-1.5396639445603881
10
2.9022275578286187
20
-1.3631636704158676
0
ARC
5
347
100
AcDbEntity
8
0
100
AcDbCircle
10
2.099999984981507
20
-0.94861250456259449
30
0
40
0.075000000000000039
100
AcDbArc
50
90
51
180
0
LINE
5
348
100
AcDbEntity
8
0
100
AcDbLine
10
3.9752606268318984
20
-1.1914857758013031
30
0
11
3.9751272119297578
21
-1.5248194913245217
31
0
0
LINE
5
349
100
AcDbEntity
8
0
100
AcDbLine
10
2.099999984981507
20
-1.8426927625632306
30
0
11
2.9999999849815064
21
-1.8426927625632306
31
0
0
LINE
5
350
100
AcDbEntity
8
0
100
AcDbLine
10
4.1247947588145921
20
-1.3582125104383189
30
0
11
4.1248314479495027
21
-1.2665456466693807
31
0
0
LINE
5
351
100
AcDbEntity
8
0
100
AcDbLine
10
3.9752606268318984
20
-1.1914857758013031
30
0
11
3.9753578234469278
21
-0.94864252287875339
31
0
0
LINE
5
352
100
AcDbEntity
8
0
100
AcDbLine
10
4.1247947588145921
20
-1.3582125104383189
30
0
11
4.1247280513635216
21
-1.5248793681997441
31
0
0
LINE
5
353
100
AcDbEntity
8
0
100
AcDbLine
10
2.9999999849815064
20
-2.0818897562702805
30
0
11
4.6181099849815066
21
-2.0818897562702805
31
0
0
LINE
5
354
100
AcDbEntity
8
0
100
AcDbLine
10
4.0498614722729913
20
-1.1915156343605506
30
0
11
3.9752606268318984
21
-1.1914857758013031
31
0
0
LINE
5
355
100
AcDbEntity
8
0
100
AcDbLine
10
3.9750299912854126
20
-1.7677227808793894
30
0
11
3.9751272119297578
21
-1.5248194913245217
31
0
0
LINE
5
356
100
AcDbEntity
8
0
100
AcDbLine
10
4.1247947588145921
20
-1.3582125104383189
30
0
11
4.1247580696796806
21
-1.4498793742072573
31
0
0
LINE
5
357
100
AcDbEntity
8
0
100
AcDbLine
10
2.9999999849815064
20
-0.87361250456259443
30
0
11
3.9003578294542569
21
-0.87361250456259443
31
0
0
LINE
5
358
100
AcDbEntity
8
0
100
AcDbLine
10
2.9999999849815064
20
-0.87361250456259443
30
0
11
2.099999984981507
21
-0.87361250456259443
31
0
0
ARC
5
359
100
AcDbEntity
8
0
100
AcDbCircle
10
3.9003578294542569
20
-0.94861250456259416
30
0
40
0.074999999999999956
100
AcDbArc
50
-0.022932304935898314
51
90
0
LINE
5
360
100
AcDbEntity
8
0
100
AcDbLine
10
4.0497280573708512
20
-1.5248493498837692
30
0
11
3.9751272119297578
21
-1.5248194913245217
31
0
0
ARC
5
361
100
AcDbEntity
8
0
100
AcDbCircle
10
4.0498314539568323
20
-1.2665156283532213
30
0
40
0.074999999999999956
100
AcDbArc
50
-0.022932304935898314
51
89.977067695067703
0
LINE
5
362
100
AcDbEntity
8
0
100
AcDbLine
10
2.9999999849815064
20
-1.8426927625632306
30
0
11
3.9000299972927408
21
-1.8426927625632306
31
0
0
ARC
5
363
100
AcDbEntity
8
0
100
AcDbCircle
10
3.9000299972927412
20
-1.7676927625632308
30
0
40
0.074999999999999692
100
AcDbArc
50
269.9999999999996
51
359.97706769508
0
ARC
5
364
100
AcDbEntity
8
0
100
AcDbCircle
10
4.0497580756870111
20
-1.4498493558910996
30
0
40
0.074999999999998568
100
AcDbArc
50
269.97706769506703
51
359.97706769506414
0
ENDSEC
0
SECTION
2
OBJECTS
0
DICTIONARY
5
C
100
AcDbDictionary
3
ACAD_GROUP
350
D
3
ACAD_MLINESTYLE
350
17
0
DICTIONARY
5
D
100
AcDbDictionary
0
DICTIONARY
5
1A
330
C
100
AcDbDictionary
0
DICTIONARY
5
17
100
AcDbDictionary
0
ENDSEC
0
EOF
