  0
SECTION
  2
HEADER
  9
$ACADVER
  1
AC1009
  9
$DWGCODEPAGE
  3
ansi_1252
  9
$INSBASE
 10
0.0
 20
0.0
 30
0.0
  9
$EXTMIN
 10
-172.0701234274401
 20
336.292427921631
 30
92.46670024625985
  9
$EXTMAX
 10
-113.0700430237034
 20
380.5058935291068
 30
98.06754742055853
  9
$LIMMIN
 10
0.0
 20
0.0
  9
$LIMMAX
 10
12.0
 20
9.0
  9
$ORTHOMODE
 70
     0
  9
$REGENMODE
 70
     1
  9
$FILLMODE
 70
     1
  9
$QTEXTMODE
 70
     0
  9
$MIRRTEXT
 70
     1
  9
$DRAGMODE
 70
     2
  9
$LTSCALE
 40
1.0
  9
$OSMODE
 70
    37
  9
$ATTMODE
 70
     1
  9
$TEXTSIZE
 40
0.2
  9
$TRACEWID
 40
0.05
  9
$TEXTSTYLE
  7
STANDARD
  9
$CLAYER
  8
DEFAULT
  9
$CELTYPE
  6
BYLAYER
  9
$CECOLOR
 62
   256
  9
$DIMSCALE
 40
1.0
  9
$DIMASZ
 40
0.18
  9
$DIMEXO
 40
0.0625
  9
$DIMDLI
 40
0.38
  9
$DIMRND
 40
0.0
  9
$DIMDLE
 40
0.0
  9
$DIMEXE
 40
0.18
  9
$DIMTP
 40
0.0
  9
$DIMTM
 40
0.0
  9
$DIMTXT
 40
0.18
  9
$DIMCEN
 40
0.09
  9
$DIMTSZ
 40
0.0
  9
$DIMTOL
 70
     0
  9
$DIMLIM
 70
     0
  9
$DIMTIH
 70
     1
  9
$DIMTOH
 70
     1
  9
$DIMSE1
 70
     0
  9
$DIMSE2
 70
     0
  9
$DIMTAD
 70
     0
  9
$DIMZIN
 70
     0
  9
$DIMBLK
  1

  9
$DIMASO
 70
     1
  9
$DIMSHO
 70
     1
  9
$DIMPOST
  1

  9
$DIMAPOST
  1

  9
$DIMALT
 70
     0
  9
$DIMALTD
 70
     2
  9
$DIMALTF
 40
25.4
  9
$DIMLFAC
 40
1.0
  9
$DIMTOFL
 70
     0
  9
$DIMTVP
 40
0.0
  9
$DIMTIX
 70
     0
  9
$DIMSOXD
 70
     0
  9
$DIMSAH
 70
     0
  9
$DIMBLK1
  1

  9
$DIMBLK2
  1

  9
$DIMSTYLE
  2
STANDARD
  9
$DIMCLRD
 70
     0
  9
$DIMCLRE
 70
     0
  9
$DIMCLRT
 70
     0
  9
$DIMTFAC
 40
1.0
  9
$DIMGAP
 40
0.09
  9
$LUNITS
 70
     2
  9
$LUPREC
 70
     2
  9
$SKETCHINC
 40
0.1
  9
$FILLETRAD
 40
0.5
  9
$AUNITS
 70
     0
  9
$AUPREC
 70
     0
  9
$MENU
  1
.
  9
$ELEVATION
 40
0.0
  9
$PELEVATION
 40
0.0
  9
$THICKNESS
 40
0.0
  9
$LIMCHECK
 70
     0
  9
$CHAMFERA
 40
0.5
  9
$CHAMFERB
 40
0.5
  9
$SKPOLY
 70
     0
  9
$TDCREATE
 40
2456067.801364109
  9
$TDUPDATE
 40
2456067.801364121
  9
$TDINDWG
 40
0.0000000116
  9
$TDUSRTIMER
 40
0.0000000116
  9
$USRTIMER
 70
     1
  9
$ANGBASE
 50
0.0
  9
$ANGDIR
 70
     0
  9
$PDMODE
 70
     0
  9
$PDSIZE
 40
0.0
  9
$PLINEWID
 40
0.0
  9
$COORDS
 70
     1
  9
$SPLFRAME
 70
     0
  9
$SPLINETYPE
 70
     6
  9
$SPLINESEGS
 70
     8
  9
$ATTDIA
 70
     0
  9
$ATTREQ
 70
     1
  9
$HANDLING
 70
     1
  9
$HANDSEED
  5
409
  9
$SURFTAB1
 70
     6
  9
$SURFTAB2
 70
     6
  9
$SURFTYPE
 70
     6
  9
$SURFU
 70
     6
  9
$SURFV
 70
     6
  9
$UCSNAME
  2

  9
$UCSORG
 10
0.0
 20
0.0
 30
0.0
  9
$UCSXDIR
 10
1.0
 20
0.0
 30
0.0
  9
$UCSYDIR
 10
0.0
 20
1.0
 30
0.0
  9
$PUCSNAME
  2

  9
$PUCSORG
 10
0.0
 20
0.0
 30
0.0
  9
$PUCSXDIR
 10
1.0
 20
0.0
 30
0.0
  9
$PUCSYDIR
 10
0.0
 20
1.0
 30
0.0
  9
$USERI1
 70
     0
  9
$USERI2
 70
     0
  9
$USERI3
 70
     0
  9
$USERI4
 70
     0
  9
$USERI5
 70
     0
  9
$USERR1
 40
0.0
  9
$USERR2
 40
0.0
  9
$USERR3
 40
0.0
  9
$USERR4
 40
0.0
  9
$USERR5
 40
0.0
  9
$WORLDVIEW
 70
     1
  9
$SHADEDGE
 70
     3
  9
$SHADEDIF
 70
    70
  9
$TILEMODE
 70
     1
  9
$MAXACTVP
 70
    64
  9
$PLIMCHECK
 70
     0
  9
$PEXTMIN
 10
1.000000000000000E+20
 20
1.000000000000000E+20
 30
1.000000000000000E+20
  9
$PEXTMAX
 10
-1.000000000000000E+20
 20
-1.000000000000000E+20
 30
-1.000000000000000E+20
  9
$PLIMMIN
 10
0.0
 20
0.0
  9
$PLIMMAX
 10
12.0
 20
9.0
  9
$UNITMODE
 70
     0
  9
$VISRETAIN
 70
     1
  9
$PLINEGEN
 70
     0
  9
$PSLTSCALE
 70
     1
  0
ENDSEC
  0
SECTION
  2
TABLES
  0
TABLE
  2
VPORT
 70
     1
  0
VPORT
  2
*ACTIVE
 70
     0
 10
0.0
 20
0.0
 11
1.0
 21
1.0
 12
0.0
 22
0.0
 13
0.0
 23
0.0
 14
0.5
 24
0.5
 15
0.5
 25
0.5
 16
0.0
 26
0.0
 36
1.0
 17
-142.5700832255718
 27
358.3991607253689
 37
0.0
 40
45.0977349196254
 41
1.334436909504798
 42
50.0
 43
0.0
 44
0.0
 50
0.0
 51
0.0
 71
     0
 72
   100
 73
     1
 74
     3
 75
     0
 76
     0
 77
     0
 78
     0
  0
ENDTAB
  0
TABLE
  2
LTYPE
 70
     1
  0
LTYPE
  2
CONTINUOUS
 70
     0
  3
Solid line
 72
    65
 73
     0
 40
0.0
  0
ENDTAB
  0
TABLE
  2
LAYER
 70
     2
  0
LAYER
  2
0
 70
     0
 62
     7
  6
CONTINUOUS
  0
LAYER
  2
DEFAULT
 70
     0
 62
     7
  6
CONTINUOUS
  0
ENDTAB
  0
TABLE
  2
STYLE
 70
     1
  0
STYLE
  2
STANDARD
 70
     0
 40
0.0
 41
1.0
 50
0.0
 71
     0
 42
0.2
  3
txt
  4

  0
ENDTAB
  0
TABLE
  2
VIEW
 70
     0
  0
ENDTAB
  0
TABLE
  2
UCS
 70
     0
  0
ENDTAB
  0
TABLE
  2
APPID
 70
     1
  0
APPID
  2
ACAD
 70
     0
  0
ENDTAB
  0
TABLE
  2
DIMSTYLE
 70
     1
  0
DIMSTYLE
  2
STANDARD
 70
     0
  3

  4

  5

  6

  7

 40
1.0
 41
0.18
 42
0.0625
 43
0.38
 44
0.18
 45
0.0
 46
0.0
 47
0.0
 48
0.0
140
0.18
141
0.09
142
0.0
143
25.4
144
1.0
145
0.0
146
1.0
147
0.09
 71
     0
 72
     0
 73
     1
 74
     1
 75
     0
 76
     0
 77
     0
 78
     0
170
     0
171
     2
172
     0
173
     0
174
     0
175
     0
176
     0
177
     0
178
     0
  0
ENDTAB
  0
ENDSEC
  0
SECTION
  2
BLOCKS
  0
BLOCK
  8
0
  2
$MODEL_SPACE
 70
     0
 10
0.0
 20
0.0
 30
0.0
  3
$MODEL_SPACE
  1

  0
ENDBLK
  5
21
  8
0
  0
BLOCK
 67
     1
  8
0
  2
$PAPER_SPACE
 70
     0
 10
0.0
 20
0.0
 30
0.0
  3
$PAPER_SPACE
  1

  0
ENDBLK
  5
1D
 67
     1
  8
0
  0
ENDSEC
  0
SECTION
  2
ENTITIES
  0
POLYLINE
  5
2B
  8
DEFAULT
 66
     1
 10
0.0
 20
0.0
 30
-92.46507667454942
210
-1.435889622068926E-5
220
2.785340105722246E-14
230
-0.9999999998969111
  0
VERTEX
  5
2D
  8
DEFAULT
 10
136.0157378620858
 20
375.9058935291092
 30
-92.46507667454942
  0
VERTEX
  5
2E
  8
DEFAULT
 10
136.0152451414732
 20
378.5502854166321
 30
-92.46507667454934
  0
VERTEX
  5
2F
  8
DEFAULT
 10
136.0137494754974
 20
378.5950540174063
 30
-92.46507667454937
  0
VERTEX
  5
30
  8
DEFAULT
 10
136.011225227931
 20
378.6401700078878
 30
-92.46507667454937
  0
VERTEX
  5
31
  8
DEFAULT
 10
136.0076476793118
 20
378.6856024049044
 30
-92.46507667454937
  0
VERTEX
  5
32
  8
DEFAULT
 10
136.0029931411436
 20
378.7313185850768
 30
-92.4650766745494
  0
VERTEX
  5
33
  8
DEFAULT
 10
135.9972390714226
 20
378.777284312663
 30
-92.46507667454938
  0
VERTEX
  5
34
  8
DEFAULT
 10
135.9903641908351
 20
378.8234637761589
 30
-92.4650766745494
  0
VERTEX
  5
35
  8
DEFAULT
 10
135.9823485989193
 20
378.8698196339333
 30
-92.46507667454937
  0
VERTEX
  5
36
  8
DEFAULT
 10
135.9731738894385
 20
378.9163130691202
 30
-92.46507667454935
  0
VERTEX
  5
37
  8
DEFAULT
 10
135.9628232641716
 20
378.9629038539219
 30
-92.4650766745494
  0
VERTEX
  5
38
  8
DEFAULT
 10
135.9512816442898
 20
379.0095504234059
 30
-92.46507667454937
  0
VERTEX
  5
39
  8
DEFAULT
 10
135.9385357784602
 20
379.0562099587997
 30
-92.4650766745494
  0
VERTEX
  5
3A
  8
DEFAULT
 10
135.9245743467976
 20
379.1028384802011
 30
-92.46507667454941
  0
VERTEX
  5
3B
  8
DEFAULT
 10
135.9093880597696
 20
379.1493909485395
 30
-92.4650766745494
  0
VERTEX
  5
3C
  8
DEFAULT
 10
135.892969751161
 20
379.1958213765253
 30
-92.4650766745494
  0
VERTEX
  5
3D
  8
DEFAULT
 10
135.875314464211
 20
379.2420829482327
 30
-92.46507667454938
  0
VERTEX
  5
3E
  8
DEFAULT
 10
135.8564195300502
 20
379.2881281468685
 30
-92.46507667454941
  0
VERTEX
  5
3F
  8
DEFAULT
 10
135.8362846375997
 20
379.3339088901787
 30
-92.46507667454941
  0
VERTEX
  5
40
  8
DEFAULT
 10
135.8149118941321
 20
379.3793766728568
 30
-92.4650766745494
  0
VERTEX
  5
41
  8
DEFAULT
 10
135.7923058757457
 20
379.424482715221
 30
-92.4650766745494
  0
VERTEX
  5
42
  8
DEFAULT
 10
135.7684736670685
 20
379.4691781173451
 30
-92.46507667454941
  0
VERTEX
  5
43
  8
DEFAULT
 10
135.7434248895811
 20
379.5134140177473
 30
-92.4650766745494
  0
VERTEX
  5
44
  8
DEFAULT
 10
135.7171717180337
 20
379.5571417556643
 30
-92.46507667454942
  0
VERTEX
  5
45
  8
DEFAULT
 10
135.6897288845235
 20
379.6003130358793
 30
-92.46507667454942
  0
VERTEX
  5
46
  8
DEFAULT
 10
135.6611136699039
 20
379.6428800950139
 30
-92.46507667454942
  0
VERTEX
  5
47
  8
DEFAULT
 10
135.6313458823043
 20
379.6847958681547
 30
-92.46507667454942
  0
VERTEX
  5
48
  8
DEFAULT
 10
135.6004478226558
 20
379.7260141546505
 30
-92.46507667454941
  0
VERTEX
  5
49
  8
DEFAULT
 10
135.5684442372359
 20
379.7664897819075
 30
-92.46507667454944
  0
VERTEX
  5
4A
  8
DEFAULT
 10
135.5353622573685
 20
379.8061787659947
 30
-92.46507667454945
  0
VERTEX
  5
4B
  8
DEFAULT
 10
135.5012313265377
 20
379.8450384678934
 30
-92.46507667454944
  0
VERTEX
  5
4C
  8
DEFAULT
 10
135.466083115295
 20
379.8830277442437
 30
-92.46507667454944
  0
VERTEX
  5
4D
  8
DEFAULT
 10
135.4299514244593
 20
379.9201070914822
 30
-92.46507667454944
  0
VERTEX
  5
4E
  8
DEFAULT
 10
135.3928720772209
 20
379.956238782318
 30
-92.46507667454945
  0
VERTEX
  5
4F
  8
DEFAULT
 10
135.3548828008706
 20
379.9913869935607
 30
-92.46507667454945
  0
VERTEX
  5
50
  8
DEFAULT
 10
135.3160230989719
 20
380.0255179243915
 30
-92.46507667454944
  0
VERTEX
  5
51
  8
DEFAULT
 10
135.2763341148847
 20
380.0585999042589
 30
-92.46507667454945
  0
VERTEX
  5
52
  8
DEFAULT
 10
135.2358584876276
 20
380.0906034896788
 30
-92.46507667454945
  0
VERTEX
  5
53
  8
DEFAULT
 10
135.1946402011318
 20
380.1215015493273
 30
-92.46507667454945
  0
VERTEX
  5
54
  8
DEFAULT
 10
135.1527244279912
 20
380.1512693369269
 30
-92.46507667454944
  0
VERTEX
  5
55
  8
DEFAULT
 10
135.1101573688564
 20
380.1798845515465
 30
-92.46507667454945
  0
VERTEX
  5
56
  8
DEFAULT
 10
135.0669860886414
 20
380.2073273850567
 30
-92.46507667454946
  0
VERTEX
  5
57
  8
DEFAULT
 10
135.0232583507245
 20
380.2335805566041
 30
-92.46507667454945
  0
VERTEX
  5
58
  8
DEFAULT
 10
134.9790224503223
 20
380.2586293340914
 30
-92.46507667454948
  0
VERTEX
  5
59
  8
DEFAULT
 10
134.9343270481981
 20
380.2824615427687
 30
-92.46507667454946
  0
VERTEX
  5
5A
  8
DEFAULT
 10
134.8892210058339
 20
380.3050675611551
 30
-92.46507667454944
  0
VERTEX
  5
5B
  8
DEFAULT
 10
134.8437532231558
 20
380.3264403046227
 30
-92.46507667454945
  0
VERTEX
  5
5C
  8
DEFAULT
 10
134.7979724798455
 20
380.3465751970732
 30
-92.46507667454946
  0
VERTEX
  5
5D
  8
DEFAULT
 10
134.7519272812098
 20
380.365470131234
 30
-92.46507667454946
  0
VERTEX
  5
5E
  8
DEFAULT
 10
134.7056657095024
 20
380.383125418184
 30
-92.46507667454946
  0
VERTEX
  5
5F
  8
DEFAULT
 10
134.6592352815166
 20
380.3995437267926
 30
-92.46507667454948
  0
VERTEX
  5
60
  8
DEFAULT
 10
134.6126828131781
 20
380.4147300138208
 30
-92.4650766745495
  0
VERTEX
  5
61
  8
DEFAULT
 10
134.5660542917768
 20
380.4286914454833
 30
-92.4650766745495
  0
VERTEX
  5
62
  8
DEFAULT
 10
134.519394756383
 20
380.4414373113128
 30
-92.4650766745495
  0
VERTEX
  5
63
  8
DEFAULT
 10
134.4727481868989
 20
380.4529789311947
 30
-92.46507667454948
  0
VERTEX
  5
64
  8
DEFAULT
 10
134.4261574020971
 20
380.4633295564615
 30
-92.4650766745495
  0
VERTEX
  5
65
  8
DEFAULT
 10
134.3796639669102
 20
380.4725042659423
 30
-92.4650766745495
  0
VERTEX
  5
66
  8
DEFAULT
 10
134.3333081091358
 20
380.4805198578582
 30
-92.46507667454951
  0
VERTEX
  5
67
  8
DEFAULT
 10
134.2871286456399
 20
380.4873947384457
 30
-92.46507667454951
  0
VERTEX
  5
68
  8
DEFAULT
 10
134.2411629180537
 20
380.4931488081667
 30
-92.46507667454952
  0
VERTEX
  5
69
  8
DEFAULT
 10
134.1954467378813
 20
380.4978033463349
 30
-92.46507667454951
  0
VERTEX
  5
6A
  8
DEFAULT
 10
134.1500143408647
 20
380.5013808949541
 30
-92.46507667454952
  0
VERTEX
  5
6B
  8
DEFAULT
 10
134.1048983503832
 20
380.5039051425205
 30
-92.46507667454952
  0
VERTEX
  5
6C
  8
DEFAULT
 10
134.0601297496091
 20
380.5054008084962
 30
-92.4650766745495
  0
VERTEX
  5
6D
  8
DEFAULT
 10
131.7657378620858
 20
380.5058935291092
 30
-92.46507667454944
  0
SEQEND
  5
2C
  8
DEFAULT
  0
LINE
  5
6E
  8
DEFAULT
 10
-149.4802352978258
 20
375.9058935291066
 30
92.46722305527737
 11
-136.0144101516241
 21
375.9058935291066
 31
92.46702970089211
  0
POLYLINE
  5
6F
  8
DEFAULT
 66
     1
 10
0.0
 20
0.0
 30
-92.46507667455812
210
-1.435889616157141E-5
220
2.676564178574225E-14
230
-0.9999999998969111
  0
VERTEX
  5
71
  8
DEFAULT
 10
153.7315630096705
 20
380.5058935291091
 30
-92.46507667455812
  0
VERTEX
  5
72
  8
DEFAULT
 10
151.437171122147
 20
380.5054008084962
 30
-92.46507667455815
  0
VERTEX
  5
73
  8
DEFAULT
 10
151.3924025213729
 20
380.5039051425205
 30
-92.46507667455816
  0
VERTEX
  5
74
  8
DEFAULT
 10
151.3472865308914
 20
380.5013808949541
 30
-92.46507667455816
  0
VERTEX
  5
75
  8
DEFAULT
 10
151.3018541338748
 20
380.4978033463349
 30
-92.46507667455816
  0
VERTEX
  5
76
  8
DEFAULT
 10
151.2561379537025
 20
380.4931488081667
 30
-92.46507667455816
  0
VERTEX
  5
77
  8
DEFAULT
 10
151.2101722261162
 20
380.4873947384456
 30
-92.46507667455816
  0
VERTEX
  5
78
  8
DEFAULT
 10
151.1639927626203
 20
380.4805198578581
 30
-92.46507667455815
  0
VERTEX
  5
79
  8
DEFAULT
 10
151.1176369048459
 20
380.4725042659422
 30
-92.46507667455815
  0
VERTEX
  5
7A
  8
DEFAULT
 10
151.071143469659
 20
380.4633295564614
 30
-92.46507667455813
  0
VERTEX
  5
7B
  8
DEFAULT
 10
151.0245526848573
 20
380.4529789311946
 30
-92.46507667455815
  0
VERTEX
  5
7C
  8
DEFAULT
 10
150.9779061153731
 20
380.4414373113127
 30
-92.46507667455813
  0
VERTEX
  5
7D
  8
DEFAULT
 10
150.9312465799795
 20
380.4286914454832
 30
-92.46507667455813
  0
VERTEX
  5
7E
  8
DEFAULT
 10
150.8846180585782
 20
380.4147300138207
 30
-92.46507667455815
  0
VERTEX
  5
7F
  8
DEFAULT
 10
150.8380655902396
 20
380.3995437267925
 30
-92.46507667455815
  0
VERTEX
  5
80
  8
DEFAULT
 10
150.7916351622538
 20
380.383125418184
 30
-92.46507667455815
  0
VERTEX
  5
81
  8
DEFAULT
 10
150.7453735905464
 20
380.365470131234
 30
-92.46507667455813
  0
VERTEX
  5
82
  8
DEFAULT
 10
150.6993283919108
 20
380.3465751970732
 30
-92.46507667455816
  0
VERTEX
  5
83
  8
DEFAULT
 10
150.6535476486005
 20
380.3264403046227
 30
-92.46507667455815
  0
VERTEX
  5
84
  8
DEFAULT
 10
150.6080798659223
 20
380.3050675611551
 30
-92.46507667455815
  0
VERTEX
  5
85
  8
DEFAULT
 10
150.5629738235582
 20
380.2824615427687
 30
-92.46507667455815
  0
VERTEX
  5
86
  8
DEFAULT
 10
150.518278421434
 20
380.2586293340914
 30
-92.46507667455813
  0
VERTEX
  5
87
  8
DEFAULT
 10
150.4740425210319
 20
380.233580556604
 30
-92.46507667455813
  0
VERTEX
  5
88
  8
DEFAULT
 10
150.4303147831149
 20
380.2073273850567
 30
-92.46507667455813
  0
VERTEX
  5
89
  8
DEFAULT
 10
150.3871435028999
 20
380.1798845515465
 30
-92.46507667455813
  0
VERTEX
  5
8A
  8
DEFAULT
 10
150.3445764437652
 20
380.1512693369268
 30
-92.46507667455813
  0
VERTEX
  5
8B
  8
DEFAULT
 10
150.3026606706246
 20
380.1215015493272
 30
-92.46507667455813
  0
VERTEX
  5
8C
  8
DEFAULT
 10
150.2614423841287
 20
380.0906034896787
 30
-92.46507667455812
  0
VERTEX
  5
8D
  8
DEFAULT
 10
150.2209667568718
 20
380.0585999042589
 30
-92.46507667455815
  0
VERTEX
  5
8E
  8
DEFAULT
 10
150.1812777727845
 20
380.0255179243915
 30
-92.46507667455813
  0
VERTEX
  5
8F
  8
DEFAULT
 10
150.1424180708858
 20
379.9913869935606
 30
-92.46507667455813
  0
VERTEX
  5
90
  8
DEFAULT
 10
150.1044287945355
 20
379.9562387823179
 30
-92.46507667455812
  0
VERTEX
  5
91
  8
DEFAULT
 10
150.0673494472971
 20
379.9201070914821
 30
-92.4650766745581
  0
VERTEX
  5
92
  8
DEFAULT
 10
150.0312177564614
 20
379.8830277442436
 30
-92.46507667455812
  0
VERTEX
  5
93
  8
DEFAULT
 10
149.9960695452187
 20
379.8450384678933
 30
-92.46507667455812
  0
VERTEX
  5
94
  8
DEFAULT
 10
149.9619386143878
 20
379.8061787659947
 30
-92.46507667455812
  0
VERTEX
  5
95
  8
DEFAULT
 10
149.9288566345205
 20
379.7664897819075
 30
-92.46507667455812
  0
VERTEX
  5
96
  8
DEFAULT
 10
149.8968530491007
 20
379.7260141546504
 30
-92.46507667455809
  0
VERTEX
  5
97
  8
DEFAULT
 10
149.8659549894522
 20
379.6847958681546
 30
-92.4650766745581
  0
VERTEX
  5
98
  8
DEFAULT
 10
149.8361872018525
 20
379.6428800950139
 30
-92.4650766745581
  0
VERTEX
  5
99
  8
DEFAULT
 10
149.8075719872329
 20
379.6003130358793
 30
-92.4650766745581
  0
VERTEX
  5
9A
  8
DEFAULT
 10
149.7801291537227
 20
379.5571417556642
 30
-92.4650766745581
  0
VERTEX
  5
9B
  8
DEFAULT
 10
149.7538759821753
 20
379.5134140177472
 30
-92.46507667455809
  0
VERTEX
  5
9C
  8
DEFAULT
 10
149.728827204688
 20
379.4691781173451
 30
-92.4650766745581
  0
VERTEX
  5
9D
  8
DEFAULT
 10
149.7049949960107
 20
379.424482715221
 30
-92.46507667455809
  0
VERTEX
  5
9E
  8
DEFAULT
 10
149.6823889776242
 20
379.3793766728567
 30
-92.46507667455808
  0
VERTEX
  5
9F
  8
DEFAULT
 10
149.6610162341567
 20
379.3339088901786
 30
-92.46507667455809
  0
VERTEX
  5
A0
  8
DEFAULT
 10
149.6408813417062
 20
379.2881281468684
 30
-92.46507667455808
  0
VERTEX
  5
A1
  8
DEFAULT
 10
149.6219864075453
 20
379.2420829482326
 30
-92.46507667455808
  0
VERTEX
  5
A2
  8
DEFAULT
 10
149.6043311205953
 20
379.1958213765253
 30
-92.46507667455808
  0
VERTEX
  5
A3
  8
DEFAULT
 10
149.5879128119869
 20
379.1493909485395
 30
-92.46507667455809
  0
VERTEX
  5
A4
  8
DEFAULT
 10
149.5727265249588
 20
379.102838480201
 30
-92.46507667455808
  0
VERTEX
  5
A5
  8
DEFAULT
 10
149.5587650932962
 20
379.0562099587996
 30
-92.46507667455806
  0
VERTEX
  5
A6
  8
DEFAULT
 10
149.5460192274666
 20
379.0095504234059
 30
-92.46507667455806
  0
VERTEX
  5
A7
  8
DEFAULT
 10
149.5344776075847
 20
378.9629038539218
 30
-92.46507667455806
  0
VERTEX
  5
A8
  8
DEFAULT
 10
149.5241269823178
 20
378.9163130691201
 30
-92.46507667455805
  0
VERTEX
  5
A9
  8
DEFAULT
 10
149.5149522728371
 20
378.8698196339332
 30
-92.46507667455806
  0
VERTEX
  5
AA
  8
DEFAULT
 10
149.5069366809213
 20
378.8234637761588
 30
-92.46507667455806
  0
VERTEX
  5
AB
  8
DEFAULT
 10
149.5000618003338
 20
378.777284312663
 30
-92.46507667455808
  0
VERTEX
  5
AC
  8
DEFAULT
 10
149.4943077306127
 20
378.7313185850767
 30
-92.46507667455809
  0
VERTEX
  5
AD
  8
DEFAULT
 10
149.4896531924445
 20
378.6856024049043
 30
-92.46507667455808
  0
VERTEX
  5
AE
  8
DEFAULT
 10
149.4860756438253
 20
378.6401700078877
 30
-92.46507667455806
  0
VERTEX
  5
AF
  8
DEFAULT
 10
149.4835513962589
 20
378.5950540174063
 30
-92.46507667455806
  0
VERTEX
  5
B0
  8
DEFAULT
 10
149.4820557302831
 20
378.5502854166321
 30
-92.46507667455805
  0
VERTEX
  5
B1
  8
DEFAULT
 10
149.4815630096703
 20
375.9058935291091
 30
-92.46507667455812
  0
SEQEND
  5
70
  8
DEFAULT
  0
LINE
  5
B2
  8
DEFAULT
 10
-153.7302352973879
 20
366.3058935291066
 30
92.46728408058618
 11
-153.7302352973879
 21
380.5058935291066
 31
92.46728408058618
  0
LINE
  5
B3
  8
DEFAULT
 10
-151.2802352976402
 20
366.3058935291066
 30
92.46724890129042
 11
-153.7302352973879
 21
366.3058935291066
 31
92.46728408058618
  0
LINE
  5
B4
  8
DEFAULT
 10
-151.2802352976402
 20
357.5058935291066
 30
92.46724890129042
 11
-151.2802352976402
 21
366.3058935291066
 31
92.46724890129042
  0
LINE
  5
B5
  8
DEFAULT
 10
-153.7302352973879
 20
357.5058935291066
 30
92.46728408058618
 11
-151.2802352976402
 21
357.5058935291066
 31
92.46724890129042
  0
LINE
  5
B6
  8
DEFAULT
 10
-153.7302352973879
 20
348.5058935291066
 30
92.46728408058618
 11
-153.7302352973879
 21
357.5058935291066
 31
92.46728408058618
  0
LINE
  5
B7
  8
DEFAULT
 10
-160.7302352966662
 20
348.5058935291066
 30
92.4673845928595
 11
-153.7302352973879
 21
348.5058935291066
 31
92.46728408058618
  0
LINE
  5
B8
  8
DEFAULT
 10
-160.7302352966662
 20
357.5058935291066
 30
92.4673845928595
 11
-160.7302352966662
 21
348.5058935291066
 31
92.4673845928595
  0
LINE
  5
B9
  8
DEFAULT
 10
-163.1802352964136
 20
357.5058935291066
 30
92.46741977215515
 11
-160.7302352966662
 21
357.5058935291066
 31
92.4673845928595
  0
LINE
  5
BA
  8
DEFAULT
 10
-163.1802352964136
 20
366.3058935291066
 30
92.46741977215515
 11
-163.1802352964136
 21
357.5058935291066
 31
92.46741977215515
  0
LINE
  5
BB
  8
DEFAULT
 10
-160.7302352966662
 20
366.3058935291066
 30
92.4673845928595
 11
-163.1802352964136
 21
366.3058935291066
 31
92.46741977215515
  0
LINE
  5
BC
  8
DEFAULT
 10
-160.7302352966662
 20
380.5058935291066
 30
92.4673845928595
 11
-160.7302352966662
 21
366.3058935291066
 31
92.4673845928595
  0
POLYLINE
  5
BD
  8
DEFAULT
 66
     1
 10
0.0
 20
0.0
 30
-92.4650766745596
210
-1.435889618044232E-5
220
1.538326498797051E-14
230
-0.9999999998969111
  0
VERTEX
  5
BF
  8
DEFAULT
 10
164.9815630096721
 20
375.905893529108
 30
-92.4650766745596
  0
VERTEX
  5
C0
  8
DEFAULT
 10
164.9810702890593
 20
378.5502854166314
 30
-92.46507667455957
  0
VERTEX
  5
C1
  8
DEFAULT
 10
164.9795746230835
 20
378.5950540174055
 30
-92.46507667455955
  0
VERTEX
  5
C2
  8
DEFAULT
 10
164.9770503755171
 20
378.6401700078869
 30
-92.46507667455955
  0
VERTEX
  5
C3
  8
DEFAULT
 10
164.9734728268979
 20
378.6856024049036
 30
-92.46507667455957
  0
VERTEX
  5
C4
  8
DEFAULT
 10
164.9688182887297
 20
378.7313185850759
 30
-92.46507667455958
  0
VERTEX
  5
C5
  8
DEFAULT
 10
164.9630642190086
 20
378.7772843126622
 30
-92.46507667455957
  0
VERTEX
  5
C6
  8
DEFAULT
 10
164.9561893384211
 20
378.8234637761581
 30
-92.46507667455957
  0
VERTEX
  5
C7
  8
DEFAULT
 10
164.9481737465052
 20
378.8698196339325
 30
-92.46507667455958
  0
VERTEX
  5
C8
  8
DEFAULT
 10
164.9389990370245
 20
378.9163130691193
 30
-92.46507667455958
  0
VERTEX
  5
C9
  8
DEFAULT
 10
164.9286484117576
 20
378.9629038539211
 30
-92.46507667455958
  0
VERTEX
  5
CA
  8
DEFAULT
 10
164.9171067918757
 20
379.0095504234053
 30
-92.4650766745596
  0
VERTEX
  5
CB
  8
DEFAULT
 10
164.9043609260461
 20
379.056209958799
 30
-92.4650766745596
  0
VERTEX
  5
CC
  8
DEFAULT
 10
164.8903994943836
 20
379.1028384802003
 30
-92.4650766745596
  0
VERTEX
  5
CD
  8
DEFAULT
 10
164.8752132073554
 20
379.1493909485387
 30
-92.46507667455958
  0
VERTEX
  5
CE
  8
DEFAULT
 10
164.8587948987469
 20
379.1958213765245
 30
-92.46507667455958
  0
VERTEX
  5
CF
  8
DEFAULT
 10
164.8411396117969
 20
379.2420829482319
 30
-92.46507667455958
  0
VERTEX
  5
D0
  8
DEFAULT
 10
164.8222446776361
 20
379.2881281468677
 30
-92.46507667455957
  0
VERTEX
  5
D1
  8
DEFAULT
 10
164.8021097851856
 20
379.333908890178
 30
-92.4650766745596
  0
VERTEX
  5
D2
  8
DEFAULT
 10
164.7807370417181
 20
379.3793766728561
 30
-92.46507667455958
  0
VERTEX
  5
D3
  8
DEFAULT
 10
164.7581310233316
 20
379.4244827152202
 30
-92.4650766745596
  0
VERTEX
  5
D4
  8
DEFAULT
 10
164.7342988146543
 20
379.4691781173444
 30
-92.46507667455961
  0
VERTEX
  5
D5
  8
DEFAULT
 10
164.7092500371669
 20
379.5134140177465
 30
-92.46507667455963
  0
VERTEX
  5
D6
  8
DEFAULT
 10
164.6829968656195
 20
379.5571417556635
 30
-92.46507667455961
  0
VERTEX
  5
D7
  8
DEFAULT
 10
164.6555540321093
 20
379.6003130358785
 30
-92.46507667455961
  0
VERTEX
  5
D8
  8
DEFAULT
 10
164.6269388174897
 20
379.6428800950133
 30
-92.4650766745596
  0
VERTEX
  5
D9
  8
DEFAULT
 10
164.5971710298901
 20
379.6847958681539
 30
-92.46507667455961
  0
VERTEX
  5
DA
  8
DEFAULT
 10
164.5662729702416
 20
379.7260141546497
 30
-92.46507667455961
  0
VERTEX
  5
DB
  8
DEFAULT
 10
164.5342693848217
 20
379.7664897819067
 30
-92.46507667455961
  0
VERTEX
  5
DC
  8
DEFAULT
 10
164.5011874049544
 20
379.806178765994
 30
-92.46507667455964
  0
VERTEX
  5
DD
  8
DEFAULT
 10
164.4670564741236
 20
379.8450384678926
 30
-92.46507667455961
  0
VERTEX
  5
DE
  8
DEFAULT
 10
164.4319082628809
 20
379.8830277442429
 30
-92.46507667455961
  0
VERTEX
  5
DF
  8
DEFAULT
 10
164.3957765720451
 20
379.9201070914813
 30
-92.46507667455963
  0
VERTEX
  5
E0
  8
DEFAULT
 10
164.3586972248066
 20
379.9562387823169
 30
-92.46507667455961
  0
VERTEX
  5
E1
  8
DEFAULT
 10
164.3207079484563
 20
379.9913869935596
 30
-92.46507667455961
  0
VERTEX
  5
E2
  8
DEFAULT
 10
164.2818482465576
 20
380.0255179243905
 30
-92.46507667455963
  0
VERTEX
  5
E3
  8
DEFAULT
 10
164.2421592624704
 20
380.0585999042578
 30
-92.46507667455961
  0
VERTEX
  5
E4
  8
DEFAULT
 10
164.2016836352134
 20
380.0906034896777
 30
-92.46507667455961
  0
VERTEX
  5
E5
  8
DEFAULT
 10
164.1604653487176
 20
380.1215015493262
 30
-92.4650766745596
  0
VERTEX
  5
E6
  8
DEFAULT
 10
164.118549575577
 20
380.1512693369257
 30
-92.46507667455958
  0
VERTEX
  5
E7
  8
DEFAULT
 10
164.0759825164423
 20
380.1798845515454
 30
-92.46507667455961
  0
VERTEX
  5
E8
  8
DEFAULT
 10
164.0328112362273
 20
380.2073273850556
 30
-92.46507667455964
  0
VERTEX
  5
E9
  8
DEFAULT
 10
163.9890834983103
 20
380.233580556603
 30
-92.46507667455963
  0
VERTEX
  5
EA
  8
DEFAULT
 10
163.9448475979082
 20
380.2586293340904
 30
-92.46507667455963
  0
VERTEX
  5
EB
  8
DEFAULT
 10
163.9001521957839
 20
380.2824615427676
 30
-92.46507667455961
  0
VERTEX
  5
EC
  8
DEFAULT
 10
163.8550461534198
 20
380.305067561154
 30
-92.46507667455961
  0
VERTEX
  5
ED
  8
DEFAULT
 10
163.8095783707416
 20
380.3264403046217
 30
-92.46507667455958
  0
VERTEX
  5
EE
  8
DEFAULT
 10
163.7637976274313
 20
380.3465751970721
 30
-92.46507667455957
  0
VERTEX
  5
EF
  8
DEFAULT
 10
163.7177524287956
 20
380.3654701312329
 30
-92.46507667455958
  0
VERTEX
  5
F0
  8
DEFAULT
 10
163.6714908570883
 20
380.3831254181829
 30
-92.4650766745596
  0
VERTEX
  5
F1
  8
DEFAULT
 10
163.6250604291025
 20
380.3995437267914
 30
-92.46507667455958
  0
VERTEX
  5
F2
  8
DEFAULT
 10
163.5785079607641
 20
380.4147300138196
 30
-92.4650766745596
  0
VERTEX
  5
F3
  8
DEFAULT
 10
163.5318794393627
 20
380.4286914454822
 30
-92.46507667455958
  0
VERTEX
  5
F4
  8
DEFAULT
 10
163.485219903969
 20
380.4414373113117
 30
-92.46507667455957
  0
VERTEX
  5
F5
  8
DEFAULT
 10
163.4385733344848
 20
380.4529789311936
 30
-92.46507667455957
  0
VERTEX
  5
F6
  8
DEFAULT
 10
163.3919825496831
 20
380.4633295564605
 30
-92.46507667455957
  0
VERTEX
  5
F7
  8
DEFAULT
 10
163.3454891144962
 20
380.4725042659413
 30
-92.46507667455957
  0
VERTEX
  5
F8
  8
DEFAULT
 10
163.2991332567218
 20
380.4805198578571
 30
-92.46507667455955
  0
VERTEX
  5
F9
  8
DEFAULT
 10
163.2529537932259
 20
380.4873947384446
 30
-92.46507667455955
  0
VERTEX
  5
FA
  8
DEFAULT
 10
163.2069880656397
 20
380.4931488081656
 30
-92.46507667455957
  0
VERTEX
  5
FB
  8
DEFAULT
 10
163.1612718854674
 20
380.4978033463339
 30
-92.46507667455957
  0
VERTEX
  5
FC
  8
DEFAULT
 10
163.1158394884507
 20
380.5013808949529
 30
-92.46507667455953
  0
VERTEX
  5
FD
  8
DEFAULT
 10
163.0707234979693
 20
380.5039051425193
 30
-92.46507667455953
  0
VERTEX
  5
FE
  8
DEFAULT
 10
163.0259548971952
 20
380.5054008084952
 30
-92.46507667455955
  0
VERTEX
  5
FF
  8
DEFAULT
 10
160.7315630096722
 20
380.5058935291081
 30
-92.46507667455961
  0
SEQEND
  5
BE
  8
DEFAULT
  0
LINE
  5
100
  8
DEFAULT
 10
-172.0701234274399
 20
375.9058935291066
 30
92.46754742113592
 11
-164.980235296228
 21
375.9058935291066
 31
92.4674456181682
  0
LINE
  5
101
  8
DEFAULT
 10
-172.0701234274399
 20
336.292427921631
 30
92.46754742113592
 11
-172.0701234274399
 21
375.9058935291066
 31
92.46754742113592
  0
LINE
  5
102
  8
DEFAULT
 10
-113.0701234335224
 20
336.292427921631
 30
92.46670024626121
 11
-172.0701234274399
 21
336.292427921631
 31
92.46754742113592
  0
LINE
  5
103
  8
DEFAULT
 10
-113.0701234335224
 20
375.9058935291066
 30
92.46670024626121
 11
-113.0701234335224
 21
336.292427921631
 31
92.46670024626121
  0
LINE
  5
104
  8
DEFAULT
 10
-120.5144101532218
 20
375.9058935291066
 30
92.46680713800151
 11
-113.0701234335224
 21
375.9058935291066
 31
92.46670024626121
  0
POLYLINE
  5
105
  8
DEFAULT
 66
     1
 10
0.0
 20
0.0
 30
-92.4650766745724
210
-1.435889618498941E-5
220
-1.958508638491969E-14
230
-0.9999999998969112
  0
VERTEX
  5
107
  8
DEFAULT
 10
124.7657378620826
 20
380.5058935291048
 30
-92.4650766745724
  0
VERTEX
  5
108
  8
DEFAULT
 10
122.4713459745594
 20
380.505400808492
 30
-92.46507667457229
  0
VERTEX
  5
109
  8
DEFAULT
 10
122.4265773737853
 20
380.5039051425161
 30
-92.46507667457227
  0
VERTEX
  5
10A
  8
DEFAULT
 10
122.3814613833038
 20
380.5013808949497
 30
-92.46507667457227
  0
VERTEX
  5
10B
  8
DEFAULT
 10
122.3360289862872
 20
380.4978033463306
 30
-92.46507667457229
  0
VERTEX
  5
10C
  8
DEFAULT
 10
122.2903128061149
 20
380.4931488081624
 30
-92.4650766745723
  0
VERTEX
  5
10D
  8
DEFAULT
 10
122.2443470785286
 20
380.4873947384414
 30
-92.46507667457229
  0
VERTEX
  5
10E
  8
DEFAULT
 10
122.1981676150327
 20
380.4805198578538
 30
-92.46507667457229
  0
VERTEX
  5
10F
  8
DEFAULT
 10
122.1518117572583
 20
380.472504265938
 30
-92.46507667457229
  0
VERTEX
  5
110
  8
DEFAULT
 10
122.1053183220714
 20
380.4633295564572
 30
-92.4650766745723
  0
VERTEX
  5
111
  8
DEFAULT
 10
122.0587275372697
 20
380.4529789311904
 30
-92.4650766745723
  0
VERTEX
  5
112
  8
DEFAULT
 10
122.0120809677856
 20
380.4414373113085
 30
-92.46507667457232
  0
VERTEX
  5
113
  8
DEFAULT
 10
121.9654214323919
 20
380.428691445479
 30
-92.46507667457232
  0
VERTEX
  5
114
  8
DEFAULT
 10
121.9187929109906
 20
380.4147300138164
 30
-92.46507667457232
  0
VERTEX
  5
115
  8
DEFAULT
 10
121.8722404426521
 20
380.3995437267882
 30
-92.46507667457233
  0
VERTEX
  5
116
  8
DEFAULT
 10
121.8258100146663
 20
380.3831254181797
 30
-92.46507667457233
  0
VERTEX
  5
117
  8
DEFAULT
 10
121.7795484429589
 20
380.3654701312297
 30
-92.46507667457234
  0
VERTEX
  5
118
  8
DEFAULT
 10
121.7335032443232
 20
380.3465751970689
 30
-92.46507667457234
  0
VERTEX
  5
119
  8
DEFAULT
 10
121.6877225010129
 20
380.3264403046184
 30
-92.46507667457236
  0
VERTEX
  5
11A
  8
DEFAULT
 10
121.6422547183348
 20
380.3050675611508
 30
-92.46507667457237
  0
VERTEX
  5
11B
  8
DEFAULT
 10
121.5971486759706
 20
380.2824615427643
 30
-92.46507667457237
  0
VERTEX
  5
11C
  8
DEFAULT
 10
121.5524532738465
 20
380.2586293340871
 30
-92.46507667457237
  0
VERTEX
  5
11D
  8
DEFAULT
 10
121.5082173734444
 20
380.2335805565997
 30
-92.46507667457237
  0
VERTEX
  5
11E
  8
DEFAULT
 10
121.4644896355274
 20
380.2073273850523
 30
-92.46507667457237
  0
VERTEX
  5
11F
  8
DEFAULT
 10
121.4213183553124
 20
380.1798845515422
 30
-92.46507667457237
  0
VERTEX
  5
120
  8
DEFAULT
 10
121.3787512961776
 20
380.1512693369225
 30
-92.46507667457237
  0
VERTEX
  5
121
  8
DEFAULT
 10
121.336835523037
 20
380.1215015493229
 30
-92.4650766745724
  0
VERTEX
  5
122
  8
DEFAULT
 10
121.2956172365412
 20
380.0906034896745
 30
-92.46507667457242
  0
VERTEX
  5
123
  8
DEFAULT
 10
121.2551416092842
 20
380.0585999042546
 30
-92.46507667457242
  0
VERTEX
  5
124
  8
DEFAULT
 10
121.215452625197
 20
380.0255179243873
 30
-92.46507667457244
  0
VERTEX
  5
125
  8
DEFAULT
 10
121.1765929232982
 20
379.9913869935564
 30
-92.4650766745724
  0
VERTEX
  5
126
  8
DEFAULT
 10
121.1386036469479
 20
379.9562387823137
 30
-92.46507667457239
  0
VERTEX
  5
127
  8
DEFAULT
 10
121.1015242997095
 20
379.9201070914781
 30
-92.46507667457242
  0
VERTEX
  5
128
  8
DEFAULT
 10
121.0653926088738
 20
379.8830277442397
 30
-92.46507667457242
  0
VERTEX
  5
129
  8
DEFAULT
 10
121.0302443976311
 20
379.8450384678894
 30
-92.4650766745724
  0
VERTEX
  5
12A
  8
DEFAULT
 10
120.9961134668003
 20
379.8061787659908
 30
-92.46507667457243
  0
VERTEX
  5
12B
  8
DEFAULT
 10
120.9630314869329
 20
379.7664897819035
 30
-92.46507667457243
  0
VERTEX
  5
12C
  8
DEFAULT
 10
120.9310279015131
 20
379.7260141546465
 30
-92.46507667457243
  0
VERTEX
  5
12D
  8
DEFAULT
 10
120.9001298418646
 20
379.6847958681506
 30
-92.46507667457243
  0
VERTEX
  5
12E
  8
DEFAULT
 10
120.8703620542649
 20
379.64288009501
 30
-92.46507667457243
  0
VERTEX
  5
12F
  8
DEFAULT
 10
120.8417468396453
 20
379.6003130358753
 30
-92.46507667457244
  0
VERTEX
  5
130
  8
DEFAULT
 10
120.8143040061351
 20
379.5571417556603
 30
-92.46507667457246
  0
VERTEX
  5
131
  8
DEFAULT
 10
120.7880508345877
 20
379.5134140177433
 30
-92.46507667457244
  0
VERTEX
  5
132
  8
DEFAULT
 10
120.7630020571003
 20
379.4691781173411
 30
-92.46507667457246
  0
VERTEX
  5
133
  8
DEFAULT
 10
120.739169848423
 20
379.424482715217
 30
-92.46507667457247
  0
VERTEX
  5
134
  8
DEFAULT
 10
120.7165638300366
 20
379.3793766728529
 30
-92.46507667457246
  0
VERTEX
  5
135
  8
DEFAULT
 10
120.695191086569
 20
379.3339088901747
 30
-92.46507667457246
  0
VERTEX
  5
136
  8
DEFAULT
 10
120.6750561941185
 20
379.2881281468644
 30
-92.46507667457246
  0
VERTEX
  5
137
  8
DEFAULT
 10
120.6561612599576
 20
379.2420829482287
 30
-92.46507667457244
  0
VERTEX
  5
138
  8
DEFAULT
 10
120.6385059730077
 20
379.1958213765213
 30
-92.46507667457246
  0
VERTEX
  5
139
  8
DEFAULT
 10
120.6220876643991
 20
379.1493909485355
 30
-92.46507667457246
  0
VERTEX
  5
13A
  8
DEFAULT
 10
120.606901377371
 20
379.1028384801971
 30
-92.46507667457249
  0
VERTEX
  5
13B
  8
DEFAULT
 10
120.5929399457084
 20
379.0562099587958
 30
-92.46507667457247
  0
VERTEX
  5
13C
  8
DEFAULT
 10
120.5801940798789
 20
379.0095504234021
 30
-92.46507667457247
  0
VERTEX
  5
13D
  8
DEFAULT
 10
120.568652459997
 20
378.9629038539179
 30
-92.46507667457246
  0
VERTEX
  5
13E
  8
DEFAULT
 10
120.5583018347301
 20
378.9163130691161
 30
-92.46507667457246
  0
VERTEX
  5
13F
  8
DEFAULT
 10
120.5491271252493
 20
378.8698196339292
 30
-92.46507667457246
  0
VERTEX
  5
140
  8
DEFAULT
 10
120.5411115333334
 20
378.8234637761548
 30
-92.46507667457246
  0
VERTEX
  5
141
  8
DEFAULT
 10
120.5342366527459
 20
378.7772843126589
 30
-92.46507667457244
  0
VERTEX
  5
142
  8
DEFAULT
 10
120.5284825830249
 20
378.7313185850727
 30
-92.46507667457247
  0
VERTEX
  5
143
  8
DEFAULT
 10
120.5238280448567
 20
378.6856024049004
 30
-92.46507667457247
  0
VERTEX
  5
144
  8
DEFAULT
 10
120.5202504962375
 20
378.6401700078837
 30
-92.46507667457246
  0
VERTEX
  5
145
  8
DEFAULT
 10
120.5177262486711
 20
378.5950540174022
 30
-92.46507667457244
  0
VERTEX
  5
146
  8
DEFAULT
 10
120.5162305826953
 20
378.5502854166282
 30
-92.46507667457246
  0
VERTEX
  5
147
  8
DEFAULT
 10
120.5157378620824
 20
375.9058935291048
 30
-92.4650766745724
  0
SEQEND
  5
106
  8
DEFAULT
  0
LINE
  5
148
  8
DEFAULT
 10
-124.7644101527839
 20
366.3058935291066
 30
92.46686816331021
 11
-124.7644101527839
 21
380.5058935291066
 31
92.46686816331021
  0
LINE
  5
149
  8
DEFAULT
 10
-122.3144101530362
 20
366.3058935291066
 30
92.46683298401456
 11
-124.7644101527839
 21
366.3058935291066
 31
92.46686816331021
  0
LINE
  5
14A
  8
DEFAULT
 10
-122.3144101530362
 20
357.5058935291066
 30
92.46683298401456
 11
-122.3144101530362
 21
366.3058935291066
 31
92.46683298401456
  0
LINE
  5
14B
  8
DEFAULT
 10
-124.7644101527839
 20
357.5058935291066
 30
92.46686816331021
 11
-122.3144101530362
 21
357.5058935291066
 31
92.46683298401456
  0
LINE
  5
14C
  8
DEFAULT
 10
-124.7644101527839
 20
348.5058935291066
 30
92.46686816331021
 11
-124.7644101527839
 21
357.5058935291066
 31
92.46686816331021
  0
LINE
  5
14D
  8
DEFAULT
 10
-131.7644101520622
 20
348.5058935291066
 30
92.4669686755833
 11
-124.7644101527839
 21
348.5058935291066
 31
92.46686816331021
  0
LINE
  5
14E
  8
DEFAULT
 10
-131.7644101520622
 20
357.5058935291066
 30
92.4669686755833
 11
-131.7644101520622
 21
348.5058935291066
 31
92.4669686755833
  0
LINE
  5
14F
  8
DEFAULT
 10
-134.2144101518097
 20
357.5058935291066
 30
92.46700385487907
 11
-131.7644101520622
 21
357.5058935291066
 31
92.4669686755833
  0
LINE
  5
150
  8
DEFAULT
 10
-134.2144101518097
 20
366.3058935291066
 30
92.46700385487907
 11
-134.2144101518097
 21
357.5058935291066
 31
92.46700385487907
  0
LINE
  5
151
  8
DEFAULT
 10
-131.7644101520622
 20
366.3058935291066
 30
92.4669686755833
 11
-134.2144101518097
 21
366.3058935291066
 31
92.46700385487907
  0
LINE
  5
152
  8
DEFAULT
 10
-131.7644101520622
 20
380.5058935291066
 30
92.4669686755833
 11
-131.7644101520622
 21
366.3058935291066
 31
92.4669686755833
  0
LINE
  5
153
  8
DEFAULT
 10
-172.0700430176213
 20
375.9058935291066
 30
98.06754742055853
 11
-172.0700430176213
 21
336.292427921631
 31
98.06754742055853
  0
LINE
  5
154
  8
DEFAULT
 10
-164.9801548864093
 20
375.9058935291066
 30
98.06744561759103
 11
-172.0700430176213
 21
375.9058935291066
 31
98.06754742055853
  0
POLYLINE
  5
155
  8
DEFAULT
 66
     1
 10
0.0
 20
0.0
 30
98.06507667456474
210
1.435889618885925E-5
220
1.555466472233833E-15
230
0.9999999998969112
  0
VERTEX
  5
157
  8
DEFAULT
 10
-160.731563009673
 20
380.5058935291065
 30
98.06507667456474
  0
VERTEX
  5
158
  8
DEFAULT
 10
-163.0259548971958
 20
380.5054008084936
 30
98.06507667456455
  0
VERTEX
  5
159
  8
DEFAULT
 10
-163.0707234979699
 20
380.5039051425177
 30
98.06507667456454
  0
VERTEX
  5
15A
  8
DEFAULT
 10
-163.1158394884514
 20
380.5013808949514
 30
98.06507667456454
  0
VERTEX
  5
15B
  8
DEFAULT
 10
-163.161271885468
 20
380.4978033463323
 30
98.06507667456457
  0
VERTEX
  5
15C
  8
DEFAULT
 10
-163.2069880656404
 20
380.4931488081641
 30
98.06507667456458
  0
VERTEX
  5
15D
  8
DEFAULT
 10
-163.2529537932266
 20
380.487394738443
 30
98.06507667456458
  0
VERTEX
  5
15E
  8
DEFAULT
 10
-163.2991332567225
 20
380.4805198578555
 30
98.06507667456458
  0
VERTEX
  5
15F
  8
DEFAULT
 10
-163.3454891144969
 20
380.4725042659397
 30
98.06507667456458
  0
VERTEX
  5
160
  8
DEFAULT
 10
-163.3919825496838
 20
380.4633295564589
 30
98.0650766745646
  0
VERTEX
  5
161
  8
DEFAULT
 10
-163.4385733344855
 20
380.452978931192
 30
98.0650766745646
  0
VERTEX
  5
162
  8
DEFAULT
 10
-163.4852199039697
 20
380.4414373113102
 30
98.0650766745646
  0
VERTEX
  5
163
  8
DEFAULT
 10
-163.5318794393633
 20
380.4286914454806
 30
98.06507667456462
  0
VERTEX
  5
164
  8
DEFAULT
 10
-163.5785079607647
 20
380.414730013818
 30
98.06507667456465
  0
VERTEX
  5
165
  8
DEFAULT
 10
-163.6250604291032
 20
380.3995437267898
 30
98.06507667456464
  0
VERTEX
  5
166
  8
DEFAULT
 10
-163.671490857089
 20
380.3831254181814
 30
98.06507667456465
  0
VERTEX
  5
167
  8
DEFAULT
 10
-163.7177524287964
 20
380.3654701312313
 30
98.06507667456464
  0
VERTEX
  5
168
  8
DEFAULT
 10
-163.7637976274321
 20
380.3465751970705
 30
98.06507667456465
  0
VERTEX
  5
169
  8
DEFAULT
 10
-163.8095783707424
 20
380.3264403046201
 30
98.06507667456466
  0
VERTEX
  5
16A
  8
DEFAULT
 10
-163.8550461534205
 20
380.3050675611524
 30
98.0650766745647
  0
VERTEX
  5
16B
  8
DEFAULT
 10
-163.9001521957847
 20
380.282461542766
 30
98.06507667456468
  0
VERTEX
  5
16C
  8
DEFAULT
 10
-163.9448475979088
 20
380.2586293340888
 30
98.06507667456468
  0
VERTEX
  5
16D
  8
DEFAULT
 10
-163.989083498311
 20
380.2335805566014
 30
98.0650766745647
  0
VERTEX
  5
16E
  8
DEFAULT
 10
-164.032811236228
 20
380.207327385054
 30
98.06507667456471
  0
VERTEX
  5
16F
  8
DEFAULT
 10
-164.0759825164429
 20
380.1798845515438
 30
98.06507667456471
  0
VERTEX
  5
170
  8
DEFAULT
 10
-164.1185495755777
 20
380.1512693369241
 30
98.0650766745647
  0
VERTEX
  5
171
  8
DEFAULT
 10
-164.1604653487183
 20
380.1215015493246
 30
98.06507667456471
  0
VERTEX
  5
172
  8
DEFAULT
 10
-164.2016836352142
 20
380.0906034896761
 30
98.06507667456472
  0
VERTEX
  5
173
  8
DEFAULT
 10
-164.2421592624711
 20
380.0585999042563
 30
98.06507667456472
  0
VERTEX
  5
174
  8
DEFAULT
 10
-164.2818482465584
 20
380.0255179243889
 30
98.06507667456474
  0
VERTEX
  5
175
  8
DEFAULT
 10
-164.3207079484571
 20
379.991386993558
 30
98.06507667456471
  0
VERTEX
  5
176
  8
DEFAULT
 10
-164.3586972248073
 20
379.9562387823153
 30
98.06507667456472
  0
VERTEX
  5
177
  8
DEFAULT
 10
-164.3957765720458
 20
379.9201070914797
 30
98.06507667456475
  0
VERTEX
  5
178
  8
DEFAULT
 10
-164.4319082628815
 20
379.8830277442413
 30
98.06507667456475
  0
VERTEX
  5
179
  8
DEFAULT
 10
-164.4670564741242
 20
379.845038467891
 30
98.06507667456474
  0
VERTEX
  5
17A
  8
DEFAULT
 10
-164.5011874049551
 20
379.8061787659924
 30
98.06507667456478
  0
VERTEX
  5
17B
  8
DEFAULT
 10
-164.5342693848224
 20
379.7664897819051
 30
98.06507667456475
  0
VERTEX
  5
17C
  8
DEFAULT
 10
-164.5662729702423
 20
379.7260141546481
 30
98.06507667456476
  0
VERTEX
  5
17D
  8
DEFAULT
 10
-164.5971710298907
 20
379.6847958681523
 30
98.06507667456475
  0
VERTEX
  5
17E
  8
DEFAULT
 10
-164.6269388174904
 20
379.6428800950117
 30
98.06507667456476
  0
VERTEX
  5
17F
  8
DEFAULT
 10
-164.65555403211
 20
379.6003130358769
 30
98.06507667456475
  0
VERTEX
  5
180
  8
DEFAULT
 10
-164.6829968656203
 20
379.5571417556619
 30
98.06507667456476
  0
VERTEX
  5
181
  8
DEFAULT
 10
-164.7092500371676
 20
379.5134140177449
 30
98.06507667456478
  0
VERTEX
  5
182
  8
DEFAULT
 10
-164.734298814655
 20
379.4691781173428
 30
98.06507667456476
  0
VERTEX
  5
183
  8
DEFAULT
 10
-164.7581310233323
 20
379.4244827152186
 30
98.06507667456475
  0
VERTEX
  5
184
  8
DEFAULT
 10
-164.7807370417187
 20
379.3793766728545
 30
98.06507667456476
  0
VERTEX
  5
185
  8
DEFAULT
 10
-164.8021097851862
 20
379.3339088901764
 30
98.06507667456476
  0
VERTEX
  5
186
  8
DEFAULT
 10
-164.8222446776367
 20
379.2881281468661
 30
98.06507667456475
  0
VERTEX
  5
187
  8
DEFAULT
 10
-164.8411396117976
 20
379.2420829482303
 30
98.06507667456475
  0
VERTEX
  5
188
  8
DEFAULT
 10
-164.8587948987476
 20
379.1958213765229
 30
98.06507667456478
  0
VERTEX
  5
189
  8
DEFAULT
 10
-164.8752132073561
 20
379.1493909485371
 30
98.06507667456475
  0
VERTEX
  5
18A
  8
DEFAULT
 10
-164.8903994943842
 20
379.1028384801987
 30
98.06507667456478
  0
VERTEX
  5
18B
  8
DEFAULT
 10
-164.9043609260468
 20
379.0562099587974
 30
98.06507667456476
  0
VERTEX
  5
18C
  8
DEFAULT
 10
-164.9171067918764
 20
379.0095504234037
 30
98.06507667456476
  0
VERTEX
  5
18D
  8
DEFAULT
 10
-164.9286484117582
 20
378.9629038539195
 30
98.06507667456476
  0
VERTEX
  5
18E
  8
DEFAULT
 10
-164.9389990370251
 20
378.9163130691177
 30
98.06507667456476
  0
VERTEX
  5
18F
  8
DEFAULT
 10
-164.9481737465059
 20
378.8698196339309
 30
98.06507667456475
  0
VERTEX
  5
190
  8
DEFAULT
 10
-164.9561893384218
 20
378.8234637761565
 30
98.06507667456476
  0
VERTEX
  5
191
  8
DEFAULT
 10
-164.9630642190092
 20
378.7772843126606
 30
98.06507667456475
  0
VERTEX
  5
192
  8
DEFAULT
 10
-164.9688182887303
 20
378.7313185850743
 30
98.06507667456476
  0
VERTEX
  5
193
  8
DEFAULT
 10
-164.9734728268986
 20
378.685602404902
 30
98.06507667456476
  0
VERTEX
  5
194
  8
DEFAULT
 10
-164.9770503755177
 20
378.6401700078853
 30
98.06507667456475
  0
VERTEX
  5
195
  8
DEFAULT
 10
-164.9795746230841
 20
378.5950540174039
 30
98.06507667456474
  0
VERTEX
  5
196
  8
DEFAULT
 10
-164.9810702890599
 20
378.5502854166298
 30
98.06507667456475
  0
VERTEX
  5
197
  8
DEFAULT
 10
-164.9815630096728
 20
375.9058935291064
 30
98.06507667456474
  0
SEQEND
  5
156
  8
DEFAULT
  0
LINE
  5
198
  8
DEFAULT
 10
-160.7301548868474
 20
366.3058935291066
 30
98.06738459228222
 11
-160.7301548868476
 21
380.5058935291066
 31
98.06738459228222
  0
LINE
  5
199
  8
DEFAULT
 10
-163.1801548865948
 20
366.3058935291066
 30
98.06741977157787
 11
-160.7301548868474
 21
366.3058935291066
 31
98.06738459228222
  0
LINE
  5
19A
  8
DEFAULT
 10
-163.1801548865948
 20
357.5058935291066
 30
98.06741977157787
 11
-163.1801548865948
 21
366.3058935291066
 31
98.06741977157787
  0
LINE
  5
19B
  8
DEFAULT
 10
-160.7301548868474
 20
357.5058935291066
 30
98.06738459228222
 11
-163.1801548865948
 21
357.5058935291066
 31
98.06741977157787
  0
LINE
  5
19C
  8
DEFAULT
 10
-160.7301548868476
 20
348.5058935291066
 30
98.06738459228222
 11
-160.7301548868474
 21
357.5058935291066
 31
98.06738459228222
  0
LINE
  5
19D
  8
DEFAULT
 10
-153.7301548875691
 20
348.5058935291066
 30
98.06728408000879
 11
-160.7301548868476
 21
348.5058935291066
 31
98.06738459228222
  0
LINE
  5
19E
  8
DEFAULT
 10
-153.7301548875691
 20
357.5058935291066
 30
98.06728408000879
 11
-153.7301548875691
 21
348.5058935291066
 31
98.06728408000879
  0
LINE
  5
19F
  8
DEFAULT
 10
-151.2801548878217
 20
357.5058935291066
 30
98.06724890071325
 11
-153.7301548875691
 21
357.5058935291066
 31
98.06728408000879
  0
LINE
  5
1A0
  8
DEFAULT
 10
-151.2801548878217
 20
366.3058935291066
 30
98.06724890071325
 11
-151.2801548878217
 21
357.5058935291066
 31
98.06724890071325
  0
LINE
  5
1A1
  8
DEFAULT
 10
-153.7301548875691
 20
366.3058935291066
 30
98.06728408000879
 11
-151.2801548878217
 21
366.3058935291066
 31
98.06724890071325
  0
LINE
  5
1A2
  8
DEFAULT
 10
-153.7301548875691
 20
380.5058935291066
 30
98.06728408000879
 11
-153.7301548875691
 21
366.3058935291066
 31
98.06728408000879
  0
POLYLINE
  5
1A3
  8
DEFAULT
 66
     1
 10
0.0
 20
0.0
 30
98.06507667456631
210
1.435889610835901E-5
220
-2.650092311400283E-14
230
0.9999999998969112
  0
VERTEX
  5
1A5
  8
DEFAULT
 10
-149.481563009665
 20
375.9058935291092
 30
98.06507667456631
  0
VERTEX
  5
1A6
  8
DEFAULT
 10
-149.4820557302779
 20
378.5502854166322
 30
98.06507667456624
  0
VERTEX
  5
1A7
  8
DEFAULT
 10
-149.4835513962537
 20
378.5950540174064
 30
98.06507667456627
  0
VERTEX
  5
1A8
  8
DEFAULT
 10
-149.48607564382
 20
378.6401700078878
 30
98.06507667456627
  0
VERTEX
  5
1A9
  8
DEFAULT
 10
-149.4896531924392
 20
378.6856024049044
 30
98.06507667456626
  0
VERTEX
  5
1AA
  8
DEFAULT
 10
-149.4943077306075
 20
378.7313185850768
 30
98.06507667456626
  0
VERTEX
  5
1AB
  8
DEFAULT
 10
-149.5000618003285
 20
378.7772843126631
 30
98.06507667456626
  0
VERTEX
  5
1AC
  8
DEFAULT
 10
-149.506936680916
 20
378.8234637761589
 30
98.06507667456627
  0
VERTEX
  5
1AD
  8
DEFAULT
 10
-149.5149522728318
 20
378.8698196339333
 30
98.06507667456626
  0
VERTEX
  5
1AE
  8
DEFAULT
 10
-149.5241269823126
 20
378.9163130691202
 30
98.06507667456624
  0
VERTEX
  5
1AF
  8
DEFAULT
 10
-149.5344776075794
 20
378.9629038539219
 30
98.06507667456627
  0
VERTEX
  5
1B0
  8
DEFAULT
 10
-149.5460192274613
 20
379.009550423406
 30
98.06507667456627
  0
VERTEX
  5
1B1
  8
DEFAULT
 10
-149.5587650932909
 20
379.0562099587997
 30
98.06507667456627
  0
VERTEX
  5
1B2
  8
DEFAULT
 10
-149.5727265249535
 20
379.1028384802011
 30
98.06507667456628
  0
VERTEX
  5
1B3
  8
DEFAULT
 10
-149.5879128119816
 20
379.1493909485396
 30
98.06507667456628
  0
VERTEX
  5
1B4
  8
DEFAULT
 10
-149.6043311205901
 20
379.1958213765254
 30
98.06507667456628
  0
VERTEX
  5
1B5
  8
DEFAULT
 10
-149.62198640754
 20
379.2420829482327
 30
98.06507667456626
  0
VERTEX
  5
1B6
  8
DEFAULT
 10
-149.6408813417009
 20
379.2881281468685
 30
98.06507667456627
  0
VERTEX
  5
1B7
  8
DEFAULT
 10
-149.6610162341514
 20
379.3339088901787
 30
98.06507667456627
  0
VERTEX
  5
1B8
  8
DEFAULT
 10
-149.682388977619
 20
379.3793766728568
 30
98.06507667456626
  0
VERTEX
  5
1B9
  8
DEFAULT
 10
-149.7049949960054
 20
379.4244827152211
 30
98.06507667456628
  0
VERTEX
  5
1BA
  8
DEFAULT
 10
-149.7288272046827
 20
379.4691781173452
 30
98.06507667456627
  0
VERTEX
  5
1BB
  8
DEFAULT
 10
-149.7538759821701
 20
379.5134140177473
 30
98.06507667456628
  0
VERTEX
  5
1BC
  8
DEFAULT
 10
-149.7801291537174
 20
379.5571417556644
 30
98.06507667456627
  0
VERTEX
  5
1BD
  8
DEFAULT
 10
-149.8075719872276
 20
379.6003130358794
 30
98.0650766745663
  0
VERTEX
  5
1BE
  8
DEFAULT
 10
-149.8361872018472
 20
379.642880095014
 30
98.06507667456628
  0
VERTEX
  5
1BF
  8
DEFAULT
 10
-149.8659549894469
 20
379.6847958681547
 30
98.0650766745663
  0
VERTEX
  5
1C0
  8
DEFAULT
 10
-149.8968530490953
 20
379.7260141546506
 30
98.0650766745663
  0
VERTEX
  5
1C1
  8
DEFAULT
 10
-149.9288566345152
 20
379.7664897819076
 30
98.06507667456633
  0
VERTEX
  5
1C2
  8
DEFAULT
 10
-149.9619386143825
 20
379.8061787659948
 30
98.06507667456633
  0
VERTEX
  5
1C3
  8
DEFAULT
 10
-149.9960695452134
 20
379.8450384678935
 30
98.06507667456631
  0
VERTEX
  5
1C4
  8
DEFAULT
 10
-150.031217756456
 20
379.8830277442437
 30
98.0650766745663
  0
VERTEX
  5
1C5
  8
DEFAULT
 10
-150.0673494472918
 20
379.9201070914822
 30
98.0650766745663
  0
VERTEX
  5
1C6
  8
DEFAULT
 10
-150.1044287945302
 20
379.9562387823181
 30
98.0650766745663
  0
VERTEX
  5
1C7
  8
DEFAULT
 10
-150.1424180708805
 20
379.9913869935608
 30
98.06507667456631
  0
VERTEX
  5
1C8
  8
DEFAULT
 10
-150.1812777727792
 20
380.0255179243916
 30
98.0650766745663
  0
VERTEX
  5
1C9
  8
DEFAULT
 10
-150.2209667568664
 20
380.058599904259
 30
98.06507667456631
  0
VERTEX
  5
1CA
  8
DEFAULT
 10
-150.2614423841234
 20
380.0906034896788
 30
98.0650766745663
  0
VERTEX
  5
1CB
  8
DEFAULT
 10
-150.3026606706192
 20
380.1215015493273
 30
98.06507667456631
  0
VERTEX
  5
1CC
  8
DEFAULT
 10
-150.3445764437598
 20
380.1512693369269
 30
98.0650766745663
  0
VERTEX
  5
1CD
  8
DEFAULT
 10
-150.3871435028946
 20
380.1798845515466
 30
98.0650766745663
  0
VERTEX
  5
1CE
  8
DEFAULT
 10
-150.4303147831095
 20
380.2073273850568
 30
98.06507667456631
  0
VERTEX
  5
1CF
  8
DEFAULT
 10
-150.4740425210265
 20
380.2335805566041
 30
98.06507667456631
  0
VERTEX
  5
1D0
  8
DEFAULT
 10
-150.5182784214286
 20
380.2586293340915
 30
98.06507667456631
  0
VERTEX
  5
1D1
  8
DEFAULT
 10
-150.5629738235528
 20
380.2824615427688
 30
98.06507667456631
  0
VERTEX
  5
1D2
  8
DEFAULT
 10
-150.6080798659169
 20
380.3050675611552
 30
98.06507667456631
  0
VERTEX
  5
1D3
  8
DEFAULT
 10
-150.6535476485951
 20
380.3264403046228
 30
98.06507667456634
  0
VERTEX
  5
1D4
  8
DEFAULT
 10
-150.6993283919054
 20
380.3465751970733
 30
98.06507667456633
  0
VERTEX
  5
1D5
  8
DEFAULT
 10
-150.745373590541
 20
380.3654701312341
 30
98.06507667456631
  0
VERTEX
  5
1D6
  8
DEFAULT
 10
-150.7916351622484
 20
380.3831254181841
 30
98.06507667456631
  0
VERTEX
  5
1D7
  8
DEFAULT
 10
-150.8380655902342
 20
380.3995437267926
 30
98.06507667456633
  0
VERTEX
  5
1D8
  8
DEFAULT
 10
-150.8846180585727
 20
380.4147300138208
 30
98.06507667456633
  0
VERTEX
  5
1D9
  8
DEFAULT
 10
-150.931246579974
 20
380.4286914454833
 30
98.06507667456633
  0
VERTEX
  5
1DA
  8
DEFAULT
 10
-150.9779061153677
 20
380.4414373113128
 30
98.06507667456631
  0
VERTEX
  5
1DB
  8
DEFAULT
 10
-151.0245526848519
 20
380.4529789311947
 30
98.06507667456633
  0
VERTEX
  5
1DC
  8
DEFAULT
 10
-151.0711434696535
 20
380.4633295564615
 30
98.06507667456631
  0
VERTEX
  5
1DD
  8
DEFAULT
 10
-151.1176369048405
 20
380.4725042659423
 30
98.06507667456631
  0
VERTEX
  5
1DE
  8
DEFAULT
 10
-151.1639927626149
 20
380.4805198578582
 30
98.06507667456634
  0
VERTEX
  5
1DF
  8
DEFAULT
 10
-151.2101722261108
 20
380.4873947384457
 30
98.06507667456636
  0
VERTEX
  5
1E0
  8
DEFAULT
 10
-151.256137953697
 20
380.4931488081668
 30
98.06507667456636
  0
VERTEX
  5
1E1
  8
DEFAULT
 10
-151.3018541338693
 20
380.497803346335
 30
98.06507667456634
  0
VERTEX
  5
1E2
  8
DEFAULT
 10
-151.3472865308859
 20
380.5013808949542
 30
98.06507667456634
  0
VERTEX
  5
1E3
  8
DEFAULT
 10
-151.3924025213674
 20
380.5039051425206
 30
98.06507667456636
  0
VERTEX
  5
1E4
  8
DEFAULT
 10
-151.4371711221415
 20
380.5054008084963
 30
98.06507667456633
  0
VERTEX
  5
1E5
  8
DEFAULT
 10
-153.731563009665
 20
380.5058935291092
 30
98.06507667456633
  0
SEQEND
  5
1A4
  8
DEFAULT
  0
LINE
  5
1E6
  8
DEFAULT
 10
-136.0143297418053
 20
375.9058935291066
 30
98.06702970031495
 11
-149.4801548880072
 21
375.9058935291066
 31
98.06722305470021
  0
POLYLINE
  5
1E7
  8
DEFAULT
 66
     1
 10
0.0
 20
0.0
 30
98.06507667455615
210
1.435889620704699E-5
220
-1.524842641962354E-14
230
0.9999999998969111
  0
VERTEX
  5
1E9
  8
DEFAULT
 10
-131.7657378620848
 20
380.5058935291081
 30
98.06507667455615
  0
VERTEX
  5
1EA
  8
DEFAULT
 10
-134.060129749608
 20
380.5054008084952
 30
98.06507667455614
  0
VERTEX
  5
1EB
  8
DEFAULT
 10
-134.1048983503822
 20
380.5039051425194
 30
98.06507667455615
  0
VERTEX
  5
1EC
  8
DEFAULT
 10
-134.1500143408636
 20
380.5013808949531
 30
98.06507667455615
  0
VERTEX
  5
1ED
  8
DEFAULT
 10
-134.1954467378802
 20
380.4978033463339
 30
98.06507667455617
  0
VERTEX
  5
1EE
  8
DEFAULT
 10
-134.2411629180526
 20
380.4931488081656
 30
98.06507667455617
  0
VERTEX
  5
1EF
  8
DEFAULT
 10
-134.2871286456389
 20
380.4873947384446
 30
98.06507667455617
  0
VERTEX
  5
1F0
  8
DEFAULT
 10
-134.3333081091347
 20
380.4805198578571
 30
98.06507667455617
  0
VERTEX
  5
1F1
  8
DEFAULT
 10
-134.3796639669092
 20
380.4725042659412
 30
98.06507667455615
  0
VERTEX
  5
1F2
  8
DEFAULT
 10
-134.426157402096
 20
380.4633295564604
 30
98.06507667455614
  0
VERTEX
  5
1F3
  8
DEFAULT
 10
-134.4727481868978
 20
380.4529789311936
 30
98.06507667455614
  0
VERTEX
  5
1F4
  8
DEFAULT
 10
-134.5193947563819
 20
380.4414373113117
 30
98.06507667455614
  0
VERTEX
  5
1F5
  8
DEFAULT
 10
-134.5660542917756
 20
380.4286914454822
 30
98.06507667455617
  0
VERTEX
  5
1F6
  8
DEFAULT
 10
-134.612682813177
 20
380.4147300138197
 30
98.06507667455617
  0
VERTEX
  5
1F7
  8
DEFAULT
 10
-134.6592352815155
 20
380.3995437267915
 30
98.06507667455617
  0
VERTEX
  5
1F8
  8
DEFAULT
 10
-134.7056657095013
 20
380.3831254181829
 30
98.06507667455615
  0
VERTEX
  5
1F9
  8
DEFAULT
 10
-134.7519272812087
 20
380.3654701312329
 30
98.06507667455615
  0
VERTEX
  5
1FA
  8
DEFAULT
 10
-134.7979724798444
 20
380.3465751970721
 30
98.06507667455618
  0
VERTEX
  5
1FB
  8
DEFAULT
 10
-134.8437532231547
 20
380.3264403046217
 30
98.06507667455617
  0
VERTEX
  5
1FC
  8
DEFAULT
 10
-134.8892210058328
 20
380.305067561154
 30
98.06507667455615
  0
VERTEX
  5
1FD
  8
DEFAULT
 10
-134.934327048197
 20
380.2824615427676
 30
98.06507667455615
  0
VERTEX
  5
1FE
  8
DEFAULT
 10
-134.9790224503211
 20
380.2586293340904
 30
98.06507667455617
  0
VERTEX
  5
1FF
  8
DEFAULT
 10
-135.0232583507233
 20
380.233580556603
 30
98.06507667455617
  0
VERTEX
  5
200
  8
DEFAULT
 10
-135.0669860886402
 20
380.2073273850556
 30
98.06507667455618
  0
VERTEX
  5
201
  8
DEFAULT
 10
-135.1101573688553
 20
380.1798845515455
 30
98.06507667455618
  0
VERTEX
  5
202
  8
DEFAULT
 10
-135.15272442799
 20
380.1512693369258
 30
98.06507667455615
  0
VERTEX
  5
203
  8
DEFAULT
 10
-135.1946402011306
 20
380.1215015493262
 30
98.06507667455618
  0
VERTEX
  5
204
  8
DEFAULT
 10
-135.2358584876264
 20
380.0906034896777
 30
98.06507667455617
  0
VERTEX
  5
205
  8
DEFAULT
 10
-135.2763341148835
 20
380.0585999042578
 30
98.0650766745562
  0
VERTEX
  5
206
  8
DEFAULT
 10
-135.3160230989707
 20
380.0255179243904
 30
98.06507667455618
  0
VERTEX
  5
207
  8
DEFAULT
 10
-135.3548828008694
 20
379.9913869935596
 30
98.06507667455618
  0
VERTEX
  5
208
  8
DEFAULT
 10
-135.3928720772197
 20
379.9562387823169
 30
98.06507667455618
  0
VERTEX
  5
209
  8
DEFAULT
 10
-135.4299514244581
 20
379.9201070914811
 30
98.06507667455615
  0
VERTEX
  5
20A
  8
DEFAULT
 10
-135.4660831152939
 20
379.8830277442426
 30
98.06507667455615
  0
VERTEX
  5
20B
  8
DEFAULT
 10
-135.5012313265365
 20
379.8450384678923
 30
98.06507667455617
  0
VERTEX
  5
20C
  8
DEFAULT
 10
-135.5353622573673
 20
379.8061787659936
 30
98.06507667455615
  0
VERTEX
  5
20D
  8
DEFAULT
 10
-135.5684442372347
 20
379.7664897819064
 30
98.06507667455617
  0
VERTEX
  5
20E
  8
DEFAULT
 10
-135.6004478226545
 20
379.7260141546494
 30
98.06507667455615
  0
VERTEX
  5
20F
  8
DEFAULT
 10
-135.631345882303
 20
379.6847958681536
 30
98.06507667455617
  0
VERTEX
  5
210
  8
DEFAULT
 10
-135.6611136699026
 20
379.6428800950129
 30
98.06507667455614
  0
VERTEX
  5
211
  8
DEFAULT
 10
-135.6897288845223
 20
379.6003130358782
 30
98.06507667455615
  0
VERTEX
  5
212
  8
DEFAULT
 10
-135.7171717180325
 20
379.5571417556632
 30
98.06507667455615
  0
VERTEX
  5
213
  8
DEFAULT
 10
-135.7434248895799
 20
379.5134140177462
 30
98.06507667455615
  0
VERTEX
  5
214
  8
DEFAULT
 10
-135.7684736670672
 20
379.469178117344
 30
98.06507667455615
  0
VERTEX
  5
215
  8
DEFAULT
 10
-135.7923058757445
 20
379.4244827152199
 30
98.06507667455615
  0
VERTEX
  5
216
  8
DEFAULT
 10
-135.8149118941309
 20
379.3793766728557
 30
98.06507667455612
  0
VERTEX
  5
217
  8
DEFAULT
 10
-135.8362846375985
 20
379.3339088901776
 30
98.06507667455614
  0
VERTEX
  5
218
  8
DEFAULT
 10
-135.856419530049
 20
379.2881281468674
 30
98.06507667455615
  0
VERTEX
  5
219
  8
DEFAULT
 10
-135.8753144642098
 20
379.2420829482316
 30
98.06507667455614
  0
VERTEX
  5
21A
  8
DEFAULT
 10
-135.8929697511597
 20
379.1958213765242
 30
98.06507667455615
  0
VERTEX
  5
21B
  8
DEFAULT
 10
-135.9093880597683
 20
379.1493909485384
 30
98.06507667455617
  0
VERTEX
  5
21C
  8
DEFAULT
 10
-135.9245743467964
 20
379.1028384802
 30
98.06507667455617
  0
VERTEX
  5
21D
  8
DEFAULT
 10
-135.938535778459
 20
379.0562099587986
 30
98.06507667455615
  0
VERTEX
  5
21E
  8
DEFAULT
 10
-135.9512816442885
 20
379.0095504234048
 30
98.06507667455615
  0
VERTEX
  5
21F
  8
DEFAULT
 10
-135.9628232641704
 20
378.9629038539208
 30
98.06507667455615
  0
VERTEX
  5
220
  8
DEFAULT
 10
-135.9731738894372
 20
378.9163130691191
 30
98.06507667455612
  0
VERTEX
  5
221
  8
DEFAULT
 10
-135.982348598918
 20
378.8698196339322
 30
98.06507667455614
  0
VERTEX
  5
222
  8
DEFAULT
 10
-135.9903641908338
 20
378.8234637761578
 30
98.06507667455617
  0
VERTEX
  5
223
  8
DEFAULT
 10
-135.9972390714213
 20
378.7772843126619
 30
98.06507667455617
  0
VERTEX
  5
224
  8
DEFAULT
 10
-136.0029931411424
 20
378.7313185850757
 30
98.06507667455617
  0
VERTEX
  5
225
  8
DEFAULT
 10
-136.0076476793106
 20
378.6856024049033
 30
98.06507667455614
  0
VERTEX
  5
226
  8
DEFAULT
 10
-136.0112252279297
 20
378.6401700078867
 30
98.06507667455612
  0
VERTEX
  5
227
  8
DEFAULT
 10
-136.0137494754961
 20
378.5950540174052
 30
98.06507667455614
  0
VERTEX
  5
228
  8
DEFAULT
 10
-136.0152451414719
 20
378.550285416631
 30
98.06507667455612
  0
VERTEX
  5
229
  8
DEFAULT
 10
-136.0157378620845
 20
375.9058935291081
 30
98.06507667455617
  0
SEQEND
  5
1E8
  8
DEFAULT
  0
LINE
  5
22A
  8
DEFAULT
 10
-131.7643297422437
 20
366.3058935291066
 30
98.06696867500614
 11
-131.7643297422437
 21
380.5058935291066
 31
98.06696867500614
  0
LINE
  5
22B
  8
DEFAULT
 10
-134.2143297419909
 20
366.3058935291066
 30
98.06700385430167
 11
-131.7643297422437
 21
366.3058935291066
 31
98.06696867500614
  0
LINE
  5
22C
  8
DEFAULT
 10
-134.2143297419909
 20
357.5058935291066
 30
98.06700385430167
 11
-134.2143297419909
 21
366.3058935291066
 31
98.06700385430167
  0
LINE
  5
22D
  8
DEFAULT
 10
-131.7643297422437
 20
357.5058935291066
 30
98.06696867500614
 11
-134.2143297419909
 21
357.5058935291066
 31
98.06700385430167
  0
LINE
  5
22E
  8
DEFAULT
 10
-131.7643297422437
 20
348.5058935291066
 30
98.06696867500614
 11
-131.7643297422437
 21
357.5058935291066
 31
98.06696867500614
  0
LINE
  5
22F
  8
DEFAULT
 10
-124.7643297429651
 20
348.5058935291066
 30
98.06686816273293
 11
-131.7643297422437
 21
348.5058935291066
 31
98.06696867500614
  0
LINE
  5
230
  8
DEFAULT
 10
-124.7643297429651
 20
357.5058935291066
 30
98.06686816273293
 11
-124.7643297429651
 21
348.5058935291066
 31
98.06686816273293
  0
LINE
  5
231
  8
DEFAULT
 10
-122.3143297432177
 20
357.5058935291066
 30
98.06683298343717
 11
-124.7643297429651
 21
357.5058935291066
 31
98.06686816273293
  0
LINE
  5
232
  8
DEFAULT
 10
-122.3143297432177
 20
366.3058935291066
 30
98.06683298343717
 11
-122.3143297432177
 21
357.5058935291066
 31
98.06683298343717
  0
LINE
  5
233
  8
DEFAULT
 10
-124.7643297429651
 20
366.3058935291066
 30
98.06686816273293
 11
-122.3143297432177
 21
366.3058935291066
 31
98.06683298343717
  0
LINE
  5
234
  8
DEFAULT
 10
-124.7643297429651
 20
380.5058935291066
 30
98.06686816273293
 11
-124.7643297429651
 21
366.3058935291066
 31
98.06686816273293
  0
POLYLINE
  5
235
  8
DEFAULT
 66
     1
 10
0.0
 20
0.0
 30
98.06507667455872
210
1.435889616612078E-5
220
-2.256383170249347E-14
230
0.9999999998969111
  0
VERTEX
  5
237
  8
DEFAULT
 10
-120.5157378620808
 20
375.9058935291088
 30
98.06507667455872
  0
VERTEX
  5
238
  8
DEFAULT
 10
-120.5162305826937
 20
378.5502854166322
 30
98.06507667455867
  0
VERTEX
  5
239
  8
DEFAULT
 10
-120.5177262486695
 20
378.5950540174063
 30
98.06507667455865
  0
VERTEX
  5
23A
  8
DEFAULT
 10
-120.5202504962359
 20
378.6401700078877
 30
98.06507667455865
  0
VERTEX
  5
23B
  8
DEFAULT
 10
-120.5238280448551
 20
378.6856024049044
 30
98.06507667455867
  0
VERTEX
  5
23C
  8
DEFAULT
 10
-120.5284825830233
 20
378.7313185850767
 30
98.06507667455868
  0
VERTEX
  5
23D
  8
DEFAULT
 10
-120.5342366527443
 20
378.777284312663
 30
98.06507667455868
  0
VERTEX
  5
23E
  8
DEFAULT
 10
-120.5411115333318
 20
378.8234637761589
 30
98.06507667455867
  0
VERTEX
  5
23F
  8
DEFAULT
 10
-120.5491271252476
 20
378.8698196339333
 30
98.06507667455868
  0
VERTEX
  5
240
  8
DEFAULT
 10
-120.5583018347284
 20
378.9163130691201
 30
98.06507667455868
  0
VERTEX
  5
241
  8
DEFAULT
 10
-120.5686524599953
 20
378.9629038539219
 30
98.0650766745587
  0
VERTEX
  5
242
  8
DEFAULT
 10
-120.5801940798772
 20
379.0095504234061
 30
98.06507667455868
  0
VERTEX
  5
243
  8
DEFAULT
 10
-120.5929399457067
 20
379.0562099587998
 30
98.0650766745587
  0
VERTEX
  5
244
  8
DEFAULT
 10
-120.6069013773693
 20
379.1028384802011
 30
98.06507667455872
  0
VERTEX
  5
245
  8
DEFAULT
 10
-120.6220876643974
 20
379.1493909485395
 30
98.0650766745587
  0
VERTEX
  5
246
  8
DEFAULT
 10
-120.638505973006
 20
379.1958213765253
 30
98.06507667455872
  0
VERTEX
  5
247
  8
DEFAULT
 10
-120.6561612599559
 20
379.2420829482327
 30
98.06507667455871
  0
VERTEX
  5
248
  8
DEFAULT
 10
-120.6750561941168
 20
379.2881281468685
 30
98.06507667455872
  0
VERTEX
  5
249
  8
DEFAULT
 10
-120.6951910865673
 20
379.3339088901787
 30
98.06507667455872
  0
VERTEX
  5
24A
  8
DEFAULT
 10
-120.7165638300349
 20
379.3793766728569
 30
98.06507667455872
  0
VERTEX
  5
24B
  8
DEFAULT
 10
-120.7391698484213
 20
379.424482715221
 30
98.06507667455871
  0
VERTEX
  5
24C
  8
DEFAULT
 10
-120.7630020570985
 20
379.4691781173452
 30
98.06507667455874
  0
VERTEX
  5
24D
  8
DEFAULT
 10
-120.7880508345859
 20
379.5134140177473
 30
98.06507667455874
  0
VERTEX
  5
24E
  8
DEFAULT
 10
-120.8143040061333
 20
379.5571417556643
 30
98.06507667455875
  0
VERTEX
  5
24F
  8
DEFAULT
 10
-120.8417468396435
 20
379.6003130358793
 30
98.06507667455874
  0
VERTEX
  5
250
  8
DEFAULT
 10
-120.8703620542631
 20
379.642880095014
 30
98.06507667455872
  0
VERTEX
  5
251
  8
DEFAULT
 10
-120.9001298418628
 20
379.6847958681547
 30
98.06507667455872
  0
VERTEX
  5
252
  8
DEFAULT
 10
-120.9310279015112
 20
379.7260141546505
 30
98.06507667455874
  0
VERTEX
  5
253
  8
DEFAULT
 10
-120.9630314869311
 20
379.7664897819075
 30
98.06507667455872
  0
VERTEX
  5
254
  8
DEFAULT
 10
-120.9961134667985
 20
379.8061787659948
 30
98.06507667455872
  0
VERTEX
  5
255
  8
DEFAULT
 10
-121.0302443976293
 20
379.8450384678934
 30
98.06507667455872
  0
VERTEX
  5
256
  8
DEFAULT
 10
-121.0653926088719
 20
379.8830277442437
 30
98.06507667455872
  0
VERTEX
  5
257
  8
DEFAULT
 10
-121.1015242997077
 20
379.9201070914821
 30
98.06507667455872
  0
VERTEX
  5
258
  8
DEFAULT
 10
-121.1386036469461
 20
379.9562387823177
 30
98.06507667455871
  0
VERTEX
  5
259
  8
DEFAULT
 10
-121.1765929232964
 20
379.9913869935604
 30
98.06507667455871
  0
VERTEX
  5
25A
  8
DEFAULT
 10
-121.2154526251952
 20
380.0255179243913
 30
98.06507667455874
  0
VERTEX
  5
25B
  8
DEFAULT
 10
-121.2551416092824
 20
380.0585999042586
 30
98.0650766745587
  0
VERTEX
  5
25C
  8
DEFAULT
 10
-121.2956172365394
 20
380.0906034896785
 30
98.06507667455871
  0
VERTEX
  5
25D
  8
DEFAULT
 10
-121.3368355230352
 20
380.121501549327
 30
98.06507667455872
  0
VERTEX
  5
25E
  8
DEFAULT
 10
-121.3787512961758
 20
380.1512693369265
 30
98.06507667455871
  0
VERTEX
  5
25F
  8
DEFAULT
 10
-121.4213183553106
 20
380.1798845515462
 30
98.06507667455871
  0
VERTEX
  5
260
  8
DEFAULT
 10
-121.4644896355256
 20
380.2073273850564
 30
98.06507667455872
  0
VERTEX
  5
261
  8
DEFAULT
 10
-121.5082173734425
 20
380.2335805566038
 30
98.06507667455872
  0
VERTEX
  5
262
  8
DEFAULT
 10
-121.5524532738447
 20
380.2586293340912
 30
98.06507667455872
  0
VERTEX
  5
263
  8
DEFAULT
 10
-121.5971486759689
 20
380.2824615427684
 30
98.06507667455871
  0
VERTEX
  5
264
  8
DEFAULT
 10
-121.642254718333
 20
380.3050675611548
 30
98.06507667455871
  0
VERTEX
  5
265
  8
DEFAULT
 10
-121.6877225010112
 20
380.3264403046225
 30
98.06507667455871
  0
VERTEX
  5
266
  8
DEFAULT
 10
-121.7335032443214
 20
380.3465751970729
 30
98.06507667455871
  0
VERTEX
  5
267
  8
DEFAULT
 10
-121.7795484429572
 20
380.3654701312337
 30
98.06507667455871
  0
VERTEX
  5
268
  8
DEFAULT
 10
-121.8258100146646
 20
380.3831254181837
 30
98.06507667455872
  0
VERTEX
  5
269
  8
DEFAULT
 10
-121.8722404426504
 20
380.3995437267922
 30
98.06507667455871
  0
VERTEX
  5
26A
  8
DEFAULT
 10
-121.9187929109889
 20
380.4147300138204
 30
98.06507667455872
  0
VERTEX
  5
26B
  8
DEFAULT
 10
-121.9654214323902
 20
380.428691445483
 30
98.0650766745587
  0
VERTEX
  5
26C
  8
DEFAULT
 10
-122.0120809677839
 20
380.4414373113125
 30
98.0650766745587
  0
VERTEX
  5
26D
  8
DEFAULT
 10
-122.0587275372681
 20
380.4529789311944
 30
98.0650766745587
  0
VERTEX
  5
26E
  8
DEFAULT
 10
-122.1053183220698
 20
380.4633295564612
 30
98.06507667455868
  0
VERTEX
  5
26F
  8
DEFAULT
 10
-122.1518117572567
 20
380.4725042659421
 30
98.06507667455865
  0
VERTEX
  5
270
  8
DEFAULT
 10
-122.1981676150311
 20
380.4805198578579
 30
98.06507667455865
  0
VERTEX
  5
271
  8
DEFAULT
 10
-122.244347078527
 20
380.4873947384454
 30
98.06507667455865
  0
VERTEX
  5
272
  8
DEFAULT
 10
-122.2903128061132
 20
380.4931488081664
 30
98.06507667455868
  0
VERTEX
  5
273
  8
DEFAULT
 10
-122.3360289862856
 20
380.4978033463346
 30
98.06507667455865
  0
VERTEX
  5
274
  8
DEFAULT
 10
-122.3814613833022
 20
380.5013808949537
 30
98.06507667455864
  0
VERTEX
  5
275
  8
DEFAULT
 10
-122.4265773737837
 20
380.5039051425201
 30
98.06507667455865
  0
VERTEX
  5
276
  8
DEFAULT
 10
-122.4713459745578
 20
380.505400808496
 30
98.06507667455865
  0
VERTEX
  5
277
  8
DEFAULT
 10
-124.7657378620806
 20
380.5058935291088
 30
98.06507667455872
  0
SEQEND
  5
236
  8
DEFAULT
  0
LINE
  5
278
  8
DEFAULT
 10
-113.0700430237036
 20
375.9058935291066
 30
98.06670024568393
 11
-120.5143297434035
 21
375.9058935291066
 31
98.06680713742412
  0
LINE
  5
279
  8
DEFAULT
 10
-113.0700430237036
 20
336.292427921631
 30
98.06670024568393
 11
-113.0700430237036
 21
375.9058935291066
 31
98.06670024568393
  0
LINE
  5
27A
  8
DEFAULT
 10
-172.0700430176213
 20
336.292427921631
 30
98.06754742055853
 11
-113.0700430237036
 21
336.292427921631
 31
98.06670024568393
  0
LINE
  5
27B
  8
DEFAULT
 10
-136.0143297418053
 20
375.9058935291066
 30
98.06702970031495
 11
-136.0144101516241
 21
375.9058935291066
 31
92.46702970089211
  0
LINE
  5
27C
  8
DEFAULT
 10
-149.4801548880072
 20
375.9058935291066
 30
98.06722305470021
 11
-149.4802352978258
 21
375.9058935291066
 31
92.46722305527737
  0
LINE
  5
27D
  8
DEFAULT
 10
-153.7301548875691
 20
380.5058935291066
 30
98.06728408000879
 11
-153.7302352973879
 21
380.5058935291066
 31
92.46728408058618
  0
LINE
  5
27E
  8
DEFAULT
 10
-153.7301548875691
 20
366.3058935291066
 30
98.06728408000879
 11
-153.7302352973879
 21
366.3058935291066
 31
92.46728408058618
  0
LINE
  5
27F
  8
DEFAULT
 10
-151.2801548878217
 20
366.3058935291066
 30
98.06724890071325
 11
-151.2802352976402
 21
366.3058935291066
 31
92.46724890129042
  0
LINE
  5
280
  8
DEFAULT
 10
-151.2801548878217
 20
357.5058935291066
 30
98.06724890071325
 11
-151.2802352976402
 21
357.5058935291066
 31
92.46724890129042
  0
LINE
  5
281
  8
DEFAULT
 10
-153.7301548875691
 20
357.5058935291066
 30
98.06728408000879
 11
-153.7302352973879
 21
357.5058935291066
 31
92.46728408058618
  0
LINE
  5
282
  8
DEFAULT
 10
-153.7301548875691
 20
348.5058935291066
 30
98.06728408000879
 11
-153.7302352973879
 21
348.5058935291066
 31
92.46728408058618
  0
LINE
  5
283
  8
DEFAULT
 10
-160.7301548868476
 20
348.5058935291066
 30
98.06738459228222
 11
-160.7302352966662
 21
348.5058935291066
 31
92.4673845928595
  0
LINE
  5
284
  8
DEFAULT
 10
-160.7301548868474
 20
357.5058935291066
 30
98.06738459228222
 11
-160.7302352966662
 21
357.5058935291066
 31
92.4673845928595
  0
LINE
  5
285
  8
DEFAULT
 10
-163.1801548865948
 20
357.5058935291066
 30
98.06741977157787
 11
-163.1802352964136
 21
357.5058935291066
 31
92.46741977215515
  0
LINE
  5
286
  8
DEFAULT
 10
-163.1801548865948
 20
366.3058935291066
 30
98.06741977157787
 11
-163.1802352964136
 21
366.3058935291066
 31
92.46741977215515
  0
LINE
  5
287
  8
DEFAULT
 10
-160.7301548868474
 20
366.3058935291066
 30
98.06738459228222
 11
-160.7302352966662
 21
366.3058935291066
 31
92.4673845928595
  0
LINE
  5
288
  8
DEFAULT
 10
-160.7301548868476
 20
380.5058935291066
 30
98.06738459228222
 11
-160.7302352966662
 21
380.5058935291066
 31
92.4673845928595
  0
LINE
  5
289
  8
DEFAULT
 10
-164.9801548864093
 20
375.9058935291066
 30
98.06744561759103
 11
-164.980235296228
 21
375.9058935291066
 31
92.4674456181682
  0
LINE
  5
28A
  8
DEFAULT
 10
-172.0700430176213
 20
375.9058935291066
 30
98.06754742055853
 11
-172.0701234274399
 21
375.9058935291066
 31
92.46754742113592
  0
LINE
  5
28B
  8
DEFAULT
 10
-172.0700430176213
 20
336.292427921631
 30
98.06754742055853
 11
-172.0701234274399
 21
336.292427921631
 31
92.46754742113592
  0
LINE
  5
28C
  8
DEFAULT
 10
-113.0700430237036
 20
336.292427921631
 30
98.06670024568393
 11
-113.0701234335224
 21
336.292427921631
 31
92.46670024626121
  0
LINE
  5
28D
  8
DEFAULT
 10
-113.0700430237036
 20
375.9058935291066
 30
98.06670024568393
 11
-113.0701234335224
 21
375.9058935291066
 31
92.46670024626121
  0
LINE
  5
28E
  8
DEFAULT
 10
-120.5143297434035
 20
375.9058935291066
 30
98.06680713742412
 11
-120.5144101532218
 21
375.9058935291066
 31
92.46680713800151
  0
LINE
  5
28F
  8
DEFAULT
 10
-124.7643297429651
 20
380.5058935291066
 30
98.06686816273293
 11
-124.7644101527839
 21
380.5058935291066
 31
92.46686816331021
  0
LINE
  5
290
  8
DEFAULT
 10
-124.7643297429651
 20
366.3058935291066
 30
98.06686816273293
 11
-124.7644101527839
 21
366.3058935291066
 31
92.46686816331021
  0
LINE
  5
291
  8
DEFAULT
 10
-122.3143297432177
 20
366.3058935291066
 30
98.06683298343717
 11
-122.3144101530362
 21
366.3058935291066
 31
92.46683298401456
  0
LINE
  5
292
  8
DEFAULT
 10
-122.3143297432177
 20
357.5058935291066
 30
98.06683298343717
 11
-122.3144101530362
 21
357.5058935291066
 31
92.46683298401456
  0
LINE
  5
293
  8
DEFAULT
 10
-124.7643297429651
 20
357.5058935291066
 30
98.06686816273293
 11
-124.7644101527839
 21
357.5058935291066
 31
92.46686816331021
  0
LINE
  5
294
  8
DEFAULT
 10
-124.7643297429651
 20
348.5058935291066
 30
98.06686816273293
 11
-124.7644101527839
 21
348.5058935291066
 31
92.46686816331021
  0
LINE
  5
295
  8
DEFAULT
 10
-131.7643297422437
 20
348.5058935291066
 30
98.06696867500614
 11
-131.7644101520622
 21
348.5058935291066
 31
92.4669686755833
  0
LINE
  5
296
  8
DEFAULT
 10
-131.7643297422437
 20
357.5058935291066
 30
98.06696867500614
 11
-131.7644101520622
 21
357.5058935291066
 31
92.4669686755833
  0
LINE
  5
297
  8
DEFAULT
 10
-134.2143297419909
 20
357.5058935291066
 30
98.06700385430167
 11
-134.2144101518097
 21
357.5058935291066
 31
92.46700385487907
  0
LINE
  5
298
  8
DEFAULT
 10
-134.2143297419909
 20
366.3058935291066
 30
98.06700385430167
 11
-134.2144101518097
 21
366.3058935291066
 31
92.46700385487907
  0
LINE
  5
299
  8
DEFAULT
 10
-131.7643297422437
 20
366.3058935291066
 30
98.06696867500614
 11
-131.7644101520622
 21
366.3058935291066
 31
92.4669686755833
  0
LINE
  5
29A
  8
DEFAULT
 10
-131.7643297422437
 20
380.5058935291066
 30
98.06696867500614
 11
-131.7644101520622
 21
380.5058935291066
 31
92.4669686755833
  0
CIRCLE
  5
29B
  8
DEFAULT
 10
-120.8660694911568
 20
342.1461869175325
 30
92.46507667454401
 40
3.175000000000071
210
1.435889617334909E-5
220
-6.490015786035008E-14
230
0.9999999998969111
  0
CIRCLE
  5
29C
  8
DEFAULT
 10
-120.8660694911572
 20
342.1461869175272
 30
98.06507667456351
 40
3.175000000000128
210
1.435889617782498E-5
220
-6.713629375153794E-15
230
0.9999999998969111
  0
LINE
  5
29D
  8
DEFAULT
 10
-124.039741781934
 20
342.1461869175267
 30
92.46685775787216
 11
-124.0396613721154
 21
342.1461869175267
 31
98.066857757295
  0
CIRCLE
  5
29E
  8
DEFAULT
 10
-164.4768327920719
 20
342.1461869175264
 30
92.46507667456741
 40
3.174999999999929
210
1.435889617334960E-5
220
2.237544836417019E-15
230
0.9999999998969111
  0
CIRCLE
  5
29F
  8
DEFAULT
 10
-164.4768327920715
 20
342.1461869175262
 30
98.06507667456846
 40
3.175000000000014
210
1.435889617111122E-5
220
4.476696246826115E-15
230
0.9999999998969111
  0
LINE
  5
2A0
  8
DEFAULT
 10
-161.3005050790079
 20
342.1461869175267
 30
92.46739278130417
 11
-161.3004246691891
 21
342.1461869175267
 31
98.06739278072678
  0
CIRCLE
  5
2A1
  8
DEFAULT
 10
-142.7486504358761
 20
345.5164967877641
 30
92.46507667456248
 40
4.749999999999909
210
1.435889617153544E-5
220
-1.196669196867813E-14
230
0.9999999998969111
  0
CIRCLE
  5
2A2
  8
DEFAULT
 10
-142.7486504358784
 20
345.5164967877641
 30
98.06507667455911
 40
4.749999999999881
210
1.435889619546985E-5
220
-1.196703554964431E-14
230
0.9999999998969111
  0
LINE
  5
2A3
  8
DEFAULT
 10
-137.9973227252146
 20
345.5164967877629
 30
92.46705817332793
 11
-137.997242315396
 21
345.5164967877629
 31
98.06705817275054
  0
LINE
  5
2A4
  8
DEFAULT
 10
-172.0701234274399
 20
358.399160725369
 30
92.46754742113785
 11
-163.1802352964135
 21
358.399160725369
 31
92.46741977215659
  0
LINE
  5
2A5
  8
DEFAULT
 10
-151.2802352976403
 20
358.399160725369
 30
92.46724890129137
 11
-134.2144101518097
 21
358.399160725369
 31
92.46700385487887
  0
LINE
  5
2A6
  8
DEFAULT
 10
-122.3144101530364
 20
358.399160725369
 30
92.46683298401365
 11
-113.0701234335224
 21
358.399160725369
 31
92.46670024625985
  0
LINE
  5
2A7
  8
DEFAULT
 10
-142.5701234304811
 20
375.9058935291066
 30
92.46712383369885
 11
-142.5701234304811
 21
350.2631902153734
 31
92.46712383369885
  0
LINE
  5
2A8
  8
DEFAULT
 10
-142.5701234304811
 20
340.7698031930953
 30
92.46712383369885
 11
-142.5701234304811
 21
336.292427921631
 31
92.46712383369885
  0
LINE
  5
2A9
  8
DEFAULT
 10
-172.0700430176213
 20
358.399160725369
 30
98.06754742055853
 11
-163.1801548865949
 21
358.399160725369
 31
98.06741977157728
  0
LINE
  5
2AA
  8
DEFAULT
 10
-151.2801548878216
 20
358.399160725369
 30
98.06724890071206
 11
-134.2143297419908
 21
358.399160725369
 31
98.06700385429954
  0
LINE
  5
2AB
  8
DEFAULT
 10
-122.3143297432175
 20
358.399160725369
 30
98.06683298343432
 11
-113.0700430237034
 21
358.399160725369
 31
98.06670024568052
  0
LINE
  5
2AC
  8
DEFAULT
 10
-142.5700430206624
 20
336.292427921631
 30
98.06712383311952
 11
-142.5700430206624
 21
340.7698031930953
 31
98.06712383311952
  0
LINE
  5
2AD
  8
DEFAULT
 10
-142.5700430206624
 20
350.2631902153734
 30
98.06712383311952
 11
-142.5700430206624
 21
375.9058935291066
 31
98.06712383311952
  0
LINE
  5
2AE
  8
DEFAULT
 10
-136.0143699467149
 20
375.9058935291066
 30
95.26702970060387
 11
-149.4801950929166
 21
375.9058935291066
 31
95.26722305498913
  0
LINE
  5
2AF
  8
DEFAULT
 10
-142.7472423149064
 20
375.9058935291066
 30
98.06712637750792
 11
-142.7473227247252
 21
375.9058935291066
 31
92.46712637808508
  0
POLYLINE
  5
2B0
  8
DEFAULT
 66
     1
 10
0.0
 20
0.0
 30
95.26507667456715
210
1.435889611290634E-5
220
-2.229958797047243E-14
230
0.9999999998969112
  0
VERTEX
  5
2B2
  8
DEFAULT
 10
-149.4815630096657
 20
375.9058935291087
 30
95.26507667456715
  0
VERTEX
  5
2B3
  8
DEFAULT
 10
-149.4820557302785
 20
378.5502854166317
 30
95.26507667456708
  0
VERTEX
  5
2B4
  8
DEFAULT
 10
-149.4835513962544
 20
378.5950540174059
 30
95.26507667456711
  0
VERTEX
  5
2B5
  8
DEFAULT
 10
-149.4860756438208
 20
378.6401700078873
 30
95.2650766745671
  0
VERTEX
  5
2B6
  8
DEFAULT
 10
-149.48965319244
 20
378.6856024049039
 30
95.2650766745671
  0
VERTEX
  5
2B7
  8
DEFAULT
 10
-149.4943077306082
 20
378.7313185850763
 30
95.2650766745671
  0
VERTEX
  5
2B8
  8
DEFAULT
 10
-149.5000618003292
 20
378.7772843126626
 30
95.26507667456711
  0
VERTEX
  5
2B9
  8
DEFAULT
 10
-149.5069366809167
 20
378.8234637761584
 30
95.26507667456713
  0
VERTEX
  5
2BA
  8
DEFAULT
 10
-149.5149522728325
 20
378.8698196339328
 30
95.26507667456711
  0
VERTEX
  5
2BB
  8
DEFAULT
 10
-149.5241269823133
 20
378.9163130691197
 30
95.2650766745671
  0
VERTEX
  5
2BC
  8
DEFAULT
 10
-149.5344776075802
 20
378.9629038539214
 30
95.26507667456711
  0
VERTEX
  5
2BD
  8
DEFAULT
 10
-149.5460192274621
 20
379.0095504234055
 30
95.2650766745671
  0
VERTEX
  5
2BE
  8
DEFAULT
 10
-149.5587650932916
 20
379.0562099587992
 30
95.26507667456713
  0
VERTEX
  5
2BF
  8
DEFAULT
 10
-149.5727265249542
 20
379.1028384802006
 30
95.26507667456713
  0
VERTEX
  5
2C0
  8
DEFAULT
 10
-149.5879128119823
 20
379.1493909485391
 30
95.26507667456713
  0
VERTEX
  5
2C1
  8
DEFAULT
 10
-149.6043311205908
 20
379.1958213765249
 30
95.2650766745671
  0
VERTEX
  5
2C2
  8
DEFAULT
 10
-149.6219864075408
 20
379.2420829482322
 30
95.26507667456711
  0
VERTEX
  5
2C3
  8
DEFAULT
 10
-149.6408813417017
 20
379.288128146868
 30
95.26507667456714
  0
VERTEX
  5
2C4
  8
DEFAULT
 10
-149.6610162341522
 20
379.3339088901782
 30
95.26507667456713
  0
VERTEX
  5
2C5
  8
DEFAULT
 10
-149.6823889776197
 20
379.3793766728563
 30
95.26507667456711
  0
VERTEX
  5
2C6
  8
DEFAULT
 10
-149.7049949960061
 20
379.4244827152206
 30
95.26507667456714
  0
VERTEX
  5
2C7
  8
DEFAULT
 10
-149.7288272046835
 20
379.4691781173447
 30
95.26507667456714
  0
VERTEX
  5
2C8
  8
DEFAULT
 10
-149.7538759821708
 20
379.5134140177468
 30
95.26507667456714
  0
VERTEX
  5
2C9
  8
DEFAULT
 10
-149.7801291537181
 20
379.5571417556638
 30
95.26507667456714
  0
VERTEX
  5
2CA
  8
DEFAULT
 10
-149.8075719872284
 20
379.6003130358789
 30
95.26507667456714
  0
VERTEX
  5
2CB
  8
DEFAULT
 10
-149.836187201848
 20
379.6428800950135
 30
95.26507667456713
  0
VERTEX
  5
2CC
  8
DEFAULT
 10
-149.8659549894476
 20
379.6847958681542
 30
95.26507667456715
  0
VERTEX
  5
2CD
  8
DEFAULT
 10
-149.8968530490961
 20
379.72601415465
 30
95.26507667456714
  0
VERTEX
  5
2CE
  8
DEFAULT
 10
-149.9288566345159
 20
379.7664897819071
 30
95.26507667456715
  0
VERTEX
  5
2CF
  8
DEFAULT
 10
-149.9619386143832
 20
379.8061787659943
 30
95.26507667456714
  0
VERTEX
  5
2D0
  8
DEFAULT
 10
-149.996069545214
 20
379.8450384678929
 30
95.26507667456715
  0
VERTEX
  5
2D1
  8
DEFAULT
 10
-150.0312177564567
 20
379.8830277442432
 30
95.26507667456715
  0
VERTEX
  5
2D2
  8
DEFAULT
 10
-150.0673494472925
 20
379.9201070914817
 30
95.26507667456715
  0
VERTEX
  5
2D3
  8
DEFAULT
 10
-150.1044287945309
 20
379.9562387823175
 30
95.26507667456715
  0
VERTEX
  5
2D4
  8
DEFAULT
 10
-150.1424180708812
 20
379.9913869935602
 30
95.26507667456715
  0
VERTEX
  5
2D5
  8
DEFAULT
 10
-150.1812777727799
 20
380.0255179243911
 30
95.26507667456714
  0
VERTEX
  5
2D6
  8
DEFAULT
 10
-150.2209667568671
 20
380.0585999042585
 30
95.26507667456717
  0
VERTEX
  5
2D7
  8
DEFAULT
 10
-150.2614423841241
 20
380.0906034896783
 30
95.26507667456715
  0
VERTEX
  5
2D8
  8
DEFAULT
 10
-150.30266067062
 20
380.1215015493268
 30
95.26507667456715
  0
VERTEX
  5
2D9
  8
DEFAULT
 10
-150.3445764437605
 20
380.1512693369264
 30
95.26507667456715
  0
VERTEX
  5
2DA
  8
DEFAULT
 10
-150.3871435028953
 20
380.1798845515461
 30
95.26507667456717
  0
VERTEX
  5
2DB
  8
DEFAULT
 10
-150.4303147831103
 20
380.2073273850563
 30
95.26507667456717
  0
VERTEX
  5
2DC
  8
DEFAULT
 10
-150.4740425210273
 20
380.2335805566036
 30
95.26507667456715
  0
VERTEX
  5
2DD
  8
DEFAULT
 10
-150.5182784214294
 20
380.258629334091
 30
95.26507667456717
  0
VERTEX
  5
2DE
  8
DEFAULT
 10
-150.5629738235536
 20
380.2824615427683
 30
95.26507667456717
  0
VERTEX
  5
2DF
  8
DEFAULT
 10
-150.6080798659176
 20
380.3050675611547
 30
95.26507667456714
  0
VERTEX
  5
2E0
  8
DEFAULT
 10
-150.6535476485959
 20
380.3264403046223
 30
95.26507667456715
  0
VERTEX
  5
2E1
  8
DEFAULT
 10
-150.6993283919061
 20
380.3465751970728
 30
95.26507667456717
  0
VERTEX
  5
2E2
  8
DEFAULT
 10
-150.7453735905418
 20
380.3654701312336
 30
95.26507667456715
  0
VERTEX
  5
2E3
  8
DEFAULT
 10
-150.7916351622492
 20
380.3831254181836
 30
95.26507667456718
  0
VERTEX
  5
2E4
  8
DEFAULT
 10
-150.838065590235
 20
380.3995437267921
 30
95.26507667456718
  0
VERTEX
  5
2E5
  8
DEFAULT
 10
-150.8846180585735
 20
380.4147300138203
 30
95.26507667456718
  0
VERTEX
  5
2E6
  8
DEFAULT
 10
-150.9312465799748
 20
380.4286914454828
 30
95.26507667456718
  0
VERTEX
  5
2E7
  8
DEFAULT
 10
-150.9779061153685
 20
380.4414373113123
 30
95.26507667456717
  0
VERTEX
  5
2E8
  8
DEFAULT
 10
-151.0245526848526
 20
380.4529789311942
 30
95.26507667456718
  0
VERTEX
  5
2E9
  8
DEFAULT
 10
-151.0711434696543
 20
380.463329556461
 30
95.26507667456718
  0
VERTEX
  5
2EA
  8
DEFAULT
 10
-151.1176369048412
 20
380.4725042659418
 30
95.26507667456718
  0
VERTEX
  5
2EB
  8
DEFAULT
 10
-151.1639927626156
 20
380.4805198578577
 30
95.26507667456718
  0
VERTEX
  5
2EC
  8
DEFAULT
 10
-151.2101722261116
 20
380.4873947384452
 30
95.2650766745672
  0
VERTEX
  5
2ED
  8
DEFAULT
 10
-151.2561379536977
 20
380.4931488081663
 30
95.26507667456721
  0
VERTEX
  5
2EE
  8
DEFAULT
 10
-151.3018541338701
 20
380.4978033463345
 30
95.26507667456718
  0
VERTEX
  5
2EF
  8
DEFAULT
 10
-151.3472865308867
 20
380.5013808949537
 30
95.26507667456718
  0
VERTEX
  5
2F0
  8
DEFAULT
 10
-151.3924025213682
 20
380.5039051425201
 30
95.26507667456718
  0
VERTEX
  5
2F1
  8
DEFAULT
 10
-151.4371711221422
 20
380.5054008084958
 30
95.26507667456717
  0
VERTEX
  5
2F2
  8
DEFAULT
 10
-153.7315630096657
 20
380.5058935291087
 30
95.26507667456715
  0
SEQEND
  5
2B1
  8
DEFAULT
  0
LINE
  5
2F3
  8
DEFAULT
 10
-149.4801548880072
 20
378.5058935291064
 30
98.06722305470021
 11
-149.480235297826
 21
378.5058935291064
 31
92.46722305527737
  0
LINE
  5
2F4
  8
DEFAULT
 10
-151.4801548878008
 20
380.5058935291066
 30
98.06725177249257
 11
-151.4802352976196
 21
380.5058935291066
 31
92.46725177306973
  0
LINE
  5
2F5
  8
DEFAULT
 10
-153.7301950924785
 20
380.5058935291066
 30
95.26728408029601
 11
-153.7301950924785
 21
366.3058935291065
 31
95.26728408029601
  0
LINE
  5
2F6
  8
DEFAULT
 10
-153.7301548875691
 20
375.9058935291065
 30
98.06728408000743
 11
-153.7302352973879
 21
375.9058935291065
 31
92.46728408058459
  0
LINE
  5
2F7
  8
DEFAULT
 10
-153.7301950924785
 20
366.3058935291066
 30
95.26728408029601
 11
-151.280195092731
 21
366.3058935291066
 31
95.26724890100047
  0
LINE
  5
2F8
  8
DEFAULT
 10
-151.6801548877804
 20
366.3058935291066
 30
98.0672546442704
 11
-151.6802352975992
 21
366.3058935291066
 31
92.46725464484757
  0
LINE
  5
2F9
  8
DEFAULT
 10
-151.280195092731
 20
366.3058935291064
 30
95.26724890100172
 11
-151.280195092731
 21
357.5058935291063
 31
95.26724890100172
  0
LINE
  5
2FA
  8
DEFAULT
 10
-151.2801548878217
 20
365.9058935291063
 30
98.06724890071314
 11
-151.2802352976404
 21
365.9058935291063
 31
92.4672489012903
  0
LINE
  5
2FB
  8
DEFAULT
 10
-151.2801548878217
 20
357.9058935291063
 30
98.06724890071314
 11
-151.2802352976404
 21
357.9058935291063
 31
92.4672489012903
  0
LINE
  5
2FC
  8
DEFAULT
 10
-151.280195092731
 20
357.5058935291066
 30
95.26724890100172
 11
-153.7301950924785
 21
357.5058935291066
 31
95.26728408029726
  0
LINE
  5
2FD
  8
DEFAULT
 10
-151.6801548877804
 20
357.5058935291066
 30
98.06725464427166
 11
-151.6802352975992
 21
357.5058935291066
 31
92.46725464484882
  0
LINE
  5
2FE
  8
DEFAULT
 10
-153.7301950924785
 20
357.5058935291066
 30
95.26728408029601
 11
-153.7301950924785
 21
348.5058935291066
 31
95.26728408029601
  0
LINE
  5
2FF
  8
DEFAULT
 10
-153.7301548875691
 20
348.9058935291066
 30
98.06728408000743
 11
-153.7302352973879
 21
348.9058935291066
 31
92.46728408058459
  0
LINE
  5
300
  8
DEFAULT
 10
-153.7301950924785
 20
348.5058935291066
 30
95.26728408029601
 11
-160.730195091757
 21
348.5058935291066
 31
95.26738459256944
  0
LINE
  5
301
  8
DEFAULT
 10
-154.1301548875278
 20
348.5058935291066
 30
98.06728982356617
 11
-154.1302352973466
 21
348.5058935291066
 31
92.46728982414334
  0
LINE
  5
302
  8
DEFAULT
 10
-160.3301548868887
 20
348.5058935291066
 30
98.06737884872223
 11
-160.3302352967075
 21
348.5058935291066
 31
92.4673788492994
  0
LINE
  5
303
  8
DEFAULT
 10
-160.7301950917568
 20
348.5058935291066
 30
95.26738459256956
 11
-160.7301950917566
 21
357.5058935291066
 31
95.26738459256956
  0
LINE
  5
304
  8
DEFAULT
 10
-160.7301548868474
 20
348.9058935291066
 30
98.06738459228097
 11
-160.7302352966662
 21
348.9058935291066
 31
92.46738459285814
  0
LINE
  5
305
  8
DEFAULT
 10
-160.7301950917568
 20
357.5058935291066
 30
95.26738459256956
 11
-163.1801950915042
 21
357.5058935291066
 31
95.2674197718652
  0
LINE
  5
306
  8
DEFAULT
 10
-162.7801548866361
 20
357.5058935291066
 30
98.0674140280181
 11
-162.7802352964549
 21
357.5058935291066
 31
92.46741402859527
  0
LINE
  5
307
  8
DEFAULT
 10
-163.1801950915042
 20
357.5058935291066
 30
95.26741977186623
 11
-163.1801950915042
 21
366.3058935291066
 31
95.26741977186623
  0
LINE
  5
308
  8
DEFAULT
 10
-163.1801548865948
 20
357.9058935291066
 30
98.06741977157765
 11
-163.1802352964136
 21
357.9058935291066
 31
92.46741977215481
  0
LINE
  5
309
  8
DEFAULT
 10
-163.1801548865948
 20
365.9058935291066
 30
98.06741977157765
 11
-163.1802352964136
 21
365.9058935291066
 31
92.46741977215481
  0
LINE
  5
30A
  8
DEFAULT
 10
-163.1801950915042
 20
366.3058935291064
 30
95.26741977186623
 11
-160.7301950917568
 21
366.3058935291063
 31
95.26738459257058
  0
LINE
  5
30B
  8
DEFAULT
 10
-162.7801548866361
 20
366.3058935291064
 30
98.06741402801913
 11
-162.7802352964549
 21
366.3058935291064
 31
92.4674140285963
  0
LINE
  5
30C
  8
DEFAULT
 10
-160.7301950917568
 20
366.3058935291066
 30
95.26738459256956
 11
-160.730195091757
 21
380.5058935291066
 31
95.26738459256956
  0
LINE
  5
30D
  8
DEFAULT
 10
-160.7301548868474
 20
375.9058935291067
 30
98.06738459228097
 11
-160.7302352966662
 21
375.9058935291067
 31
92.46738459285814
  0
POLYLINE
  5
30E
  8
DEFAULT
 66
     1
 10
0.0
 20
0.0
 30
95.26507667456575
210
1.435889618431180E-5
220
5.756921823832012E-15
230
0.9999999998969112
  0
VERTEX
  5
310
  8
DEFAULT
 10
-160.7315630096724
 20
380.505893529106
 30
95.26507667456575
  0
VERTEX
  5
311
  8
DEFAULT
 10
-163.0259548971952
 20
380.5054008084932
 30
95.26507667456556
  0
VERTEX
  5
312
  8
DEFAULT
 10
-163.0707234979693
 20
380.5039051425173
 30
95.26507667456558
  0
VERTEX
  5
313
  8
DEFAULT
 10
-163.1158394884508
 20
380.5013808949509
 30
95.26507667456559
  0
VERTEX
  5
314
  8
DEFAULT
 10
-163.1612718854674
 20
380.4978033463318
 30
95.26507667456559
  0
VERTEX
  5
315
  8
DEFAULT
 10
-163.2069880656398
 20
380.4931488081636
 30
95.26507667456559
  0
VERTEX
  5
316
  8
DEFAULT
 10
-163.2529537932259
 20
380.4873947384425
 30
95.26507667456559
  0
VERTEX
  5
317
  8
DEFAULT
 10
-163.2991332567219
 20
380.480519857855
 30
95.2650766745656
  0
VERTEX
  5
318
  8
DEFAULT
 10
-163.3454891144963
 20
380.4725042659392
 30
95.2650766745656
  0
VERTEX
  5
319
  8
DEFAULT
 10
-163.3919825496832
 20
380.4633295564585
 30
95.26507667456562
  0
VERTEX
  5
31A
  8
DEFAULT
 10
-163.4385733344849
 20
380.4529789311916
 30
95.26507667456562
  0
VERTEX
  5
31B
  8
DEFAULT
 10
-163.4852199039691
 20
380.4414373113097
 30
95.26507667456563
  0
VERTEX
  5
31C
  8
DEFAULT
 10
-163.5318794393628
 20
380.4286914454802
 30
95.26507667456565
  0
VERTEX
  5
31D
  8
DEFAULT
 10
-163.5785079607641
 20
380.4147300138176
 30
95.26507667456566
  0
VERTEX
  5
31E
  8
DEFAULT
 10
-163.6250604291026
 20
380.3995437267894
 30
95.26507667456565
  0
VERTEX
  5
31F
  8
DEFAULT
 10
-163.6714908570884
 20
380.383125418181
 30
95.26507667456566
  0
VERTEX
  5
320
  8
DEFAULT
 10
-163.7177524287958
 20
380.3654701312309
 30
95.26507667456565
  0
VERTEX
  5
321
  8
DEFAULT
 10
-163.7637976274315
 20
380.3465751970701
 30
95.26507667456566
  0
VERTEX
  5
322
  8
DEFAULT
 10
-163.8095783707417
 20
380.3264403046197
 30
95.26507667456568
  0
VERTEX
  5
323
  8
DEFAULT
 10
-163.8550461534199
 20
380.305067561152
 30
95.26507667456569
  0
VERTEX
  5
324
  8
DEFAULT
 10
-163.9001521957841
 20
380.2824615427656
 30
95.26507667456569
  0
VERTEX
  5
325
  8
DEFAULT
 10
-163.9448475979083
 20
380.2586293340884
 30
95.2650766745657
  0
VERTEX
  5
326
  8
DEFAULT
 10
-163.9890834983104
 20
380.233580556601
 30
95.26507667456572
  0
VERTEX
  5
327
  8
DEFAULT
 10
-164.0328112362274
 20
380.2073273850536
 30
95.26507667456572
  0
VERTEX
  5
328
  8
DEFAULT
 10
-164.0759825164424
 20
380.1798845515434
 30
95.2650766745657
  0
VERTEX
  5
329
  8
DEFAULT
 10
-164.118549575577
 20
380.1512693369237
 30
95.2650766745657
  0
VERTEX
  5
32A
  8
DEFAULT
 10
-164.1604653487177
 20
380.1215015493242
 30
95.2650766745657
  0
VERTEX
  5
32B
  8
DEFAULT
 10
-164.2016836352136
 20
380.0906034896757
 30
95.26507667456572
  0
VERTEX
  5
32C
  8
DEFAULT
 10
-164.2421592624706
 20
380.0585999042559
 30
95.26507667456573
  0
VERTEX
  5
32D
  8
DEFAULT
 10
-164.2818482465578
 20
380.0255179243885
 30
95.26507667456575
  0
VERTEX
  5
32E
  8
DEFAULT
 10
-164.3207079484565
 20
379.9913869935576
 30
95.26507667456573
  0
VERTEX
  5
32F
  8
DEFAULT
 10
-164.3586972248068
 20
379.9562387823149
 30
95.26507667456573
  0
VERTEX
  5
330
  8
DEFAULT
 10
-164.3957765720452
 20
379.9201070914793
 30
95.26507667456575
  0
VERTEX
  5
331
  8
DEFAULT
 10
-164.4319082628809
 20
379.8830277442408
 30
95.26507667456575
  0
VERTEX
  5
332
  8
DEFAULT
 10
-164.4670564741236
 20
379.8450384678905
 30
95.26507667456573
  0
VERTEX
  5
333
  8
DEFAULT
 10
-164.5011874049545
 20
379.8061787659918
 30
95.26507667456575
  0
VERTEX
  5
334
  8
DEFAULT
 10
-164.5342693848218
 20
379.7664897819046
 30
95.26507667456576
  0
VERTEX
  5
335
  8
DEFAULT
 10
-164.5662729702417
 20
379.7260141546476
 30
95.26507667456578
  0
VERTEX
  5
336
  8
DEFAULT
 10
-164.5971710298901
 20
379.6847958681518
 30
95.26507667456576
  0
VERTEX
  5
337
  8
DEFAULT
 10
-164.6269388174898
 20
379.6428800950112
 30
95.26507667456575
  0
VERTEX
  5
338
  8
DEFAULT
 10
-164.6555540321094
 20
379.6003130358764
 30
95.26507667456576
  0
VERTEX
  5
339
  8
DEFAULT
 10
-164.6829968656197
 20
379.5571417556613
 30
95.26507667456576
  0
VERTEX
  5
33A
  8
DEFAULT
 10
-164.709250037167
 20
379.5134140177444
 30
95.26507667456579
  0
VERTEX
  5
33B
  8
DEFAULT
 10
-164.7342988146544
 20
379.4691781173423
 30
95.26507667456579
  0
VERTEX
  5
33C
  8
DEFAULT
 10
-164.7581310233317
 20
379.4244827152181
 30
95.26507667456578
  0
VERTEX
  5
33D
  8
DEFAULT
 10
-164.7807370417181
 20
379.379376672854
 30
95.26507667456578
  0
VERTEX
  5
33E
  8
DEFAULT
 10
-164.8021097851856
 20
379.3339088901758
 30
95.26507667456578
  0
VERTEX
  5
33F
  8
DEFAULT
 10
-164.8222446776361
 20
379.2881281468655
 30
95.26507667456576
  0
VERTEX
  5
340
  8
DEFAULT
 10
-164.841139611797
 20
379.2420829482298
 30
95.26507667456576
  0
VERTEX
  5
341
  8
DEFAULT
 10
-164.858794898747
 20
379.1958213765224
 30
95.26507667456578
  0
VERTEX
  5
342
  8
DEFAULT
 10
-164.8752132073555
 20
379.1493909485366
 30
95.26507667456578
  0
VERTEX
  5
343
  8
DEFAULT
 10
-164.8903994943837
 20
379.1028384801982
 30
95.26507667456579
  0
VERTEX
  5
344
  8
DEFAULT
 10
-164.9043609260462
 20
379.0562099587969
 30
95.26507667456578
  0
VERTEX
  5
345
  8
DEFAULT
 10
-164.9171067918758
 20
379.0095504234032
 30
95.26507667456578
  0
VERTEX
  5
346
  8
DEFAULT
 10
-164.9286484117576
 20
378.962903853919
 30
95.26507667456578
  0
VERTEX
  5
347
  8
DEFAULT
 10
-164.9389990370245
 20
378.9163130691172
 30
95.26507667456576
  0
VERTEX
  5
348
  8
DEFAULT
 10
-164.9481737465053
 20
378.8698196339304
 30
95.26507667456576
  0
VERTEX
  5
349
  8
DEFAULT
 10
-164.9561893384212
 20
378.823463776156
 30
95.26507667456576
  0
VERTEX
  5
34A
  8
DEFAULT
 10
-164.9630642190087
 20
378.7772843126601
 30
95.26507667456576
  0
VERTEX
  5
34B
  8
DEFAULT
 10
-164.9688182887297
 20
378.7313185850738
 30
95.26507667456576
  0
VERTEX
  5
34C
  8
DEFAULT
 10
-164.9734728268979
 20
378.6856024049015
 30
95.26507667456578
  0
VERTEX
  5
34D
  8
DEFAULT
 10
-164.9770503755171
 20
378.6401700078849
 30
95.26507667456573
  0
VERTEX
  5
34E
  8
DEFAULT
 10
-164.9795746230835
 20
378.5950540174035
 30
95.26507667456575
  0
VERTEX
  5
34F
  8
DEFAULT
 10
-164.9810702890593
 20
378.5502854166294
 30
95.26507667456576
  0
VERTEX
  5
350
  8
DEFAULT
 10
-164.9815630096722
 20
375.905893529106
 30
95.26507667456573
  0
SEQEND
  5
30F
  8
DEFAULT
  0
LINE
  5
351
  8
DEFAULT
 10
-162.980154886615
 20
380.5058935291066
 30
98.0674168997972
 11
-162.9802352964338
 21
380.5058935291066
 31
92.46741690037436
  0
LINE
  5
352
  8
DEFAULT
 10
-164.980154886409
 20
378.5058935291067
 30
98.06744561758978
 11
-164.9802352962278
 21
378.5058935291067
 31
92.46744561816695
  0
LINE
  5
353
  8
DEFAULT
 10
-164.9801950913186
 20
375.9058935291066
 30
95.26744561788007
 11
-172.0700832225307
 21
375.9058935291066
 31
95.26754742084756
  0
LINE
  5
354
  8
DEFAULT
 10
-168.5250989520153
 20
375.9058935291066
 30
98.06749651907523
 11
-168.5251793618341
 21
375.9058935291066
 31
92.4674965196524
  0
LINE
  5
355
  8
DEFAULT
 10
-172.0700832225307
 20
375.9058935291066
 30
95.267547420847
 11
-172.0700832225307
 21
336.292427921631
 31
95.267547420847
  0
LINE
  5
356
  8
DEFAULT
 10
-172.0700430176213
 20
356.0991607253688
 30
98.06754742055841
 11
-172.0701234274401
 21
356.0991607253688
 31
92.46754742113558
  0
LINE
  5
357
  8
DEFAULT
 10
-172.0700832225307
 20
336.292427921631
 30
95.267547420847
 11
-113.070083228613
 21
336.292427921631
 31
95.2667002459724
  0
LINE
  5
358
  8
DEFAULT
 10
-142.5700430206625
 20
336.292427921631
 30
98.06712383312112
 11
-142.5701234304813
 21
336.292427921631
 31
92.46712383369828
  0
LINE
  5
359
  8
DEFAULT
 10
-113.0700832286128
 20
336.292427921631
 30
95.26670024597263
 11
-113.0700832286128
 21
375.9058935291066
 31
95.26670024597263
  0
LINE
  5
35A
  8
DEFAULT
 10
-113.0700430237034
 20
356.0991607253688
 30
98.06670024568405
 11
-113.0701234335222
 21
356.0991607253688
 31
92.46670024626121
  0
LINE
  5
35B
  8
DEFAULT
 10
-113.0700832286128
 20
375.9058935291066
 30
95.26670024597263
 11
-120.5143699483127
 21
375.9058935291066
 31
95.26680713771282
  0
LINE
  5
35C
  8
DEFAULT
 10
-116.7921863835533
 20
375.9058935291066
 30
98.06675369155414
 11
-116.7922667933721
 21
375.9058935291066
 31
92.4667536921313
  0
POLYLINE
  5
35D
  8
DEFAULT
 66
     1
 10
0.0
 20
0.0
 30
95.26507667455648
210
1.435889616157320E-5
220
-2.676540820496769E-14
230
0.9999999998969111
  0
VERTEX
  5
35F
  8
DEFAULT
 10
-120.5157378620805
 20
375.9058935291092
 30
95.26507667455648
  0
VERTEX
  5
360
  8
DEFAULT
 10
-120.5162305826934
 20
378.5502854166326
 30
95.26507667455644
  0
VERTEX
  5
361
  8
DEFAULT
 10
-120.5177262486692
 20
378.5950540174066
 30
95.26507667455643
  0
VERTEX
  5
362
  8
DEFAULT
 10
-120.5202504962356
 20
378.6401700078881
 30
95.26507667455643
  0
VERTEX
  5
363
  8
DEFAULT
 10
-120.5238280448548
 20
378.6856024049047
 30
95.26507667455644
  0
VERTEX
  5
364
  8
DEFAULT
 10
-120.528482583023
 20
378.7313185850771
 30
95.26507667455644
  0
VERTEX
  5
365
  8
DEFAULT
 10
-120.534236652744
 20
378.7772843126633
 30
95.26507667455644
  0
VERTEX
  5
366
  8
DEFAULT
 10
-120.5411115333315
 20
378.8234637761592
 30
95.26507667455643
  0
VERTEX
  5
367
  8
DEFAULT
 10
-120.5491271252473
 20
378.8698196339336
 30
95.26507667455643
  0
VERTEX
  5
368
  8
DEFAULT
 10
-120.5583018347281
 20
378.9163130691205
 30
95.26507667455644
  0
VERTEX
  5
369
  8
DEFAULT
 10
-120.568652459995
 20
378.9629038539222
 30
95.26507667455643
  0
VERTEX
  5
36A
  8
DEFAULT
 10
-120.5801940798769
 20
379.0095504234064
 30
95.26507667455645
  0
VERTEX
  5
36B
  8
DEFAULT
 10
-120.5929399457064
 20
379.0562099588001
 30
95.26507667455644
  0
VERTEX
  5
36C
  8
DEFAULT
 10
-120.606901377369
 20
379.1028384802015
 30
95.26507667455648
  0
VERTEX
  5
36D
  8
DEFAULT
 10
-120.6220876643971
 20
379.1493909485399
 30
95.26507667455645
  0
VERTEX
  5
36E
  8
DEFAULT
 10
-120.6385059730056
 20
379.1958213765257
 30
95.26507667455648
  0
VERTEX
  5
36F
  8
DEFAULT
 10
-120.6561612599556
 20
379.2420829482331
 30
95.26507667455647
  0
VERTEX
  5
370
  8
DEFAULT
 10
-120.6750561941165
 20
379.2881281468688
 30
95.26507667455647
  0
VERTEX
  5
371
  8
DEFAULT
 10
-120.695191086567
 20
379.3339088901791
 30
95.26507667455647
  0
VERTEX
  5
372
  8
DEFAULT
 10
-120.7165638300346
 20
379.3793766728572
 30
95.26507667455648
  0
VERTEX
  5
373
  8
DEFAULT
 10
-120.739169848421
 20
379.4244827152214
 30
95.26507667455647
  0
VERTEX
  5
374
  8
DEFAULT
 10
-120.7630020570983
 20
379.4691781173455
 30
95.26507667455645
  0
VERTEX
  5
375
  8
DEFAULT
 10
-120.7880508345856
 20
379.5134140177477
 30
95.26507667455648
  0
VERTEX
  5
376
  8
DEFAULT
 10
-120.814304006133
 20
379.5571417556646
 30
95.26507667455648
  0
VERTEX
  5
377
  8
DEFAULT
 10
-120.8417468396432
 20
379.6003130358797
 30
95.26507667455647
  0
VERTEX
  5
378
  8
DEFAULT
 10
-120.8703620542628
 20
379.6428800950144
 30
95.26507667455648
  0
VERTEX
  5
379
  8
DEFAULT
 10
-120.9001298418625
 20
379.684795868155
 30
95.26507667455648
  0
VERTEX
  5
37A
  8
DEFAULT
 10
-120.9310279015109
 20
379.7260141546508
 30
95.26507667455651
  0
VERTEX
  5
37B
  8
DEFAULT
 10
-120.9630314869308
 20
379.7664897819079
 30
95.2650766745565
  0
VERTEX
  5
37C
  8
DEFAULT
 10
-120.9961134667982
 20
379.8061787659951
 30
95.2650766745565
  0
VERTEX
  5
37D
  8
DEFAULT
 10
-121.030244397629
 20
379.8450384678937
 30
95.2650766745565
  0
VERTEX
  5
37E
  8
DEFAULT
 10
-121.0653926088716
 20
379.883027744244
 30
95.2650766745565
  0
VERTEX
  5
37F
  8
DEFAULT
 10
-121.1015242997074
 20
379.9201070914825
 30
95.2650766745565
  0
VERTEX
  5
380
  8
DEFAULT
 10
-121.1386036469458
 20
379.9562387823181
 30
95.26507667455648
  0
VERTEX
  5
381
  8
DEFAULT
 10
-121.1765929232961
 20
379.9913869935608
 30
95.26507667455647
  0
VERTEX
  5
382
  8
DEFAULT
 10
-121.2154526251949
 20
380.0255179243916
 30
95.26507667455651
  0
VERTEX
  5
383
  8
DEFAULT
 10
-121.2551416092821
 20
380.058599904259
 30
95.26507667455648
  0
VERTEX
  5
384
  8
DEFAULT
 10
-121.2956172365391
 20
380.0906034896789
 30
95.26507667455648
  0
VERTEX
  5
385
  8
DEFAULT
 10
-121.3368355230349
 20
380.1215015493273
 30
95.26507667455647
  0
VERTEX
  5
386
  8
DEFAULT
 10
-121.3787512961756
 20
380.1512693369269
 30
95.26507667455648
  0
VERTEX
  5
387
  8
DEFAULT
 10
-121.4213183553103
 20
380.1798845515465
 30
95.26507667455647
  0
VERTEX
  5
388
  8
DEFAULT
 10
-121.4644896355253
 20
380.2073273850567
 30
95.26507667455648
  0
VERTEX
  5
389
  8
DEFAULT
 10
-121.5082173734423
 20
380.2335805566041
 30
95.26507667455648
  0
VERTEX
  5
38A
  8
DEFAULT
 10
-121.5524532738444
 20
380.2586293340915
 30
95.26507667455648
  0
VERTEX
  5
38B
  8
DEFAULT
 10
-121.5971486759686
 20
380.2824615427687
 30
95.26507667455647
  0
VERTEX
  5
38C
  8
DEFAULT
 10
-121.6422547183327
 20
380.3050675611552
 30
95.26507667455648
  0
VERTEX
  5
38D
  8
DEFAULT
 10
-121.6877225010109
 20
380.3264403046228
 30
95.26507667455645
  0
VERTEX
  5
38E
  8
DEFAULT
 10
-121.7335032443211
 20
380.3465751970733
 30
95.26507667455644
  0
VERTEX
  5
38F
  8
DEFAULT
 10
-121.7795484429569
 20
380.3654701312341
 30
95.26507667455645
  0
VERTEX
  5
390
  8
DEFAULT
 10
-121.8258100146643
 20
380.3831254181841
 30
95.26507667455647
  0
VERTEX
  5
391
  8
DEFAULT
 10
-121.8722404426501
 20
380.3995437267926
 30
95.26507667455647
  0
VERTEX
  5
392
  8
DEFAULT
 10
-121.9187929109885
 20
380.4147300138208
 30
95.26507667455647
  0
VERTEX
  5
393
  8
DEFAULT
 10
-121.9654214323899
 20
380.4286914454834
 30
95.26507667455645
  0
VERTEX
  5
394
  8
DEFAULT
 10
-122.0120809677836
 20
380.4414373113129
 30
95.26507667455645
  0
VERTEX
  5
395
  8
DEFAULT
 10
-122.0587275372677
 20
380.4529789311948
 30
95.26507667455643
  0
VERTEX
  5
396
  8
DEFAULT
 10
-122.1053183220695
 20
380.4633295564616
 30
95.26507667455643
  0
VERTEX
  5
397
  8
DEFAULT
 10
-122.1518117572564
 20
380.4725042659424
 30
95.26507667455643
  0
VERTEX
  5
398
  8
DEFAULT
 10
-122.1981676150308
 20
380.4805198578582
 30
95.26507667455643
  0
VERTEX
  5
399
  8
DEFAULT
 10
-122.2443470785267
 20
380.4873947384457
 30
95.26507667455643
  0
VERTEX
  5
39A
  8
DEFAULT
 10
-122.290312806113
 20
380.4931488081668
 30
95.26507667455643
  0
VERTEX
  5
39B
  8
DEFAULT
 10
-122.3360289862853
 20
380.497803346335
 30
95.26507667455643
  0
VERTEX
  5
39C
  8
DEFAULT
 10
-122.3814613833019
 20
380.5013808949541
 30
95.2650766745564
  0
VERTEX
  5
39D
  8
DEFAULT
 10
-122.4265773737834
 20
380.5039051425205
 30
95.26507667455641
  0
VERTEX
  5
39E
  8
DEFAULT
 10
-122.4713459745575
 20
380.5054008084963
 30
95.26507667455641
  0
VERTEX
  5
39F
  8
DEFAULT
 10
-124.7657378620803
 20
380.5058935291092
 30
95.2650766745565
  0
SEQEND
  5
35E
  8
DEFAULT
  0
LINE
  5
3A0
  8
DEFAULT
 10
-120.5143297434035
 20
378.5058935291067
 30
98.06680713742298
 11
-120.5144101532223
 21
378.5058935291067
 31
92.46680713800015
  0
LINE
  5
3A1
  8
DEFAULT
 10
-122.5143297431975
 20
380.5058935291066
 30
98.06683585521534
 11
-122.5144101530163
 21
380.5058935291066
 31
92.46683585579251
  0
LINE
  5
3A2
  8
DEFAULT
 10
-124.7643699478747
 20
380.5058935291066
 30
95.26686816302242
 11
-124.7643699478747
 21
366.3058935291065
 31
95.26686816302242
  0
LINE
  5
3A3
  8
DEFAULT
 10
-124.7643297429653
 20
375.9058935291067
 30
98.06686816273384
 11
-124.7644101527841
 21
375.9058935291067
 31
92.466868163311
  0
LINE
  5
3A4
  8
DEFAULT
 10
-124.7643699478747
 20
366.3058935291066
 30
95.26686816302242
 11
-122.3143699481273
 21
366.3058935291066
 31
95.26683298372666
  0
LINE
  5
3A5
  8
DEFAULT
 10
-122.7143297431768
 20
366.3058935291066
 30
98.0668387269966
 11
-122.7144101529956
 21
366.3058935291066
 31
92.46683872757376
  0
LINE
  5
3A6
  8
DEFAULT
 10
-122.3143699481273
 20
366.3058935291064
 30
95.26683298372723
 11
-122.3143699481273
 21
357.5058935291063
 31
95.26683298372723
  0
LINE
  5
3A7
  8
DEFAULT
 10
-122.3143297432179
 20
365.9058935291063
 30
98.06683298343864
 11
-122.3144101530367
 21
365.9058935291063
 31
92.46683298401581
  0
LINE
  5
3A8
  8
DEFAULT
 10
-122.3143297432179
 20
357.9058935291063
 30
98.06683298343864
 11
-122.3144101530367
 21
357.9058935291063
 31
92.46683298401581
  0
LINE
  5
3A9
  8
DEFAULT
 10
-122.3143699481273
 20
357.5058935291066
 30
95.26683298372723
 11
-124.7643699478747
 21
357.5058935291066
 31
95.26686816302299
  0
LINE
  5
3AA
  8
DEFAULT
 10
-122.7143297431768
 20
357.5058935291066
 30
98.06683872699716
 11
-122.7144101529956
 21
357.5058935291066
 31
92.46683872757433
  0
LINE
  5
3AB
  8
DEFAULT
 10
-124.7643699478747
 20
357.5058935291066
 30
95.26686816302242
 11
-124.7643699478747
 21
348.5058935291066
 31
95.26686816302242
  0
LINE
  5
3AC
  8
DEFAULT
 10
-124.7643297429653
 20
348.9058935291066
 30
98.06686816273384
 11
-124.7644101527841
 21
348.9058935291066
 31
92.466868163311
  0
LINE
  5
3AD
  8
DEFAULT
 10
-124.7643699478747
 20
348.5058935291066
 30
95.26686816302242
 11
-131.7643699471533
 21
348.5058935291066
 31
95.26696867529563
  0
LINE
  5
3AE
  8
DEFAULT
 10
-125.1643297429241
 20
348.5058935291066
 30
98.06687390629224
 11
-125.1644101527428
 21
348.5058935291066
 31
92.46687390686941
  0
LINE
  5
3AF
  8
DEFAULT
 10
-131.3643297422852
 20
348.5058935291066
 30
98.06696293144853
 11
-131.364410152104
 21
348.5058935291066
 31
92.4669629320257
  0
LINE
  5
3B0
  8
DEFAULT
 10
-131.7643699471531
 20
348.5058935291066
 30
95.26696867529472
 11
-131.7643699471531
 21
357.5058935291066
 31
95.26696867529472
  0
LINE
  5
3B1
  8
DEFAULT
 10
-131.7643297422437
 20
348.9058935291066
 30
98.06696867500614
 11
-131.7644101520625
 21
348.9058935291066
 31
92.4669686755833
  0
LINE
  5
3B2
  8
DEFAULT
 10
-131.7643699471531
 20
357.5058935291066
 30
95.26696867529472
 11
-134.2143699469003
 21
357.5058935291066
 31
95.26700385459026
  0
LINE
  5
3B3
  8
DEFAULT
 10
-133.8143297420322
 20
357.5058935291066
 30
98.06699811074338
 11
-133.814410151851
 21
357.5058935291066
 31
92.46699811132055
  0
LINE
  5
3B4
  8
DEFAULT
 10
-134.2143699469003
 20
357.5058935291066
 30
95.26700385458923
 11
-134.2143699469003
 21
366.3058935291066
 31
95.26700385458923
  0
LINE
  5
3B5
  8
DEFAULT
 10
-134.2143297419909
 20
357.9058935291066
 30
98.06700385430065
 11
-134.2144101518097
 21
357.9058935291066
 31
92.46700385487782
  0
LINE
  5
3B6
  8
DEFAULT
 10
-134.2143297419909
 20
365.9058935291066
 30
98.06700385430065
 11
-134.2144101518097
 21
365.9058935291066
 31
92.46700385487782
  0
LINE
  5
3B7
  8
DEFAULT
 10
-134.2143699469003
 20
366.3058935291064
 30
95.26700385458923
 11
-131.7643699471531
 21
366.3058935291063
 31
95.2669686752937
  0
LINE
  5
3B8
  8
DEFAULT
 10
-133.8143297420322
 20
366.3058935291064
 30
98.06699811074236
 11
-133.814410151851
 21
366.3058935291064
 31
92.46699811131953
  0
LINE
  5
3B9
  8
DEFAULT
 10
-131.7643699471531
 20
366.3058935291066
 30
95.26696867529472
 11
-131.7643699471531
 21
380.5058935291066
 31
95.26696867529472
  0
LINE
  5
3BA
  8
DEFAULT
 10
-131.7643297422437
 20
375.9058935291066
 30
98.06696867500614
 11
-131.7644101520625
 21
375.9058935291066
 31
92.4669686755833
  0
POLYLINE
  5
3BB
  8
DEFAULT
 66
     1
 10
0.0
 20
0.0
 30
95.26507667455611
210
1.435889620704715E-5
220
-1.524927471145992E-14
230
0.9999999998969112
  0
VERTEX
  5
3BD
  8
DEFAULT
 10
-131.7657378620848
 20
380.5058935291081
 30
95.26507667455611
  0
VERTEX
  5
3BE
  8
DEFAULT
 10
-134.0601297496081
 20
380.5054008084952
 30
95.2650766745561
  0
VERTEX
  5
3BF
  8
DEFAULT
 10
-134.1048983503822
 20
380.5039051425194
 30
95.2650766745561
  0
VERTEX
  5
3C0
  8
DEFAULT
 10
-134.1500143408637
 20
380.501380894953
 30
95.26507667455611
  0
VERTEX
  5
3C1
  8
DEFAULT
 10
-134.1954467378803
 20
380.4978033463338
 30
95.2650766745561
  0
VERTEX
  5
3C2
  8
DEFAULT
 10
-134.2411629180527
 20
380.4931488081656
 30
95.26507667455613
  0
VERTEX
  5
3C3
  8
DEFAULT
 10
-134.2871286456389
 20
380.4873947384446
 30
95.2650766745561
  0
VERTEX
  5
3C4
  8
DEFAULT
 10
-134.3333081091348
 20
380.4805198578571
 30
95.26507667455613
  0
VERTEX
  5
3C5
  8
DEFAULT
 10
-134.3796639669092
 20
380.4725042659412
 30
95.2650766745561
  0
VERTEX
  5
3C6
  8
DEFAULT
 10
-134.4261574020961
 20
380.4633295564603
 30
95.2650766745561
  0
VERTEX
  5
3C7
  8
DEFAULT
 10
-134.4727481868978
 20
380.4529789311936
 30
95.26507667455611
  0
VERTEX
  5
3C8
  8
DEFAULT
 10
-134.5193947563819
 20
380.4414373113116
 30
95.26507667455611
  0
VERTEX
  5
3C9
  8
DEFAULT
 10
-134.5660542917757
 20
380.4286914454821
 30
95.2650766745561
  0
VERTEX
  5
3CA
  8
DEFAULT
 10
-134.612682813177
 20
380.4147300138195
 30
95.26507667455611
  0
VERTEX
  5
3CB
  8
DEFAULT
 10
-134.6592352815155
 20
380.3995437267914
 30
95.26507667455611
  0
VERTEX
  5
3CC
  8
DEFAULT
 10
-134.7056657095013
 20
380.3831254181828
 30
95.2650766745561
  0
VERTEX
  5
3CD
  8
DEFAULT
 10
-134.7519272812087
 20
380.3654701312328
 30
95.2650766745561
  0
VERTEX
  5
3CE
  8
DEFAULT
 10
-134.7979724798444
 20
380.346575197072
 30
95.26507667455613
  0
VERTEX
  5
3CF
  8
DEFAULT
 10
-134.8437532231546
 20
380.3264403046215
 30
95.26507667455613
  0
VERTEX
  5
3D0
  8
DEFAULT
 10
-134.8892210058328
 20
380.3050675611539
 30
95.2650766745561
  0
VERTEX
  5
3D1
  8
DEFAULT
 10
-134.934327048197
 20
380.2824615427675
 30
95.2650766745561
  0
VERTEX
  5
3D2
  8
DEFAULT
 10
-134.9790224503212
 20
380.2586293340902
 30
95.2650766745561
  0
VERTEX
  5
3D3
  8
DEFAULT
 10
-135.0232583507233
 20
380.2335805566029
 30
95.26507667455608
  0
VERTEX
  5
3D4
  8
DEFAULT
 10
-135.0669860886403
 20
380.2073273850555
 30
95.26507667455611
  0
VERTEX
  5
3D5
  8
DEFAULT
 10
-135.1101573688553
 20
380.1798845515453
 30
95.26507667455611
  0
VERTEX
  5
3D6
  8
DEFAULT
 10
-135.1527244279901
 20
380.1512693369257
 30
95.26507667455611
  0
VERTEX
  5
3D7
  8
DEFAULT
 10
-135.1946402011307
 20
380.1215015493261
 30
95.2650766745561
  0
VERTEX
  5
3D8
  8
DEFAULT
 10
-135.2358584876265
 20
380.0906034896775
 30
95.26507667455611
  0
VERTEX
  5
3D9
  8
DEFAULT
 10
-135.2763341148835
 20
380.0585999042577
 30
95.26507667455611
  0
VERTEX
  5
3DA
  8
DEFAULT
 10
-135.3160230989707
 20
380.0255179243903
 30
95.2650766745561
  0
VERTEX
  5
3DB
  8
DEFAULT
 10
-135.3548828008694
 20
379.9913869935595
 30
95.2650766745561
  0
VERTEX
  5
3DC
  8
DEFAULT
 10
-135.3928720772197
 20
379.9562387823167
 30
95.26507667455611
  0
VERTEX
  5
3DD
  8
DEFAULT
 10
-135.4299514244581
 20
379.920107091481
 30
95.2650766745561
  0
VERTEX
  5
3DE
  8
DEFAULT
 10
-135.4660831152939
 20
379.8830277442426
 30
95.2650766745561
  0
VERTEX
  5
3DF
  8
DEFAULT
 10
-135.5012313265366
 20
379.8450384678923
 30
95.2650766745561
  0
VERTEX
  5
3E0
  8
DEFAULT
 10
-135.5353622573674
 20
379.8061787659936
 30
95.2650766745561
  0
VERTEX
  5
3E1
  8
DEFAULT
 10
-135.5684442372347
 20
379.7664897819064
 30
95.2650766745561
  0
VERTEX
  5
3E2
  8
DEFAULT
 10
-135.6004478226546
 20
379.7260141546494
 30
95.2650766745561
  0
VERTEX
  5
3E3
  8
DEFAULT
 10
-135.6313458823031
 20
379.6847958681536
 30
95.2650766745561
  0
VERTEX
  5
3E4
  8
DEFAULT
 10
-135.6611136699027
 20
379.6428800950129
 30
95.2650766745561
  0
VERTEX
  5
3E5
  8
DEFAULT
 10
-135.6897288845223
 20
379.6003130358782
 30
95.2650766745561
  0
VERTEX
  5
3E6
  8
DEFAULT
 10
-135.7171717180325
 20
379.5571417556632
 30
95.26507667455611
  0
VERTEX
  5
3E7
  8
DEFAULT
 10
-135.7434248895799
 20
379.5134140177462
 30
95.26507667455608
  0
VERTEX
  5
3E8
  8
DEFAULT
 10
-135.7684736670672
 20
379.469178117344
 30
95.2650766745561
  0
VERTEX
  5
3E9
  8
DEFAULT
 10
-135.7923058757445
 20
379.4244827152198
 30
95.26507667455608
  0
VERTEX
  5
3EA
  8
DEFAULT
 10
-135.8149118941309
 20
379.3793766728557
 30
95.26507667455608
  0
VERTEX
  5
3EB
  8
DEFAULT
 10
-135.8362846375985
 20
379.3339088901776
 30
95.26507667455608
  0
VERTEX
  5
3EC
  8
DEFAULT
 10
-135.856419530049
 20
379.2881281468673
 30
95.2650766745561
  0
VERTEX
  5
3ED
  8
DEFAULT
 10
-135.8753144642098
 20
379.2420829482315
 30
95.26507667455607
  0
VERTEX
  5
3EE
  8
DEFAULT
 10
-135.8929697511598
 20
379.1958213765242
 30
95.26507667455608
  0
VERTEX
  5
3EF
  8
DEFAULT
 10
-135.9093880597683
 20
379.1493909485384
 30
95.26507667455607
  0
VERTEX
  5
3F0
  8
DEFAULT
 10
-135.9245743467964
 20
379.1028384802
 30
95.26507667455607
  0
VERTEX
  5
3F1
  8
DEFAULT
 10
-135.938535778459
 20
379.0562099587985
 30
95.26507667455608
  0
VERTEX
  5
3F2
  8
DEFAULT
 10
-135.9512816442885
 20
379.0095504234048
 30
95.26507667455608
  0
VERTEX
  5
3F3
  8
DEFAULT
 10
-135.9628232641704
 20
378.9629038539207
 30
95.26507667455608
  0
VERTEX
  5
3F4
  8
DEFAULT
 10
-135.9731738894372
 20
378.916313069119
 30
95.26507667455606
  0
VERTEX
  5
3F5
  8
DEFAULT
 10
-135.982348598918
 20
378.8698196339321
 30
95.26507667455608
  0
VERTEX
  5
3F6
  8
DEFAULT
 10
-135.9903641908339
 20
378.8234637761577
 30
95.26507667455607
  0
VERTEX
  5
3F7
  8
DEFAULT
 10
-135.9972390714213
 20
378.7772843126618
 30
95.26507667455608
  0
VERTEX
  5
3F8
  8
DEFAULT
 10
-136.0029931411424
 20
378.7313185850756
 30
95.26507667455607
  0
VERTEX
  5
3F9
  8
DEFAULT
 10
-136.0076476793106
 20
378.6856024049032
 30
95.26507667455606
  0
VERTEX
  5
3FA
  8
DEFAULT
 10
-136.0112252279298
 20
378.6401700078866
 30
95.26507667455608
  0
VERTEX
  5
3FB
  8
DEFAULT
 10
-136.0137494754962
 20
378.5950540174052
 30
95.26507667455607
  0
VERTEX
  5
3FC
  8
DEFAULT
 10
-136.0152451414719
 20
378.550285416631
 30
95.26507667455606
  0
VERTEX
  5
3FD
  8
DEFAULT
 10
-136.0157378620848
 20
375.905893529108
 30
95.2650766745561
  0
SEQEND
  5
3BC
  8
DEFAULT
  0
LINE
  5
3FE
  8
DEFAULT
 10
-134.0143297420117
 20
380.5058935291066
 30
98.06700098252259
 11
-134.0144101518305
 21
380.5058935291066
 31
92.46700098309975
  0
LINE
  5
3FF
  8
DEFAULT
 10
-136.0143297418055
 20
378.5058935291062
 30
98.06702970031495
 11
-136.0144101516243
 21
378.5058935291062
 31
92.46702970089211
  0
LINE
  5
400
  8
DEFAULT
 10
-120.8647417822646
 20
345.3211869175232
 30
92.46681216837705
 11
-120.8646613724463
 21
345.3211869175229
 31
98.06681216779972
  0
LINE
  5
401
  8
DEFAULT
 10
-117.6897417825954
 20
342.1461869175267
 30
92.46676657888186
 11
-117.6896613727774
 21
342.1461869175267
 31
98.06676657830454
  0
LINE
  5
402
  8
DEFAULT
 10
-120.8647417822646
 20
338.9711869175301
 30
92.46681216837705
 11
-120.8646613724464
 21
338.9711869175304
 31
98.06681216779972
  0
LINE
  5
403
  8
DEFAULT
 10
-164.4755050786836
 20
345.3211869175298
 30
92.4674383707993
 11
-164.4754246688653
 21
345.3211869175302
 31
98.067438370222
  0
LINE
  5
404
  8
DEFAULT
 10
-167.6505050783595
 20
342.1461869175267
 30
92.46748396029452
 11
-167.6504246685415
 21
342.1461869175267
 31
98.06748395971721
  0
LINE
  5
405
  8
DEFAULT
 10
-164.4755050786836
 20
338.9711869175235
 30
92.4674383707993
 11
-164.4754246688653
 21
338.9711869175232
 31
98.06743837022198
  0
LINE
  5
406
  8
DEFAULT
 10
-142.7473227247373
 20
350.2664967877753
 30
92.46712637808469
 11
-142.747242314919
 21
350.2664967877756
 31
98.06712637750739
  0
LINE
  5
407
  8
DEFAULT
 10
-147.49732272426
 20
345.5164967877629
 30
92.46719458284132
 11
-147.497242314442
 21
345.5164967877629
 31
98.06719458226402
  0
LINE
  5
408
  8
DEFAULT
 10
-142.7473227247373
 20
340.7664967877506
 30
92.46712637808469
 11
-142.747242314919
 21
340.7664967877503
 31
98.0671263775074
  0
ENDSEC
  0
EOF
